  0
SECTION
  2
HEADER
  9
$ACADVER
  1
AC1009
  9
$DWGCODEPAGE
  3
ansi_1252
  9
$INSBASE
 10
0.0
 20
0.0
 30
0.0
  9
$EXTMIN
 10
0.0
 20
0.0
 30
0.0
  9
$EXTMAX
 10
594.0
 20
420.0
 30
0.0
  9
$LIMMIN
 10
0.0
 20
0.0
  9
$LIMMAX
 10
594.0
 20
420.0
  9
$ORTHOMODE
 70
     0
  9
$REGENMODE
 70
     1
  9
$FILLMODE
 70
     1
  9
$QTEXTMODE
 70
     0
  9
$MIRRTEXT
 70
     1
  9
$DRAGMODE
 70
     2
  9
$LTSCALE
 40
1.0
  9
$OSMODE
 70
    37
  9
$ATTMODE
 70
     1
  9
$TEXTSIZE
 40
2.5
  9
$TRACEWID
 40
1.0
  9
$TEXTSTYLE
  7
STANDARD
  9
$CLAYER
  8
0
  9
$CELTYPE
  6
BYLAYER
  9
$CECOLOR
 62
   256
  9
$DIMSCALE
 40
1.0
  9
$DIMASZ
 40
2.5
  9
$DIMEXO
 40
1.0
  9
$DIMDLI
 40
3.75
  9
$DIMRND
 40
0.0
  9
$DIMDLE
 40
0.0
  9
$DIMEXE
 40
1.0
  9
$DIMTP
 40
0.0
  9
$DIMTM
 40
0.0
  9
$DIMTXT
 40
2.5
  9
$DIMCEN
 40
2.5
  9
$DIMTSZ
 40
0.0
  9
$DIMTOL
 70
     0
  9
$DIMLIM
 70
     0
  9
$DIMTIH
 70
     1
  9
$DIMTOH
 70
     1
  9
$DIMSE1
 70
     0
  9
$DIMSE2
 70
     0
  9
$DIMTAD
 70
     1
  9
$DIMZIN
 70
     0
  9
$DIMBLK
  1

  9
$DIMASO
 70
     1
  9
$DIMSHO
 70
     1
  9
$DIMPOST
  1

  9
$DIMAPOST
  1

  9
$DIMALT
 70
     0
  9
$DIMALTD
 70
     3
  9
$DIMALTF
 40
0.0393700787
  9
$DIMLFAC
 40
1.0
  9
$DIMTOFL
 70
     1
  9
$DIMTVP
 40
0.0
  9
$DIMTIX
 70
     0
  9
$DIMSOXD
 70
     0
  9
$DIMSAH
 70
     0
  9
$DIMBLK1
  1

  9
$DIMBLK2
  1

  9
$DIMSTYLE
  2
ISO-25
  9
$DIMCLRD
 70
     0
  9
$DIMCLRE
 70
     0
  9
$DIMCLRT
 70
     0
  9
$DIMTFAC
 40
1.0
  9
$DIMGAP
 40
1.524
  9
$LUNITS
 70
     2
  9
$LUPREC
 70
     2
  9
$SKETCHINC
 40
1.0
  9
$FILLETRAD
 40
10.0
  9
$AUNITS
 70
     0
  9
$AUPREC
 70
     2
  9
$MENU
  1
.
  9
$ELEVATION
 40
0.0
  9
$PELEVATION
 40
0.0
  9
$THICKNESS
 40
0.0
  9
$LIMCHECK
 70
     0
  9
$CHAMFERA
 40
10.0
  9
$CHAMFERB
 40
10.0
  9
$SKPOLY
 70
     0
  9
$TDCREATE
 40
2458222.314490139
  9
$TDUPDATE
 40
2458222.314490683
  9
$TDINDWG
 40
0.0000000116
  9
$TDUSRTIMER
 40
0.0000000116
  9
$USRTIMER
 70
     1
  9
$ANGBASE
 50
0.0
  9
$ANGDIR
 70
     0
  9
$PDMODE
 70
     0
  9
$PDSIZE
 40
-1.0
  9
$PLINEWID
 40
0.0
  9
$COORDS
 70
     1
  9
$SPLFRAME
 70
     0
  9
$SPLINETYPE
 70
     6
  9
$SPLINESEGS
 70
     8
  9
$ATTDIA
 70
     0
  9
$ATTREQ
 70
     1
  9
$HANDLING
 70
     1
  9
$HANDSEED
  5
C38
  9
$SURFTAB1
 70
     6
  9
$SURFTAB2
 70
     6
  9
$SURFTYPE
 70
     6
  9
$SURFU
 70
     6
  9
$SURFV
 70
     6
  9
$UCSNAME
  2

  9
$UCSORG
 10
0.0
 20
0.0
 30
0.0
  9
$UCSXDIR
 10
1.0
 20
0.0
 30
0.0
  9
$UCSYDIR
 10
0.0
 20
1.0
 30
0.0
  9
$PUCSNAME
  2

  9
$PUCSORG
 10
0.0
 20
0.0
 30
0.0
  9
$PUCSXDIR
 10
1.0
 20
0.0
 30
0.0
  9
$PUCSYDIR
 10
0.0
 20
1.0
 30
0.0
  9
$USERI1
 70
     0
  9
$USERI2
 70
     0
  9
$USERI3
 70
     0
  9
$USERI4
 70
     0
  9
$USERI5
 70
     0
  9
$USERR1
 40
0.0
  9
$USERR2
 40
0.0
  9
$USERR3
 40
0.0
  9
$USERR4
 40
0.0
  9
$USERR5
 40
0.0
  9
$WORLDVIEW
 70
     1
  9
$SHADEDGE
 70
     3
  9
$SHADEDIF
 70
    70
  9
$TILEMODE
 70
     1
  9
$MAXACTVP
 70
    64
  9
$PLIMCHECK
 70
     0
  9
$PEXTMIN
 10
1.0000000000E+20
 20
1.0000000000E+20
 30
1.0000000000E+20
  9
$PEXTMAX
 10
-1.0000000000E+20
 20
-1.0000000000E+20
 30
-1.0000000000E+20
  9
$PLIMMIN
 10
0.0
 20
0.0
  9
$PLIMMAX
 10
420.0
 20
297.0
  9
$UNITMODE
 70
     0
  9
$VISRETAIN
 70
     1
  9
$PLINEGEN
 70
     0
  9
$PSLTSCALE
 70
     1
  0
ENDSEC
  0
SECTION
  2
TABLES
  0
TABLE
  2
VPORT
 70
     1
  0
VPORT
  2
*ACTIVE
 70
     0
 10
0.0
 20
0.0
 11
1.0
 21
1.0
 12
297.0
 22
210.0
 13
0.0
 23
0.0
 14
10.0
 24
10.0
 15
10.0
 25
10.0
 16
0.0
 26
0.0
 36
1.0
 17
0.0
 27
0.0
 37
0.0
 40
420.0
 41
1.4142857143
 42
50.0
 43
0.0
 44
0.0
 50
0.0
 51
0.0
 71
     0
 72
  2000
 73
     1
 74
     3
 75
     0
 76
     0
 77
     0
 78
     0
  0
ENDTAB
  0
TABLE
  2
LTYPE
 70
     6
  0
LTYPE
  2
CONTINUOUS
 70
     0
  3
Solid line
 72
    65
 73
     0
 40
0.0
  0
LTYPE
  2
HIDDEN
 70
     0
  3
Hidden __ __ __ __ __ __ __ __ __ __ __ __ __ __
 72
    65
 73
     2
 40
1.905
 49
1.27
 49
-0.635
  0
LTYPE
  2
PHANTOM
 70
     0
  3
Phantom ______  __  __  ______  __  __  ______
 72
    65
 73
     6
 40
12.7
 49
6.35
 49
-1.27
 49
1.27
 49
-1.27
 49
1.27
 49
-1.27
  0
LTYPE
  2
CENTER
 70
     0
  3
Center ____ _ ____ _ ____ _ ____ _ ____ _ ____
 72
    65
 73
     4
 40
10.16
 49
6.35
 49
-1.27
 49
1.27
 49
-1.27
  0
LTYPE
  2
CENTERX2
 70
     0
  3
Center (2x) ________  __  ________  __  _____
 72
    65
 73
     4
 40
20.32
 49
12.7
 49
-2.54
 49
2.54
 49
-2.54
  0
LTYPE
  2
DOT2
 70
     0
  3
Dot (.5x) ........................................
 72
    65
 73
     2
 40
0.635
 49
0.0
 49
-0.635
  0
ENDTAB
  0
TABLE
  2
LAYER
 70
     3
  0
LAYER
  2
0
 70
     0
 62
     7
  6
CONTINUOUS
  0
LAYER
  2
FORMAT
 70
     0
 62
     7
  6
CONTINUOUS
  0
LAYER
  2
PROTOTYPE
 70
     0
 62
     7
  6
CONTINUOUS
  0
ENDTAB
  0
TABLE
  2
STYLE
 70
     1
  0
STYLE
  2
STANDARD
 70
     0
 40
0.0
 41
1.0
 50
0.0
 71
     0
 42
2.5
  3
txt
  4

  0
ENDTAB
  0
TABLE
  2
VIEW
 70
     0
  0
ENDTAB
  0
TABLE
  2
UCS
 70
     0
  0
ENDTAB
  0
TABLE
  2
APPID
 70
     1
  0
APPID
  2
ACAD
 70
     0
  0
ENDTAB
  0
TABLE
  2
DIMSTYLE
 70
     1
  0
DIMSTYLE
  2
ISO-25
 70
     0
  3

  4

  5

  6

  7

 40
1.0
 41
2.5
 42
0.625
 43
3.75
 44
1.25
 45
0.0
 46
0.0
 47
0.0
 48
0.0
140
2.5
141
2.5
142
0.0
143
0.0393700787
144
1.0
145
0.0
146
1.0
147
0.625
 71
     0
 72
     0
 73
     0
 74
     0
 75
     0
 76
     0
 77
     1
 78
     8
170
     0
171
     3
172
     1
173
     0
174
     0
175
     0
176
     0
177
     0
178
     0
  0
ENDTAB
  0
ENDSEC
  0
SECTION
  2
BLOCKS
  0
BLOCK
  8
0
  2
$MODEL_SPACE
 70
     0
 10
0.0
 20
0.0
 30
0.0
  3
$MODEL_SPACE
  1

  0
ENDBLK
  5
21
  8
0
  0
BLOCK
 67
     1
  8
0
  2
$PAPER_SPACE
 70
     0
 10
0.0
 20
0.0
 30
0.0
  3
$PAPER_SPACE
  1

  0
ENDBLK
  5
1D
 67
     1
  8
0
  0
BLOCK
  8
0
  2
SW_CENTERMARKSYMBOL_0
 70
     0
 10
0.0
 20
0.0
 30
0.0
  3
SW_CENTERMARKSYMBOL_0
  1

  0
LINE
  5
184
  8
FORMAT
 62
     0
 10
0.0
 20
0.0
 30
0.0
 11
0.0
 21
2.5
 31
0.0
  0
LINE
  5
185
  8
FORMAT
 62
     0
 10
0.0
 20
0.0
 30
0.0
 11
-2.5
 21
0.0
 31
0.0
  0
LINE
  5
186
  8
FORMAT
 62
     0
 10
0.0
 20
0.0
 30
0.0
 11
0.0
 21
-2.5
 31
0.0
  0
LINE
  5
187
  8
FORMAT
 62
     0
 10
0.0
 20
0.0
 30
0.0
 11
2.5
 21
0.0
 31
0.0
  0
LINE
  5
188
  8
FORMAT
 62
     0
 10
0.0
 20
5.0
 30
0.0
 11
0.0
 21
400.0839428913
 31
0.0
  0
LINE
  5
189
  8
FORMAT
 62
     0
 10
-5.0
 20
0.0
 30
0.0
 11
-286.654393941
 21
0.0
 31
0.0
  0
LINE
  5
18A
  8
FORMAT
 62
     0
 10
0.0
 20
-5.0
 30
0.0
 11
0.0
 21
-285.7209852236
 31
0.0
  0
LINE
  5
18B
  8
FORMAT
 62
     0
 10
5.0
 20
0.0
 30
0.0
 11
290.7618242707
 21
0.0
 31
0.0
  0
ENDBLK
  5
183
  8
0
  0
ENDSEC
  0
SECTION
  2
ENTITIES
  0
POLYLINE
  5
46
  8
0
  6
CONTINUOUS
 62
     7
 66
     1
 10
0.0
 20
0.0
 30
0.0
  0
VERTEX
  5
2A3
  8
0
  6
CONTINUOUS
 62
     7
 10
-551.8411008841
 20
1004.9469737971
 30
0.0
  0
VERTEX
  5
2A4
  8
0
  6
CONTINUOUS
 62
     7
 10
-551.8541543013
 20
1004.9757032358
 30
0.0
  0
VERTEX
  5
2A5
  8
0
  6
CONTINUOUS
 62
     7
 10
-551.8628565794
 20
1004.9960880244
 30
0.0
  0
SEQEND
  5
C37
  8
0
  6
CONTINUOUS
 62
     7
  0
LINE
  5
47
  8
0
  6
CONTINUOUS
 62
     7
 10
-577.2605745322
 20
961.0084860289
 30
0.0
 11
-577.2175399786
 21
961.0131649935
 31
0.0
  0
POLYLINE
  5
48
  8
0
  6
CONTINUOUS
 62
     7
 66
     1
 10
0.0
 20
0.0
 30
0.0
  0
VERTEX
  5
2A6
  8
0
  6
CONTINUOUS
 62
     7
 10
-577.2593228346
 20
961.0080687964
 30
0.0
  0
VERTEX
  5
2A7
  8
0
  6
CONTINUOUS
 62
     7
 10
-577.25002451
 20
961.0092608893
 30
0.0
  0
VERTEX
  5
2A8
  8
0
  6
CONTINUOUS
 62
     7
 10
-577.2053806311
 20
961.0138802492
 30
0.0
  0
SEQEND
  5
C36
  8
0
  6
CONTINUOUS
 62
     7
  0
LINE
  5
49
  8
0
  6
CONTINUOUS
 62
     7
 10
-525.2239315039
 20
429.8879622185
 30
0.0
 11
-269.2758945948
 21
429.8879622185
 31
0.0
  0
LINE
  5
4A
  8
0
  6
CONTINUOUS
 62
     7
 10
-767.2198621756
 20
415.8879785502
 30
0.0
 11
-764.2198411948
 21
415.8879785502
 31
0.0
  0
LINE
  5
4B
  8
0
  6
CONTINUOUS
 62
     7
 10
-744.2198602683
 20
935.8879594767
 30
0.0
 11
-767.2198621756
 21
935.8879594767
 31
0.0
  0
LINE
  5
4C
  8
0
  6
CONTINUOUS
 62
     7
 10
24.7801414491
 20
935.8879594767
 30
0.0
 11
1.7801409387
 21
935.8879594767
 31
0.0
  0
LINE
  5
4D
  8
0
  6
CONTINUOUS
 62
     7
 10
21.780141423
 20
415.8879785502
 30
0.0
 11
24.7801414491
 21
415.8879785502
 31
0.0
  0
POLYLINE
  5
4E
  8
0
  6
CONTINUOUS
 62
     7
 66
     1
 10
0.0
 20
0.0
 30
0.0
  0
VERTEX
  5
2A9
  8
0
  6
CONTINUOUS
 62
     7
 10
-269.2756859786
 20
429.8880218231
 30
0.0
  0
VERTEX
  5
2AA
  8
0
  6
CONTINUOUS
 62
     7
 10
-158.2901684767
 20
457.2611271107
 30
0.0
  0
VERTEX
  5
2AB
  8
0
  6
CONTINUOUS
 62
     7
 10
-46.2758897072
 20
484.8879693711
 30
0.0
  0
SEQEND
  5
C35
  8
0
  6
CONTINUOUS
 62
     7
  0
LINE
  5
4F
  8
0
  6
CONTINUOUS
 62
     7
 10
-771.2198702818
 20
461.387973901
 30
0.0
 11
-767.2198621756
 21
461.387973901
 31
0.0
  0
LINE
  5
50
  8
0
  6
CONTINUOUS
 62
     7
 10
-767.2198621756
 20
890.3879641258
 30
0.0
 11
-771.2198702818
 21
890.3879641258
 31
0.0
  0
LINE
  5
51
  8
0
  6
CONTINUOUS
 62
     7
 10
28.7801416391
 20
890.3879641258
 30
0.0
 11
24.7801414491
 21
890.3879641258
 31
0.0
  0
LINE
  5
52
  8
0
  6
CONTINUOUS
 62
     7
 10
24.7801414491
 20
461.387973901
 30
0.0
 11
28.7801416391
 21
461.387973901
 31
0.0
  0
LINE
  5
53
  8
0
  6
CONTINUOUS
 62
     7
 10
-46.2758897072
 20
484.8879693711
 30
0.0
 11
1.7801409387
 21
484.8879693711
 31
0.0
  0
LINE
  5
54
  8
0
  6
CONTINUOUS
 62
     7
 10
-744.2198602683
 20
484.8879693711
 30
0.0
 11
-534.9178521162
 21
484.8879693711
 31
0.0
  0
LINE
  5
55
  8
0
  6
CONTINUOUS
 62
     7
 10
-642.0237032896
 20
866.8879686558
 30
0.0
 11
-744.2198602683
 21
866.8879686558
 31
0.0
  0
LINE
  5
56
  8
0
  6
CONTINUOUS
 62
     7
 10
-602.2747365958
 20
866.8879686558
 30
0.0
 11
-602.8083173758
 21
866.8879686558
 31
0.0
  0
ARC
  5
57
  8
0
  6
CONTINUOUS
 62
     7
 10
-256.4058864627
 20
687.3091305827
 30
0.0
 40
25.00000000000002
 50
240.0
 51
330.0
  0
LINE
  5
58
  8
0
  6
CONTINUOUS
 62
     7
 10
-313.9392046458
 20
691.6584956163
 30
0.0
 11
-268.9058987624
 21
665.6584950799
 31
0.0
  0
ARC
  5
59
  8
0
  6
CONTINUOUS
 62
     7
 10
-301.4392074595
 20
713.3091305827
 30
0.0
 40
25.00000000000002
 50
150.0
 51
240.0
  0
LINE
  5
5A
  8
0
  6
CONTINUOUS
 62
     7
 10
-221.0898457295
 20
902.4783192837
 30
0.0
 11
-323.089828921
 21
725.8091314399
 31
0.0
  0
ARC
  5
5B
  8
0
  6
CONTINUOUS
 62
     7
 10
-199.4392074595
 20
889.9783129547
 30
0.0
 40
25.00000000000006
 50
60.0
 51
150.0
  0
LINE
  5
5C
  8
0
  6
CONTINUOUS
 62
     7
 10
-141.9058798081
 20
885.628950473
 30
0.0
 11
-186.9392005927
 21
911.6289435589
 31
0.0
  0
ARC
  5
5D
  8
0
  6
CONTINUOUS
 62
     7
 10
-154.4058864627
 20
863.9783129547
 30
0.0
 40
25.00000000000002
 50
330.0
 51
60.0
  0
LINE
  5
5E
  8
0
  6
CONTINUOUS
 62
     7
 10
-234.7552387244
 20
674.8091305309
 30
0.0
 11
-132.7552555329
 21
851.4783202374
 31
0.0
  0
CIRCLE
  5
5F
  8
0
  6
CONTINUOUS
 62
     7
 10
-582.1269371089
 20
993.1437217688
 30
0.0
 40
10.39999999999998
  0
CIRCLE
  5
60
  8
0
  6
CONTINUOUS
 62
     7
 10
-582.1269371089
 20
993.1437217688
 30
0.0
 40
12.00000000000011
  0
LINE
  5
61
  8
0
  6
CONTINUOUS
 62
     7
 10
-575.1987306601
 20
981.1437098944
 30
0.0
 11
-568.27052517
 21
993.1437342131
 31
0.0
  0
LINE
  5
62
  8
0
  6
CONTINUOUS
 62
     7
 10
-568.27052517
 20
993.1437342131
 30
0.0
 11
-575.1987306601
 21
1005.1437287295
 31
0.0
  0
LINE
  5
63
  8
0
  6
CONTINUOUS
 62
     7
 10
-575.1987306601
 20
1005.1437287295
 30
0.0
 11
-589.0551416403
 21
1005.1437287295
 31
0.0
  0
LINE
  5
64
  8
0
  6
CONTINUOUS
 62
     7
 10
-589.0551416403
 20
1005.1437287295
 30
0.0
 11
-595.9833471304
 21
993.1437342131
 31
0.0
  0
LINE
  5
65
  8
0
  6
CONTINUOUS
 62
     7
 10
-595.9833471304
 20
993.1437342131
 30
0.0
 11
-589.0551416403
 21
981.1437098944
 31
0.0
  0
LINE
  5
66
  8
0
  6
CONTINUOUS
 62
     7
 10
-589.0551416403
 20
981.1437098944
 30
0.0
 11
-575.1987306601
 21
981.1437098944
 31
0.0
  0
CIRCLE
  5
67
  8
0
  6
CONTINUOUS
 62
     7
 10
-582.1269371089
 20
993.1437217688
 30
0.0
 40
32.49999999999991
  0
ARC
  5
68
  8
0
  6
CONTINUOUS
 62
     7
 10
-579.7922595428
 20
981.2596559774
 30
0.0
 40
36.70260986310975
 50
31.076558303
 51
38.3972171785
  0
POLYLINE
  5
69
  8
0
  6
CONTINUOUS
 62
     7
 66
     1
 10
0.0
 20
0.0
 30
0.0
  0
VERTEX
  5
2AC
  8
0
  6
CONTINUOUS
 62
     7
 10
-548.3572690016
 20
1000.2049176657
 30
0.0
  0
VERTEX
  5
2AD
  8
0
  6
CONTINUOUS
 62
     7
 10
-548.7392155653
 20
1000.1250474417
 30
0.0
  0
VERTEX
  5
2AE
  8
0
  6
CONTINUOUS
 62
     7
 10
-549.1064397818
 20
1000.0482766592
 30
0.0
  0
VERTEX
  5
2AF
  8
0
  6
CONTINUOUS
 62
     7
 10
-549.4448749548
 20
999.9774961436
 30
0.0
  0
VERTEX
  5
2B0
  8
0
  6
CONTINUOUS
 62
     7
 10
-549.7415868765
 20
999.9154775107
 30
0.0
  0
VERTEX
  5
2B1
  8
0
  6
CONTINUOUS
 62
     7
 10
-549.9850122458
 20
999.8645453417
 30
0.0
  0
VERTEX
  5
2B2
  8
0
  6
CONTINUOUS
 62
     7
 10
-550.1659123427
 20
999.8267261946
 30
0.0
  0
VERTEX
  5
2B3
  8
0
  6
CONTINUOUS
 62
     7
 10
-550.2773134238
 20
999.8034505808
 30
0.0
  0
VERTEX
  5
2B4
  8
0
  6
CONTINUOUS
 62
     7
 10
-550.3149239546
 20
999.7955827677
 30
0.0
  0
SEQEND
  5
C34
  8
0
  6
CONTINUOUS
 62
     7
  0
ARC
  5
6A
  8
0
  6
CONTINUOUS
 62
     7
 10
-550.0275419574
 20
1005.7880418735
 30
0.0
 40
2.000000000000013
 50
204.8678129018
 51
240.0
  0
POLYLINE
  5
6B
  8
0
  6
CONTINUOUS
 62
     7
 66
     1
 10
0.0
 20
0.0
 30
0.0
  0
VERTEX
  5
2B5
  8
0
  6
CONTINUOUS
 62
     7
 10
-571.981629563
 20
962.2678129637
 30
0.0
  0
VERTEX
  5
2B6
  8
0
  6
CONTINUOUS
 62
     7
 10
-571.9695894247
 20
962.2313051188
 30
0.0
  0
VERTEX
  5
2B7
  8
0
  6
CONTINUOUS
 62
     7
 10
-571.9340650565
 20
962.1231822932
 30
0.0
  0
VERTEX
  5
2B8
  8
0
  6
CONTINUOUS
 62
     7
 10
-571.8763677603
 20
961.9475870096
 30
0.0
  0
VERTEX
  5
2B9
  8
0
  6
CONTINUOUS
 62
     7
 10
-571.7987625128
 20
961.7112843954
 30
0.0
  0
VERTEX
  5
2BA
  8
0
  6
CONTINUOUS
 62
     7
 10
-571.7041699416
 20
961.4233641588
 30
0.0
  0
VERTEX
  5
2BB
  8
0
  6
CONTINUOUS
 62
     7
 10
-571.5962259299
 20
961.0948531592
 30
0.0
  0
VERTEX
  5
2BC
  8
0
  6
CONTINUOUS
 62
     7
 10
-571.4791028029
 20
960.7384173834
 30
0.0
  0
VERTEX
  5
2BD
  8
0
  6
CONTINUOUS
 62
     7
 10
-571.357270909
 20
960.3677360976
 30
0.0
  0
SEQEND
  5
C33
  8
0
  6
CONTINUOUS
 62
     7
  0
ARC
  5
6C
  8
0
  6
CONTINUOUS
 62
     7
 10
-570.6833700737
 20
996.8753891871
 30
0.0
 40
36.51387238352705
 50
261.5839696923
 51
268.9424877861
  0
ARC
  5
6D
  8
0
  6
CONTINUOUS
 62
     7
 10
-577.0275419574
 20
959.0226700692
 30
0.0
 40
2.000000000000168
 50
60.0
 51
95.4696521071
  0
ARC
  5
6E
  8
0
  6
CONTINUOUS
 62
     7
 10
-582.1269371089
 20
993.1437217688
 30
0.0
 40
34.49999999999993
 50
288.1896851042
 51
11.8103148958
  0
LINE
  5
6F
  8
0
  6
CONTINUOUS
 62
     7
 10
-551.0275570876
 20
1004.056003567
 30
0.0
 11
-259.5898417956
 21
835.7943563425
 31
0.0
  0
LINE
  5
70
  8
0
  6
CONTINUOUS
 62
     7
 10
-260.589828921
 20
834.06230497
 30
0.0
 11
-548.3572690016
 21
1000.2049176657
 31
0.0
  0
LINE
  5
71
  8
0
  6
CONTINUOUS
 62
     7
 10
-571.357270909
 20
960.3677360976
 30
0.0
 11
-283.5898308283
 21
794.225138303
 31
0.0
  0
LINE
  5
72
  8
0
  6
CONTINUOUS
 62
     7
 10
-284.589847756
 20
792.4930869305
 30
0.0
 11
-576.0275332457
 21
960.7547192538
 31
0.0
  0
POLYLINE
  5
73
  8
0
  6
CONTINUOUS
 62
     7
 66
     1
 10
0.0
 20
0.0
 30
0.0
  0
VERTEX
  5
2BE
  8
0
  6
CONTINUOUS
 62
     7
 10
-139.3462924487
 20
764.062304672
 30
0.0
  0
VERTEX
  5
2BF
  8
0
  6
CONTINUOUS
 62
     7
 10
-139.1511915451
 20
764.4002108538
 30
0.0
  0
VERTEX
  5
2C0
  8
0
  6
CONTINUOUS
 62
     7
 10
-138.9636008269
 20
764.7251306736
 30
0.0
  0
VERTEX
  5
2C1
  8
0
  6
CONTINUOUS
 62
     7
 10
-138.7907175547
 20
765.024584409
 30
0.0
  0
VERTEX
  5
2C2
  8
0
  6
CONTINUOUS
 62
     7
 10
-138.6391727454
 20
765.2870534622
 30
0.0
  0
VERTEX
  5
2C3
  8
0
  6
CONTINUOUS
 62
     7
 10
-138.5148225552
 20
765.5024571979
 30
0.0
  0
VERTEX
  5
2C4
  8
0
  6
CONTINUOUS
 62
     7
 10
-138.4224055535
 20
765.6625105703
 30
0.0
  0
VERTEX
  5
2C5
  8
0
  6
CONTINUOUS
 62
     7
 10
-138.3654980189
 20
765.761074301
 30
0.0
  0
VERTEX
  5
2C6
  8
0
  6
CONTINUOUS
 62
     7
 10
-138.3462904221
 20
765.7943560445
 30
0.0
  0
SEQEND
  5
C32
  8
0
  6
CONTINUOUS
 62
     7
  0
LINE
  5
74
  8
0
  6
CONTINUOUS
 62
     7
 10
-139.3462924487
 20
764.062304672
 30
0.0
 11
-172.2552536255
 21
783.0623059237
 31
0.0
  0
LINE
  5
75
  8
0
  6
CONTINUOUS
 62
     7
 10
-171.255251599
 20
784.7943572962
 30
0.0
 11
-138.3462904221
 21
765.7943560445
 31
0.0
  0
POLYLINE
  5
76
  8
0
  6
CONTINUOUS
 62
     7
 66
     1
 10
0.0
 20
0.0
 30
0.0
  0
VERTEX
  5
2C7
  8
0
  6
CONTINUOUS
 62
     7
 10
-163.3462814814
 20
722.4930866325
 30
0.0
  0
VERTEX
  5
2C8
  8
0
  6
CONTINUOUS
 62
     7
 10
-163.3270738846
 20
722.526368376
 30
0.0
  0
VERTEX
  5
2C9
  8
0
  6
CONTINUOUS
 62
     7
 10
-163.27016635
 20
722.6249321067
 30
0.0
  0
VERTEX
  5
2CA
  8
0
  6
CONTINUOUS
 62
     7
 10
-163.1777493483
 20
722.7849892044
 30
0.0
  0
VERTEX
  5
2CB
  8
0
  6
CONTINUOUS
 62
     7
 10
-163.0533991581
 20
723.00039294
 30
0.0
  0
VERTEX
  5
2CC
  8
0
  6
CONTINUOUS
 62
     7
 10
-162.9018543488
 20
723.2628619933
 30
0.0
  0
VERTEX
  5
2CD
  8
0
  6
CONTINUOUS
 62
     7
 10
-162.7289710766
 20
723.5623120034
 30
0.0
  0
VERTEX
  5
2CE
  8
0
  6
CONTINUOUS
 62
     7
 10
-162.5413803584
 20
723.8872318232
 30
0.0
  0
VERTEX
  5
2CF
  8
0
  6
CONTINUOUS
 62
     7
 10
-162.3462794548
 20
724.225138005
 30
0.0
  0
SEQEND
  5
C31
  8
0
  6
CONTINUOUS
 62
     7
  0
LINE
  5
77
  8
0
  6
CONTINUOUS
 62
     7
 10
-163.3462814814
 20
722.4930866325
 30
0.0
 11
-196.2552575594
 21
741.4930878842
 31
0.0
  0
LINE
  5
78
  8
0
  6
CONTINUOUS
 62
     7
 10
-195.2552555329
 20
743.2251392567
 30
0.0
 11
-162.3462794548
 21
724.225138005
 31
0.0
  0
ARC
  5
79
  8
0
  6
CONTINUOUS
 62
     7
 10
-139.3462860243
 20
764.0623060557
 30
0.0
 40
1.999999999999999
 50
330.0
 51
60.0
  0
POLYLINE
  5
7A
  8
0
  6
CONTINUOUS
 62
     7
 66
     1
 10
0.0
 20
0.0
 30
0.0
  0
VERTEX
  5
2D0
  8
0
  6
CONTINUOUS
 62
     7
 10
-139.3462924487
 20
764.062304672
 30
0.0
  0
VERTEX
  5
2D1
  8
0
  6
CONTINUOUS
 62
     7
 10
-139.0083788163
 20
763.8672186696
 30
0.0
  0
VERTEX
  5
2D2
  8
0
  6
CONTINUOUS
 62
     7
 10
-138.6834589964
 20
763.6796205008
 30
0.0
  0
VERTEX
  5
2D3
  8
0
  6
CONTINUOUS
 62
     7
 10
-138.3840052611
 20
763.5067372286
 30
0.0
  0
VERTEX
  5
2D4
  8
0
  6
CONTINUOUS
 62
     7
 10
-138.1215362078
 20
763.3551998698
 30
0.0
  0
VERTEX
  5
2D5
  8
0
  6
CONTINUOUS
 62
     7
 10
-137.9061399228
 20
763.2308347785
 30
0.0
  0
VERTEX
  5
2D6
  8
0
  6
CONTINUOUS
 62
     7
 10
-137.7460865504
 20
763.1384252274
 30
0.0
  0
VERTEX
  5
2D7
  8
0
  6
CONTINUOUS
 62
     7
 10
-137.6475153691
 20
763.0815176928
 30
0.0
  0
VERTEX
  5
2D8
  8
0
  6
CONTINUOUS
 62
     7
 10
-137.6142410761
 20
763.0623026454
 30
0.0
  0
SEQEND
  5
C30
  8
0
  6
CONTINUOUS
 62
     7
  0
LINE
  5
7B
  8
0
  6
CONTINUOUS
 62
     7
 10
-162.3462794548
 20
724.225138005
 30
0.0
 11
-139.3462924487
 21
764.062304672
 31
0.0
  0
LINE
  5
7C
  8
0
  6
CONTINUOUS
 62
     7
 10
-137.6142410761
 20
763.0623026454
 30
0.0
 11
-160.6142280823
 21
723.2251359784
 31
0.0
  0
POLYLINE
  5
7D
  8
0
  6
CONTINUOUS
 62
     7
 66
     1
 10
0.0
 20
0.0
 30
0.0
  0
VERTEX
  5
2D9
  8
0
  6
CONTINUOUS
 62
     7
 10
-160.6142280823
 20
723.2251359784
 30
0.0
  0
VERTEX
  5
2DA
  8
0
  6
CONTINUOUS
 62
     7
 10
-160.6475172764
 20
723.2443510258
 30
0.0
  0
VERTEX
  5
2DB
  8
0
  6
CONTINUOUS
 62
     7
 10
-160.7460735566
 20
723.3012585604
 30
0.0
  0
VERTEX
  5
2DC
  8
0
  6
CONTINUOUS
 62
     7
 10
-160.9061418301
 20
723.3936681115
 30
0.0
  0
VERTEX
  5
2DD
  8
0
  6
CONTINUOUS
 62
     7
 10
-161.1215381152
 20
723.5180294776
 30
0.0
  0
VERTEX
  5
2DE
  8
0
  6
CONTINUOUS
 62
     7
 10
-161.3840071684
 20
723.6695668363
 30
0.0
  0
VERTEX
  5
2DF
  8
0
  6
CONTINUOUS
 62
     7
 10
-161.6834609038
 20
723.8424538338
 30
0.0
  0
VERTEX
  5
2E0
  8
0
  6
CONTINUOUS
 62
     7
 10
-162.0083807236
 20
724.0300482774
 30
0.0
  0
VERTEX
  5
2E1
  8
0
  6
CONTINUOUS
 62
     7
 10
-162.3462794548
 20
724.225138005
 30
0.0
  0
SEQEND
  5
C2F
  8
0
  6
CONTINUOUS
 62
     7
  0
ARC
  5
7E
  8
0
  6
CONTINUOUS
 62
     7
 10
-162.3462860243
 20
724.2251374816
 30
0.0
 40
2.000000000000013
 50
240.0
 51
330.0
  0
LINE
  5
7F
  8
0
  6
CONTINUOUS
 62
     7
 10
-577.9378025061
 20
915.887963649
 30
0.0
 11
-562.9378168112
 21
889.9072079623
 31
0.0
  0
LINE
  5
80
  8
0
  6
CONTINUOUS
 62
     7
 10
-407.0532528883
 20
979.9072115385
 30
0.0
 11
-422.0532385832
 21
1005.8879821265
 31
0.0
  0
LINE
  5
81
  8
0
  6
CONTINUOUS
 62
     7
 10
-562.9378168112
 20
889.9072079623
 30
0.0
 11
-508.1269351965
 21
921.552282449
 31
0.0
  0
LINE
  5
82
  8
0
  6
CONTINUOUS
 62
     7
 10
-458.1269232756
 20
950.4198102915
 30
0.0
 11
-407.0532528883
 21
979.9072115385
 31
0.0
  0
LINE
  5
83
  8
0
  6
CONTINUOUS
 62
     7
 10
-362.77123375
 20
1063.2084875071
 30
0.0
 11
-352.7712134844
 21
1045.8879737818
 31
0.0
  0
POLYLINE
  5
84
  8
0
  6
CONTINUOUS
 62
     7
 66
     1
 10
0.0
 20
0.0
 30
0.0
  0
VERTEX
  5
2E2
  8
0
  6
CONTINUOUS
 62
     7
 10
-422.0532385832
 20
1005.8879821265
 30
0.0
  0
VERTEX
  5
2E3
  8
0
  6
CONTINUOUS
 62
     7
 10
-420.1101569659
 20
1007.0098309481
 30
0.0
  0
VERTEX
  5
2E4
  8
0
  6
CONTINUOUS
 62
     7
 10
-418.1685654646
 20
1008.1307857001
 30
0.0
  0
VERTEX
  5
2E5
  8
0
  6
CONTINUOUS
 62
     7
 10
-416.2300734049
 20
1009.249982115
 30
0.0
  0
VERTEX
  5
2E6
  8
0
  6
CONTINUOUS
 62
     7
 10
-414.2961411005
 20
1010.3665559256
 30
0.0
  0
VERTEX
  5
2E7
  8
0
  6
CONTINUOUS
 62
     7
 10
-412.3682884699
 20
1011.4795832598
 30
0.0
  0
VERTEX
  5
2E8
  8
0
  6
CONTINUOUS
 62
     7
 10
-410.4480950362
 20
1012.5882296526
 30
0.0
  0
VERTEX
  5
2E9
  8
0
  6
CONTINUOUS
 62
     7
 10
-408.5369913107
 20
1013.6915712321
 30
0.0
  0
VERTEX
  5
2EA
  8
0
  6
CONTINUOUS
 62
     7
 10
-406.6365568167
 20
1014.7888033354
 30
0.0
  0
VERTEX
  5
2EB
  8
0
  6
CONTINUOUS
 62
     7
 10
-404.7482220656
 20
1015.879031893
 30
0.0
  0
VERTEX
  5
2EC
  8
0
  6
CONTINUOUS
 62
     7
 10
-402.8735367781
 20
1016.9613926375
 30
0.0
  0
VERTEX
  5
2ED
  8
0
  6
CONTINUOUS
 62
     7
 10
-401.0139016634
 20
1018.0350511038
 30
0.0
  0
VERTEX
  5
2EE
  8
0
  6
CONTINUOUS
 62
     7
 10
-399.17083664
 20
1019.0991430247
 30
0.0
  0
VERTEX
  5
2EF
  8
0
  6
CONTINUOUS
 62
     7
 10
-397.3458020216
 20
1020.152833935
 30
0.0
  0
VERTEX
  5
2F0
  8
0
  6
CONTINUOUS
 62
     7
 10
-395.5401687151
 20
1021.1953191721
 30
0.0
  0
VERTEX
  5
2F1
  8
0
  6
CONTINUOUS
 62
     7
 10
-393.7553970343
 20
1022.2257344687
 30
0.0
  0
VERTEX
  5
2F2
  8
0
  6
CONTINUOUS
 62
     7
 10
-391.9929174906
 20
1023.2433049643
 30
0.0
  0
VERTEX
  5
2F3
  8
0
  6
CONTINUOUS
 62
     7
 10
-390.2540711886
 20
1024.2472557986
 30
0.0
  0
VERTEX
  5
2F4
  8
0
  6
CONTINUOUS
 62
     7
 10
-388.540229035
 20
1025.2367227041
 30
0.0
  0
VERTEX
  5
2F5
  8
0
  6
CONTINUOUS
 62
     7
 10
-386.8527619368
 20
1026.2109904253
 30
0.0
  0
VERTEX
  5
2F6
  8
0
  6
CONTINUOUS
 62
     7
 10
-385.1929811961
 20
1027.1692542994
 30
0.0
  0
VERTEX
  5
2F7
  8
0
  6
CONTINUOUS
 62
     7
 10
-383.5622279173
 20
1028.1107692683
 30
0.0
  0
VERTEX
  5
2F8
  8
0
  6
CONTINUOUS
 62
     7
 10
-381.9617239958
 20
1029.0348200762
 30
0.0
  0
VERTEX
  5
2F9
  8
0
  6
CONTINUOUS
 62
     7
 10
-380.3927807337
 20
1029.9406616652
 30
0.0
  0
VERTEX
  5
2FA
  8
0
  6
CONTINUOUS
 62
     7
 10
-378.8566200262
 20
1030.8275489771
 30
0.0
  0
VERTEX
  5
2FB
  8
0
  6
CONTINUOUS
 62
     7
 10
-377.3544339663
 20
1031.6948561632
 30
0.0
  0
VERTEX
  5
2FC
  8
0
  6
CONTINUOUS
 62
     7
 10
-375.8874146468
 20
1032.5418381655
 30
0.0
  0
VERTEX
  5
2FD
  8
0
  6
CONTINUOUS
 62
     7
 10
-374.4567243582
 20
1033.3678393328
 30
0.0
  0
VERTEX
  5
2FE
  8
0
  6
CONTINUOUS
 62
     7
 10
-373.0634657866
 20
1034.1722338164
 30
0.0
  0
VERTEX
  5
2FF
  8
0
  6
CONTINUOUS
 62
     7
 10
-371.7087416178
 20
1034.9543957674
 30
0.0
  0
VERTEX
  5
300
  8
0
  6
CONTINUOUS
 62
     7
 10
-370.3936545378
 20
1035.7136695349
 30
0.0
  0
VERTEX
  5
301
  8
0
  6
CONTINUOUS
 62
     7
 10
-369.1191880232
 20
1036.4494590723
 30
0.0
  0
VERTEX
  5
302
  8
0
  6
CONTINUOUS
 62
     7
 10
-367.8863851553
 20
1037.1612279379
 30
0.0
  0
VERTEX
  5
303
  8
0
  6
CONTINUOUS
 62
     7
 10
-366.6961698061
 20
1037.8483800852
 30
0.0
  0
VERTEX
  5
304
  8
0
  6
CONTINUOUS
 62
     7
 10
-365.5495254523
 20
1038.5104088747
 30
0.0
  0
VERTEX
  5
305
  8
0
  6
CONTINUOUS
 62
     7
 10
-364.4473461634
 20
1039.1467480623
 30
0.0
  0
VERTEX
  5
306
  8
0
  6
CONTINUOUS
 62
     7
 10
-363.3904664046
 20
1039.7569506132
 30
0.0
  0
VERTEX
  5
307
  8
0
  6
CONTINUOUS
 62
     7
 10
-362.3797504431
 20
1040.3404800856
 30
0.0
  0
VERTEX
  5
308
  8
0
  6
CONTINUOUS
 62
     7
 10
-361.4160029417
 20
1040.8969192469
 30
0.0
  0
VERTEX
  5
309
  8
0
  6
CONTINUOUS
 62
     7
 10
-360.4999391562
 20
1041.42579126
 30
0.0
  0
VERTEX
  5
30A
  8
0
  6
CONTINUOUS
 62
     7
 10
-359.6323041445
 20
1041.926738497
 30
0.0
  0
VERTEX
  5
30B
  8
0
  6
CONTINUOUS
 62
     7
 10
-358.8137833601
 20
1042.3993139231
 30
0.0
  0
VERTEX
  5
30C
  8
0
  6
CONTINUOUS
 62
     7
 10
-358.0450026518
 20
1042.8431599104
 30
0.0
  0
VERTEX
  5
30D
  8
0
  6
CONTINUOUS
 62
     7
 10
-357.3265878684
 20
1043.2579188311
 30
0.0
  0
VERTEX
  5
30E
  8
0
  6
CONTINUOUS
 62
     7
 10
-356.6591052538
 20
1043.6432926619
 30
0.0
  0
VERTEX
  5
30F
  8
0
  6
CONTINUOUS
 62
     7
 10
-356.0430614478
 20
1043.9989833796
 30
0.0
  0
VERTEX
  5
310
  8
0
  6
CONTINUOUS
 62
     7
 10
-355.4789630896
 20
1044.3246631586
 30
0.0
  0
VERTEX
  5
311
  8
0
  6
CONTINUOUS
 62
     7
 10
-354.9672274119
 20
1044.6201233828
 30
0.0
  0
VERTEX
  5
312
  8
0
  6
CONTINUOUS
 62
     7
 10
-354.5082716471
 20
1044.8850958311
 30
0.0
  0
VERTEX
  5
313
  8
0
  6
CONTINUOUS
 62
     7
 10
-354.1024534232
 20
1045.1193718874
 30
0.0
  0
VERTEX
  5
314
  8
0
  6
CONTINUOUS
 62
     7
 10
-353.7501005656
 20
1045.32280254
 30
0.0
  0
VERTEX
  5
315
  8
0
  6
CONTINUOUS
 62
     7
 10
-353.4514812952
 20
1045.4952089751
 30
0.0
  0
VERTEX
  5
316
  8
0
  6
CONTINUOUS
 62
     7
 10
-353.2068638331
 20
1045.6364719832
 30
0.0
  0
VERTEX
  5
317
  8
0
  6
CONTINUOUS
 62
     7
 10
-353.0163673884
 20
1045.7464425528
 30
0.0
  0
VERTEX
  5
318
  8
0
  6
CONTINUOUS
 62
     7
 10
-352.8802005774
 20
1045.8250312769
 30
0.0
  0
VERTEX
  5
319
  8
0
  6
CONTINUOUS
 62
     7
 10
-352.7984826094
 20
1045.8722381556
 30
0.0
  0
VERTEX
  5
31A
  8
0
  6
CONTINUOUS
 62
     7
 10
-352.7712134844
 20
1045.8879737818
 30
0.0
  0
SEQEND
  5
C2E
  8
0
  6
CONTINUOUS
 62
     7
  0
LINE
  5
85
  8
0
  6
CONTINUOUS
 62
     7
 10
-422.0532385832
 20
1005.8879821265
 30
0.0
 11
-432.0532588488
 21
1023.2084660494
 31
0.0
  0
POLYLINE
  5
86
  8
0
  6
CONTINUOUS
 62
     7
 66
     1
 10
0.0
 20
0.0
 30
0.0
  0
VERTEX
  5
31B
  8
0
  6
CONTINUOUS
 62
     7
 10
-432.0532588488
 20
1023.2084660494
 30
0.0
  0
VERTEX
  5
31C
  8
0
  6
CONTINUOUS
 62
     7
 10
-430.1101474291
 20
1024.330314871
 30
0.0
  0
VERTEX
  5
31D
  8
0
  6
CONTINUOUS
 62
     7
 10
-428.1685857302
 20
1025.4512994253
 30
0.0
  0
VERTEX
  5
31E
  8
0
  6
CONTINUOUS
 62
     7
 10
-426.2300638682
 20
1026.5704958403
 30
0.0
  0
VERTEX
  5
31F
  8
0
  6
CONTINUOUS
 62
     7
 10
-424.2961315638
 20
1027.6870696509
 30
0.0
  0
VERTEX
  5
320
  8
0
  6
CONTINUOUS
 62
     7
 10
-422.3683087355
 20
1028.8000969851
 30
0.0
  0
VERTEX
  5
321
  8
0
  6
CONTINUOUS
 62
     7
 10
-420.4480854994
 20
1029.9087135756
 30
0.0
  0
VERTEX
  5
322
  8
0
  6
CONTINUOUS
 62
     7
 10
-418.5370115763
 20
1031.0120849573
 30
0.0
  0
VERTEX
  5
323
  8
0
  6
CONTINUOUS
 62
     7
 10
-416.63654728
 20
1032.1093170607
 30
0.0
  0
VERTEX
  5
324
  8
0
  6
CONTINUOUS
 62
     7
 10
-414.7482423312
 20
1033.1995456183
 30
0.0
  0
VERTEX
  5
325
  8
0
  6
CONTINUOUS
 62
     7
 10
-412.8735272414
 20
1034.2819063627
 30
0.0
  0
VERTEX
  5
326
  8
0
  6
CONTINUOUS
 62
     7
 10
-411.013921929
 20
1035.3555350268
 30
0.0
  0
VERTEX
  5
327
  8
0
  6
CONTINUOUS
 62
     7
 10
-409.1708569056
 20
1036.4196269476
 30
0.0
  0
VERTEX
  5
328
  8
0
  6
CONTINUOUS
 62
     7
 10
-407.3457924849
 20
1037.4733476603
 30
0.0
  0
VERTEX
  5
329
  8
0
  6
CONTINUOUS
 62
     7
 10
-405.5401591784
 20
1038.5158030951
 30
0.0
  0
VERTEX
  5
32A
  8
0
  6
CONTINUOUS
 62
     7
 10
-403.7554172999
 20
1039.546248194
 30
0.0
  0
VERTEX
  5
32B
  8
0
  6
CONTINUOUS
 62
     7
 10
-401.9929079539
 20
1040.5638186896
 30
0.0
  0
VERTEX
  5
32C
  8
0
  6
CONTINUOUS
 62
     7
 10
-400.2540616518
 20
1041.5677397215
 30
0.0
  0
VERTEX
  5
32D
  8
0
  6
CONTINUOUS
 62
     7
 10
-398.5402194983
 20
1042.5572364294
 30
0.0
  0
VERTEX
  5
32E
  8
0
  6
CONTINUOUS
 62
     7
 10
-396.8527524001
 20
1043.5315041506
 30
0.0
  0
VERTEX
  5
32F
  8
0
  6
CONTINUOUS
 62
     7
 10
-395.1930014616
 20
1044.4897680247
 30
0.0
  0
VERTEX
  5
330
  8
0
  6
CONTINUOUS
 62
     7
 10
-393.5622183806
 20
1045.4312829935
 30
0.0
  0
VERTEX
  5
331
  8
0
  6
CONTINUOUS
 62
     7
 10
-391.9617442614
 20
1046.3553338015
 30
0.0
  0
VERTEX
  5
332
  8
0
  6
CONTINUOUS
 62
     7
 10
-390.392771197
 20
1047.2611753905
 30
0.0
  0
VERTEX
  5
333
  8
0
  6
CONTINUOUS
 62
     7
 10
-388.8566104895
 20
1048.1480627024
 30
0.0
  0
VERTEX
  5
334
  8
0
  6
CONTINUOUS
 62
     7
 10
-387.3544244296
 20
1049.0153698885
 30
0.0
  0
VERTEX
  5
335
  8
0
  6
CONTINUOUS
 62
     7
 10
-385.88740511
 20
1049.8623518908
 30
0.0
  0
VERTEX
  5
336
  8
0
  6
CONTINUOUS
 62
     7
 10
-384.4567148215
 20
1050.6883530581
 30
0.0
  0
VERTEX
  5
337
  8
0
  6
CONTINUOUS
 62
     7
 10
-383.0634562499
 20
1051.4927475416
 30
0.0
  0
VERTEX
  5
338
  8
0
  6
CONTINUOUS
 62
     7
 10
-381.7087618834
 20
1052.2748796904
 30
0.0
  0
VERTEX
  5
339
  8
0
  6
CONTINUOUS
 62
     7
 10
-380.3936450011
 20
1053.0341534579
 30
0.0
  0
VERTEX
  5
33A
  8
0
  6
CONTINUOUS
 62
     7
 10
-379.1191784865
 20
1053.7699727976
 30
0.0
  0
VERTEX
  5
33B
  8
0
  6
CONTINUOUS
 62
     7
 10
-377.8863756186
 20
1054.4817416632
 30
0.0
  0
VERTEX
  5
33C
  8
0
  6
CONTINUOUS
 62
     7
 10
-376.6961900717
 20
1055.1688938105
 30
0.0
  0
VERTEX
  5
33D
  8
0
  6
CONTINUOUS
 62
     7
 10
-375.5495457179
 20
1055.8309226
 30
0.0
  0
VERTEX
  5
33E
  8
0
  6
CONTINUOUS
 62
     7
 10
-374.4473366267
 20
1056.4672617876
 30
0.0
  0
VERTEX
  5
33F
  8
0
  6
CONTINUOUS
 62
     7
 10
-373.3904866702
 20
1057.0774345362
 30
0.0
  0
VERTEX
  5
340
  8
0
  6
CONTINUOUS
 62
     7
 10
-372.3797707087
 20
1057.6609938109
 30
0.0
  0
VERTEX
  5
341
  8
0
  6
CONTINUOUS
 62
     7
 10
-371.415993405
 20
1058.2174031698
 30
0.0
  0
VERTEX
  5
342
  8
0
  6
CONTINUOUS
 62
     7
 10
-370.4999296195
 20
1058.7463049853
 30
0.0
  0
VERTEX
  5
343
  8
0
  6
CONTINUOUS
 62
     7
 10
-369.6322946078
 20
1059.24722242
 30
0.0
  0
VERTEX
  5
344
  8
0
  6
CONTINUOUS
 62
     7
 10
-368.8137738234
 20
1059.7197978461
 30
0.0
  0
VERTEX
  5
345
  8
0
  6
CONTINUOUS
 62
     7
 10
-368.0449931151
 20
1060.1636438334
 30
0.0
  0
VERTEX
  5
346
  8
0
  6
CONTINUOUS
 62
     7
 10
-367.3265783316
 20
1060.5784325564
 30
0.0
  0
VERTEX
  5
347
  8
0
  6
CONTINUOUS
 62
     7
 10
-366.6590957171
 20
1060.9638063872
 30
0.0
  0
VERTEX
  5
348
  8
0
  6
CONTINUOUS
 62
     7
 10
-366.043051911
 20
1061.3194673025
 30
0.0
  0
VERTEX
  5
349
  8
0
  6
CONTINUOUS
 62
     7
 10
-365.4789535529
 20
1061.6451768839
 30
0.0
  0
VERTEX
  5
34A
  8
0
  6
CONTINUOUS
 62
     7
 10
-364.9672178751
 20
1061.9406073057
 30
0.0
  0
VERTEX
  5
34B
  8
0
  6
CONTINUOUS
 62
     7
 10
-364.5082621104
 20
1062.2055797541
 30
0.0
  0
VERTEX
  5
34C
  8
0
  6
CONTINUOUS
 62
     7
 10
-364.1024438864
 20
1062.4398856127
 30
0.0
  0
VERTEX
  5
34D
  8
0
  6
CONTINUOUS
 62
     7
 10
-363.7500910288
 20
1062.6433162653
 30
0.0
  0
VERTEX
  5
34E
  8
0
  6
CONTINUOUS
 62
     7
 10
-363.4515015608
 20
1062.8157227003
 30
0.0
  0
VERTEX
  5
34F
  8
0
  6
CONTINUOUS
 62
     7
 10
-363.2068542963
 20
1062.9569559061
 30
0.0
  0
VERTEX
  5
350
  8
0
  6
CONTINUOUS
 62
     7
 10
-363.016387654
 20
1063.0669264757
 30
0.0
  0
VERTEX
  5
351
  8
0
  6
CONTINUOUS
 62
     7
 10
-362.880220843
 20
1063.1455450022
 30
0.0
  0
VERTEX
  5
352
  8
0
  6
CONTINUOUS
 62
     7
 10
-362.7984730727
 20
1063.1927518809
 30
0.0
  0
VERTEX
  5
353
  8
0
  6
CONTINUOUS
 62
     7
 10
-362.77123375
 20
1063.2084875071
 30
0.0
  0
SEQEND
  5
C2D
  8
0
  6
CONTINUOUS
 62
     7
  0
LINE
  5
87
  8
0
  6
CONTINUOUS
 62
     7
 10
-587.937852574
 20
933.2084624731
 30
0.0
 11
-577.9378025061
 21
915.887963649
 31
0.0
  0
POLYLINE
  5
88
  8
0
  6
CONTINUOUS
 62
     7
 66
     1
 10
0.0
 20
0.0
 30
0.0
  0
VERTEX
  5
354
  8
0
  6
CONTINUOUS
 62
     7
 10
-647.2198574072
 20
875.8879719937
 30
0.0
  0
VERTEX
  5
355
  8
0
  6
CONTINUOUS
 62
     7
 10
-647.1926180846
 20
875.9037076199
 30
0.0
  0
VERTEX
  5
356
  8
0
  6
CONTINUOUS
 62
     7
 10
-647.1108405119
 20
875.9508995974
 30
0.0
  0
VERTEX
  5
357
  8
0
  6
CONTINUOUS
 62
     7
 10
-646.9747035033
 20
876.0295032227
 30
0.0
  0
VERTEX
  5
358
  8
0
  6
CONTINUOUS
 62
     7
 10
-646.7842070586
 20
876.1394737923
 30
0.0
  0
VERTEX
  5
359
  8
0
  6
CONTINUOUS
 62
     7
 10
-646.5395895964
 20
876.2807218992
 30
0.0
  0
VERTEX
  5
35A
  8
0
  6
CONTINUOUS
 62
     7
 10
-646.2409703261
 20
876.4531283343
 30
0.0
  0
VERTEX
  5
35B
  8
0
  6
CONTINUOUS
 62
     7
 10
-645.8886472708
 20
876.6565589869
 30
0.0
  0
VERTEX
  5
35C
  8
0
  6
CONTINUOUS
 62
     7
 10
-645.4827992445
 20
876.8908499443
 30
0.0
  0
VERTEX
  5
35D
  8
0
  6
CONTINUOUS
 62
     7
 10
-645.0238434798
 20
877.1558223927
 30
0.0
  0
VERTEX
  5
35E
  8
0
  6
CONTINUOUS
 62
     7
 10
-644.5121376044
 20
877.4512826168
 30
0.0
  0
VERTEX
  5
35F
  8
0
  6
CONTINUOUS
 62
     7
 10
-643.9480392462
 20
877.7769623959
 30
0.0
  0
VERTEX
  5
360
  8
0
  6
CONTINUOUS
 62
     7
 10
-643.3319656378
 20
878.1326382124
 30
0.0
  0
VERTEX
  5
361
  8
0
  6
CONTINUOUS
 62
     7
 10
-642.6645128256
 20
878.5180120432
 30
0.0
  0
VERTEX
  5
362
  8
0
  6
CONTINUOUS
 62
     7
 10
-641.9460980421
 20
878.932785865
 30
0.0
  0
VERTEX
  5
363
  8
0
  6
CONTINUOUS
 62
     7
 10
-641.1773173338
 20
879.3766318524
 30
0.0
  0
VERTEX
  5
364
  8
0
  6
CONTINUOUS
 62
     7
 10
-640.3587667471
 20
879.8492072785
 30
0.0
  0
VERTEX
  5
365
  8
0
  6
CONTINUOUS
 62
     7
 10
-639.4911615378
 20
880.3501396143
 30
0.0
  0
VERTEX
  5
366
  8
0
  6
CONTINUOUS
 62
     7
 10
-638.5750977522
 20
880.8790265286
 30
0.0
  0
VERTEX
  5
367
  8
0
  6
CONTINUOUS
 62
     7
 10
-637.6112906462
 20
881.4354656899
 30
0.0
  0
VERTEX
  5
368
  8
0
  6
CONTINUOUS
 62
     7
 10
-636.6005746848
 20
882.0189951622
 30
0.0
  0
VERTEX
  5
369
  8
0
  6
CONTINUOUS
 62
     7
 10
-635.5437247282
 20
882.629182812
 30
0.0
  0
VERTEX
  5
36A
  8
0
  6
CONTINUOUS
 62
     7
 10
-634.4415156371
 20
883.2655369007
 30
0.0
  0
VERTEX
  5
36B
  8
0
  6
CONTINUOUS
 62
     7
 10
-633.2949010855
 20
883.9275507891
 30
0.0
  0
VERTEX
  5
36C
  8
0
  6
CONTINUOUS
 62
     7
 10
-632.1047155386
 20
884.6147029364
 30
0.0
  0
VERTEX
  5
36D
  8
0
  6
CONTINUOUS
 62
     7
 10
-630.8719126708
 20
885.326471802
 30
0.0
  0
VERTEX
  5
36E
  8
0
  6
CONTINUOUS
 62
     7
 10
-629.5974461562
 20
886.0622762406
 30
0.0
  0
VERTEX
  5
36F
  8
0
  6
CONTINUOUS
 62
     7
 10
-628.2823292738
 20
886.821550008
 30
0.0
  0
VERTEX
  5
370
  8
0
  6
CONTINUOUS
 62
     7
 10
-626.9276349074
 20
887.6036970579
 30
0.0
  0
VERTEX
  5
371
  8
0
  6
CONTINUOUS
 62
     7
 10
-625.5343763358
 20
888.4080915415
 30
0.0
  0
VERTEX
  5
372
  8
0
  6
CONTINUOUS
 62
     7
 10
-624.1036860472
 20
889.23410761
 30
0.0
  0
VERTEX
  5
373
  8
0
  6
CONTINUOUS
 62
     7
 10
-622.6366369254
 20
890.0810896122
 30
0.0
  0
VERTEX
  5
374
  8
0
  6
CONTINUOUS
 62
     7
 10
-621.1344806677
 20
890.9483818972
 30
0.0
  0
VERTEX
  5
375
  8
0
  6
CONTINUOUS
 62
     7
 10
-619.5982901579
 20
891.8352841103
 30
0.0
  0
VERTEX
  5
376
  8
0
  6
CONTINUOUS
 62
     7
 10
-618.0293766982
 20
892.7411107981
 30
0.0
  0
VERTEX
  5
377
  8
0
  6
CONTINUOUS
 62
     7
 10
-616.4288727766
 20
893.665161606
 30
0.0
  0
VERTEX
  5
378
  8
0
  6
CONTINUOUS
 62
     7
 10
-614.7980896956
 20
894.6066914761
 30
0.0
  0
VERTEX
  5
379
  8
0
  6
CONTINUOUS
 62
     7
 10
-613.1383387572
 20
895.5649553501
 30
0.0
  0
VERTEX
  5
37A
  8
0
  6
CONTINUOUS
 62
     7
 10
-611.4508716589
 20
896.5392081702
 30
0.0
  0
VERTEX
  5
37B
  8
0
  6
CONTINUOUS
 62
     7
 10
-609.7369997031
 20
897.5286899769
 30
0.0
  0
VERTEX
  5
37C
  8
0
  6
CONTINUOUS
 62
     7
 10
-607.998153401
 20
898.53262591
 30
0.0
  0
VERTEX
  5
37D
  8
0
  6
CONTINUOUS
 62
     7
 10
-606.2357036597
 20
899.5501964056
 30
0.0
  0
VERTEX
  5
37E
  8
0
  6
CONTINUOUS
 62
     7
 10
-604.4509021765
 20
900.5806266033
 30
0.0
  0
VERTEX
  5
37F
  8
0
  6
CONTINUOUS
 62
     7
 10
-602.6452986723
 20
901.6231118405
 30
0.0
  0
VERTEX
  5
380
  8
0
  6
CONTINUOUS
 62
     7
 10
-600.8202044493
 20
902.6768027508
 30
0.0
  0
VERTEX
  5
381
  8
0
  6
CONTINUOUS
 62
     7
 10
-598.9771692282
 20
903.7408946717
 30
0.0
  0
VERTEX
  5
382
  8
0
  6
CONTINUOUS
 62
     7
 10
-597.1175639159
 20
904.814553138
 30
0.0
  0
VERTEX
  5
383
  8
0
  6
CONTINUOUS
 62
     7
 10
-595.2428190237
 20
905.8969138825
 30
0.0
  0
VERTEX
  5
384
  8
0
  6
CONTINUOUS
 62
     7
 10
-593.3545438773
 20
906.9871275389
 30
0.0
  0
VERTEX
  5
385
  8
0
  6
CONTINUOUS
 62
     7
 10
-591.4541093832
 20
908.0843596422
 30
0.0
  0
VERTEX
  5
386
  8
0
  6
CONTINUOUS
 62
     7
 10
-589.5430056578
 20
909.1877161228
 30
0.0
  0
VERTEX
  5
387
  8
0
  6
CONTINUOUS
 62
     7
 10
-587.6227824217
 20
910.2963625157
 30
0.0
  0
VERTEX
  5
388
  8
0
  6
CONTINUOUS
 62
     7
 10
-585.6949297911
 20
911.4093898499
 30
0.0
  0
VERTEX
  5
389
  8
0
  6
CONTINUOUS
 62
     7
 10
-583.7609974867
 20
912.5259487593
 30
0.0
  0
VERTEX
  5
38A
  8
0
  6
CONTINUOUS
 62
     7
 10
-581.8224756247
 20
913.6451451742
 30
0.0
  0
VERTEX
  5
38B
  8
0
  6
CONTINUOUS
 62
     7
 10
-579.8809139258
 20
914.7661148274
 30
0.0
  0
VERTEX
  5
38C
  8
0
  6
CONTINUOUS
 62
     7
 10
-577.9378025061
 20
915.887963649
 30
0.0
  0
SEQEND
  5
C2C
  8
0
  6
CONTINUOUS
 62
     7
  0
LINE
  5
89
  8
0
  6
CONTINUOUS
 62
     7
 10
-647.2198574072
 20
875.8879719937
 30
0.0
 11
-657.2198478705
 21
893.2084708178
 31
0.0
  0
POLYLINE
  5
8A
  8
0
  6
CONTINUOUS
 62
     7
 66
     1
 10
0.0
 20
0.0
 30
0.0
  0
VERTEX
  5
38D
  8
0
  6
CONTINUOUS
 62
     7
 10
-657.2198478705
 20
893.2084708178
 30
0.0
  0
VERTEX
  5
38E
  8
0
  6
CONTINUOUS
 62
     7
 10
-657.1926085478
 20
893.224206444
 30
0.0
  0
VERTEX
  5
38F
  8
0
  6
CONTINUOUS
 62
     7
 10
-657.1108905798
 20
893.2713984215
 30
0.0
  0
VERTEX
  5
390
  8
0
  6
CONTINUOUS
 62
     7
 10
-656.9746939665
 20
893.350016948
 30
0.0
  0
VERTEX
  5
391
  8
0
  6
CONTINUOUS
 62
     7
 10
-656.7842571265
 20
893.4599875176
 30
0.0
  0
VERTEX
  5
392
  8
0
  6
CONTINUOUS
 62
     7
 10
-656.5395800597
 20
893.6012356245
 30
0.0
  0
VERTEX
  5
393
  8
0
  6
CONTINUOUS
 62
     7
 10
-656.2409607893
 20
893.7736420595
 30
0.0
  0
VERTEX
  5
394
  8
0
  6
CONTINUOUS
 62
     7
 10
-655.8886377341
 20
893.9770727122
 30
0.0
  0
VERTEX
  5
395
  8
0
  6
CONTINUOUS
 62
     7
 10
-655.4827897078
 20
894.2113636696
 30
0.0
  0
VERTEX
  5
396
  8
0
  6
CONTINUOUS
 62
     7
 10
-655.023833943
 20
894.476336118
 30
0.0
  0
VERTEX
  5
397
  8
0
  6
CONTINUOUS
 62
     7
 10
-654.5121280676
 20
894.7717814409
 30
0.0
  0
VERTEX
  5
398
  8
0
  6
CONTINUOUS
 62
     7
 10
-653.9480297095
 20
895.0974761212
 30
0.0
  0
VERTEX
  5
399
  8
0
  6
CONTINUOUS
 62
     7
 10
-653.3319561011
 20
895.4531370365
 30
0.0
  0
VERTEX
  5
39A
  8
0
  6
CONTINUOUS
 62
     7
 10
-652.6645032889
 20
895.8385257685
 30
0.0
  0
VERTEX
  5
39B
  8
0
  6
CONTINUOUS
 62
     7
 10
-651.9460885054
 20
896.2532995903
 30
0.0
  0
VERTEX
  5
39C
  8
0
  6
CONTINUOUS
 62
     7
 10
-651.1773077971
 20
896.6971455776
 30
0.0
  0
VERTEX
  5
39D
  8
0
  6
CONTINUOUS
 62
     7
 10
-650.3587572104
 20
897.1697210037
 30
0.0
  0
VERTEX
  5
39E
  8
0
  6
CONTINUOUS
 62
     7
 10
-649.491152001
 20
897.6706533396
 30
0.0
  0
VERTEX
  5
39F
  8
0
  6
CONTINUOUS
 62
     7
 10
-648.5750882155
 20
898.1995402539
 30
0.0
  0
VERTEX
  5
3A0
  8
0
  6
CONTINUOUS
 62
     7
 10
-647.6113407141
 20
898.755964514
 30
0.0
  0
VERTEX
  5
3A1
  8
0
  6
CONTINUOUS
 62
     7
 10
-646.6006247527
 20
899.3395088875
 30
0.0
  0
VERTEX
  5
3A2
  8
0
  6
CONTINUOUS
 62
     7
 10
-645.5437151915
 20
899.9496965372
 30
0.0
  0
VERTEX
  5
3A3
  8
0
  6
CONTINUOUS
 62
     7
 10
-644.441565705
 20
900.5860357249
 30
0.0
  0
VERTEX
  5
3A4
  8
0
  6
CONTINUOUS
 62
     7
 10
-643.2948915488
 20
901.2480645144
 30
0.0
  0
VERTEX
  5
3A5
  8
0
  6
CONTINUOUS
 62
     7
 10
-642.1047060019
 20
901.9352166617
 30
0.0
  0
VERTEX
  5
3A6
  8
0
  6
CONTINUOUS
 62
     7
 10
-640.871903134
 20
902.6469855273
 30
0.0
  0
VERTEX
  5
3A7
  8
0
  6
CONTINUOUS
 62
     7
 10
-639.5974366194
 20
903.3827899658
 30
0.0
  0
VERTEX
  5
3A8
  8
0
  6
CONTINUOUS
 62
     7
 10
-638.2823197371
 20
904.1420637333
 30
0.0
  0
VERTEX
  5
3A9
  8
0
  6
CONTINUOUS
 62
     7
 10
-636.9276253706
 20
904.9242107832
 30
0.0
  0
VERTEX
  5
3AA
  8
0
  6
CONTINUOUS
 62
     7
 10
-635.534366799
 20
905.7286052668
 30
0.0
  0
VERTEX
  5
3AB
  8
0
  6
CONTINUOUS
 62
     7
 10
-634.1036765105
 20
906.5546064341
 30
0.0
  0
VERTEX
  5
3AC
  8
0
  6
CONTINUOUS
 62
     7
 10
-632.6366273886
 20
907.4016033375
 30
0.0
  0
VERTEX
  5
3AD
  8
0
  6
CONTINUOUS
 62
     7
 10
-631.134471131
 20
908.2688807213
 30
0.0
  0
VERTEX
  5
3AE
  8
0
  6
CONTINUOUS
 62
     7
 10
-629.5982806212
 20
909.1557978356
 30
0.0
  0
VERTEX
  5
3AF
  8
0
  6
CONTINUOUS
 62
     7
 10
-628.0293671614
 20
910.0616245234
 30
0.0
  0
VERTEX
  5
3B0
  8
0
  6
CONTINUOUS
 62
     7
 10
-626.4288632399
 20
910.9856604302
 30
0.0
  0
VERTEX
  5
3B1
  8
0
  6
CONTINUOUS
 62
     7
 10
-624.7980801588
 20
911.9271903002
 30
0.0
  0
VERTEX
  5
3B2
  8
0
  6
CONTINUOUS
 62
     7
 10
-623.1383292204
 20
912.8854690754
 30
0.0
  0
VERTEX
  5
3B3
  8
0
  6
CONTINUOUS
 62
     7
 10
-621.4508621222
 20
913.8597218954
 30
0.0
  0
VERTEX
  5
3B4
  8
0
  6
CONTINUOUS
 62
     7
 10
-619.737049771
 20
914.8492037022
 30
0.0
  0
VERTEX
  5
3B5
  8
0
  6
CONTINUOUS
 62
     7
 10
-617.9981438643
 20
915.8531247341
 30
0.0
  0
VERTEX
  5
3B6
  8
0
  6
CONTINUOUS
 62
     7
 10
-616.2356941229
 20
916.8707101309
 30
0.0
  0
VERTEX
  5
3B7
  8
0
  6
CONTINUOUS
 62
     7
 10
-614.4508926398
 20
917.9011403286
 30
0.0
  0
VERTEX
  5
3B8
  8
0
  6
CONTINUOUS
 62
     7
 10
-612.6452891356
 20
918.9436106646
 30
0.0
  0
VERTEX
  5
3B9
  8
0
  6
CONTINUOUS
 62
     7
 10
-610.8202545172
 20
919.9973164761
 30
0.0
  0
VERTEX
  5
3BA
  8
0
  6
CONTINUOUS
 62
     7
 10
-608.9771596915
 20
921.0614083969
 30
0.0
  0
VERTEX
  5
3BB
  8
0
  6
CONTINUOUS
 62
     7
 10
-607.1175543791
 20
922.1350519621
 30
0.0
  0
VERTEX
  5
3BC
  8
0
  6
CONTINUOUS
 62
     7
 10
-605.2428690916
 20
923.2174127066
 30
0.0
  0
VERTEX
  5
3BD
  8
0
  6
CONTINUOUS
 62
     7
 10
-603.3545343405
 20
924.3076412642
 30
0.0
  0
VERTEX
  5
3BE
  8
0
  6
CONTINUOUS
 62
     7
 10
-601.4540998465
 20
925.4048584664
 30
0.0
  0
VERTEX
  5
3BF
  8
0
  6
CONTINUOUS
 62
     7
 10
-599.5429961211
 20
926.508214947
 30
0.0
  0
VERTEX
  5
3C0
  8
0
  6
CONTINUOUS
 62
     7
 10
-597.622772885
 20
927.6168613398
 30
0.0
  0
VERTEX
  5
3C1
  8
0
  6
CONTINUOUS
 62
     7
 10
-595.694979859
 20
928.729888674
 30
0.0
  0
VERTEX
  5
3C2
  8
0
  6
CONTINUOUS
 62
     7
 10
-593.76098795
 20
929.8464624846
 30
0.0
  0
VERTEX
  5
3C3
  8
0
  6
CONTINUOUS
 62
     7
 10
-591.8225256926
 20
930.9656588995
 30
0.0
  0
VERTEX
  5
3C4
  8
0
  6
CONTINUOUS
 62
     7
 10
-589.880904389
 20
932.0866136515
 30
0.0
  0
VERTEX
  5
3C5
  8
0
  6
CONTINUOUS
 62
     7
 10
-587.937852574
 20
933.2084624731
 30
0.0
  0
SEQEND
  5
C2B
  8
0
  6
CONTINUOUS
 62
     7
  0
LINE
  5
8B
  8
0
  6
CONTINUOUS
 62
     7
 10
-587.937852574
 20
933.2084624731
 30
0.0
 11
-558.1269471175
 21
950.4198102915
 31
0.0
  0
LINE
  5
8C
  8
0
  6
CONTINUOUS
 62
     7
 10
-508.1269351965
 20
979.2873232329
 30
0.0
 11
-432.0532588488
 21
1023.2084660494
 31
0.0
  0
LINE
  5
8D
  8
0
  6
CONTINUOUS
 62
     7
 10
-352.7712134844
 20
1045.8879737818
 30
0.0
 11
-337.7712277895
 21
1019.9072031939
 31
0.0
  0
POLYLINE
  5
8E
  8
0
  6
CONTINUOUS
 62
     7
 66
     1
 10
0.0
 20
0.0
 30
0.0
  0
VERTEX
  5
3C6
  8
0
  6
CONTINUOUS
 62
     7
 10
-337.7712277895
 20
1019.9072031939
 30
0.0
  0
VERTEX
  5
3C7
  8
0
  6
CONTINUOUS
 62
     7
 10
-337.7984671122
 20
1019.8914675677
 30
0.0
  0
VERTEX
  5
3C8
  8
0
  6
CONTINUOUS
 62
     7
 10
-337.8802148825
 20
1019.8442904913
 30
0.0
  0
VERTEX
  5
3C9
  8
0
  6
CONTINUOUS
 62
     7
 10
-338.0163816935
 20
1019.7656719649
 30
0.0
  0
VERTEX
  5
3CA
  8
0
  6
CONTINUOUS
 62
     7
 10
-338.2068483359
 20
1019.6557013952
 30
0.0
  0
VERTEX
  5
3CB
  8
0
  6
CONTINUOUS
 62
     7
 10
-338.4514956004
 20
1019.5144383871
 30
0.0
  0
VERTEX
  5
3CC
  8
0
  6
CONTINUOUS
 62
     7
 10
-338.7501148707
 20
1019.3420617544
 30
0.0
  0
VERTEX
  5
3CD
  8
0
  6
CONTINUOUS
 62
     7
 10
-339.1024677283
 20
1019.1386311018
 30
0.0
  0
VERTEX
  5
3CE
  8
0
  6
CONTINUOUS
 62
     7
 10
-339.5082561499
 20
1018.9043252432
 30
0.0
  0
VERTEX
  5
3CF
  8
0
  6
CONTINUOUS
 62
     7
 10
-339.9672119147
 20
1018.6393527949
 30
0.0
  0
VERTEX
  5
3D0
  8
0
  6
CONTINUOUS
 62
     7
 10
-340.4789475924
 20
1018.3438925707
 30
0.0
  0
VERTEX
  5
3D1
  8
0
  6
CONTINUOUS
 62
     7
 10
-341.0430459506
 20
1018.0182127917
 30
0.0
  0
VERTEX
  5
3D2
  8
0
  6
CONTINUOUS
 62
     7
 10
-341.6590897566
 20
1017.6625518763
 30
0.0
  0
VERTEX
  5
3D3
  8
0
  6
CONTINUOUS
 62
     7
 10
-342.3266021735
 20
1017.2771780455
 30
0.0
  0
VERTEX
  5
3D4
  8
0
  6
CONTINUOUS
 62
     7
 10
-343.0449871546
 20
1016.8623893225
 30
0.0
  0
VERTEX
  5
3D5
  8
0
  6
CONTINUOUS
 62
     7
 10
-343.8137678629
 20
1016.4185433352
 30
0.0
  0
VERTEX
  5
3D6
  8
0
  6
CONTINUOUS
 62
     7
 10
-344.6322886473
 20
1015.9459679091
 30
0.0
  0
VERTEX
  5
3D7
  8
0
  6
CONTINUOUS
 62
     7
 10
-345.499923659
 20
1015.4450206721
 30
0.0
  0
VERTEX
  5
3D8
  8
0
  6
CONTINUOUS
 62
     7
 10
-346.4159874445
 20
1014.916148659
 30
0.0
  0
VERTEX
  5
3D9
  8
0
  6
CONTINUOUS
 62
     7
 10
-347.3797647482
 20
1014.3597094977
 30
0.0
  0
VERTEX
  5
3DA
  8
0
  6
CONTINUOUS
 62
     7
 10
-348.3904807097
 20
1013.7761800253
 30
0.0
  0
VERTEX
  5
3DB
  8
0
  6
CONTINUOUS
 62
     7
 10
-349.4473604685
 20
1013.1659774744
 30
0.0
  0
VERTEX
  5
3DC
  8
0
  6
CONTINUOUS
 62
     7
 10
-350.5495397574
 20
1012.5296382868
 30
0.0
  0
VERTEX
  5
3DD
  8
0
  6
CONTINUOUS
 62
     7
 10
-351.6961841113
 20
1011.8676392996
 30
0.0
  0
VERTEX
  5
3DE
  8
0
  6
CONTINUOUS
 62
     7
 10
-352.8863696581
 20
1011.18045735
 30
0.0
  0
VERTEX
  5
3DF
  8
0
  6
CONTINUOUS
 62
     7
 10
-354.1192023283
 20
1010.4686884844
 30
0.0
  0
VERTEX
  5
3E0
  8
0
  6
CONTINUOUS
 62
     7
 10
-355.3936390406
 20
1009.732898947
 30
0.0
  0
VERTEX
  5
3E1
  8
0
  6
CONTINUOUS
 62
     7
 10
-356.7087559229
 20
1008.9736251795
 30
0.0
  0
VERTEX
  5
3E2
  8
0
  6
CONTINUOUS
 62
     7
 10
-358.0634502894
 20
1008.1914930308
 30
0.0
  0
VERTEX
  5
3E3
  8
0
  6
CONTINUOUS
 62
     7
 10
-359.456708861
 20
1007.3870985472
 30
0.0
  0
VERTEX
  5
3E4
  8
0
  6
CONTINUOUS
 62
     7
 10
-360.8873991496
 20
1006.5610675776
 30
0.0
  0
VERTEX
  5
3E5
  8
0
  6
CONTINUOUS
 62
     7
 10
-362.3544184691
 20
1005.7140855753
 30
0.0
  0
VERTEX
  5
3E6
  8
0
  6
CONTINUOUS
 62
     7
 10
-363.856604529
 20
1004.8468081915
 30
0.0
  0
VERTEX
  5
3E7
  8
0
  6
CONTINUOUS
 62
     7
 10
-365.3927950388
 20
1003.9598910773
 30
0.0
  0
VERTEX
  5
3E8
  8
0
  6
CONTINUOUS
 62
     7
 10
-366.9617383009
 20
1003.0540494883
 30
0.0
  0
VERTEX
  5
3E9
  8
0
  6
CONTINUOUS
 62
     7
 10
-368.5622124201
 20
1002.1300284827
 30
0.0
  0
VERTEX
  5
3EA
  8
0
  6
CONTINUOUS
 62
     7
 10
-370.1929955012
 20
1001.1884837115
 30
0.0
  0
VERTEX
  5
3EB
  8
0
  6
CONTINUOUS
 62
     7
 10
-371.8527464396
 20
1000.2302198374
 30
0.0
  0
VERTEX
  5
3EC
  8
0
  6
CONTINUOUS
 62
     7
 10
-373.5402135378
 20
999.2559521162
 30
0.0
  0
VERTEX
  5
3ED
  8
0
  6
CONTINUOUS
 62
     7
 10
-375.2540556914
 20
998.2664852106
 30
0.0
  0
VERTEX
  5
3EE
  8
0
  6
CONTINUOUS
 62
     7
 10
-376.9929019934
 20
997.2625641787
 30
0.0
  0
VERTEX
  5
3EF
  8
0
  6
CONTINUOUS
 62
     7
 10
-378.7554113394
 20
996.2449638808
 30
0.0
  0
VERTEX
  5
3F0
  8
0
  6
CONTINUOUS
 62
     7
 10
-380.5401532179
 20
995.2145485842
 30
0.0
  0
VERTEX
  5
3F1
  8
0
  6
CONTINUOUS
 62
     7
 10
-382.3457865244
 20
994.1720633471
 30
0.0
  0
VERTEX
  5
3F2
  8
0
  6
CONTINUOUS
 62
     7
 10
-384.1708509451
 20
993.1183724367
 30
0.0
  0
VERTEX
  5
3F3
  8
0
  6
CONTINUOUS
 62
     7
 10
-386.0139159686
 20
992.0542805159
 30
0.0
  0
VERTEX
  5
3F4
  8
0
  6
CONTINUOUS
 62
     7
 10
-387.8735212809
 20
990.9806220495
 30
0.0
  0
VERTEX
  5
3F5
  8
0
  6
CONTINUOUS
 62
     7
 10
-389.7482363707
 20
989.8982613051
 30
0.0
  0
VERTEX
  5
3F6
  8
0
  6
CONTINUOUS
 62
     7
 10
-391.6365413195
 20
988.8080327475
 30
0.0
  0
VERTEX
  5
3F7
  8
0
  6
CONTINUOUS
 62
     7
 10
-393.5370056158
 20
987.7108304465
 30
0.0
  0
VERTEX
  5
3F8
  8
0
  6
CONTINUOUS
 62
     7
 10
-395.448079539
 20
986.6074590647
 30
0.0
  0
VERTEX
  5
3F9
  8
0
  6
CONTINUOUS
 62
     7
 10
-397.368302775
 20
985.4988126719
 30
0.0
  0
VERTEX
  5
3FA
  8
0
  6
CONTINUOUS
 62
     7
 10
-399.2961256033
 20
984.3857853377
 30
0.0
  0
VERTEX
  5
3FB
  8
0
  6
CONTINUOUS
 62
     7
 10
-401.2300579077
 20
983.2692413294
 30
0.0
  0
VERTEX
  5
3FC
  8
0
  6
CONTINUOUS
 62
     7
 10
-403.1685797697
 20
982.1500151121
 30
0.0
  0
VERTEX
  5
3FD
  8
0
  6
CONTINUOUS
 62
     7
 10
-405.1101414687
 20
981.0290603602
 30
0.0
  0
VERTEX
  5
3FE
  8
0
  6
CONTINUOUS
 62
     7
 10
-407.0532528883
 20
979.9072115385
 30
0.0
  0
SEQEND
  5
C2A
  8
0
  6
CONTINUOUS
 62
     7
  0
LINE
  5
8F
  8
0
  6
CONTINUOUS
 62
     7
 10
-632.2198717123
 20
849.9072014057
 30
0.0
 11
-647.2198574072
 21
875.8879719937
 31
0.0
  0
POLYLINE
  5
90
  8
0
  6
CONTINUOUS
 62
     7
 66
     1
 10
0.0
 20
0.0
 30
0.0
  0
VERTEX
  5
3FF
  8
0
  6
CONTINUOUS
 62
     7
 10
-562.9378168112
 20
889.9072079623
 30
0.0
  0
VERTEX
  5
400
  8
0
  6
CONTINUOUS
 62
     7
 10
-564.8809282309
 20
888.7853591406
 30
0.0
  0
VERTEX
  5
401
  8
0
  6
CONTINUOUS
 62
     7
 10
-566.8224899298
 20
887.6643894875
 30
0.0
  0
VERTEX
  5
402
  8
0
  6
CONTINUOUS
 62
     7
 10
-568.7610117918
 20
886.5451930725
 30
0.0
  0
VERTEX
  5
403
  8
0
  6
CONTINUOUS
 62
     7
 10
-570.6949440962
 20
885.4286341631
 30
0.0
  0
VERTEX
  5
404
  8
0
  6
CONTINUOUS
 62
     7
 10
-572.6227967268
 20
884.3155919277
 30
0.0
  0
VERTEX
  5
405
  8
0
  6
CONTINUOUS
 62
     7
 10
-574.5430199629
 20
883.2069604361
 30
0.0
  0
VERTEX
  5
406
  8
0
  6
CONTINUOUS
 62
     7
 10
-576.4540640837
 20
882.1035890543
 30
0.0
  0
VERTEX
  5
407
  8
0
  6
CONTINUOUS
 62
     7
 10
-578.3545581824
 20
881.0063718521
 30
0.0
  0
VERTEX
  5
408
  8
0
  6
CONTINUOUS
 62
     7
 10
-580.2428333289
 20
879.9161432945
 30
0.0
  0
VERTEX
  5
409
  8
0
  6
CONTINUOUS
 62
     7
 10
-582.117578221
 20
878.8337825501
 30
0.0
  0
VERTEX
  5
40A
  8
0
  6
CONTINUOUS
 62
     7
 10
-583.9771835333
 20
877.7601389849
 30
0.0
  0
VERTEX
  5
40B
  8
0
  6
CONTINUOUS
 62
     7
 10
-585.8202187544
 20
876.696047064
 30
0.0
  0
VERTEX
  5
40C
  8
0
  6
CONTINUOUS
 62
     7
 10
-587.6453129775
 20
875.6423412525
 30
0.0
  0
VERTEX
  5
40D
  8
0
  6
CONTINUOUS
 62
     7
 10
-589.4509164816
 20
874.5998709166
 30
0.0
  0
VERTEX
  5
40E
  8
0
  6
CONTINUOUS
 62
     7
 10
-591.2356583601
 20
873.5694407189
 30
0.0
  0
VERTEX
  5
40F
  8
0
  6
CONTINUOUS
 62
     7
 10
-592.9981677062
 20
872.5518553221
 30
0.0
  0
VERTEX
  5
410
  8
0
  6
CONTINUOUS
 62
     7
 10
-594.7370140082
 20
871.5479342901
 30
0.0
  0
VERTEX
  5
411
  8
0
  6
CONTINUOUS
 62
     7
 10
-596.4508263594
 20
870.5584524834
 30
0.0
  0
VERTEX
  5
412
  8
0
  6
CONTINUOUS
 62
     7
 10
-598.1382934576
 20
869.5841996634
 30
0.0
  0
VERTEX
  5
413
  8
0
  6
CONTINUOUS
 62
     7
 10
-599.7981040007
 20
868.6259208882
 30
0.0
  0
VERTEX
  5
414
  8
0
  6
CONTINUOUS
 62
     7
 10
-601.4288870818
 20
867.6843910181
 30
0.0
  0
VERTEX
  5
415
  8
0
  6
CONTINUOUS
 62
     7
 10
-603.0293313986
 20
866.7603551113
 30
0.0
  0
VERTEX
  5
416
  8
0
  6
CONTINUOUS
 62
     7
 10
-604.598304463
 20
865.8545284235
 30
0.0
  0
VERTEX
  5
417
  8
0
  6
CONTINUOUS
 62
     7
 10
-606.1344949728
 20
864.9676113093
 30
0.0
  0
VERTEX
  5
418
  8
0
  6
CONTINUOUS
 62
     7
 10
-607.6366512305
 20
864.1003339255
 30
0.0
  0
VERTEX
  5
419
  8
0
  6
CONTINUOUS
 62
     7
 10
-609.1037003523
 20
863.253337022
 30
0.0
  0
VERTEX
  5
41A
  8
0
  6
CONTINUOUS
 62
     7
 10
-610.5343906409
 20
862.4273358547
 30
0.0
  0
VERTEX
  5
41B
  8
0
  6
CONTINUOUS
 62
     7
 10
-611.9276492125
 20
861.6229413712
 30
0.0
  0
VERTEX
  5
41C
  8
0
  6
CONTINUOUS
 62
     7
 10
-613.282343579
 20
860.8407943213
 30
0.0
  0
VERTEX
  5
41D
  8
0
  6
CONTINUOUS
 62
     7
 10
-614.5974008566
 20
860.0815205538
 30
0.0
  0
VERTEX
  5
41E
  8
0
  6
CONTINUOUS
 62
     7
 10
-615.8718673712
 20
859.3457161152
 30
0.0
  0
VERTEX
  5
41F
  8
0
  6
CONTINUOUS
 62
     7
 10
-617.1047298438
 20
858.6339472496
 30
0.0
  0
VERTEX
  5
420
  8
0
  6
CONTINUOUS
 62
     7
 10
-618.2949153906
 20
857.9467802012
 30
0.0
  0
VERTEX
  5
421
  8
0
  6
CONTINUOUS
 62
     7
 10
-619.4415299422
 20
857.2847663128
 30
0.0
  0
VERTEX
  5
422
  8
0
  6
CONTINUOUS
 62
     7
 10
-620.5437390334
 20
856.6484271252
 30
0.0
  0
VERTEX
  5
423
  8
0
  6
CONTINUOUS
 62
     7
 10
-621.6005889899
 20
856.0382394755
 30
0.0
  0
VERTEX
  5
424
  8
0
  6
CONTINUOUS
 62
     7
 10
-622.6113049513
 20
855.454695102
 30
0.0
  0
VERTEX
  5
425
  8
0
  6
CONTINUOUS
 62
     7
 10
-623.5751120573
 20
854.8982708418
 30
0.0
  0
VERTEX
  5
426
  8
0
  6
CONTINUOUS
 62
     7
 10
-624.4911162383
 20
854.3693839276
 30
0.0
  0
VERTEX
  5
427
  8
0
  6
CONTINUOUS
 62
     7
 10
-625.3587810523
 20
853.8684515917
 30
0.0
  0
VERTEX
  5
428
  8
0
  6
CONTINUOUS
 62
     7
 10
-626.177331639
 20
853.3958761656
 30
0.0
  0
VERTEX
  5
429
  8
0
  6
CONTINUOUS
 62
     7
 10
-626.9460527426
 20
852.9520301783
 30
0.0
  0
VERTEX
  5
42A
  8
0
  6
CONTINUOUS
 62
     7
 10
-627.6644675261
 20
852.5372563565
 30
0.0
  0
VERTEX
  5
42B
  8
0
  6
CONTINUOUS
 62
     7
 10
-628.3319799429
 20
852.1518676245
 30
0.0
  0
VERTEX
  5
42C
  8
0
  6
CONTINUOUS
 62
     7
 10
-628.9479939467
 20
851.7962067091
 30
0.0
  0
VERTEX
  5
42D
  8
0
  6
CONTINUOUS
 62
     7
 10
-629.5121519095
 20
851.4705120289
 30
0.0
  0
VERTEX
  5
42E
  8
0
  6
CONTINUOUS
 62
     7
 10
-630.0238577849
 20
851.1750667059
 30
0.0
  0
VERTEX
  5
42F
  8
0
  6
CONTINUOUS
 62
     7
 10
-630.4828135497
 20
850.9100942576
 30
0.0
  0
VERTEX
  5
430
  8
0
  6
CONTINUOUS
 62
     7
 10
-630.8886019713
 20
850.675788399
 30
0.0
  0
VERTEX
  5
431
  8
0
  6
CONTINUOUS
 62
     7
 10
-631.2409846312
 20
850.4723726475
 30
0.0
  0
VERTEX
  5
432
  8
0
  6
CONTINUOUS
 62
     7
 10
-631.5396039015
 20
850.2999662125
 30
0.0
  0
VERTEX
  5
433
  8
0
  6
CONTINUOUS
 62
     7
 10
-631.7842213637
 20
850.1587181055
 30
0.0
  0
VERTEX
  5
434
  8
0
  6
CONTINUOUS
 62
     7
 10
-631.9747178084
 20
850.0487475359
 30
0.0
  0
VERTEX
  5
435
  8
0
  6
CONTINUOUS
 62
     7
 10
-632.1108548171
 20
849.9701290095
 30
0.0
  0
VERTEX
  5
436
  8
0
  6
CONTINUOUS
 62
     7
 10
-632.1926323897
 20
849.922937032
 30
0.0
  0
VERTEX
  5
437
  8
0
  6
CONTINUOUS
 62
     7
 10
-632.2198717123
 20
849.9072014057
 30
0.0
  0
SEQEND
  5
C29
  8
0
  6
CONTINUOUS
 62
     7
  0
ARC
  5
91
  8
0
  6
CONTINUOUS
 62
     7
 10
-582.1269371089
 20
993.1437217688
 30
0.0
 40
40.00000000000014
 50
23.0533724443
 51
291.3178125465
  0
ARC
  5
92
  8
0
  6
CONTINUOUS
 62
     7
 10
-582.1269371089
 20
993.1437217688
 30
0.0
 40
40.00000000000014
 50
8.6821874535
 51
23.0533724443
  0
POLYLINE
  5
93
  8
0
  6
CONTINUOUS
 62
     7
 66
     1
 10
0.0
 20
0.0
 30
0.0
  0
VERTEX
  5
438
  8
0
  6
CONTINUOUS
 62
     7
 10
-568.5963241583
 20
675.8879690134
 30
0.0
  0
VERTEX
  5
439
  8
0
  6
CONTINUOUS
 62
     7
 10
-567.3825947768
 20
669.0047478007
 30
0.0
  0
VERTEX
  5
43A
  8
0
  6
CONTINUOUS
 62
     7
 10
-566.1693422324
 20
662.1241389477
 30
0.0
  0
VERTEX
  5
43B
  8
0
  6
CONTINUOUS
 62
     7
 10
-564.957937432
 20
655.2539772057
 30
0.0
  0
VERTEX
  5
43C
  8
0
  6
CONTINUOUS
 62
     7
 10
-563.749810887
 20
648.4020973259
 30
0.0
  0
VERTEX
  5
43D
  8
0
  6
CONTINUOUS
 62
     7
 10
-562.5453202254
 20
641.5711014235
 30
0.0
  0
VERTEX
  5
43E
  8
0
  6
CONTINUOUS
 62
     7
 10
-561.3449422842
 20
634.7636176908
 30
0.0
  0
VERTEX
  5
43F
  8
0
  6
CONTINUOUS
 62
     7
 10
-560.1501075751
 20
627.9874226713
 30
0.0
  0
VERTEX
  5
440
  8
0
  6
CONTINUOUS
 62
     7
 10
-558.9621870047
 20
621.2502835953
 30
0.0
  0
VERTEX
  5
441
  8
0
  6
CONTINUOUS
 62
     7
 10
-557.7213375098
 20
614.2129159236
 30
0.0
  0
VERTEX
  5
442
  8
0
  6
CONTINUOUS
 62
     7
 10
-556.4890710837
 20
607.2245730722
 30
0.0
  0
VERTEX
  5
443
  8
0
  6
CONTINUOUS
 62
     7
 10
-555.2670566565
 20
600.2941026056
 30
0.0
  0
VERTEX
  5
444
  8
0
  6
CONTINUOUS
 62
     7
 10
-554.0567843443
 20
593.4303595388
 30
0.0
  0
VERTEX
  5
445
  8
0
  6
CONTINUOUS
 62
     7
 10
-552.9169051176
 20
586.9658036792
 30
0.0
  0
VERTEX
  5
446
  8
0
  6
CONTINUOUS
 62
     7
 10
-551.7885891921
 20
580.5668352806
 30
0.0
  0
VERTEX
  5
447
  8
0
  6
CONTINUOUS
 62
     7
 10
-550.6731478697
 20
574.2408676708
 30
0.0
  0
VERTEX
  5
448
  8
0
  6
CONTINUOUS
 62
     7
 10
-549.5718924529
 20
567.9952992761
 30
0.0
  0
VERTEX
  5
449
  8
0
  6
CONTINUOUS
 62
     7
 10
-548.485240174
 20
561.8326409423
 30
0.0
  0
VERTEX
  5
44A
  8
0
  6
CONTINUOUS
 62
     7
 10
-547.4136678702
 20
555.7553737128
 30
0.0
  0
VERTEX
  5
44B
  8
0
  6
CONTINUOUS
 62
     7
 10
-546.3584272391
 20
549.7706203425
 30
0.0
  0
VERTEX
  5
44C
  8
0
  6
CONTINUOUS
 62
     7
 10
-545.3207103735
 20
543.8855110371
 30
0.0
  0
VERTEX
  5
44D
  8
0
  6
CONTINUOUS
 62
     7
 10
-544.2483632094
 20
537.8039150202
 30
0.0
  0
VERTEX
  5
44E
  8
0
  6
CONTINUOUS
 62
     7
 10
-543.1964008337
 20
531.8381010258
 30
0.0
  0
VERTEX
  5
44F
  8
0
  6
CONTINUOUS
 62
     7
 10
-542.1663133627
 20
525.995936867
 30
0.0
  0
VERTEX
  5
450
  8
0
  6
CONTINUOUS
 62
     7
 10
-541.1593524939
 20
520.2852754557
 30
0.0
  0
VERTEX
  5
451
  8
0
  6
CONTINUOUS
 62
     7
 10
-540.2319638258
 20
515.0258957112
 30
0.0
  0
VERTEX
  5
452
  8
0
  6
CONTINUOUS
 62
     7
 10
-539.3259732253
 20
509.8878412211
 30
0.0
  0
VERTEX
  5
453
  8
0
  6
CONTINUOUS
 62
     7
 10
-538.4424535757
 20
504.8771469557
 30
0.0
  0
VERTEX
  5
454
  8
0
  6
CONTINUOUS
 62
     7
 10
-537.5824777609
 20
499.9998329842
 30
0.0
  0
VERTEX
  5
455
  8
0
  6
CONTINUOUS
 62
     7
 10
-536.746343804
 20
495.2580599749
 30
0.0
  0
VERTEX
  5
456
  8
0
  6
CONTINUOUS
 62
     7
 10
-535.9345285422
 20
490.6538395846
 30
0.0
  0
VERTEX
  5
457
  8
0
  6
CONTINUOUS
 62
     7
 10
-535.1479260451
 20
486.1927299464
 30
0.0
  0
VERTEX
  5
458
  8
0
  6
CONTINUOUS
 62
     7
 10
-534.387489987
 20
481.880348798
 30
0.0
  0
VERTEX
  5
459
  8
0
  6
CONTINUOUS
 62
     7
 10
-533.6157290465
 20
477.5031624996
 30
0.0
  0
VERTEX
  5
45A
  8
0
  6
CONTINUOUS
 62
     7
 10
-532.8737108237
 20
473.2950894797
 30
0.0
  0
VERTEX
  5
45B
  8
0
  6
CONTINUOUS
 62
     7
 10
-532.1625082022
 20
469.2617921793
 30
0.0
  0
VERTEX
  5
45C
  8
0
  6
CONTINUOUS
 62
     7
 10
-531.4831344611
 20
465.4089032376
 30
0.0
  0
VERTEX
  5
45D
  8
0
  6
CONTINUOUS
 62
     7
 10
-530.8765379912
 20
461.9684635365
 30
0.0
  0
VERTEX
  5
45E
  8
0
  6
CONTINUOUS
 62
     7
 10
-530.2983133322
 20
458.689209696
 30
0.0
  0
VERTEX
  5
45F
  8
0
  6
CONTINUOUS
 62
     7
 10
-529.7491757399
 20
455.5749862158
 30
0.0
  0
VERTEX
  5
460
  8
0
  6
CONTINUOUS
 62
     7
 10
-529.22984047
 20
452.6297270024
 30
0.0
  0
VERTEX
  5
461
  8
0
  6
CONTINUOUS
 62
     7
 10
-528.740545941
 20
449.8548923695
 30
0.0
  0
VERTEX
  5
462
  8
0
  6
CONTINUOUS
 62
     7
 10
-528.2815305716
 20
447.251570102
 30
0.0
  0
VERTEX
  5
463
  8
0
  6
CONTINUOUS
 62
     7
 10
-527.8532711989
 20
444.8228447401
 30
0.0
  0
VERTEX
  5
464
  8
0
  6
CONTINUOUS
 62
     7
 10
-527.4563638693
 20
442.571860429
 30
0.0
  0
VERTEX
  5
465
  8
0
  6
CONTINUOUS
 62
     7
 10
-527.0726291663
 20
440.3956352436
 30
0.0
  0
VERTEX
  5
466
  8
0
  6
CONTINUOUS
 62
     7
 10
-526.7240612036
 20
438.4186683857
 30
0.0
  0
VERTEX
  5
467
  8
0
  6
CONTINUOUS
 62
     7
 10
-526.4110772139
 20
436.643612262
 30
0.0
  0
VERTEX
  5
468
  8
0
  6
CONTINUOUS
 62
     7
 10
-526.1341540343
 20
435.0730894768
 30
0.0
  0
VERTEX
  5
469
  8
0
  6
CONTINUOUS
 62
     7
 10
-525.9074775702
 20
433.7876557076
 30
0.0
  0
VERTEX
  5
46A
  8
0
  6
CONTINUOUS
 62
     7
 10
-525.7127491957
 20
432.683285948
 30
0.0
  0
VERTEX
  5
46B
  8
0
  6
CONTINUOUS
 62
     7
 10
-525.5501477248
 20
431.7611871922
 30
0.0
  0
VERTEX
  5
46C
  8
0
  6
CONTINUOUS
 62
     7
 10
-525.4199115759
 20
431.0226409399
 30
0.0
  0
VERTEX
  5
46D
  8
0
  6
CONTINUOUS
 62
     7
 10
-525.3221599585
 20
430.4682283365
 30
0.0
  0
VERTEX
  5
46E
  8
0
  6
CONTINUOUS
 62
     7
 10
-525.2568928725
 20
430.0978748762
 30
0.0
  0
VERTEX
  5
46F
  8
0
  6
CONTINUOUS
 62
     7
 10
-525.2240507132
 20
429.9118338787
 30
0.0
  0
VERTEX
  5
470
  8
0
  6
CONTINUOUS
 62
     7
 10
-525.2239315039
 20
429.9111037218
 30
0.0
  0
SEQEND
  5
C28
  8
0
  6
CONTINUOUS
 62
     7
  0
LINE
  5
94
  8
0
  6
CONTINUOUS
 62
     7
 10
-381.2198547846
 20
675.8879690134
 30
0.0
 11
-568.5962645537
 21
675.8879690134
 31
0.0
  0
POLYLINE
  5
95
  8
0
  6
CONTINUOUS
 62
     7
 66
     1
 10
0.0
 20
0.0
 30
0.0
  0
VERTEX
  5
471
  8
0
  6
CONTINUOUS
 62
     7
 10
-269.2772356993
 20
665.8728892618
 30
0.0
  0
VERTEX
  5
472
  8
0
  6
CONTINUOUS
 62
     7
 10
-269.2779807574
 20
662.2976974287
 30
0.0
  0
VERTEX
  5
473
  8
0
  6
CONTINUOUS
 62
     7
 10
-269.2794410712
 20
655.5142241233
 30
0.0
  0
VERTEX
  5
474
  8
0
  6
CONTINUOUS
 62
     7
 10
-269.2801265246
 20
648.7488883251
 30
0.0
  0
VERTEX
  5
475
  8
0
  6
CONTINUOUS
 62
     7
 10
-269.2796198851
 20
642.0042930805
 30
0.0
  0
VERTEX
  5
476
  8
0
  6
CONTINUOUS
 62
     7
 10
-269.2783979899
 20
635.2830088401
 30
0.0
  0
VERTEX
  5
477
  8
0
  6
CONTINUOUS
 62
     7
 10
-269.2770866877
 20
628.5927227401
 30
0.0
  0
VERTEX
  5
478
  8
0
  6
CONTINUOUS
 62
     7
 10
-269.2763118273
 20
621.9411126041
 30
0.0
  0
VERTEX
  5
479
  8
0
  6
CONTINUOUS
 62
     7
 10
-269.2761032111
 20
614.9920864665
 30
0.0
  0
VERTEX
  5
47A
  8
0
  6
CONTINUOUS
 62
     7
 10
-269.2758647925
 20
608.0915524328
 30
0.0
  0
VERTEX
  5
47B
  8
0
  6
CONTINUOUS
 62
     7
 10
-269.275358153
 20
601.2482090556
 30
0.0
  0
VERTEX
  5
47C
  8
0
  6
CONTINUOUS
 62
     7
 10
-269.2743746764
 20
594.470728811
 30
0.0
  0
VERTEX
  5
47D
  8
0
  6
CONTINUOUS
 62
     7
 10
-269.2733315951
 20
588.0880920851
 30
0.0
  0
VERTEX
  5
47E
  8
0
  6
CONTINUOUS
 62
     7
 10
-269.272765351
 20
581.7700593436
 30
0.0
  0
VERTEX
  5
47F
  8
0
  6
CONTINUOUS
 62
     7
 10
-269.2729143626
 20
575.5238203966
 30
0.0
  0
VERTEX
  5
480
  8
0
  6
CONTINUOUS
 62
     7
 10
-269.2739276415
 20
569.3565650546
 30
0.0
  0
VERTEX
  5
481
  8
0
  6
CONTINUOUS
 62
     7
 10
-269.2752389437
 20
563.2707520091
 30
0.0
  0
VERTEX
  5
482
  8
0
  6
CONTINUOUS
 62
     7
 10
-269.276192618
 20
557.2686238849
 30
0.0
  0
VERTEX
  5
483
  8
0
  6
CONTINUOUS
 62
     7
 10
-269.2767290598
 20
551.3569905126
 30
0.0
  0
VERTEX
  5
484
  8
0
  6
CONTINUOUS
 62
     7
 10
-269.2767588622
 20
545.5426989758
 30
0.0
  0
VERTEX
  5
485
  8
0
  6
CONTINUOUS
 62
     7
 10
-269.2769078738
 20
539.5371584856
 30
0.0
  0
VERTEX
  5
486
  8
0
  6
CONTINUOUS
 62
     7
 10
-269.2775635249
 20
533.6442558729
 30
0.0
  0
VERTEX
  5
487
  8
0
  6
CONTINUOUS
 62
     7
 10
-269.2783383852
 20
527.8713821137
 30
0.0
  0
VERTEX
  5
488
  8
0
  6
CONTINUOUS
 62
     7
 10
-269.2787556178
 20
522.2259430849
 30
0.0
  0
VERTEX
  5
489
  8
0
  6
CONTINUOUS
 62
     7
 10
-269.2781595713
 20
516.9766812289
 30
0.0
  0
VERTEX
  5
48A
  8
0
  6
CONTINUOUS
 62
     7
 10
-269.2766992575
 20
511.8468670809
 30
0.0
  0
VERTEX
  5
48B
  8
0
  6
CONTINUOUS
 62
     7
 10
-269.2751793391
 20
506.8422077858
 30
0.0
  0
VERTEX
  5
48C
  8
0
  6
CONTINUOUS
 62
     7
 10
-269.2742852694
 20
501.9684998953
 30
0.0
  0
VERTEX
  5
48D
  8
0
  6
CONTINUOUS
 62
     7
 10
-269.2748217112
 20
497.2277103626
 30
0.0
  0
VERTEX
  5
48E
  8
0
  6
CONTINUOUS
 62
     7
 10
-269.2764310366
 20
492.6215081179
 30
0.0
  0
VERTEX
  5
48F
  8
0
  6
CONTINUOUS
 62
     7
 10
-269.278219176
 20
488.1551681721
 30
0.0
  0
VERTEX
  5
490
  8
0
  6
CONTINUOUS
 62
     7
 10
-269.2792622572
 20
483.8339208328
 30
0.0
  0
VERTEX
  5
491
  8
0
  6
CONTINUOUS
 62
     7
 10
-269.279053641
 20
479.4490604365
 30
0.0
  0
VERTEX
  5
492
  8
0
  6
CONTINUOUS
 62
     7
 10
-269.278129769
 20
475.2283214295
 30
0.0
  0
VERTEX
  5
493
  8
0
  6
CONTINUOUS
 62
     7
 10
-269.27711649
 20
471.1769639218
 30
0.0
  0
VERTEX
  5
494
  8
0
  6
CONTINUOUS
 62
     7
 10
-269.2767588622
 20
467.3001735174
 30
0.0
  0
VERTEX
  5
495
  8
0
  6
CONTINUOUS
 62
     7
 10
-269.2767886645
 20
463.7767641508
 30
0.0
  0
VERTEX
  5
496
  8
0
  6
CONTINUOUS
 62
     7
 10
-269.2765800482
 20
460.4140489065
 30
0.0
  0
VERTEX
  5
497
  8
0
  6
CONTINUOUS
 62
     7
 10
-269.2760138041
 20
457.2157828772
 30
0.0
  0
VERTEX
  5
498
  8
0
  6
CONTINUOUS
 62
     7
 10
-269.2749111182
 20
454.1856615507
 30
0.0
  0
VERTEX
  5
499
  8
0
  6
CONTINUOUS
 62
     7
 10
-269.2738084322
 20
451.3250856364
 30
0.0
  0
VERTEX
  5
49A
  8
0
  6
CONTINUOUS
 62
     7
 10
-269.2733613974
 20
448.6348895991
 30
0.0
  0
VERTEX
  5
49B
  8
0
  6
CONTINUOUS
 62
     7
 10
-269.2736296183
 20
446.1180536711
 30
0.0
  0
VERTEX
  5
49C
  8
0
  6
CONTINUOUS
 62
     7
 10
-269.2746130949
 20
443.7775729859
 30
0.0
  0
VERTEX
  5
49D
  8
0
  6
CONTINUOUS
 62
     7
 10
-269.2758051878
 20
441.5082304442
 30
0.0
  0
VERTEX
  5
49E
  8
0
  6
CONTINUOUS
 62
     7
 10
-269.2764906413
 20
439.4358067477
 30
0.0
  0
VERTEX
  5
49F
  8
0
  6
CONTINUOUS
 62
     7
 10
-269.2768184668
 20
437.5628499949
 30
0.0
  0
VERTEX
  5
4A0
  8
0
  6
CONTINUOUS
 62
     7
 10
-269.2768780714
 20
435.8918635809
 30
0.0
  0
VERTEX
  5
4A1
  8
0
  6
CONTINUOUS
 62
     7
 10
-269.2773549086
 20
434.4906477892
 30
0.0
  0
VERTEX
  5
4A2
  8
0
  6
CONTINUOUS
 62
     7
 10
-269.2784575945
 20
433.2734315359
 30
0.0
  0
VERTEX
  5
4A3
  8
0
  6
CONTINUOUS
 62
     7
 10
-269.2796198851
 20
432.2415261233
 30
0.0
  0
VERTEX
  5
4A4
  8
0
  6
CONTINUOUS
 62
     7
 10
-269.2801563269
 20
431.3962279522
 30
0.0
  0
VERTEX
  5
4A5
  8
0
  6
CONTINUOUS
 62
     7
 10
-269.2795304781
 20
430.7381181681
 30
0.0
  0
VERTEX
  5
4A6
  8
0
  6
CONTINUOUS
 62
     7
 10
-269.2780701643
 20
430.2671222651
 30
0.0
  0
VERTEX
  5
4A7
  8
0
  6
CONTINUOUS
 62
     7
 10
-269.2765800482
 20
429.9836276734
 30
0.0
  0
VERTEX
  5
4A8
  8
0
  6
CONTINUOUS
 62
     7
 10
-269.2758945948
 20
429.8879771197
 30
0.0
  0
VERTEX
  5
4A9
  8
0
  6
CONTINUOUS
 62
     7
 10
-269.2758945948
 20
429.8888115847
 30
0.0
  0
SEQEND
  5
C27
  8
0
  6
CONTINUOUS
 62
     7
  0
LINE
  5
96
  8
0
  6
CONTINUOUS
 62
     7
 10
-767.2198621756
 20
675.8879690134
 30
0.0
 11
-767.2198621756
 21
935.8879594767
 31
0.0
  0
LINE
  5
97
  8
0
  6
CONTINUOUS
 62
     7
 10
-767.2198621756
 20
415.8879785502
 30
0.0
 11
-767.2198621756
 21
675.8879690134
 31
0.0
  0
LINE
  5
98
  8
0
  6
CONTINUOUS
 62
     7
 10
-744.2198602683
 20
440.3035907709
 30
0.0
 11
-744.2198602683
 21
935.8879594767
 31
0.0
  0
LINE
  5
99
  8
0
  6
CONTINUOUS
 62
     7
 10
-764.2198411948
 20
440.3035907709
 30
0.0
 11
-744.2198602683
 21
440.3035907709
 31
0.0
  0
LINE
  5
9A
  8
0
  6
CONTINUOUS
 62
     7
 10
21.780141423
 20
440.3035907709
 30
0.0
 11
1.7801409387
 21
440.3035907709
 31
0.0
  0
LINE
  5
9B
  8
0
  6
CONTINUOUS
 62
     7
 10
1.7801409387
 20
440.3035907709
 30
0.0
 11
1.7801409387
 21
935.8879594767
 31
0.0
  0
LINE
  5
9C
  8
0
  6
CONTINUOUS
 62
     7
 10
24.7801414491
 20
675.8879690134
 30
0.0
 11
24.7801414491
 21
935.8879594767
 31
0.0
  0
LINE
  5
9D
  8
0
  6
CONTINUOUS
 62
     7
 10
24.7801414491
 20
415.8879785502
 30
0.0
 11
24.7801414491
 21
675.8879690134
 31
0.0
  0
LINE
  5
9E
  8
0
  6
CONTINUOUS
 62
     7
 10
-267.9414360053
 20
877.7264325583
 30
0.0
 11
-268.3184353835
 21
840.8338247502
 31
0.0
  0
POLYLINE
  5
9F
  8
0
  6
CONTINUOUS
 62
     7
 66
     1
 10
0.0
 20
0.0
 30
0.0
  0
VERTEX
  5
4AA
  8
0
  6
CONTINUOUS
 62
     7
 10
-264.6198479659
 20
959.6248238051
 30
0.0
  0
VERTEX
  5
4AB
  8
0
  6
CONTINUOUS
 62
     7
 10
-264.5927576548
 20
958.4509401285
 30
0.0
  0
VERTEX
  5
4AC
  8
0
  6
CONTINUOUS
 62
     7
 10
-264.5719854361
 20
957.1350483858
 30
0.0
  0
VERTEX
  5
4AD
  8
0
  6
CONTINUOUS
 62
     7
 10
-264.559677077
 20
955.6811718905
 30
0.0
  0
VERTEX
  5
4AE
  8
0
  6
CONTINUOUS
 62
     7
 10
-264.5580379492
 20
954.0932147467
 30
0.0
  0
VERTEX
  5
4AF
  8
0
  6
CONTINUOUS
 62
     7
 10
-264.5664124018
 20
952.319738146
 30
0.0
  0
VERTEX
  5
4B0
  8
0
  6
CONTINUOUS
 62
     7
 10
-264.5831017024
 20
950.4062204325
 30
0.0
  0
VERTEX
  5
4B1
  8
0
  6
CONTINUOUS
 62
     7
 10
-264.6090595252
 20
948.3583538496
 30
0.0
  0
VERTEX
  5
4B2
  8
0
  6
CONTINUOUS
 62
     7
 10
-264.6451501376
 20
946.1818902457
 30
0.0
  0
VERTEX
  5
4B3
  8
0
  6
CONTINUOUS
 62
     7
 10
-264.6898834235
 20
943.9446001017
 30
0.0
  0
VERTEX
  5
4B4
  8
0
  6
CONTINUOUS
 62
     7
 10
-264.7440044409
 20
941.5895907843
 30
0.0
  0
VERTEX
  5
4B5
  8
0
  6
CONTINUOUS
 62
     7
 10
-264.808347655
 20
939.1232995951
 30
0.0
  0
VERTEX
  5
4B6
  8
0
  6
CONTINUOUS
 62
     7
 10
-264.8838667399
 20
936.5522234404
 30
0.0
  0
VERTEX
  5
4B7
  8
0
  6
CONTINUOUS
 62
     7
 10
-264.9730948931
 20
933.7991445029
 30
0.0
  0
VERTEX
  5
4B8
  8
0
  6
CONTINUOUS
 62
     7
 10
-265.0735883242
 20
930.9396414721
 30
0.0
  0
VERTEX
  5
4B9
  8
0
  6
CONTINUOUS
 62
     7
 10
-265.1857344634
 20
927.9817013705
 30
0.0
  0
VERTEX
  5
4BA
  8
0
  6
CONTINUOUS
 62
     7
 10
-265.3098611361
 20
924.9332367146
 30
0.0
  0
VERTEX
  5
4BB
  8
0
  6
CONTINUOUS
 62
     7
 10
-265.4418258196
 20
921.8844740355
 30
0.0
  0
VERTEX
  5
4BC
  8
0
  6
CONTINUOUS
 62
     7
 10
-265.5843703276
 20
918.754976865
 30
0.0
  0
VERTEX
  5
4BD
  8
0
  6
CONTINUOUS
 62
     7
 10
-265.7373158461
 20
915.5529408419
 30
0.0
  0
VERTEX
  5
4BE
  8
0
  6
CONTINUOUS
 62
     7
 10
-265.9005729681
 20
912.2865169012
 30
0.0
  0
VERTEX
  5
4BF
  8
0
  6
CONTINUOUS
 62
     7
 10
-266.0791782862
 20
908.8579534256
 30
0.0
  0
VERTEX
  5
4C0
  8
0
  6
CONTINUOUS
 62
     7
 10
-266.2679759985
 20
905.3669987881
 30
0.0
  0
VERTEX
  5
4C1
  8
0
  6
CONTINUOUS
 62
     7
 10
-266.4665190703
 20
901.823577162
 30
0.0
  0
VERTEX
  5
4C2
  8
0
  6
CONTINUOUS
 62
     7
 10
-266.6744796759
 20
898.2376276219
 30
0.0
  0
VERTEX
  5
4C3
  8
0
  6
CONTINUOUS
 62
     7
 10
-266.8962089545
 20
894.5392190182
 30
0.0
  0
VERTEX
  5
4C4
  8
0
  6
CONTINUOUS
 62
     7
 10
-267.1278922087
 20
890.8037363255
 30
0.0
  0
VERTEX
  5
4C5
  8
0
  6
CONTINUOUS
 62
     7
 10
-267.369469834
 20
887.0425342285
 30
0.0
  0
VERTEX
  5
4C6
  8
0
  6
CONTINUOUS
 62
     7
 10
-267.6208524233
 20
883.266952511
 30
0.0
  0
SEQEND
  5
C26
  8
0
  6
CONTINUOUS
 62
     7
  0
POLYLINE
  5
A0
  8
0
  6
CONTINUOUS
 62
     7
 66
     1
 10
0.0
 20
0.0
 30
0.0
  0
VERTEX
  5
4C7
  8
0
  6
CONTINUOUS
 62
     7
 10
-265.4724924094
 20
988.6161057913
 30
0.0
  0
VERTEX
  5
4C8
  8
0
  6
CONTINUOUS
 62
     7
 10
-265.4710320956
 20
988.5834722483
 30
0.0
  0
VERTEX
  5
4C9
  8
0
  6
CONTINUOUS
 62
     7
 10
-265.4636709219
 20
988.302883383
 30
0.0
  0
VERTEX
  5
4CA
  8
0
  6
CONTINUOUS
 62
     7
 10
-265.4543129927
 20
987.827446934
 30
0.0
  0
VERTEX
  5
4CB
  8
0
  6
CONTINUOUS
 62
     7
 10
-265.4390542036
 20
987.1560006106
 30
0.0
  0
VERTEX
  5
4CC
  8
0
  6
CONTINUOUS
 62
     7
 10
-265.4140500552
 20
986.2873821223
 30
0.0
  0
VERTEX
  5
4CD
  8
0
  6
CONTINUOUS
 62
     7
 10
-265.3803436285
 20
985.2160184347
 30
0.0
  0
VERTEX
  5
4CE
  8
0
  6
CONTINUOUS
 62
     7
 10
-265.3413919932
 20
983.9473931753
 30
0.0
  0
VERTEX
  5
4CF
  8
0
  6
CONTINUOUS
 62
     7
 10
-265.2961520678
 20
982.4818341696
 30
0.0
  0
VERTEX
  5
4D0
  8
0
  6
CONTINUOUS
 62
     7
 10
-265.2436105734
 20
980.8195798361
 30
0.0
  0
VERTEX
  5
4D1
  8
0
  6
CONTINUOUS
 62
     7
 10
-265.1828436381
 20
978.8995652163
 30
0.0
  0
VERTEX
  5
4D2
  8
0
  6
CONTINUOUS
 62
     7
 10
-265.1169507033
 20
976.7718582117
 30
0.0
  0
VERTEX
  5
4D3
  8
0
  6
CONTINUOUS
 62
     7
 10
-265.0456635481
 20
974.4375317061
 30
0.0
  0
VERTEX
  5
4D4
  8
0
  6
CONTINUOUS
 62
     7
 10
-264.9687139517
 20
971.8976287806
 30
0.0
  0
VERTEX
  5
4D5
  8
0
  6
CONTINUOUS
 62
     7
 10
-264.8864595419
 20
969.1368906462
 30
0.0
  0
VERTEX
  5
4D6
  8
0
  6
CONTINUOUS
 62
     7
 10
-264.8006288535
 20
966.1700098479
 30
0.0
  0
VERTEX
  5
4D7
  8
0
  6
CONTINUOUS
 62
     7
 10
-264.7116093165
 20
962.9987447226
 30
0.0
  0
VERTEX
  5
4D8
  8
0
  6
CONTINUOUS
 62
     7
 10
-264.6198479659
 20
959.6248238051
 30
0.0
  0
SEQEND
  5
C25
  8
0
  6
CONTINUOUS
 62
     7
  0
POLYLINE
  5
A1
  8
0
  6
CONTINUOUS
 62
     7
 66
     1
 10
0.0
 20
0.0
 30
0.0
  0
VERTEX
  5
4D9
  8
0
  6
CONTINUOUS
 62
     7
 10
-265.4724924094
 20
988.6161057913
 30
0.0
  0
VERTEX
  5
4DA
  8
0
  6
CONTINUOUS
 62
     7
 10
-253.9772896296
 20
983.9954941237
 30
0.0
  0
VERTEX
  5
4DB
  8
0
  6
CONTINUOUS
 62
     7
 10
-242.5380854136
 20
979.2355565989
 30
0.0
  0
VERTEX
  5
4DC
  8
0
  6
CONTINUOUS
 62
     7
 10
-231.1576513773
 20
974.3368296587
 30
0.0
  0
VERTEX
  5
4DD
  8
0
  6
CONTINUOUS
 62
     7
 10
-219.838774038
 20
969.299760338
 30
0.0
  0
VERTEX
  5
4DE
  8
0
  6
CONTINUOUS
 62
     7
 10
-208.5555551773
 20
964.1120998823
 30
0.0
  0
VERTEX
  5
4DF
  8
0
  6
CONTINUOUS
 62
     7
 10
-197.3358152634
 20
958.7864248717
 30
0.0
  0
VERTEX
  5
4E0
  8
0
  6
CONTINUOUS
 62
     7
 10
-186.1820278889
 20
953.3239273989
 30
0.0
  0
VERTEX
  5
4E1
  8
0
  6
CONTINUOUS
 62
     7
 10
-175.0967262513
 20
947.7257995569
 30
0.0
  0
VERTEX
  5
4E2
  8
0
  6
CONTINUOUS
 62
     7
 10
-163.3390544182
 20
941.6002600157
 30
0.0
  0
VERTEX
  5
4E3
  8
0
  6
CONTINUOUS
 62
     7
 10
-151.6618637568
 20
935.3214471304
 30
0.0
  0
VERTEX
  5
4E4
  8
0
  6
CONTINUOUS
 62
     7
 10
-140.0681643015
 20
928.8909404242
 30
0.0
  0
VERTEX
  5
4E5
  8
0
  6
CONTINUOUS
 62
     7
 10
-128.5418031937
 20
922.299307462
 30
0.0
  0
VERTEX
  5
4E6
  8
0
  6
CONTINUOUS
 62
     7
 10
-117.1021519429
 20
915.5571876728
 30
0.0
  0
VERTEX
  5
4E7
  8
0
  6
CONTINUOUS
 62
     7
 10
-105.7521460778
 20
908.6663244927
 30
0.0
  0
VERTEX
  5
4E8
  8
0
  6
CONTINUOUS
 62
     7
 10
-95.0900523192
 20
902.0058183634
 30
0.0
  0
VERTEX
  5
4E9
  8
0
  6
CONTINUOUS
 62
     7
 10
-84.5108537203
 20
895.2135114634
 30
0.0
  0
VERTEX
  5
4EA
  8
0
  6
CONTINUOUS
 62
     7
 10
-74.0169791705
 20
888.2909982168
 30
0.0
  0
VERTEX
  5
4EB
  8
0
  6
CONTINUOUS
 62
     7
 10
-63.5953081972
 20
881.2291889155
 30
0.0
  0
VERTEX
  5
4EC
  8
0
  6
CONTINUOUS
 62
     7
 10
-53.261606229
 20
874.0384249651
 30
0.0
  0
VERTEX
  5
4ED
  8
0
  6
CONTINUOUS
 62
     7
 10
-43.0182574517
 20
866.7203603947
 30
0.0
  0
SEQEND
  5
C24
  8
0
  6
CONTINUOUS
 62
     7
  0
POLYLINE
  5
A2
  8
0
  6
CONTINUOUS
 62
     7
 66
     1
 10
0.0
 20
0.0
 30
0.0
  0
VERTEX
  5
4EE
  8
0
  6
CONTINUOUS
 62
     7
 10
-43.0182574517
 20
866.7203603947
 30
0.0
  0
VERTEX
  5
4EF
  8
0
  6
CONTINUOUS
 62
     7
 10
-43.0161936408
 20
866.3745044434
 30
0.0
  0
VERTEX
  5
4F0
  8
0
  6
CONTINUOUS
 62
     7
 10
-43.0125205046
 20
865.8402531111
 30
0.0
  0
VERTEX
  5
4F1
  8
0
  6
CONTINUOUS
 62
     7
 10
-43.0075137145
 20
865.1185004675
 30
0.0
  0
VERTEX
  5
4F2
  8
0
  6
CONTINUOUS
 62
     7
 10
-43.0014414913
 20
864.2102150881
 30
0.0
  0
VERTEX
  5
4F3
  8
0
  6
CONTINUOUS
 62
     7
 10
-42.9938195473
 20
863.0961595738
 30
0.0
  0
VERTEX
  5
4F4
  8
0
  6
CONTINUOUS
 62
     7
 10
-42.9841933972
 20
861.7904602253
 30
0.0
  0
VERTEX
  5
4F5
  8
0
  6
CONTINUOUS
 62
     7
 10
-42.9725853926
 20
860.29526281
 30
0.0
  0
VERTEX
  5
4F6
  8
0
  6
CONTINUOUS
 62
     7
 10
-42.9590253359
 20
858.6127279961
 30
0.0
  0
VERTEX
  5
4F7
  8
0
  6
CONTINUOUS
 62
     7
 10
-42.9448394305
 20
856.9098679983
 30
0.0
  0
VERTEX
  5
4F8
  8
0
  6
CONTINUOUS
 62
     7
 10
-42.9287759787
 20
855.051186558
 30
0.0
  0
VERTEX
  5
4F9
  8
0
  6
CONTINUOUS
 62
     7
 10
-42.9107455737
 20
853.0392466748
 30
0.0
  0
VERTEX
  5
4FA
  8
0
  6
CONTINUOUS
 62
     7
 10
-42.8906215555
 20
850.8766411507
 30
0.0
  0
VERTEX
  5
4FB
  8
0
  6
CONTINUOUS
 62
     7
 10
-42.8683070666
 20
848.5659329855
 30
0.0
  0
VERTEX
  5
4FC
  8
0
  6
CONTINUOUS
 62
     7
 10
-42.8430123455
 20
846.0511236155
 30
0.0
  0
VERTEX
  5
4FD
  8
0
  6
CONTINUOUS
 62
     7
 10
-42.8151620752
 20
843.3826534712
 30
0.0
  0
VERTEX
  5
4FE
  8
0
  6
CONTINUOUS
 62
     7
 10
-42.7848754651
 20
840.5642776453
 30
0.0
  0
VERTEX
  5
4FF
  8
0
  6
CONTINUOUS
 62
     7
 10
-42.7522568232
 20
837.5997959339
 30
0.0
  0
VERTEX
  5
500
  8
0
  6
CONTINUOUS
 62
     7
 10
-42.7174402601
 20
834.4929634297
 30
0.0
  0
SEQEND
  5
C23
  8
0
  6
CONTINUOUS
 62
     7
  0
POLYLINE
  5
A3
  8
0
  6
CONTINUOUS
 62
     7
 66
     1
 10
0.0
 20
0.0
 30
0.0
  0
VERTEX
  5
501
  8
0
  6
CONTINUOUS
 62
     7
 10
-42.7174402601
 20
834.4929634297
 30
0.0
  0
VERTEX
  5
502
  8
0
  6
CONTINUOUS
 62
     7
 10
-42.6937623149
 20
830.9910415375
 30
0.0
  0
VERTEX
  5
503
  8
0
  6
CONTINUOUS
 62
     7
 10
-42.703336311
 20
827.3289172613
 30
0.0
  0
VERTEX
  5
504
  8
0
  6
CONTINUOUS
 62
     7
 10
-42.7505953437
 20
823.4936712944
 30
0.0
  0
VERTEX
  5
505
  8
0
  6
CONTINUOUS
 62
     7
 10
-42.837335003
 20
819.5049731695
 30
0.0
  0
VERTEX
  5
506
  8
0
  6
CONTINUOUS
 62
     7
 10
-42.9629219896
 20
815.3942196333
 30
0.0
  0
VERTEX
  5
507
  8
0
  6
CONTINUOUS
 62
     7
 10
-43.1220291382
 20
811.1406235659
 30
0.0
  0
VERTEX
  5
508
  8
0
  6
CONTINUOUS
 62
     7
 10
-43.3092622286
 20
806.7296861374
 30
0.0
  0
VERTEX
  5
509
  8
0
  6
CONTINUOUS
 62
     7
 10
-43.5163436657
 20
802.1836696827
 30
0.0
  0
SEQEND
  5
C22
  8
0
  6
CONTINUOUS
 62
     7
  0
POLYLINE
  5
A4
  8
0
  6
CONTINUOUS
 62
     7
 66
     1
 10
0.0
 20
0.0
 30
0.0
  0
VERTEX
  5
50A
  8
0
  6
CONTINUOUS
 62
     7
 10
-43.5163436657
 20
802.1836696827
 30
0.0
  0
VERTEX
  5
50B
  8
0
  6
CONTINUOUS
 62
     7
 10
-43.7049923665
 20
798.0484037363
 30
0.0
  0
VERTEX
  5
50C
  8
0
  6
CONTINUOUS
 62
     7
 10
-43.9196286923
 20
793.1715815031
 30
0.0
  0
VERTEX
  5
50D
  8
0
  6
CONTINUOUS
 62
     7
 10
-44.1308973557
 20
788.1645752752
 30
0.0
  0
VERTEX
  5
50E
  8
0
  6
CONTINUOUS
 62
     7
 10
-44.3373305923
 20
783.0355881417
 30
0.0
  0
VERTEX
  5
50F
  8
0
  6
CONTINUOUS
 62
     7
 10
-44.5374457365
 20
777.7928306424
 30
0.0
  0
VERTEX
  5
510
  8
0
  6
CONTINUOUS
 62
     7
 10
-44.7297750241
 20
772.4445207679
 30
0.0
  0
VERTEX
  5
511
  8
0
  6
CONTINUOUS
 62
     7
 10
-44.9184833294
 20
766.8365060055
 30
0.0
  0
VERTEX
  5
512
  8
0
  6
CONTINUOUS
 62
     7
 10
-45.0974611765
 20
761.1199809873
 30
0.0
  0
VERTEX
  5
513
  8
0
  6
CONTINUOUS
 62
     7
 10
-45.2656878358
 20
755.3048326337
 30
0.0
  0
VERTEX
  5
514
  8
0
  6
CONTINUOUS
 62
     7
 10
-45.4221574789
 20
749.4009404146
 30
0.0
  0
VERTEX
  5
515
  8
0
  6
CONTINUOUS
 62
     7
 10
-45.5658493763
 20
743.4182061517
 30
0.0
  0
VERTEX
  5
516
  8
0
  6
CONTINUOUS
 62
     7
 10
-45.6796867973
 20
738.1727999711
 30
0.0
  0
VERTEX
  5
517
  8
0
  6
CONTINUOUS
 62
     7
 10
-45.7837639576
 20
732.8706687951
 30
0.0
  0
VERTEX
  5
518
  8
0
  6
CONTINUOUS
 62
     7
 10
-45.877946747
 20
727.5186746084
 30
0.0
  0
VERTEX
  5
519
  8
0
  6
CONTINUOUS
 62
     7
 10
-45.9621085054
 20
722.1236719453
 30
0.0
  0
VERTEX
  5
51A
  8
0
  6
CONTINUOUS
 62
     7
 10
-46.036122573
 20
716.6925190651
 30
0.0
  0
VERTEX
  5
51B
  8
0
  6
CONTINUOUS
 62
     7
 10
-46.1004061824
 20
711.1043712759
 30
0.0
  0
VERTEX
  5
51C
  8
0
  6
CONTINUOUS
 62
     7
 10
-46.1531264907
 20
705.4809300864
 30
0.0
  0
VERTEX
  5
51D
  8
0
  6
CONTINUOUS
 62
     7
 10
-46.1953116781
 20
699.8297783249
 30
0.0
  0
VERTEX
  5
51E
  8
0
  6
CONTINUOUS
 62
     7
 10
-46.2280048257
 20
694.1585006827
 30
0.0
  0
VERTEX
  5
51F
  8
0
  6
CONTINUOUS
 62
     7
 10
-46.252249015
 20
688.474677194
 30
0.0
  0
VERTEX
  5
520
  8
0
  6
CONTINUOUS
 62
     7
 10
-46.2696908242
 20
682.1847550274
 30
0.0
  0
VERTEX
  5
521
  8
0
  6
CONTINUOUS
 62
     7
 10
-46.2758897072
 20
675.8879690132
 30
0.0
  0
SEQEND
  5
C21
  8
0
  6
CONTINUOUS
 62
     7
  0
POLYLINE
  5
A5
  8
0
  6
CONTINUOUS
 62
     7
 66
     1
 10
0.0
 20
0.0
 30
0.0
  0
VERTEX
  5
522
  8
0
  6
CONTINUOUS
 62
     7
 10
-46.2758897072
 20
675.8879690132
 30
0.0
  0
VERTEX
  5
523
  8
0
  6
CONTINUOUS
 62
     7
 10
-46.2763665444
 20
670.6316793972
 30
0.0
  0
VERTEX
  5
524
  8
0
  6
CONTINUOUS
 62
     7
 10
-46.2773351199
 20
665.3773837426
 30
0.0
  0
VERTEX
  5
525
  8
0
  6
CONTINUOUS
 62
     7
 10
-46.2780950791
 20
660.1310453081
 30
0.0
  0
VERTEX
  5
526
  8
0
  6
CONTINUOUS
 62
     7
 10
-46.2779609686
 20
654.8986273521
 30
0.0
  0
VERTEX
  5
527
  8
0
  6
CONTINUOUS
 62
     7
 10
-46.2768657333
 20
649.6176483744
 30
0.0
  0
VERTEX
  5
528
  8
0
  6
CONTINUOUS
 62
     7
 10
-46.2756661898
 20
644.3550220394
 30
0.0
  0
VERTEX
  5
529
  8
0
  6
CONTINUOUS
 62
     7
 10
-46.2750328905
 20
639.1168652737
 30
0.0
  0
VERTEX
  5
52A
  8
0
  6
CONTINUOUS
 62
     7
 10
-46.2756289369
 20
633.9092856908
 30
0.0
  0
VERTEX
  5
52B
  8
0
  6
CONTINUOUS
 62
     7
 10
-46.2765900618
 20
627.7423730755
 30
0.0
  0
VERTEX
  5
52C
  8
0
  6
CONTINUOUS
 62
     7
 10
-46.2764335996
 20
621.6236135626
 30
0.0
  0
VERTEX
  5
52D
  8
0
  6
CONTINUOUS
 62
     7
 10
-46.2757257945
 20
615.5630356335
 30
0.0
  0
VERTEX
  5
52E
  8
0
  6
CONTINUOUS
 62
     7
 10
-46.275040341
 20
609.570656594
 30
0.0
  0
VERTEX
  5
52F
  8
0
  6
CONTINUOUS
 62
     7
 10
-46.2749360329
 20
603.6565198266
 30
0.0
  0
VERTEX
  5
530
  8
0
  6
CONTINUOUS
 62
     7
 10
-46.2754799253
 20
597.6544215047
 30
0.0
  0
VERTEX
  5
531
  8
0
  6
CONTINUOUS
 62
     7
 10
-46.2761281258
 20
591.7387052142
 30
0.0
  0
VERTEX
  5
532
  8
0
  6
CONTINUOUS
 62
     7
 10
-46.2765602595
 20
585.9195633495
 30
0.0
  0
VERTEX
  5
533
  8
0
  6
CONTINUOUS
 62
     7
 10
-46.2764410502
 20
580.2071808541
 30
0.0
  0
VERTEX
  5
534
  8
0
  6
CONTINUOUS
 62
     7
 10
-46.2754426724
 20
574.6117575729
 30
0.0
  0
VERTEX
  5
535
  8
0
  6
CONTINUOUS
 62
     7
 10
-46.2749434835
 20
569.2868946755
 30
0.0
  0
VERTEX
  5
536
  8
0
  6
CONTINUOUS
 62
     7
 10
-46.2758003003
 20
564.0755786264
 30
0.0
  0
VERTEX
  5
537
  8
0
  6
CONTINUOUS
 62
     7
 10
-46.2770594484
 20
558.9862360322
 30
0.0
  0
VERTEX
  5
538
  8
0
  6
CONTINUOUS
 62
     7
 10
-46.277759803
 20
554.0272860491
 30
0.0
  0
VERTEX
  5
539
  8
0
  6
CONTINUOUS
 62
     7
 10
-46.2769551403
 20
549.2071478331
 30
0.0
  0
VERTEX
  5
53A
  8
0
  6
CONTINUOUS
 62
     7
 10
-46.2759791142
 20
544.3938492501
 30
0.0
  0
VERTEX
  5
53B
  8
0
  6
CONTINUOUS
 62
     7
 10
-46.276373995
 20
539.7304116452
 30
0.0
  0
VERTEX
  5
53C
  8
0
  6
CONTINUOUS
 62
     7
 10
-46.2773574716
 20
535.2247326338
 30
0.0
  0
VERTEX
  5
53D
  8
0
  6
CONTINUOUS
 62
     7
 10
-46.2781174308
 20
530.8847247326
 30
0.0
  0
VERTEX
  5
53E
  8
0
  6
CONTINUOUS
 62
     7
 10
-46.2778715617
 20
526.7182706558
 30
0.0
  0
VERTEX
  5
53F
  8
0
  6
CONTINUOUS
 62
     7
 10
-46.277119053
 20
522.8372334206
 30
0.0
  0
VERTEX
  5
540
  8
0
  6
CONTINUOUS
 62
     7
 10
-46.2767912275
 20
519.1223292315
 30
0.0
  0
VERTEX
  5
541
  8
0
  6
CONTINUOUS
 62
     7
 10
-46.276835931
 20
515.579429146
 30
0.0
  0
VERTEX
  5
542
  8
0
  6
CONTINUOUS
 62
     7
 10
-46.2771861083
 20
512.2144042217
 30
0.0
  0
VERTEX
  5
543
  8
0
  6
CONTINUOUS
 62
     7
 10
-46.2777747041
 20
509.0330957138
 30
0.0
  0
VERTEX
  5
544
  8
0
  6
CONTINUOUS
 62
     7
 10
-46.2778045064
 20
505.9527127707
 30
0.0
  0
VERTEX
  5
545
  8
0
  6
CONTINUOUS
 62
     7
 10
-46.2769700414
 20
503.0687569344
 30
0.0
  0
VERTEX
  5
546
  8
0
  6
CONTINUOUS
 62
     7
 10
-46.2759865648
 20
500.3859369719
 30
0.0
  0
VERTEX
  5
547
  8
0
  6
CONTINUOUS
 62
     7
 10
-46.2755618817
 20
497.9089467489
 30
0.0
  0
VERTEX
  5
548
  8
0
  6
CONTINUOUS
 62
     7
 10
-46.2764335996
 20
495.6424801314
 30
0.0
  0
VERTEX
  5
549
  8
0
  6
CONTINUOUS
 62
     7
 10
-46.2770519978
 20
493.6439065897
 30
0.0
  0
VERTEX
  5
54A
  8
0
  6
CONTINUOUS
 62
     7
 10
-46.276195181
 20
491.845098015
 30
0.0
  0
VERTEX
  5
54B
  8
0
  6
CONTINUOUS
 62
     7
 10
-46.2748838788
 20
490.2486919129
 30
0.0
  0
VERTEX
  5
54C
  8
0
  6
CONTINUOUS
 62
     7
 10
-46.274116469
 20
488.8573257887
 30
0.0
  0
VERTEX
  5
54D
  8
0
  6
CONTINUOUS
 62
     7
 10
-46.2749136812
 20
487.6736520493
 30
0.0
  0
VERTEX
  5
54E
  8
0
  6
CONTINUOUS
 62
     7
 10
-46.2762771374
 20
486.6734116041
 30
0.0
  0
VERTEX
  5
54F
  8
0
  6
CONTINUOUS
 62
     7
 10
-46.2766794688
 20
485.8937530482
 30
0.0
  0
VERTEX
  5
550
  8
0
  6
CONTINUOUS
 62
     7
 10
-46.2764932043
 20
485.3356300556
 30
0.0
  0
VERTEX
  5
551
  8
0
  6
CONTINUOUS
 62
     7
 10
-46.2761057741
 20
485.0000410044
 30
0.0
  0
VERTEX
  5
552
  8
0
  6
CONTINUOUS
 62
     7
 10
-46.2758897072
 20
484.8879693711
 30
0.0
  0
SEQEND
  5
C20
  8
0
  6
CONTINUOUS
 62
     7
  0
ARC
  5
A6
  8
0
  6
CONTINUOUS
 62
     7
 10
-333.2198583609
 20
675.8879690134
 30
0.0
 40
47.99999999999996
 50
79.4734304377
 51
359.0370470505
  0
CIRCLE
  5
A7
  8
0
  6
CONTINUOUS
 62
     7
 10
-503.2198583609
 20
850.8879690134
 30
0.0
 40
20.00000000000017
  0
POLYLINE
  5
A8
  8
0
  6
CONTINUOUS
 62
     7
 66
     1
 10
0.0
 20
0.0
 30
0.0
  0
VERTEX
  5
553
  8
0
  6
CONTINUOUS
 62
     7
 10
-267.9017989165
 20
879.0778486693
 30
0.0
  0
VERTEX
  5
554
  8
0
  6
CONTINUOUS
 62
     7
 10
-278.0727951056
 20
886.1454396212
 30
0.0
  0
VERTEX
  5
555
  8
0
  6
CONTINUOUS
 62
     7
 10
-288.1910411841
 20
893.2879834139
 30
0.0
  0
VERTEX
  5
556
  8
0
  6
CONTINUOUS
 62
     7
 10
-294.8862521178
 20
898.1239168608
 30
0.0
  0
VERTEX
  5
557
  8
0
  6
CONTINUOUS
 62
     7
 10
-301.5186695582
 20
903.0459343159
 30
0.0
  0
VERTEX
  5
558
  8
0
  6
CONTINUOUS
 62
     7
 10
-308.0654947287
 20
908.0798892939
 30
0.0
  0
VERTEX
  5
559
  8
0
  6
CONTINUOUS
 62
     7
 10
-312.9334954745
 20
911.9679896796
 30
0.0
  0
VERTEX
  5
55A
  8
0
  6
CONTINUOUS
 62
     7
 10
-317.7239505774
 20
915.9539161885
 30
0.0
  0
VERTEX
  5
55B
  8
0
  6
CONTINUOUS
 62
     7
 10
-322.4143294817
 20
920.0552372896
 30
0.0
  0
VERTEX
  5
55C
  8
0
  6
CONTINUOUS
 62
     7
 10
-326.9820718295
 20
924.2894916498
 30
0.0
  0
VERTEX
  5
55D
  8
0
  6
CONTINUOUS
 62
     7
 10
-330.7149319178
 20
927.9734759295
 30
0.0
  0
VERTEX
  5
55E
  8
0
  6
CONTINUOUS
 62
     7
 10
-334.3210129267
 20
931.7833154166
 30
0.0
  0
VERTEX
  5
55F
  8
0
  6
CONTINUOUS
 62
     7
 10
-337.7721516615
 20
935.7308118307
 30
0.0
  0
VERTEX
  5
560
  8
0
  6
CONTINUOUS
 62
     7
 10
-340.2855305201
 20
938.8464956248
 30
0.0
  0
VERTEX
  5
561
  8
0
  6
CONTINUOUS
 62
     7
 10
-342.67829938
 20
942.0601694548
 30
0.0
  0
VERTEX
  5
562
  8
0
  6
CONTINUOUS
 62
     7
 10
-344.9293283946
 20
945.3729360068
 30
0.0
  0
VERTEX
  5
563
  8
0
  6
CONTINUOUS
 62
     7
 10
-347.017457915
 20
948.7859277689
 30
0.0
  0
SEQEND
  5
C1F
  8
0
  6
CONTINUOUS
 62
     7
  0
POLYLINE
  5
A9
  8
0
  6
CONTINUOUS
 62
     7
 66
     1
 10
0.0
 20
0.0
 30
0.0
  0
VERTEX
  5
564
  8
0
  6
CONTINUOUS
 62
     7
 10
-315.8405630118
 20
966.7859344446
 30
0.0
  0
VERTEX
  5
565
  8
0
  6
CONTINUOUS
 62
     7
 10
-315.8671764857
 20
966.7705564463
 30
0.0
  0
VERTEX
  5
566
  8
0
  6
CONTINUOUS
 62
     7
 10
-315.9470467097
 20
966.7244522536
 30
0.0
  0
VERTEX
  5
567
  8
0
  6
CONTINUOUS
 62
     7
 10
-316.0799650675
 20
966.6477112734
 30
0.0
  0
VERTEX
  5
568
  8
0
  6
CONTINUOUS
 62
     7
 10
-316.2657527453
 20
966.5404527151
 30
0.0
  0
VERTEX
  5
569
  8
0
  6
CONTINUOUS
 62
     7
 10
-316.5040819174
 20
966.4028553927
 30
0.0
  0
VERTEX
  5
56A
  8
0
  6
CONTINUOUS
 62
     7
 10
-316.7945651537
 20
966.2351577246
 30
0.0
  0
VERTEX
  5
56B
  8
0
  6
CONTINUOUS
 62
     7
 10
-317.1366660124
 20
966.0376279318
 30
0.0
  0
VERTEX
  5
56C
  8
0
  6
CONTINUOUS
 62
     7
 10
-317.529788447
 20
965.8106534445
 30
0.0
  0
VERTEX
  5
56D
  8
0
  6
CONTINUOUS
 62
     7
 10
-317.9733364111
 20
965.5545918905
 30
0.0
  0
VERTEX
  5
56E
  8
0
  6
CONTINUOUS
 62
     7
 10
-318.4664754397
 20
965.2698605025
 30
0.0
  0
VERTEX
  5
56F
  8
0
  6
CONTINUOUS
 62
     7
 10
-319.00840087
 20
964.9569659197
 30
0.0
  0
VERTEX
  5
570
  8
0
  6
CONTINUOUS
 62
     7
 10
-319.59818883
 20
964.6164743864
 30
0.0
  0
VERTEX
  5
571
  8
0
  6
CONTINUOUS
 62
     7
 10
-320.2348260409
 20
964.2489223444
 30
0.0
  0
VERTEX
  5
572
  8
0
  6
CONTINUOUS
 62
     7
 10
-320.9172098166
 20
963.8549356425
 30
0.0
  0
VERTEX
  5
573
  8
0
  6
CONTINUOUS
 62
     7
 10
-321.6441778666
 20
963.4352295363
 30
0.0
  0
VERTEX
  5
574
  8
0
  6
CONTINUOUS
 62
     7
 10
-322.4145082957
 20
962.990459677
 30
0.0
  0
VERTEX
  5
575
  8
0
  6
CONTINUOUS
 62
     7
 10
-323.2268599993
 20
962.5214605295
 30
0.0
  0
VERTEX
  5
576
  8
0
  6
CONTINUOUS
 62
     7
 10
-324.0798620707
 20
962.0289771521
 30
0.0
  0
VERTEX
  5
577
  8
0
  6
CONTINUOUS
 62
     7
 10
-324.972054196
 20
961.5138738119
 30
0.0
  0
VERTEX
  5
578
  8
0
  6
CONTINUOUS
 62
     7
 10
-325.9019164568
 20
960.9770147764
 30
0.0
  0
VERTEX
  5
579
  8
0
  6
CONTINUOUS
 62
     7
 10
-326.8678395277
 20
960.4193239176
 30
0.0
  0
VERTEX
  5
57A
  8
0
  6
CONTINUOUS
 62
     7
 10
-327.8682140833
 20
959.8417847121
 30
0.0
  0
VERTEX
  5
57B
  8
0
  6
CONTINUOUS
 62
     7
 10
-328.9012817866
 20
959.2453210318
 30
0.0
  0
VERTEX
  5
57C
  8
0
  6
CONTINUOUS
 62
     7
 10
-329.9653141028
 20
958.6310057604
 30
0.0
  0
VERTEX
  5
57D
  8
0
  6
CONTINUOUS
 62
     7
 10
-331.058463288
 20
957.9998819792
 30
0.0
  0
VERTEX
  5
57E
  8
0
  6
CONTINUOUS
 62
     7
 10
-332.1788815981
 20
957.3529927695
 30
0.0
  0
VERTEX
  5
57F
  8
0
  6
CONTINUOUS
 62
     7
 10
-333.3246616847
 20
956.6914706194
 30
0.0
  0
VERTEX
  5
580
  8
0
  6
CONTINUOUS
 62
     7
 10
-334.4938365942
 20
956.0164480173
 30
0.0
  0
VERTEX
  5
581
  8
0
  6
CONTINUOUS
 62
     7
 10
-335.6844095713
 20
955.3290872538
 30
0.0
  0
VERTEX
  5
582
  8
0
  6
CONTINUOUS
 62
     7
 10
-336.8943242556
 20
954.630520817
 30
0.0
  0
VERTEX
  5
583
  8
0
  6
CONTINUOUS
 62
     7
 10
-338.1215540892
 20
953.9220004046
 30
0.0
  0
VERTEX
  5
584
  8
0
  6
CONTINUOUS
 62
     7
 10
-339.3639831072
 20
953.204688307
 30
0.0
  0
VERTEX
  5
585
  8
0
  6
CONTINUOUS
 62
     7
 10
-340.6194953448
 20
952.4798064196
 30
0.0
  0
VERTEX
  5
586
  8
0
  6
CONTINUOUS
 62
     7
 10
-341.8859152323
 20
951.7486362421
 30
0.0
  0
VERTEX
  5
587
  8
0
  6
CONTINUOUS
 62
     7
 10
-343.1610970026
 20
951.0123996699
 30
0.0
  0
VERTEX
  5
588
  8
0
  6
CONTINUOUS
 62
     7
 10
-344.4428948885
 20
950.2723782027
 30
0.0
  0
VERTEX
  5
589
  8
0
  6
CONTINUOUS
 62
     7
 10
-345.7290737158
 20
949.5297937357
 30
0.0
  0
VERTEX
  5
58A
  8
0
  6
CONTINUOUS
 62
     7
 10
-347.017457915
 20
948.7859277689
 30
0.0
  0
SEQEND
  5
C1E
  8
0
  6
CONTINUOUS
 62
     7
  0
POLYLINE
  5
AA
  8
0
  6
CONTINUOUS
 62
     7
 66
     1
 10
0.0
 20
0.0
 30
0.0
  0
VERTEX
  5
58B
  8
0
  6
CONTINUOUS
 62
     7
 10
-267.620822621
 20
883.266952511
 30
0.0
  0
VERTEX
  5
58C
  8
0
  6
CONTINUOUS
 62
     7
 10
-269.0754143721
 20
885.7863216364
 30
0.0
  0
VERTEX
  5
58D
  8
0
  6
CONTINUOUS
 62
     7
 10
-272.4049894339
 20
891.5533243382
 30
0.0
  0
VERTEX
  5
58E
  8
0
  6
CONTINUOUS
 62
     7
 10
-275.7248191363
 20
897.3034738266
 30
0.0
  0
VERTEX
  5
58F
  8
0
  6
CONTINUOUS
 62
     7
 10
-279.0286151892
 20
903.025787946
 30
0.0
  0
VERTEX
  5
590
  8
0
  6
CONTINUOUS
 62
     7
 10
-281.4943401343
 20
907.2965799534
 30
0.0
  0
VERTEX
  5
591
  8
0
  6
CONTINUOUS
 62
     7
 10
-283.9479653365
 20
911.5463613236
 30
0.0
  0
VERTEX
  5
592
  8
0
  6
CONTINUOUS
 62
     7
 10
-286.3861231333
 20
915.7693951094
 30
0.0
  0
VERTEX
  5
593
  8
0
  6
CONTINUOUS
 62
     7
 10
-288.8055650717
 20
919.9599741661
 30
0.0
  0
VERTEX
  5
594
  8
0
  6
CONTINUOUS
 62
     7
 10
-291.3292555338
 20
924.3311403954
 30
0.0
  0
VERTEX
  5
595
  8
0
  6
CONTINUOUS
 62
     7
 10
-293.8284186846
 20
928.6598234141
 30
0.0
  0
VERTEX
  5
596
  8
0
  6
CONTINUOUS
 62
     7
 10
-296.2977199084
 20
932.9367845022
 30
0.0
  0
VERTEX
  5
597
  8
0
  6
CONTINUOUS
 62
     7
 10
-298.7318245894
 20
937.1527700388
 30
0.0
  0
VERTEX
  5
598
  8
0
  6
CONTINUOUS
 62
     7
 10
-300.7186262137
 20
940.5940144026
 30
0.0
  0
VERTEX
  5
599
  8
0
  6
CONTINUOUS
 62
     7
 10
-302.677234841
 20
943.98641276
 30
0.0
  0
VERTEX
  5
59A
  8
0
  6
CONTINUOUS
 62
     7
 10
-304.603180123
 20
947.3222165072
 30
0.0
  0
VERTEX
  5
59B
  8
0
  6
CONTINUOUS
 62
     7
 10
-306.4920215136
 20
950.5938260519
 30
0.0
  0
VERTEX
  5
59C
  8
0
  6
CONTINUOUS
 62
     7
 10
-308.3780316836
 20
953.8604884112
 30
0.0
  0
VERTEX
  5
59D
  8
0
  6
CONTINUOUS
 62
     7
 10
-310.2192191607
 20
957.0495157206
 30
0.0
  0
VERTEX
  5
59E
  8
0
  6
CONTINUOUS
 62
     7
 10
-312.0086698061
 20
960.1489572489
 30
0.0
  0
VERTEX
  5
59F
  8
0
  6
CONTINUOUS
 62
     7
 10
-313.7395588881
 20
963.1468920672
 30
0.0
  0
VERTEX
  5
5A0
  8
0
  6
CONTINUOUS
 62
     7
 10
-314.8036210066
 20
964.9899570906
 30
0.0
  0
VERTEX
  5
5A1
  8
0
  6
CONTINUOUS
 62
     7
 10
-315.8405630118
 20
966.7859344446
 30
0.0
  0
SEQEND
  5
C1D
  8
0
  6
CONTINUOUS
 62
     7
  0
POLYLINE
  5
AB
  8
0
  6
CONTINUOUS
 62
     7
 66
     1
 10
0.0
 20
0.0
 30
0.0
  0
VERTEX
  5
5A2
  8
0
  6
CONTINUOUS
 62
     7
 10
-267.620822621
 20
883.266952511
 30
0.0
  0
VERTEX
  5
5A3
  8
0
  6
CONTINUOUS
 62
     7
 10
-267.7641419894
 20
881.1764984095
 30
0.0
  0
VERTEX
  5
5A4
  8
0
  6
CONTINUOUS
 62
     7
 10
-267.9017989165
 20
879.0778486693
 30
0.0
  0
SEQEND
  5
C1C
  8
0
  6
CONTINUOUS
 62
     7
  0
POLYLINE
  5
AC
  8
0
  6
CONTINUOUS
 62
     7
 66
     1
 10
0.0
 20
0.0
 30
0.0
  0
VERTEX
  5
5A5
  8
0
  6
CONTINUOUS
 62
     7
 10
-324.925741387
 20
982.5219182932
 30
0.0
  0
VERTEX
  5
5A6
  8
0
  6
CONTINUOUS
 62
     7
 10
-294.5727018839
 20
971.3209836447
 30
0.0
  0
VERTEX
  5
5A7
  8
0
  6
CONTINUOUS
 62
     7
 10
-264.6198479659
 20
959.6248536074
 30
0.0
  0
SEQEND
  5
C1B
  8
0
  6
CONTINUOUS
 62
     7
  0
LINE
  5
AD
  8
0
  6
CONTINUOUS
 62
     7
 10
-529.1846601492
 20
991.445001837
 30
0.0
 11
-541.6557995802
 21
1013.0456356966
 31
0.0
  0
LINE
  5
AE
  8
0
  6
CONTINUOUS
 62
     7
 10
-619.5980517394
 20
968.0456488096
 30
0.0
 11
-596.5981094367
 21
928.2084672415
 31
0.0
  0
ARC
  5
AF
  8
0
  6
CONTINUOUS
 62
     7
 10
-580.6269371089
 20
990.5456455575
 30
0.0
 40
45.00000000000006
 50
30.0
 51
210.0
  0
LINE
  5
B0
  8
0
  6
CONTINUOUS
 62
     7
 10
-347.017457915
 20
948.7859277689
 30
0.0
 11
-375.5023090369
 21
998.1231360399
 31
0.0
  0
POLYLINE
  5
B1
  8
0
  6
CONTINUOUS
 62
     7
 66
     1
 10
0.0
 20
0.0
 30
0.0
  0
VERTEX
  5
5A8
  8
0
  6
CONTINUOUS
 62
     7
 10
-267.9017989165
 20
879.0778486693
 30
0.0
  0
VERTEX
  5
5A9
  8
0
  6
CONTINUOUS
 62
     7
 10
-267.9300515181
 20
878.3217786515
 30
0.0
  0
VERTEX
  5
5AA
  8
0
  6
CONTINUOUS
 62
     7
 10
-267.9414360053
 20
877.7264325583
 30
0.0
  0
SEQEND
  5
C1A
  8
0
  6
CONTINUOUS
 62
     7
  0
LINE
  5
B2
  8
0
  6
CONTINUOUS
 62
     7
 10
-602.324029637
 20
867.1675591433
 30
0.0
 11
-568.5963241583
 21
675.8879642155
 31
0.0
  0
LINE
  5
B3
  8
0
  6
CONTINUOUS
 62
     7
 10
-344.3254141337
 20
1016.1231427157
 30
0.0
 11
-315.8405630118
 21
966.7859344446
 31
0.0
  0
ARC
  5
B4
  8
0
  6
CONTINUOUS
 62
     7
 10
-580.6269371089
 20
990.5456455575
 30
0.0
 40
55.0000000000001
 50
30.0
 51
210.0
  0
LINE
  5
B5
  8
0
  6
CONTINUOUS
 62
     7
 10
-511.864146424
 20
981.4449815714
 30
0.0
 11
-532.9955427176
 21
1018.0456309283
 31
0.0
  0
LINE
  5
B6
  8
0
  6
CONTINUOUS
 62
     7
 10
-628.258308602
 20
963.045653578
 30
0.0
 11
-605.2583066946
 21
923.2084720099
 31
0.0
  0
CIRCLE
  5
B7
  8
0
  6
CONTINUOUS
 62
     7
 10
-432.8128725034
 20
1054.5241755874
 30
0.0
 40
17.50000000000001
  0
ARC
  5
B8
  8
0
  6
CONTINUOUS
 62
     7
 10
-432.8128725034
 20
1054.5241755874
 30
0.0
 40
37.49999999999993
 50
30.0
 51
210.0
  0
LINE
  5
B9
  8
0
  6
CONTINUOUS
 62
     7
 10
-386.5869252211
 20
1049.4584708178
 30
0.0
 11
-400.3369121081
 21
1073.2741622889
 31
0.0
  0
LINE
  5
BA
  8
0
  6
CONTINUOUS
 62
     7
 10
-465.2888385779
 20
1035.7741682493
 30
0.0
 11
-451.5388218886
 21
1011.9584767782
 31
0.0
  0
LINE
  5
BB
  8
0
  6
CONTINUOUS
 62
     7
 10
-771.2198702818
 20
675.8879690134
 30
0.0
 11
-771.2198702818
 21
890.3879641258
 31
0.0
  0
LINE
  5
BC
  8
0
  6
CONTINUOUS
 62
     7
 10
-771.2198702818
 20
461.387973901
 30
0.0
 11
-771.2198702818
 21
675.8879690134
 31
0.0
  0
LINE
  5
BD
  8
0
  6
CONTINUOUS
 62
     7
 10
28.7801416391
 20
675.8879690134
 30
0.0
 11
28.7801416391
 21
890.3879641258
 31
0.0
  0
LINE
  5
BE
  8
0
  6
CONTINUOUS
 62
     7
 10
28.7801416391
 20
461.387973901
 30
0.0
 11
28.7801416391
 21
675.8879690134
 31
0.0
  0
CIRCLE
  5
BF
  8
0
  6
CONTINUOUS
 62
     7
 10
-641.2198583609
 20
675.8879690134
 30
0.0
 40
48.49999999999966
  0
LINE
  5
C0
  8
0
  6
CONTINUOUS
 62
     7
 10
1.7801409387
 20
866.7203603947
 30
0.0
 11
-43.0182574517
 21
866.7203603947
 31
0.0
  0
ARC
  5
C1
  8
0
  6
CONTINUOUS
 62
     7
 10
-580.6269371089
 20
990.5456455575
 30
0.0
 40
71.00000000000009
 50
80.1699579098
 51
210.0
  0
LINE
  5
C2
  8
0
  6
CONTINUOUS
 62
     7
 10
-541.3674323088
 20
1055.801060673
 30
0.0
 11
-568.5053674704
 21
1060.5032710993
 31
0.0
  0
LINE
  5
C3
  8
0
  6
CONTINUOUS
 62
     7
 10
-541.3674323088
 20
1055.801060673
 30
0.0
 11
-499.9258725172
 21
984.0221970045
 31
0.0
  0
LINE
  5
C4
  8
0
  6
CONTINUOUS
 62
     7
 10
-642.1147195822
 20
955.0456373656
 30
0.0
 11
-619.1147176749
 21
915.2084706986
 31
0.0
  0
LINE
  5
C5
  8
0
  6
CONTINUOUS
 62
     7
 10
-433.0057708746
 20
1037.0252399409
 30
0.0
 11
-438.5185448653
 21
1037.9804341757
 31
0.0
  0
LINE
  5
C6
  8
0
  6
CONTINUOUS
 62
     7
 10
-468.557527495
 20
1043.1852905714
 30
0.0
 11
-541.3674323088
 21
1055.801060673
 31
0.0
  0
POLYLINE
  5
C7
  8
0
  6
CONTINUOUS
 62
     7
 66
     1
 10
0.0
 20
0.0
 30
0.0
  0
VERTEX
  5
5AB
  8
0
  6
CONTINUOUS
 62
     7
 10
-344.2904858118
 20
1016.0627036059
 30
0.0
  0
VERTEX
  5
5AC
  8
0
  6
CONTINUOUS
 62
     7
 10
-334.3366889483
 20
1012.9546194041
 30
0.0
  0
VERTEX
  5
5AD
  8
0
  6
CONTINUOUS
 62
     7
 10
-324.4220523364
 20
1009.7214548552
 30
0.0
  0
VERTEX
  5
5AE
  8
0
  6
CONTINUOUS
 62
     7
 10
-314.5434169299
 20
1006.3788263762
 30
0.0
  0
VERTEX
  5
5AF
  8
0
  6
CONTINUOUS
 62
     7
 10
-304.6977130896
 20
1002.942350384
 30
0.0
  0
VERTEX
  5
5B0
  8
0
  6
CONTINUOUS
 62
     7
 10
-291.5961353308
 20
998.2403485739
 30
0.0
  0
VERTEX
  5
5B1
  8
0
  6
CONTINUOUS
 62
     7
 10
-278.5262374407
 20
993.4501020872
 30
0.0
  0
VERTEX
  5
5B2
  8
0
  6
CONTINUOUS
 62
     7
 10
-265.4724924094
 20
988.6161057913
 30
0.0
  0
SEQEND
  5
C19
  8
0
  6
CONTINUOUS
 62
     7
  0
LINE
  5
C8
  8
0
  6
CONTINUOUS
 62
     7
 10
-764.2198411948
 20
405.8879582846
 30
0.0
 11
-744.2198602683
 21
405.8879582846
 31
0.0
  0
LINE
  5
C9
  8
0
  6
CONTINUOUS
 62
     7
 10
-764.2198411948
 20
440.3035907709
 30
0.0
 11
-764.2198411948
 21
405.8879582846
 31
0.0
  0
LINE
  5
CA
  8
0
  6
CONTINUOUS
 62
     7
 10
-744.2198602683
 20
440.3035907709
 30
0.0
 11
-744.2198602683
 21
405.8879582846
 31
0.0
  0
LINE
  5
CB
  8
0
  6
CONTINUOUS
 62
     7
 10
21.780141423
 20
405.8879582846
 30
0.0
 11
1.7801409387
 21
405.8879582846
 31
0.0
  0
LINE
  5
CC
  8
0
  6
CONTINUOUS
 62
     7
 10
21.780141423
 20
440.3035907709
 30
0.0
 11
21.780141423
 21
405.8879582846
 31
0.0
  0
LINE
  5
CD
  8
0
  6
CONTINUOUS
 62
     7
 10
1.7801409387
 20
440.3035907709
 30
0.0
 11
1.7801409387
 21
405.8879582846
 31
0.0
  0
LINE
  5
CE
  8
0
  6
CONTINUOUS
 62
     7
 10
-519.4667188651
 20
1055.0510256254
 30
0.0
 11
-484.9806038863
 21
1049.0756301844
 31
0.0
  0
LINE
  5
CF
  8
0
  6
CONTINUOUS
 62
     7
 10
-484.9806038863
 20
1049.0756301844
 30
0.0
 11
-485.4927865988
 21
1046.119657036
 31
0.0
  0
LINE
  5
D0
  8
0
  6
CONTINUOUS
 62
     7
 10
-544.0997092253
 20
1059.3191950285
 30
0.0
 11
-544.6118919379
 21
1056.3632218802
 31
0.0
  0
LINE
  5
D1
  8
0
  6
CONTINUOUS
 62
     7
 10
-544.0997092253
 20
1059.3191950285
 30
0.0
 11
-535.8886925703
 21
1057.8964619601
 31
0.0
  0
LINE
  5
D2
  8
0
  6
CONTINUOUS
 62
     7
 10
-535.8886925703
 20
1057.8964619601
 30
0.0
 11
-536.4008752829
 21
1054.940518614
 31
0.0
  0
LINE
  5
D3
  8
0
  6
CONTINUOUS
 62
     7
 10
-519.4667188651
 20
1055.0510256254
 30
0.0
 11
-519.9789015776
 21
1052.0950822794
 31
0.0
  0
LINE
  5
D4
  8
0
  6
CONTINUOUS
 62
     7
 10
-527.67773552
 20
1056.4737586939
 30
0.0
 11
-528.1899182326
 21
1053.5177855456
 31
0.0
  0
LINE
  5
D5
  8
0
  6
CONTINUOUS
 62
     7
 10
-527.67773552
 20
1056.4737586939
 30
0.0
 11
-519.4667188651
 21
1055.0510256254
 31
0.0
  0
LINE
  5
D6
  8
0
  6
CONTINUOUS
 62
     7
 10
-535.8886925703
 20
1057.8964619601
 30
0.0
 11
-527.67773552
 21
1056.4737586939
 31
0.0
  0
ARC
  5
D7
  8
0
  6
CONTINUOUS
 62
     7
 10
-638.3082078472
 20
43.5492917531
 30
0.0
 40
1032.0
 50
70.9352790959
 51
73.5108653863
  0
LINE
  5
D8
  8
0
  6
CONTINUOUS
 62
     7
 10
-301.2198714739
 20
1025.887963053
 30
0.0
 11
-301.2198714739
 21
1018.9443199599
 31
0.0
  0
ARC
  5
D9
  8
0
  6
CONTINUOUS
 62
     7
 10
-271.2198583609
 20
1025.8879690134
 30
0.0
 40
30.0
 50
0.0
 51
180.0
  0
LINE
  5
DA
  8
0
  6
CONTINUOUS
 62
     7
 10
-241.2198690897
 20
996.0958032572
 30
0.0
 11
-241.2198690897
 21
1025.887963053
 31
0.0
  0
ARC
  5
DB
  8
0
  6
CONTINUOUS
 62
     7
 10
-638.3082078472
 20
43.5492917531
 30
0.0
 40
1032.0
 50
54.4208627369
 51
67.3701942481
  0
LINE
  5
DC
  8
0
  6
CONTINUOUS
 62
     7
 10
1.7801409387
 20
882.8879712784
 30
0.0
 11
-37.8628878123
 21
882.8879712784
 31
0.0
  0
LINE
  5
DD
  8
0
  6
CONTINUOUS
 62
     7
 10
-422.0532385832
 20
1005.8879821265
 30
0.0
 11
-488.12695427
 21
967.7403240168
 31
0.0
  0
LINE
  5
DE
  8
0
  6
CONTINUOUS
 62
     7
 10
-538.126966191
 20
938.8728110754
 30
0.0
 11
-577.9378025061
 21
915.887963649
 31
0.0
  0
LINE
  5
DF
  8
FORMAT
  6
CENTERX2
 10
83.0522394887
 20
675.8879690134
 30
0.0
 11
-812.0938835503
 21
675.8879690134
 31
0.0
  0
LINE
  5
E0
  8
0
  6
CONTINUOUS
 62
     7
 10
998.4638177996
 20
1061.5456371271
 30
0.0
 11
616.4638185149
 21
1061.5456371271
 31
0.0
  0
LINE
  5
E1
  8
0
  6
CONTINUOUS
 62
     7
 10
616.4638185149
 20
1045.5456345045
 30
0.0
 11
567.4638235217
 21
1045.5456345045
 31
0.0
  0
LINE
  5
E2
  8
0
  6
CONTINUOUS
 62
     7
 10
1047.4638127928
 20
1045.5456345045
 30
0.0
 11
998.4638177996
 21
1045.5456345045
 31
0.0
  0
LINE
  5
E3
  8
0
  6
CONTINUOUS
 62
     7
 10
567.4638235217
 20
1035.5456440413
 30
0.0
 11
557.4638181573
 21
1035.5456440413
 31
0.0
  0
LINE
  5
E4
  8
0
  6
CONTINUOUS
 62
     7
 10
1057.4638181573
 20
1035.5456440413
 30
0.0
 11
1047.4638127928
 21
1035.5456440413
 31
0.0
  0
LINE
  5
E5
  8
0
  6
CONTINUOUS
 62
     7
 10
540.4638284093
 20
953.1437127554
 30
0.0
 11
557.4638181573
 21
953.1437127554
 31
0.0
  0
LINE
  5
E6
  8
0
  6
CONTINUOUS
 62
     7
 10
557.4638181573
 20
1033.1437258684
 30
0.0
 11
540.4638284093
 21
1033.1437258684
 31
0.0
  0
LINE
  5
E7
  8
0
  6
CONTINUOUS
 62
     7
 10
1074.4638079053
 20
1033.1437258684
 30
0.0
 11
1057.4638181573
 21
1033.1437258684
 31
0.0
  0
LINE
  5
E8
  8
0
  6
CONTINUOUS
 62
     7
 10
1057.4638181573
 20
953.1437127554
 30
0.0
 11
1074.4638079053
 21
953.1437127554
 31
0.0
  0
LINE
  5
E9
  8
0
  6
CONTINUOUS
 62
     7
 10
1222.4638098126
 20
1025.643733021
 30
0.0
 11
1172.463827694
 21
1025.643733021
 31
0.0
  0
LINE
  5
EA
  8
0
  6
CONTINUOUS
 62
     7
 10
1172.463827694
 20
960.6437354052
 30
0.0
 11
1222.4638098126
 21
960.6437354052
 31
0.0
  0
LINE
  5
EB
  8
0
  6
CONTINUOUS
 62
     7
 10
1074.4638079053
 20
977.1437315905
 30
0.0
 11
1172.3409527188
 21
977.1437315905
 31
0.0
  0
LINE
  5
EC
  8
0
  6
CONTINUOUS
 62
     7
 10
1172.3409527188
 20
1009.1437070334
 30
0.0
 11
1074.4638079053
 21
1009.1437070334
 31
0.0
  0
LINE
  5
ED
  8
0
  6
CONTINUOUS
 62
     7
 10
1172.3409527188
 20
977.1437315905
 30
0.0
 11
1172.463827694
 21
977.2665767634
 31
0.0
  0
LINE
  5
EE
  8
0
  6
CONTINUOUS
 62
     7
 10
1172.463827694
 20
1009.0208618605
 30
0.0
 11
1172.3409527188
 21
1009.1437070334
 31
0.0
  0
LINE
  5
EF
  8
0
  6
CONTINUOUS
 62
     7
 10
1239.8638063317
 20
1005.1437287295
 30
0.0
 11
1225.4638307934
 21
1005.1437287295
 31
0.0
  0
LINE
  5
F0
  8
0
  6
CONTINUOUS
 62
     7
 10
1225.4638307934
 20
981.1437098944
 30
0.0
 11
1239.8638063317
 21
981.1437098944
 31
0.0
  0
ARC
  5
F1
  8
0
  6
CONTINUOUS
 62
     7
 10
1239.8638181573
 20
1003.5437217688
 30
0.0
 40
1.600000000000136
 50
0.0
 51
90.0
  0
ARC
  5
F2
  8
0
  6
CONTINUOUS
 62
     7
 10
1239.8638181573
 20
982.7437217688
 30
0.0
 40
1.600000000000136
 50
270.0
 51
0.0
  0
ARC
  5
F3
  8
0
  6
CONTINUOUS
 62
     7
 10
1224.8638181573
 20
984.5437217688
 30
0.0
 40
0.6000000000003638
 50
0.0
 51
90.0
  0
ARC
  5
F4
  8
0
  6
CONTINUOUS
 62
     7
 10
1224.8638181573
 20
1001.7437217688
 30
0.0
 40
0.6000000000003638
 50
270.0
 51
0.0
  0
LINE
  5
F5
  8
0
  6
CONTINUOUS
 62
     7
 10
1224.8638206368
 20
1001.1437206232
 30
0.0
 11
1222.4638098126
 21
1001.1437206232
 31
0.0
  0
LINE
  5
F6
  8
0
  6
CONTINUOUS
 62
     7
 10
1222.4638098126
 20
985.1437180006
 30
0.0
 11
1224.8638206368
 21
985.1437180006
 31
0.0
  0
POLYLINE
  5
F7
  8
0
  6
CONTINUOUS
 62
     7
 66
     1
 10
0.0
 20
0.0
 30
0.0
  0
VERTEX
  5
5B3
  8
0
  6
CONTINUOUS
 62
     7
 10
1184.9190526848
 20
960.6437354052
 30
0.0
  0
VERTEX
  5
5B4
  8
0
  6
CONTINUOUS
 62
     7
 10
1184.9400931244
 20
960.5585007632
 30
0.0
  0
VERTEX
  5
5B5
  8
0
  6
CONTINUOUS
 62
     7
 10
1184.9493616467
 20
960.3571860754
 30
0.0
  0
SEQEND
  5
C18
  8
0
  6
CONTINUOUS
 62
     7
  0
POLYLINE
  5
F8
  8
0
  6
CONTINUOUS
 62
     7
 66
     1
 10
0.0
 20
0.0
 30
0.0
  0
VERTEX
  5
5B6
  8
0
  6
CONTINUOUS
 62
     7
 10
1209.9704080468
 20
960.3682725394
 30
0.0
  0
VERTEX
  5
5B7
  8
0
  6
CONTINUOUS
 62
     7
 10
1209.9711531048
 20
960.4787497484
 30
0.0
  0
VERTEX
  5
5B8
  8
0
  6
CONTINUOUS
 62
     7
 10
1210.0032502061
 20
960.6437354052
 30
0.0
  0
SEQEND
  5
C17
  8
0
  6
CONTINUOUS
 62
     7
  0
LINE
  5
F9
  8
0
  6
CONTINUOUS
 62
     7
 10
549.4638317471
 20
830.8879702055
 30
0.0
 11
561.4638113623
 21
830.8879702055
 31
0.0
  0
LINE
  5
FA
  8
0
  6
CONTINUOUS
 62
     7
 10
1053.4638249522
 20
830.8879702055
 30
0.0
 11
1065.4638045674
 21
830.8879702055
 31
0.0
  0
LINE
  5
FB
  8
0
  6
CONTINUOUS
 62
     7
 10
607.463815177
 20
1092.0241742098
 30
0.0
 11
587.4638193493
 21
1092.0241742098
 31
0.0
  0
LINE
  5
FC
  8
0
  6
CONTINUOUS
 62
     7
 10
1027.4638169652
 20
1092.0241742098
 30
0.0
 11
1007.4638211375
 21
1092.0241742098
 31
0.0
  0
LINE
  5
FD
  8
0
  6
CONTINUOUS
 62
     7
 10
549.4638317471
 20
627.8879685962
 30
0.0
 11
551.9329839593
 21
627.8879685962
 31
0.0
  0
LINE
  5
FE
  8
0
  6
CONTINUOUS
 62
     7
 10
551.9329839593
 20
723.8879694307
 30
0.0
 11
549.4638317471
 21
723.8879694307
 31
0.0
  0
LINE
  5
FF
  8
0
  6
CONTINUOUS
 62
     7
 10
1065.4638045674
 20
723.8879694307
 30
0.0
 11
1062.9946523553
 21
723.8879694307
 31
0.0
  0
LINE
  5
100
  8
0
  6
CONTINUOUS
 62
     7
 10
1062.9946523553
 20
627.8879685962
 30
0.0
 11
1065.4638045674
 21
627.8879685962
 31
0.0
  0
LINE
  5
101
  8
0
  6
CONTINUOUS
 62
     7
 10
1146.4638048058
 20
662.3091303447
 30
0.0
 11
1248.4638327008
 21
662.3091303447
 31
0.0
  0
LINE
  5
102
  8
0
  6
CONTINUOUS
 62
     7
 10
1248.4638327008
 20
914.9783073628
 30
0.0
 11
1209.9638217335
 21
914.9783073628
 31
0.0
  0
LINE
  5
103
  8
0
  6
CONTINUOUS
 62
     7
 10
1184.9638157731
 20
914.9783073628
 30
0.0
 11
1146.4638048058
 21
914.9783073628
 31
0.0
  0
CIRCLE
  5
104
  8
0
  6
CONTINUOUS
 62
     7
 10
807.4638181573
 20
675.8879690134
 30
0.0
 40
174.9999999999999
  0
CIRCLE
  5
105
  8
0
  6
CONTINUOUS
 62
     7
 10
807.4638181573
 20
675.8879690134
 30
0.0
 40
214.5
  0
CIRCLE
  5
106
  8
0
  6
CONTINUOUS
 62
     7
 10
807.4638181573
 20
675.8879690134
 30
0.0
 40
260.0
  0
CIRCLE
  5
107
  8
0
  6
CONTINUOUS
 62
     7
 10
852.334592221
 20
450.3073545207
 30
0.0
 40
11.5
  0
CIRCLE
  5
108
  8
0
  6
CONTINUOUS
 62
     7
 10
935.2449717518
 20
484.6499581838
 30
0.0
 40
11.50000000000009
  0
CIRCLE
  5
109
  8
0
  6
CONTINUOUS
 62
     7
 10
998.7018289868
 20
548.1068154189
 30
0.0
 40
11.49999999999993
  0
CIRCLE
  5
10A
  8
0
  6
CONTINUOUS
 62
     7
 10
1033.04443265
 20
631.0171949497
 30
0.0
 40
11.5000000000002
  0
CIRCLE
  5
10B
  8
0
  6
CONTINUOUS
 62
     7
 10
1033.04443265
 20
720.7587430771
 30
0.0
 40
11.49999999999989
  0
CIRCLE
  5
10C
  8
0
  6
CONTINUOUS
 62
     7
 10
998.7018289868
 20
803.6691226079
 30
0.0
 40
11.50000000000001
  0
CIRCLE
  5
10D
  8
0
  6
CONTINUOUS
 62
     7
 10
935.2449717518
 20
867.125979843
 30
0.0
 40
11.50000000000001
  0
CIRCLE
  5
10E
  8
0
  6
CONTINUOUS
 62
     7
 10
852.334592221
 20
901.4685835062
 30
0.0
 40
11.50000000000007
  0
CIRCLE
  5
10F
  8
0
  6
CONTINUOUS
 62
     7
 10
762.5930440935
 20
901.4685835062
 30
0.0
 40
11.50000000000011
  0
CIRCLE
  5
110
  8
0
  6
CONTINUOUS
 62
     7
 10
679.6826645627
 20
867.125979843
 30
0.0
 40
11.50000000000001
  0
CIRCLE
  5
111
  8
0
  6
CONTINUOUS
 62
     7
 10
616.2258073277
 20
803.6691226079
 30
0.0
 40
11.49999999999985
  0
CIRCLE
  5
112
  8
0
  6
CONTINUOUS
 62
     7
 10
581.8832036645
 20
720.7587430771
 30
0.0
 40
11.50000000000007
  0
CIRCLE
  5
113
  8
0
  6
CONTINUOUS
 62
     7
 10
581.8832036645
 20
631.0171949497
 30
0.0
 40
11.49999999999989
  0
CIRCLE
  5
114
  8
0
  6
CONTINUOUS
 62
     7
 10
616.2258073277
 20
548.1068154189
 30
0.0
 40
11.50000000000005
  0
CIRCLE
  5
115
  8
0
  6
CONTINUOUS
 62
     7
 10
679.6826645627
 20
484.6499581838
 30
0.0
 40
11.49999999999993
  0
CIRCLE
  5
116
  8
0
  6
CONTINUOUS
 62
     7
 10
762.5930440935
 20
450.3073545207
 30
0.0
 40
11.50000000000002
  0
LINE
  5
117
  8
0
  6
CONTINUOUS
 62
     7
 10
917.4638175612
 20
440.3035907709
 30
0.0
 11
917.4638175612
 21
405.8879582846
 31
0.0
  0
LINE
  5
118
  8
0
  6
CONTINUOUS
 62
     7
 10
917.4638175612
 20
405.8879582846
 30
0.0
 11
697.4638187533
 21
405.8879582846
 31
0.0
  0
LINE
  5
119
  8
0
  6
CONTINUOUS
 62
     7
 10
697.4638187533
 20
405.8879582846
 30
0.0
 11
697.4638187533
 21
440.3035907709
 31
0.0
  0
LINE
  5
11A
  8
0
  6
CONTINUOUS
 62
     7
 10
597.4638247138
 20
893.2084708178
 30
0.0
 11
597.4638247138
 21
875.8879719937
 31
0.0
  0
POLYLINE
  5
11B
  8
0
  6
CONTINUOUS
 62
     7
 66
     1
 10
0.0
 20
0.0
 30
0.0
  0
VERTEX
  5
5B9
  8
0
  6
CONTINUOUS
 62
     7
 10
517.4638265019
 20
915.887963649
 30
0.0
  0
VERTEX
  5
5BA
  8
0
  6
CONTINUOUS
 62
     7
 10
517.4952977543
 20
914.7661148274
 30
0.0
  0
VERTEX
  5
5BB
  8
0
  6
CONTINUOUS
 62
     7
 10
517.5896817093
 20
913.6451451742
 30
0.0
  0
VERTEX
  5
5BC
  8
0
  6
CONTINUOUS
 62
     7
 10
517.7468889599
 20
912.5259487593
 30
0.0
  0
VERTEX
  5
5BD
  8
0
  6
CONTINUOUS
 62
     7
 10
517.9668300992
 20
911.4093898499
 30
0.0
  0
VERTEX
  5
5BE
  8
0
  6
CONTINUOUS
 62
     7
 10
518.2493263131
 20
910.2963625157
 30
0.0
  0
VERTEX
  5
5BF
  8
0
  6
CONTINUOUS
 62
     7
 10
518.5941391831
 20
909.1877161228
 30
0.0
  0
VERTEX
  5
5C0
  8
0
  6
CONTINUOUS
 62
     7
 10
519.0010004883
 20
908.0843596422
 30
0.0
  0
VERTEX
  5
5C1
  8
0
  6
CONTINUOUS
 62
     7
 10
519.4695824032
 20
906.9871275389
 30
0.0
  0
VERTEX
  5
5C2
  8
0
  6
CONTINUOUS
 62
     7
 10
519.9995272999
 20
905.8969138825
 30
0.0
  0
VERTEX
  5
5C3
  8
0
  6
CONTINUOUS
 62
     7
 10
520.5904179459
 20
904.814553138
 30
0.0
  0
VERTEX
  5
5C4
  8
0
  6
CONTINUOUS
 62
     7
 10
521.2418073063
 20
903.7408946717
 30
0.0
  0
VERTEX
  5
5C5
  8
0
  6
CONTINUOUS
 62
     7
 10
521.9531589394
 20
902.6768027508
 30
0.0
  0
VERTEX
  5
5C6
  8
0
  6
CONTINUOUS
 62
     7
 10
522.723906601
 20
901.6231118405
 30
0.0
  0
VERTEX
  5
5C7
  8
0
  6
CONTINUOUS
 62
     7
 10
523.5534542447
 20
900.5806266033
 30
0.0
  0
VERTEX
  5
5C8
  8
0
  6
CONTINUOUS
 62
     7
 10
524.4411462193
 20
899.5501964056
 30
0.0
  0
VERTEX
  5
5C9
  8
0
  6
CONTINUOUS
 62
     7
 10
525.3862970715
 20
898.53262591
 30
0.0
  0
VERTEX
  5
5CA
  8
0
  6
CONTINUOUS
 62
     7
 10
526.3881617432
 20
897.5286899769
 30
0.0
  0
VERTEX
  5
5CB
  8
0
  6
CONTINUOUS
 62
     7
 10
527.4459355717
 20
896.5392081702
 30
0.0
  0
VERTEX
  5
5CC
  8
0
  6
CONTINUOUS
 62
     7
 10
528.5588138943
 20
895.5649553501
 30
0.0
  0
VERTEX
  5
5CD
  8
0
  6
CONTINUOUS
 62
     7
 10
529.725872839
 20
894.6066914761
 30
0.0
  0
VERTEX
  5
5CE
  8
0
  6
CONTINUOUS
 62
     7
 10
530.9462481385
 20
893.665161606
 30
0.0
  0
VERTEX
  5
5CF
  8
0
  6
CONTINUOUS
 62
     7
 10
532.2189563161
 20
892.7411107981
 30
0.0
  0
VERTEX
  5
5D0
  8
0
  6
CONTINUOUS
 62
     7
 10
533.5429840928
 20
891.8352841103
 30
0.0
  0
VERTEX
  5
5D1
  8
0
  6
CONTINUOUS
 62
     7
 10
534.9172883874
 20
890.9483818972
 30
0.0
  0
VERTEX
  5
5D2
  8
0
  6
CONTINUOUS
 62
     7
 10
536.3408261185
 20
890.0810896122
 30
0.0
  0
VERTEX
  5
5D3
  8
0
  6
CONTINUOUS
 62
     7
 10
537.8124349957
 20
889.23410761
 30
0.0
  0
VERTEX
  5
5D4
  8
0
  6
CONTINUOUS
 62
     7
 10
539.3309825307
 20
888.4080915415
 30
0.0
  0
VERTEX
  5
5D5
  8
0
  6
CONTINUOUS
 62
     7
 10
540.8952766305
 20
887.6036970579
 30
0.0
  0
VERTEX
  5
5D6
  8
0
  6
CONTINUOUS
 62
     7
 10
542.5040655976
 20
886.821550008
 30
0.0
  0
VERTEX
  5
5D7
  8
0
  6
CONTINUOUS
 62
     7
 10
544.1560977345
 20
886.0622762406
 30
0.0
  0
VERTEX
  5
5D8
  8
0
  6
CONTINUOUS
 62
     7
 10
545.850061739
 20
885.326471802
 30
0.0
  0
VERTEX
  5
5D9
  8
0
  6
CONTINUOUS
 62
     7
 10
547.584646309
 20
884.6147029364
 30
0.0
  0
VERTEX
  5
5DA
  8
0
  6
CONTINUOUS
 62
     7
 10
549.3584507352
 20
883.9275507891
 30
0.0
  0
VERTEX
  5
5DB
  8
0
  6
CONTINUOUS
 62
     7
 10
551.1701041108
 20
883.2655369007
 30
0.0
  0
VERTEX
  5
5DC
  8
0
  6
CONTINUOUS
 62
     7
 10
553.0182057267
 20
882.629182812
 30
0.0
  0
VERTEX
  5
5DD
  8
0
  6
CONTINUOUS
 62
     7
 10
554.9012654667
 20
882.0189951622
 30
0.0
  0
VERTEX
  5
5DE
  8
0
  6
CONTINUOUS
 62
     7
 10
556.8177932149
 20
881.4354656899
 30
0.0
  0
VERTEX
  5
5DF
  8
0
  6
CONTINUOUS
 62
     7
 10
558.766313756
 20
880.8790265286
 30
0.0
  0
VERTEX
  5
5E0
  8
0
  6
CONTINUOUS
 62
     7
 10
560.7452624684
 20
880.3501396143
 30
0.0
  0
VERTEX
  5
5E1
  8
0
  6
CONTINUOUS
 62
     7
 10
562.7531194335
 20
879.8492072785
 30
0.0
  0
VERTEX
  5
5E2
  8
0
  6
CONTINUOUS
 62
     7
 10
564.7882753258
 20
879.3766318524
 30
0.0
  0
VERTEX
  5
5E3
  8
0
  6
CONTINUOUS
 62
     7
 10
566.8491506224
 20
878.932785865
 30
0.0
  0
VERTEX
  5
5E4
  8
0
  6
CONTINUOUS
 62
     7
 10
568.9340912943
 20
878.5180120432
 30
0.0
  0
VERTEX
  5
5E5
  8
0
  6
CONTINUOUS
 62
     7
 10
571.0414880162
 20
878.1326382124
 30
0.0
  0
VERTEX
  5
5E6
  8
0
  6
CONTINUOUS
 62
     7
 10
573.1696718579
 20
877.7769623959
 30
0.0
  0
VERTEX
  5
5E7
  8
0
  6
CONTINUOUS
 62
     7
 10
575.3169738894
 20
877.4512826168
 30
0.0
  0
VERTEX
  5
5E8
  8
0
  6
CONTINUOUS
 62
     7
 10
577.4816953784
 20
877.1558223927
 30
0.0
  0
VERTEX
  5
5E9
  8
0
  6
CONTINUOUS
 62
     7
 10
579.6621375924
 20
876.8908499443
 30
0.0
  0
VERTEX
  5
5EA
  8
0
  6
CONTINUOUS
 62
     7
 10
581.8565868979
 20
876.6565589869
 30
0.0
  0
VERTEX
  5
5EB
  8
0
  6
CONTINUOUS
 62
     7
 10
584.0633147603
 20
876.4531283343
 30
0.0
  0
VERTEX
  5
5EC
  8
0
  6
CONTINUOUS
 62
     7
 10
586.2805926448
 20
876.2807218992
 30
0.0
  0
VERTEX
  5
5ED
  8
0
  6
CONTINUOUS
 62
     7
 10
588.5066622143
 20
876.1394737923
 30
0.0
  0
VERTEX
  5
5EE
  8
0
  6
CONTINUOUS
 62
     7
 10
590.7397800332
 20
876.0295032227
 30
0.0
  0
VERTEX
  5
5EF
  8
0
  6
CONTINUOUS
 62
     7
 10
592.9781877642
 20
875.9508995974
 30
0.0
  0
VERTEX
  5
5F0
  8
0
  6
CONTINUOUS
 62
     7
 10
595.2201121693
 20
875.9037076199
 30
0.0
  0
VERTEX
  5
5F1
  8
0
  6
CONTINUOUS
 62
     7
 10
597.4638247138
 20
875.8879719937
 30
0.0
  0
SEQEND
  5
C16
  8
0
  6
CONTINUOUS
 62
     7
  0
LINE
  5
11C
  8
0
  6
CONTINUOUS
 62
     7
 10
517.4638265019
 20
915.887963649
 30
0.0
 11
517.4638265019
 21
933.2084624731
 31
0.0
  0
POLYLINE
  5
11D
  8
0
  6
CONTINUOUS
 62
     7
 66
     1
 10
0.0
 20
0.0
 30
0.0
  0
VERTEX
  5
5F2
  8
0
  6
CONTINUOUS
 62
     7
 10
517.4638265019
 20
933.2084624731
 30
0.0
  0
VERTEX
  5
5F3
  8
0
  6
CONTINUOUS
 62
     7
 10
517.4952977543
 20
932.0866136515
 30
0.0
  0
VERTEX
  5
5F4
  8
0
  6
CONTINUOUS
 62
     7
 10
517.5896817093
 20
930.9656588995
 30
0.0
  0
VERTEX
  5
5F5
  8
0
  6
CONTINUOUS
 62
     7
 10
517.7468889599
 20
929.8464624846
 30
0.0
  0
VERTEX
  5
5F6
  8
0
  6
CONTINUOUS
 62
     7
 10
517.9668300992
 20
928.729888674
 30
0.0
  0
VERTEX
  5
5F7
  8
0
  6
CONTINUOUS
 62
     7
 10
518.2493263131
 20
927.6168613398
 30
0.0
  0
VERTEX
  5
5F8
  8
0
  6
CONTINUOUS
 62
     7
 10
518.5941391831
 20
926.508214947
 30
0.0
  0
VERTEX
  5
5F9
  8
0
  6
CONTINUOUS
 62
     7
 10
519.0010004883
 20
925.4048584664
 30
0.0
  0
VERTEX
  5
5FA
  8
0
  6
CONTINUOUS
 62
     7
 10
519.4695824032
 20
924.3076412642
 30
0.0
  0
VERTEX
  5
5FB
  8
0
  6
CONTINUOUS
 62
     7
 10
519.9995272999
 20
923.2174127066
 30
0.0
  0
VERTEX
  5
5FC
  8
0
  6
CONTINUOUS
 62
     7
 10
520.5904179459
 20
922.1350519621
 30
0.0
  0
VERTEX
  5
5FD
  8
0
  6
CONTINUOUS
 62
     7
 10
521.2418073063
 20
921.0614083969
 30
0.0
  0
VERTEX
  5
5FE
  8
0
  6
CONTINUOUS
 62
     7
 10
521.9531589394
 20
919.9973164761
 30
0.0
  0
VERTEX
  5
5FF
  8
0
  6
CONTINUOUS
 62
     7
 10
522.723906601
 20
918.9436106646
 30
0.0
  0
VERTEX
  5
600
  8
0
  6
CONTINUOUS
 62
     7
 10
523.5534542447
 20
917.9011403286
 30
0.0
  0
VERTEX
  5
601
  8
0
  6
CONTINUOUS
 62
     7
 10
524.4411462193
 20
916.8707101309
 30
0.0
  0
VERTEX
  5
602
  8
0
  6
CONTINUOUS
 62
     7
 10
525.3862970715
 20
915.8531247341
 30
0.0
  0
VERTEX
  5
603
  8
0
  6
CONTINUOUS
 62
     7
 10
526.3881617432
 20
914.8492037022
 30
0.0
  0
VERTEX
  5
604
  8
0
  6
CONTINUOUS
 62
     7
 10
527.4459355717
 20
913.8597218954
 30
0.0
  0
VERTEX
  5
605
  8
0
  6
CONTINUOUS
 62
     7
 10
528.5588138943
 20
912.8854690754
 30
0.0
  0
VERTEX
  5
606
  8
0
  6
CONTINUOUS
 62
     7
 10
529.725872839
 20
911.9271903002
 30
0.0
  0
VERTEX
  5
607
  8
0
  6
CONTINUOUS
 62
     7
 10
530.9462481385
 20
910.9856604302
 30
0.0
  0
VERTEX
  5
608
  8
0
  6
CONTINUOUS
 62
     7
 10
532.2189563161
 20
910.0616245234
 30
0.0
  0
VERTEX
  5
609
  8
0
  6
CONTINUOUS
 62
     7
 10
533.5429840928
 20
909.1557978356
 30
0.0
  0
VERTEX
  5
60A
  8
0
  6
CONTINUOUS
 62
     7
 10
534.9172883874
 20
908.2688807213
 30
0.0
  0
VERTEX
  5
60B
  8
0
  6
CONTINUOUS
 62
     7
 10
536.3408261185
 20
907.4016033375
 30
0.0
  0
VERTEX
  5
60C
  8
0
  6
CONTINUOUS
 62
     7
 10
537.8124349957
 20
906.5546064341
 30
0.0
  0
VERTEX
  5
60D
  8
0
  6
CONTINUOUS
 62
     7
 10
539.3309825307
 20
905.7286052668
 30
0.0
  0
VERTEX
  5
60E
  8
0
  6
CONTINUOUS
 62
     7
 10
540.8952766305
 20
904.9242107832
 30
0.0
  0
VERTEX
  5
60F
  8
0
  6
CONTINUOUS
 62
     7
 10
542.5040655976
 20
904.1420637333
 30
0.0
  0
VERTEX
  5
610
  8
0
  6
CONTINUOUS
 62
     7
 10
544.1560977345
 20
903.3827899658
 30
0.0
  0
VERTEX
  5
611
  8
0
  6
CONTINUOUS
 62
     7
 10
545.850061739
 20
902.6469855273
 30
0.0
  0
VERTEX
  5
612
  8
0
  6
CONTINUOUS
 62
     7
 10
547.584646309
 20
901.9352166617
 30
0.0
  0
VERTEX
  5
613
  8
0
  6
CONTINUOUS
 62
     7
 10
549.3584507352
 20
901.2480645144
 30
0.0
  0
VERTEX
  5
614
  8
0
  6
CONTINUOUS
 62
     7
 10
551.1701041108
 20
900.5860357249
 30
0.0
  0
VERTEX
  5
615
  8
0
  6
CONTINUOUS
 62
     7
 10
553.0182057267
 20
899.9496965372
 30
0.0
  0
VERTEX
  5
616
  8
0
  6
CONTINUOUS
 62
     7
 10
554.9012654667
 20
899.3395088875
 30
0.0
  0
VERTEX
  5
617
  8
0
  6
CONTINUOUS
 62
     7
 10
556.8177932149
 20
898.755964514
 30
0.0
  0
VERTEX
  5
618
  8
0
  6
CONTINUOUS
 62
     7
 10
558.766313756
 20
898.1995402539
 30
0.0
  0
VERTEX
  5
619
  8
0
  6
CONTINUOUS
 62
     7
 10
560.7452624684
 20
897.6706533396
 30
0.0
  0
VERTEX
  5
61A
  8
0
  6
CONTINUOUS
 62
     7
 10
562.7531194335
 20
897.1697210037
 30
0.0
  0
VERTEX
  5
61B
  8
0
  6
CONTINUOUS
 62
     7
 10
564.7882753258
 20
896.6971455776
 30
0.0
  0
VERTEX
  5
61C
  8
0
  6
CONTINUOUS
 62
     7
 10
566.8491506224
 20
896.2532995903
 30
0.0
  0
VERTEX
  5
61D
  8
0
  6
CONTINUOUS
 62
     7
 10
568.9340912943
 20
895.8385257685
 30
0.0
  0
VERTEX
  5
61E
  8
0
  6
CONTINUOUS
 62
     7
 10
571.0414880162
 20
895.4531370365
 30
0.0
  0
VERTEX
  5
61F
  8
0
  6
CONTINUOUS
 62
     7
 10
573.1696718579
 20
895.0974761212
 30
0.0
  0
VERTEX
  5
620
  8
0
  6
CONTINUOUS
 62
     7
 10
575.3169738894
 20
894.7717814409
 30
0.0
  0
VERTEX
  5
621
  8
0
  6
CONTINUOUS
 62
     7
 10
577.4816953784
 20
894.476336118
 30
0.0
  0
VERTEX
  5
622
  8
0
  6
CONTINUOUS
 62
     7
 10
579.6621375924
 20
894.2113636696
 30
0.0
  0
VERTEX
  5
623
  8
0
  6
CONTINUOUS
 62
     7
 10
581.8565868979
 20
893.9770727122
 30
0.0
  0
VERTEX
  5
624
  8
0
  6
CONTINUOUS
 62
     7
 10
584.0633147603
 20
893.7736420595
 30
0.0
  0
VERTEX
  5
625
  8
0
  6
CONTINUOUS
 62
     7
 10
586.2805926448
 20
893.6012356245
 30
0.0
  0
VERTEX
  5
626
  8
0
  6
CONTINUOUS
 62
     7
 10
588.5066622143
 20
893.4599875176
 30
0.0
  0
VERTEX
  5
627
  8
0
  6
CONTINUOUS
 62
     7
 10
590.7397800332
 20
893.350016948
 30
0.0
  0
VERTEX
  5
628
  8
0
  6
CONTINUOUS
 62
     7
 10
592.9781877642
 20
893.2713984215
 30
0.0
  0
VERTEX
  5
629
  8
0
  6
CONTINUOUS
 62
     7
 10
595.2201121693
 20
893.224206444
 30
0.0
  0
VERTEX
  5
62A
  8
0
  6
CONTINUOUS
 62
     7
 10
597.4638247138
 20
893.2084708178
 30
0.0
  0
SEQEND
  5
C15
  8
0
  6
CONTINUOUS
 62
     7
  0
POLYLINE
  5
11E
  8
0
  6
CONTINUOUS
 62
     7
 66
     1
 10
0.0
 20
0.0
 30
0.0
  0
VERTEX
  5
62B
  8
0
  6
CONTINUOUS
 62
     7
 10
587.4638193493
 20
1062.8947584593
 30
0.0
  0
VERTEX
  5
62C
  8
0
  6
CONTINUOUS
 62
     7
 10
586.2805926448
 20
1062.8157227003
 30
0.0
  0
VERTEX
  5
62D
  8
0
  6
CONTINUOUS
 62
     7
 10
584.0633147603
 20
1062.6433162653
 30
0.0
  0
VERTEX
  5
62E
  8
0
  6
CONTINUOUS
 62
     7
 10
581.8565868979
 20
1062.4398856127
 30
0.0
  0
VERTEX
  5
62F
  8
0
  6
CONTINUOUS
 62
     7
 10
579.6621375924
 20
1062.2055797541
 30
0.0
  0
VERTEX
  5
630
  8
0
  6
CONTINUOUS
 62
     7
 10
577.4816953784
 20
1061.9406073057
 30
0.0
  0
VERTEX
  5
631
  8
0
  6
CONTINUOUS
 62
     7
 10
575.3169738894
 20
1061.6451768839
 30
0.0
  0
VERTEX
  5
632
  8
0
  6
CONTINUOUS
 62
     7
 10
573.1696718579
 20
1061.3194673025
 30
0.0
  0
VERTEX
  5
633
  8
0
  6
CONTINUOUS
 62
     7
 10
571.0414880162
 20
1060.9638063872
 30
0.0
  0
VERTEX
  5
634
  8
0
  6
CONTINUOUS
 62
     7
 10
568.9340912943
 20
1060.5784325564
 30
0.0
  0
VERTEX
  5
635
  8
0
  6
CONTINUOUS
 62
     7
 10
566.8491506224
 20
1060.1636438334
 30
0.0
  0
VERTEX
  5
636
  8
0
  6
CONTINUOUS
 62
     7
 10
564.7882753258
 20
1059.7197978461
 30
0.0
  0
VERTEX
  5
637
  8
0
  6
CONTINUOUS
 62
     7
 10
562.7531194335
 20
1059.24722242
 30
0.0
  0
VERTEX
  5
638
  8
0
  6
CONTINUOUS
 62
     7
 10
560.7452624684
 20
1058.7463049853
 30
0.0
  0
VERTEX
  5
639
  8
0
  6
CONTINUOUS
 62
     7
 10
558.766313756
 20
1058.2174031698
 30
0.0
  0
VERTEX
  5
63A
  8
0
  6
CONTINUOUS
 62
     7
 10
556.8177932149
 20
1057.6609938109
 30
0.0
  0
VERTEX
  5
63B
  8
0
  6
CONTINUOUS
 62
     7
 10
554.9012654667
 20
1057.0774345362
 30
0.0
  0
VERTEX
  5
63C
  8
0
  6
CONTINUOUS
 62
     7
 10
553.0182057267
 20
1056.4672617876
 30
0.0
  0
VERTEX
  5
63D
  8
0
  6
CONTINUOUS
 62
     7
 10
551.1701041108
 20
1055.8309226
 30
0.0
  0
VERTEX
  5
63E
  8
0
  6
CONTINUOUS
 62
     7
 10
549.3584507352
 20
1055.1688938105
 30
0.0
  0
VERTEX
  5
63F
  8
0
  6
CONTINUOUS
 62
     7
 10
547.584646309
 20
1054.4817416632
 30
0.0
  0
VERTEX
  5
640
  8
0
  6
CONTINUOUS
 62
     7
 10
545.850061739
 20
1053.7699727976
 30
0.0
  0
VERTEX
  5
641
  8
0
  6
CONTINUOUS
 62
     7
 10
544.1560977345
 20
1053.0341534579
 30
0.0
  0
VERTEX
  5
642
  8
0
  6
CONTINUOUS
 62
     7
 10
542.5040655976
 20
1052.2748796904
 30
0.0
  0
VERTEX
  5
643
  8
0
  6
CONTINUOUS
 62
     7
 10
540.8952766305
 20
1051.4927475416
 30
0.0
  0
VERTEX
  5
644
  8
0
  6
CONTINUOUS
 62
     7
 10
539.3309825307
 20
1050.6883530581
 30
0.0
  0
VERTEX
  5
645
  8
0
  6
CONTINUOUS
 62
     7
 10
537.8124349957
 20
1049.8623518908
 30
0.0
  0
VERTEX
  5
646
  8
0
  6
CONTINUOUS
 62
     7
 10
536.3408261185
 20
1049.0153698885
 30
0.0
  0
VERTEX
  5
647
  8
0
  6
CONTINUOUS
 62
     7
 10
534.9172883874
 20
1048.1480627024
 30
0.0
  0
VERTEX
  5
648
  8
0
  6
CONTINUOUS
 62
     7
 10
533.5429840928
 20
1047.2611753905
 30
0.0
  0
VERTEX
  5
649
  8
0
  6
CONTINUOUS
 62
     7
 10
532.2189563161
 20
1046.3553338015
 30
0.0
  0
VERTEX
  5
64A
  8
0
  6
CONTINUOUS
 62
     7
 10
530.9462481385
 20
1045.4312829935
 30
0.0
  0
VERTEX
  5
64B
  8
0
  6
CONTINUOUS
 62
     7
 10
529.725872839
 20
1044.4897680247
 30
0.0
  0
VERTEX
  5
64C
  8
0
  6
CONTINUOUS
 62
     7
 10
528.5588138943
 20
1043.5315041506
 30
0.0
  0
VERTEX
  5
64D
  8
0
  6
CONTINUOUS
 62
     7
 10
527.4459355717
 20
1042.5572364294
 30
0.0
  0
VERTEX
  5
64E
  8
0
  6
CONTINUOUS
 62
     7
 10
526.3881617432
 20
1041.5677397215
 30
0.0
  0
VERTEX
  5
64F
  8
0
  6
CONTINUOUS
 62
     7
 10
525.3862970715
 20
1040.5638186896
 30
0.0
  0
VERTEX
  5
650
  8
0
  6
CONTINUOUS
 62
     7
 10
524.4411462193
 20
1039.546248194
 30
0.0
  0
VERTEX
  5
651
  8
0
  6
CONTINUOUS
 62
     7
 10
523.5534542447
 20
1038.5158030951
 30
0.0
  0
VERTEX
  5
652
  8
0
  6
CONTINUOUS
 62
     7
 10
522.723906601
 20
1037.4733476603
 30
0.0
  0
VERTEX
  5
653
  8
0
  6
CONTINUOUS
 62
     7
 10
521.9531589394
 20
1036.4196269476
 30
0.0
  0
VERTEX
  5
654
  8
0
  6
CONTINUOUS
 62
     7
 10
521.2418073063
 20
1035.3555350268
 30
0.0
  0
VERTEX
  5
655
  8
0
  6
CONTINUOUS
 62
     7
 10
520.5904179459
 20
1034.2819063627
 30
0.0
  0
VERTEX
  5
656
  8
0
  6
CONTINUOUS
 62
     7
 10
519.9995272999
 20
1033.1995456183
 30
0.0
  0
VERTEX
  5
657
  8
0
  6
CONTINUOUS
 62
     7
 10
519.4695824032
 20
1032.1093170607
 30
0.0
  0
VERTEX
  5
658
  8
0
  6
CONTINUOUS
 62
     7
 10
519.0010004883
 20
1031.0120849573
 30
0.0
  0
VERTEX
  5
659
  8
0
  6
CONTINUOUS
 62
     7
 10
518.5941391831
 20
1029.9087135756
 30
0.0
  0
VERTEX
  5
65A
  8
0
  6
CONTINUOUS
 62
     7
 10
518.2493263131
 20
1028.8000969851
 30
0.0
  0
VERTEX
  5
65B
  8
0
  6
CONTINUOUS
 62
     7
 10
517.9668300992
 20
1027.6870696509
 30
0.0
  0
VERTEX
  5
65C
  8
0
  6
CONTINUOUS
 62
     7
 10
517.7468889599
 20
1026.5704958403
 30
0.0
  0
VERTEX
  5
65D
  8
0
  6
CONTINUOUS
 62
     7
 10
517.5896817093
 20
1025.4512994253
 30
0.0
  0
VERTEX
  5
65E
  8
0
  6
CONTINUOUS
 62
     7
 10
517.4952977543
 20
1024.330314871
 30
0.0
  0
VERTEX
  5
65F
  8
0
  6
CONTINUOUS
 62
     7
 10
517.4638265019
 20
1023.2084660494
 30
0.0
  0
SEQEND
  5
C14
  8
0
  6
CONTINUOUS
 62
     7
  0
LINE
  5
11F
  8
0
  6
CONTINUOUS
 62
     7
 10
1007.4638211375
 20
1063.2084875071
 30
0.0
 11
607.463815177
 21
1063.2084875071
 31
0.0
  0
POLYLINE
  5
120
  8
0
  6
CONTINUOUS
 62
     7
 66
     1
 10
0.0
 20
0.0
 30
0.0
  0
VERTEX
  5
660
  8
0
  6
CONTINUOUS
 62
     7
 10
1097.4638098126
 20
1023.2084660494
 30
0.0
  0
VERTEX
  5
661
  8
0
  6
CONTINUOUS
 62
     7
 10
1097.4323385602
 20
1024.330314871
 30
0.0
  0
VERTEX
  5
662
  8
0
  6
CONTINUOUS
 62
     7
 10
1097.3379546052
 20
1025.4512994253
 30
0.0
  0
VERTEX
  5
663
  8
0
  6
CONTINUOUS
 62
     7
 10
1097.1807473546
 20
1026.5704958403
 30
0.0
  0
VERTEX
  5
664
  8
0
  6
CONTINUOUS
 62
     7
 10
1096.9608062153
 20
1027.6870696509
 30
0.0
  0
VERTEX
  5
665
  8
0
  6
CONTINUOUS
 62
     7
 10
1096.6783100014
 20
1028.8000969851
 30
0.0
  0
VERTEX
  5
666
  8
0
  6
CONTINUOUS
 62
     7
 10
1096.3334971314
 20
1029.9087135756
 30
0.0
  0
VERTEX
  5
667
  8
0
  6
CONTINUOUS
 62
     7
 10
1095.9266358262
 20
1031.0120849573
 30
0.0
  0
VERTEX
  5
668
  8
0
  6
CONTINUOUS
 62
     7
 10
1095.4580539113
 20
1032.1093170607
 30
0.0
  0
VERTEX
  5
669
  8
0
  6
CONTINUOUS
 62
     7
 10
1094.9281090146
 20
1033.1995456183
 30
0.0
  0
VERTEX
  5
66A
  8
0
  6
CONTINUOUS
 62
     7
 10
1094.3372183686
 20
1034.2819063627
 30
0.0
  0
VERTEX
  5
66B
  8
0
  6
CONTINUOUS
 62
     7
 10
1093.6858290082
 20
1035.3555350268
 30
0.0
  0
VERTEX
  5
66C
  8
0
  6
CONTINUOUS
 62
     7
 10
1092.9744773751
 20
1036.4196269476
 30
0.0
  0
VERTEX
  5
66D
  8
0
  6
CONTINUOUS
 62
     7
 10
1092.2037297135
 20
1037.4733476603
 30
0.0
  0
VERTEX
  5
66E
  8
0
  6
CONTINUOUS
 62
     7
 10
1091.3741820698
 20
1038.5158030951
 30
0.0
  0
VERTEX
  5
66F
  8
0
  6
CONTINUOUS
 62
     7
 10
1090.4864900952
 20
1039.546248194
 30
0.0
  0
VERTEX
  5
670
  8
0
  6
CONTINUOUS
 62
     7
 10
1089.541339243
 20
1040.5638186896
 30
0.0
  0
VERTEX
  5
671
  8
0
  6
CONTINUOUS
 62
     7
 10
1088.5394745713
 20
1041.5677397215
 30
0.0
  0
VERTEX
  5
672
  8
0
  6
CONTINUOUS
 62
     7
 10
1087.4817007428
 20
1042.5572364294
 30
0.0
  0
VERTEX
  5
673
  8
0
  6
CONTINUOUS
 62
     7
 10
1086.3688224202
 20
1043.5315041506
 30
0.0
  0
VERTEX
  5
674
  8
0
  6
CONTINUOUS
 62
     7
 10
1085.2017634755
 20
1044.4897680247
 30
0.0
  0
VERTEX
  5
675
  8
0
  6
CONTINUOUS
 62
     7
 10
1083.981388176
 20
1045.4312829935
 30
0.0
  0
VERTEX
  5
676
  8
0
  6
CONTINUOUS
 62
     7
 10
1082.7086799985
 20
1046.3553338015
 30
0.0
  0
VERTEX
  5
677
  8
0
  6
CONTINUOUS
 62
     7
 10
1081.3846522217
 20
1047.2611753905
 30
0.0
  0
VERTEX
  5
678
  8
0
  6
CONTINUOUS
 62
     7
 10
1080.0103479272
 20
1048.1480627024
 30
0.0
  0
VERTEX
  5
679
  8
0
  6
CONTINUOUS
 62
     7
 10
1078.586810196
 20
1049.0153698885
 30
0.0
  0
VERTEX
  5
67A
  8
0
  6
CONTINUOUS
 62
     7
 10
1077.1152013188
 20
1049.8623518908
 30
0.0
  0
VERTEX
  5
67B
  8
0
  6
CONTINUOUS
 62
     7
 10
1075.5966537839
 20
1050.6883530581
 30
0.0
  0
VERTEX
  5
67C
  8
0
  6
CONTINUOUS
 62
     7
 10
1074.032359684
 20
1051.4927475416
 30
0.0
  0
VERTEX
  5
67D
  8
0
  6
CONTINUOUS
 62
     7
 10
1072.4235707169
 20
1052.2748796904
 30
0.0
  0
VERTEX
  5
67E
  8
0
  6
CONTINUOUS
 62
     7
 10
1070.77153858
 20
1053.0341534579
 30
0.0
  0
VERTEX
  5
67F
  8
0
  6
CONTINUOUS
 62
     7
 10
1069.0775745755
 20
1053.7699727976
 30
0.0
  0
VERTEX
  5
680
  8
0
  6
CONTINUOUS
 62
     7
 10
1067.3429900056
 20
1054.4817416632
 30
0.0
  0
VERTEX
  5
681
  8
0
  6
CONTINUOUS
 62
     7
 10
1065.5691855794
 20
1055.1688938105
 30
0.0
  0
VERTEX
  5
682
  8
0
  6
CONTINUOUS
 62
     7
 10
1063.7575322037
 20
1055.8309226
 30
0.0
  0
VERTEX
  5
683
  8
0
  6
CONTINUOUS
 62
     7
 10
1061.9094305878
 20
1056.4672617876
 30
0.0
  0
VERTEX
  5
684
  8
0
  6
CONTINUOUS
 62
     7
 10
1060.0263708478
 20
1057.0774345362
 30
0.0
  0
VERTEX
  5
685
  8
0
  6
CONTINUOUS
 62
     7
 10
1058.1098430997
 20
1057.6609938109
 30
0.0
  0
VERTEX
  5
686
  8
0
  6
CONTINUOUS
 62
     7
 10
1056.1613225585
 20
1058.2174031698
 30
0.0
  0
VERTEX
  5
687
  8
0
  6
CONTINUOUS
 62
     7
 10
1054.1823738461
 20
1058.7463049853
 30
0.0
  0
VERTEX
  5
688
  8
0
  6
CONTINUOUS
 62
     7
 10
1052.174516881
 20
1059.24722242
 30
0.0
  0
VERTEX
  5
689
  8
0
  6
CONTINUOUS
 62
     7
 10
1050.1393609887
 20
1059.7197978461
 30
0.0
  0
VERTEX
  5
68A
  8
0
  6
CONTINUOUS
 62
     7
 10
1048.0784856921
 20
1060.1636438334
 30
0.0
  0
VERTEX
  5
68B
  8
0
  6
CONTINUOUS
 62
     7
 10
1045.9935450202
 20
1060.5784325564
 30
0.0
  0
VERTEX
  5
68C
  8
0
  6
CONTINUOUS
 62
     7
 10
1043.8861482983
 20
1060.9638063872
 30
0.0
  0
VERTEX
  5
68D
  8
0
  6
CONTINUOUS
 62
     7
 10
1041.7579644566
 20
1061.3194673025
 30
0.0
  0
VERTEX
  5
68E
  8
0
  6
CONTINUOUS
 62
     7
 10
1039.6106624251
 20
1061.6451768839
 30
0.0
  0
VERTEX
  5
68F
  8
0
  6
CONTINUOUS
 62
     7
 10
1037.4459409361
 20
1061.9406073057
 30
0.0
  0
VERTEX
  5
690
  8
0
  6
CONTINUOUS
 62
     7
 10
1035.2654987221
 20
1062.2055797541
 30
0.0
  0
VERTEX
  5
691
  8
0
  6
CONTINUOUS
 62
     7
 10
1033.0710494166
 20
1062.4398856127
 30
0.0
  0
VERTEX
  5
692
  8
0
  6
CONTINUOUS
 62
     7
 10
1030.8643215542
 20
1062.6433162653
 30
0.0
  0
VERTEX
  5
693
  8
0
  6
CONTINUOUS
 62
     7
 10
1028.6470436698
 20
1062.8157227003
 30
0.0
  0
VERTEX
  5
694
  8
0
  6
CONTINUOUS
 62
     7
 10
1027.4638169652
 20
1062.8947584593
 30
0.0
  0
SEQEND
  5
C13
  8
0
  6
CONTINUOUS
 62
     7
  0
LINE
  5
121
  8
0
  6
CONTINUOUS
 62
     7
 10
1097.4638098126
 20
933.2084624731
 30
0.0
 11
1097.4638098126
 21
977.1437315905
 31
0.0
  0
LINE
  5
122
  8
0
  6
CONTINUOUS
 62
     7
 10
1097.4638098126
 20
1009.1437070334
 30
0.0
 11
1097.4638098126
 21
1023.2084660494
 31
0.0
  0
POLYLINE
  5
123
  8
0
  6
CONTINUOUS
 62
     7
 66
     1
 10
0.0
 20
0.0
 30
0.0
  0
VERTEX
  5
695
  8
0
  6
CONTINUOUS
 62
     7
 10
1017.4638116007
 20
893.2084708178
 30
0.0
  0
VERTEX
  5
696
  8
0
  6
CONTINUOUS
 62
     7
 10
1019.7075241452
 20
893.224206444
 30
0.0
  0
VERTEX
  5
697
  8
0
  6
CONTINUOUS
 62
     7
 10
1021.9494485503
 20
893.2713984215
 30
0.0
  0
VERTEX
  5
698
  8
0
  6
CONTINUOUS
 62
     7
 10
1024.1878562813
 20
893.350016948
 30
0.0
  0
VERTEX
  5
699
  8
0
  6
CONTINUOUS
 62
     7
 10
1026.4209741002
 20
893.4599875176
 30
0.0
  0
VERTEX
  5
69A
  8
0
  6
CONTINUOUS
 62
     7
 10
1028.6470436698
 20
893.6012356245
 30
0.0
  0
VERTEX
  5
69B
  8
0
  6
CONTINUOUS
 62
     7
 10
1030.8643215542
 20
893.7736420595
 30
0.0
  0
VERTEX
  5
69C
  8
0
  6
CONTINUOUS
 62
     7
 10
1033.0710494166
 20
893.9770727122
 30
0.0
  0
VERTEX
  5
69D
  8
0
  6
CONTINUOUS
 62
     7
 10
1035.2654987221
 20
894.2113636696
 30
0.0
  0
VERTEX
  5
69E
  8
0
  6
CONTINUOUS
 62
     7
 10
1037.4459409361
 20
894.476336118
 30
0.0
  0
VERTEX
  5
69F
  8
0
  6
CONTINUOUS
 62
     7
 10
1039.6106624251
 20
894.7717814409
 30
0.0
  0
VERTEX
  5
6A0
  8
0
  6
CONTINUOUS
 62
     7
 10
1041.7579644566
 20
895.0974761212
 30
0.0
  0
VERTEX
  5
6A1
  8
0
  6
CONTINUOUS
 62
     7
 10
1043.8861482983
 20
895.4531370365
 30
0.0
  0
VERTEX
  5
6A2
  8
0
  6
CONTINUOUS
 62
     7
 10
1045.9935450202
 20
895.8385257685
 30
0.0
  0
VERTEX
  5
6A3
  8
0
  6
CONTINUOUS
 62
     7
 10
1048.0784856921
 20
896.2532995903
 30
0.0
  0
VERTEX
  5
6A4
  8
0
  6
CONTINUOUS
 62
     7
 10
1050.1393609887
 20
896.6971455776
 30
0.0
  0
VERTEX
  5
6A5
  8
0
  6
CONTINUOUS
 62
     7
 10
1052.174516881
 20
897.1697210037
 30
0.0
  0
VERTEX
  5
6A6
  8
0
  6
CONTINUOUS
 62
     7
 10
1054.1823738461
 20
897.6706533396
 30
0.0
  0
VERTEX
  5
6A7
  8
0
  6
CONTINUOUS
 62
     7
 10
1056.1613225585
 20
898.1995402539
 30
0.0
  0
VERTEX
  5
6A8
  8
0
  6
CONTINUOUS
 62
     7
 10
1058.1098430997
 20
898.755964514
 30
0.0
  0
VERTEX
  5
6A9
  8
0
  6
CONTINUOUS
 62
     7
 10
1060.0263708478
 20
899.3395088875
 30
0.0
  0
VERTEX
  5
6AA
  8
0
  6
CONTINUOUS
 62
     7
 10
1061.9094305878
 20
899.9496965372
 30
0.0
  0
VERTEX
  5
6AB
  8
0
  6
CONTINUOUS
 62
     7
 10
1063.7575322037
 20
900.5860357249
 30
0.0
  0
VERTEX
  5
6AC
  8
0
  6
CONTINUOUS
 62
     7
 10
1065.5691855794
 20
901.2480645144
 30
0.0
  0
VERTEX
  5
6AD
  8
0
  6
CONTINUOUS
 62
     7
 10
1067.3429900056
 20
901.9352166617
 30
0.0
  0
VERTEX
  5
6AE
  8
0
  6
CONTINUOUS
 62
     7
 10
1069.0775745755
 20
902.6469855273
 30
0.0
  0
VERTEX
  5
6AF
  8
0
  6
CONTINUOUS
 62
     7
 10
1070.77153858
 20
903.3827899658
 30
0.0
  0
VERTEX
  5
6B0
  8
0
  6
CONTINUOUS
 62
     7
 10
1072.4235707169
 20
904.1420637333
 30
0.0
  0
VERTEX
  5
6B1
  8
0
  6
CONTINUOUS
 62
     7
 10
1074.032359684
 20
904.9242107832
 30
0.0
  0
VERTEX
  5
6B2
  8
0
  6
CONTINUOUS
 62
     7
 10
1075.5966537839
 20
905.7286052668
 30
0.0
  0
VERTEX
  5
6B3
  8
0
  6
CONTINUOUS
 62
     7
 10
1077.1152013188
 20
906.5546064341
 30
0.0
  0
VERTEX
  5
6B4
  8
0
  6
CONTINUOUS
 62
     7
 10
1078.586810196
 20
907.4016033375
 30
0.0
  0
VERTEX
  5
6B5
  8
0
  6
CONTINUOUS
 62
     7
 10
1080.0103479272
 20
908.2688807213
 30
0.0
  0
VERTEX
  5
6B6
  8
0
  6
CONTINUOUS
 62
     7
 10
1081.3846522217
 20
909.1557978356
 30
0.0
  0
VERTEX
  5
6B7
  8
0
  6
CONTINUOUS
 62
     7
 10
1082.7086799985
 20
910.0616245234
 30
0.0
  0
VERTEX
  5
6B8
  8
0
  6
CONTINUOUS
 62
     7
 10
1083.981388176
 20
910.9856604302
 30
0.0
  0
VERTEX
  5
6B9
  8
0
  6
CONTINUOUS
 62
     7
 10
1085.2017634755
 20
911.9271903002
 30
0.0
  0
VERTEX
  5
6BA
  8
0
  6
CONTINUOUS
 62
     7
 10
1086.3688224202
 20
912.8854690754
 30
0.0
  0
VERTEX
  5
6BB
  8
0
  6
CONTINUOUS
 62
     7
 10
1087.4817007428
 20
913.8597218954
 30
0.0
  0
VERTEX
  5
6BC
  8
0
  6
CONTINUOUS
 62
     7
 10
1088.5394745713
 20
914.8492037022
 30
0.0
  0
VERTEX
  5
6BD
  8
0
  6
CONTINUOUS
 62
     7
 10
1089.541339243
 20
915.8531247341
 30
0.0
  0
VERTEX
  5
6BE
  8
0
  6
CONTINUOUS
 62
     7
 10
1090.4864900952
 20
916.8707101309
 30
0.0
  0
VERTEX
  5
6BF
  8
0
  6
CONTINUOUS
 62
     7
 10
1091.3741820698
 20
917.9011403286
 30
0.0
  0
VERTEX
  5
6C0
  8
0
  6
CONTINUOUS
 62
     7
 10
1092.2037297135
 20
918.9436106646
 30
0.0
  0
VERTEX
  5
6C1
  8
0
  6
CONTINUOUS
 62
     7
 10
1092.9744773751
 20
919.9973164761
 30
0.0
  0
VERTEX
  5
6C2
  8
0
  6
CONTINUOUS
 62
     7
 10
1093.6858290082
 20
921.0614083969
 30
0.0
  0
VERTEX
  5
6C3
  8
0
  6
CONTINUOUS
 62
     7
 10
1094.3372183686
 20
922.1350519621
 30
0.0
  0
VERTEX
  5
6C4
  8
0
  6
CONTINUOUS
 62
     7
 10
1094.9281090146
 20
923.2174127066
 30
0.0
  0
VERTEX
  5
6C5
  8
0
  6
CONTINUOUS
 62
     7
 10
1095.4580539113
 20
924.3076412642
 30
0.0
  0
VERTEX
  5
6C6
  8
0
  6
CONTINUOUS
 62
     7
 10
1095.9266358262
 20
925.4048584664
 30
0.0
  0
VERTEX
  5
6C7
  8
0
  6
CONTINUOUS
 62
     7
 10
1096.3334971314
 20
926.508214947
 30
0.0
  0
VERTEX
  5
6C8
  8
0
  6
CONTINUOUS
 62
     7
 10
1096.6783100014
 20
927.6168613398
 30
0.0
  0
VERTEX
  5
6C9
  8
0
  6
CONTINUOUS
 62
     7
 10
1096.9608062153
 20
928.729888674
 30
0.0
  0
VERTEX
  5
6CA
  8
0
  6
CONTINUOUS
 62
     7
 10
1097.1807473546
 20
929.8464624846
 30
0.0
  0
VERTEX
  5
6CB
  8
0
  6
CONTINUOUS
 62
     7
 10
1097.3379546052
 20
930.9656588995
 30
0.0
  0
VERTEX
  5
6CC
  8
0
  6
CONTINUOUS
 62
     7
 10
1097.4323385602
 20
932.0866136515
 30
0.0
  0
VERTEX
  5
6CD
  8
0
  6
CONTINUOUS
 62
     7
 10
1097.4638098126
 20
933.2084624731
 30
0.0
  0
SEQEND
  5
C12
  8
0
  6
CONTINUOUS
 62
     7
  0
LINE
  5
124
  8
0
  6
CONTINUOUS
 62
     7
 10
597.4638247138
 20
893.2084708178
 30
0.0
 11
664.7340142375
 21
893.2084708178
 31
0.0
  0
LINE
  5
125
  8
0
  6
CONTINUOUS
 62
     7
 10
754.5917527025
 20
893.2084708178
 30
0.0
 11
770.594333226
 21
893.2084708178
 31
0.0
  0
LINE
  5
126
  8
0
  6
CONTINUOUS
 62
     7
 10
844.3333030885
 20
893.2084708178
 30
0.0
 11
860.335883612
 21
893.2084708178
 31
0.0
  0
LINE
  5
127
  8
0
  6
CONTINUOUS
 62
     7
 10
950.193622077
 20
893.2084708178
 30
0.0
 11
1017.4638116007
 21
893.2084708178
 31
0.0
  0
LINE
  5
128
  8
0
  6
CONTINUOUS
 62
     7
 10
517.4638265019
 20
1023.2084660494
 30
0.0
 11
517.4638265019
 21
933.2084624731
 31
0.0
  0
LINE
  5
129
  8
0
  6
CONTINUOUS
 62
     7
 10
557.4638181573
 20
928.2084672415
 30
0.0
 11
567.4638235217
 21
928.2084672415
 31
0.0
  0
LINE
  5
12A
  8
0
  6
CONTINUOUS
 62
     7
 10
567.4638235217
 20
923.2084720099
 30
0.0
 11
616.4638185149
 21
923.2084720099
 31
0.0
  0
LINE
  5
12B
  8
0
  6
CONTINUOUS
 62
     7
 10
616.4638185149
 20
915.2084706986
 30
0.0
 11
705.8483966833
 21
915.2084706986
 31
0.0
  0
LINE
  5
12C
  8
0
  6
CONTINUOUS
 62
     7
 10
909.0792396312
 20
915.2084706986
 30
0.0
 11
998.4638177996
 21
915.2084706986
 31
0.0
  0
LINE
  5
12D
  8
0
  6
CONTINUOUS
 62
     7
 10
1047.4638127928
 20
923.2084720099
 30
0.0
 11
998.4638177996
 21
923.2084720099
 31
0.0
  0
LINE
  5
12E
  8
0
  6
CONTINUOUS
 62
     7
 10
1057.4638181573
 20
928.2084672415
 30
0.0
 11
1047.4638127928
 21
928.2084672415
 31
0.0
  0
LINE
  5
12F
  8
0
  6
CONTINUOUS
 62
     7
 10
1017.4638116007
 20
875.8879719937
 30
0.0
 11
1017.4638116007
 21
893.2084708178
 31
0.0
  0
LINE
  5
130
  8
0
  6
CONTINUOUS
 62
     7
 10
1097.4638098126
 20
933.2084624731
 30
0.0
 11
1097.4638098126
 21
915.887963649
 31
0.0
  0
POLYLINE
  5
131
  8
0
  6
CONTINUOUS
 62
     7
 66
     1
 10
0.0
 20
0.0
 30
0.0
  0
VERTEX
  5
6CE
  8
0
  6
CONTINUOUS
 62
     7
 10
1017.4638116007
 20
875.8879719937
 30
0.0
  0
VERTEX
  5
6CF
  8
0
  6
CONTINUOUS
 62
     7
 10
1019.7075241452
 20
875.9037076199
 30
0.0
  0
VERTEX
  5
6D0
  8
0
  6
CONTINUOUS
 62
     7
 10
1021.9494485503
 20
875.9508995974
 30
0.0
  0
VERTEX
  5
6D1
  8
0
  6
CONTINUOUS
 62
     7
 10
1024.1878562813
 20
876.0295032227
 30
0.0
  0
VERTEX
  5
6D2
  8
0
  6
CONTINUOUS
 62
     7
 10
1026.4209741002
 20
876.1394737923
 30
0.0
  0
VERTEX
  5
6D3
  8
0
  6
CONTINUOUS
 62
     7
 10
1028.6470436698
 20
876.2807218992
 30
0.0
  0
VERTEX
  5
6D4
  8
0
  6
CONTINUOUS
 62
     7
 10
1030.8643215542
 20
876.4531283343
 30
0.0
  0
VERTEX
  5
6D5
  8
0
  6
CONTINUOUS
 62
     7
 10
1033.0710494166
 20
876.6565589869
 30
0.0
  0
VERTEX
  5
6D6
  8
0
  6
CONTINUOUS
 62
     7
 10
1035.2654987221
 20
876.8908499443
 30
0.0
  0
VERTEX
  5
6D7
  8
0
  6
CONTINUOUS
 62
     7
 10
1037.4459409361
 20
877.1558223927
 30
0.0
  0
VERTEX
  5
6D8
  8
0
  6
CONTINUOUS
 62
     7
 10
1039.6106624251
 20
877.4512826168
 30
0.0
  0
VERTEX
  5
6D9
  8
0
  6
CONTINUOUS
 62
     7
 10
1041.7579644566
 20
877.7769623959
 30
0.0
  0
VERTEX
  5
6DA
  8
0
  6
CONTINUOUS
 62
     7
 10
1043.8861482983
 20
878.1326382124
 30
0.0
  0
VERTEX
  5
6DB
  8
0
  6
CONTINUOUS
 62
     7
 10
1045.9935450202
 20
878.5180120432
 30
0.0
  0
VERTEX
  5
6DC
  8
0
  6
CONTINUOUS
 62
     7
 10
1048.0784856921
 20
878.932785865
 30
0.0
  0
VERTEX
  5
6DD
  8
0
  6
CONTINUOUS
 62
     7
 10
1050.1393609887
 20
879.3766318524
 30
0.0
  0
VERTEX
  5
6DE
  8
0
  6
CONTINUOUS
 62
     7
 10
1052.174516881
 20
879.8492072785
 30
0.0
  0
VERTEX
  5
6DF
  8
0
  6
CONTINUOUS
 62
     7
 10
1054.1823738461
 20
880.3501396143
 30
0.0
  0
VERTEX
  5
6E0
  8
0
  6
CONTINUOUS
 62
     7
 10
1056.1613225585
 20
880.8790265286
 30
0.0
  0
VERTEX
  5
6E1
  8
0
  6
CONTINUOUS
 62
     7
 10
1058.1098430997
 20
881.4354656899
 30
0.0
  0
VERTEX
  5
6E2
  8
0
  6
CONTINUOUS
 62
     7
 10
1060.0263708478
 20
882.0189951622
 30
0.0
  0
VERTEX
  5
6E3
  8
0
  6
CONTINUOUS
 62
     7
 10
1061.9094305878
 20
882.629182812
 30
0.0
  0
VERTEX
  5
6E4
  8
0
  6
CONTINUOUS
 62
     7
 10
1063.7575322037
 20
883.2655369007
 30
0.0
  0
VERTEX
  5
6E5
  8
0
  6
CONTINUOUS
 62
     7
 10
1065.5691855794
 20
883.9275507891
 30
0.0
  0
VERTEX
  5
6E6
  8
0
  6
CONTINUOUS
 62
     7
 10
1067.3429900056
 20
884.6147029364
 30
0.0
  0
VERTEX
  5
6E7
  8
0
  6
CONTINUOUS
 62
     7
 10
1069.0775745755
 20
885.326471802
 30
0.0
  0
VERTEX
  5
6E8
  8
0
  6
CONTINUOUS
 62
     7
 10
1070.77153858
 20
886.0622762406
 30
0.0
  0
VERTEX
  5
6E9
  8
0
  6
CONTINUOUS
 62
     7
 10
1072.4235707169
 20
886.821550008
 30
0.0
  0
VERTEX
  5
6EA
  8
0
  6
CONTINUOUS
 62
     7
 10
1074.032359684
 20
887.6036970579
 30
0.0
  0
VERTEX
  5
6EB
  8
0
  6
CONTINUOUS
 62
     7
 10
1075.5966537839
 20
888.4080915415
 30
0.0
  0
VERTEX
  5
6EC
  8
0
  6
CONTINUOUS
 62
     7
 10
1077.1152013188
 20
889.23410761
 30
0.0
  0
VERTEX
  5
6ED
  8
0
  6
CONTINUOUS
 62
     7
 10
1078.586810196
 20
890.0810896122
 30
0.0
  0
VERTEX
  5
6EE
  8
0
  6
CONTINUOUS
 62
     7
 10
1080.0103479272
 20
890.9483818972
 30
0.0
  0
VERTEX
  5
6EF
  8
0
  6
CONTINUOUS
 62
     7
 10
1081.3846522217
 20
891.8352841103
 30
0.0
  0
VERTEX
  5
6F0
  8
0
  6
CONTINUOUS
 62
     7
 10
1082.7086799985
 20
892.7411107981
 30
0.0
  0
VERTEX
  5
6F1
  8
0
  6
CONTINUOUS
 62
     7
 10
1083.981388176
 20
893.665161606
 30
0.0
  0
VERTEX
  5
6F2
  8
0
  6
CONTINUOUS
 62
     7
 10
1085.2017634755
 20
894.6066914761
 30
0.0
  0
VERTEX
  5
6F3
  8
0
  6
CONTINUOUS
 62
     7
 10
1086.3688224202
 20
895.5649553501
 30
0.0
  0
VERTEX
  5
6F4
  8
0
  6
CONTINUOUS
 62
     7
 10
1087.4817007428
 20
896.5392081702
 30
0.0
  0
VERTEX
  5
6F5
  8
0
  6
CONTINUOUS
 62
     7
 10
1088.5394745713
 20
897.5286899769
 30
0.0
  0
VERTEX
  5
6F6
  8
0
  6
CONTINUOUS
 62
     7
 10
1089.541339243
 20
898.53262591
 30
0.0
  0
VERTEX
  5
6F7
  8
0
  6
CONTINUOUS
 62
     7
 10
1090.4864900952
 20
899.5501964056
 30
0.0
  0
VERTEX
  5
6F8
  8
0
  6
CONTINUOUS
 62
     7
 10
1091.3741820698
 20
900.5806266033
 30
0.0
  0
VERTEX
  5
6F9
  8
0
  6
CONTINUOUS
 62
     7
 10
1092.2037297135
 20
901.6231118405
 30
0.0
  0
VERTEX
  5
6FA
  8
0
  6
CONTINUOUS
 62
     7
 10
1092.9744773751
 20
902.6768027508
 30
0.0
  0
VERTEX
  5
6FB
  8
0
  6
CONTINUOUS
 62
     7
 10
1093.6858290082
 20
903.7408946717
 30
0.0
  0
VERTEX
  5
6FC
  8
0
  6
CONTINUOUS
 62
     7
 10
1094.3372183686
 20
904.814553138
 30
0.0
  0
VERTEX
  5
6FD
  8
0
  6
CONTINUOUS
 62
     7
 10
1094.9281090146
 20
905.8969138825
 30
0.0
  0
VERTEX
  5
6FE
  8
0
  6
CONTINUOUS
 62
     7
 10
1095.4580539113
 20
906.9871275389
 30
0.0
  0
VERTEX
  5
6FF
  8
0
  6
CONTINUOUS
 62
     7
 10
1095.9266358262
 20
908.0843596422
 30
0.0
  0
VERTEX
  5
700
  8
0
  6
CONTINUOUS
 62
     7
 10
1096.3334971314
 20
909.1877161228
 30
0.0
  0
VERTEX
  5
701
  8
0
  6
CONTINUOUS
 62
     7
 10
1096.6783100014
 20
910.2963625157
 30
0.0
  0
VERTEX
  5
702
  8
0
  6
CONTINUOUS
 62
     7
 10
1096.9608062153
 20
911.4093898499
 30
0.0
  0
VERTEX
  5
703
  8
0
  6
CONTINUOUS
 62
     7
 10
1097.1807473546
 20
912.5259487593
 30
0.0
  0
VERTEX
  5
704
  8
0
  6
CONTINUOUS
 62
     7
 10
1097.3379546052
 20
913.6451451742
 30
0.0
  0
VERTEX
  5
705
  8
0
  6
CONTINUOUS
 62
     7
 10
1097.4323385602
 20
914.7661148274
 30
0.0
  0
VERTEX
  5
706
  8
0
  6
CONTINUOUS
 62
     7
 10
1097.4638098126
 20
915.887963649
 30
0.0
  0
SEQEND
  5
C11
  8
0
  6
CONTINUOUS
 62
     7
  0
LINE
  5
132
  8
0
  6
CONTINUOUS
 62
     7
 10
998.4638177996
 20
1061.5456371271
 30
0.0
 11
998.4638177996
 21
955.0456373656
 31
0.0
  0
LINE
  5
133
  8
0
  6
CONTINUOUS
 62
     7
 10
998.4638177996
 20
955.0456373656
 30
0.0
 11
616.4638185149
 21
955.0456373656
 31
0.0
  0
LINE
  5
134
  8
0
  6
CONTINUOUS
 62
     7
 10
616.4638185149
 20
1061.5456371271
 30
0.0
 11
616.4638185149
 21
955.0456373656
 31
0.0
  0
LINE
  5
135
  8
0
  6
CONTINUOUS
 62
     7
 10
597.4638247138
 20
875.8879719937
 30
0.0
 11
597.4638247138
 21
849.9072014057
 31
0.0
  0
POLYLINE
  5
136
  8
0
  6
CONTINUOUS
 62
     7
 66
     1
 10
0.0
 20
0.0
 30
0.0
  0
VERTEX
  5
707
  8
0
  6
CONTINUOUS
 62
     7
 10
597.4638247138
 20
849.9072014057
 30
0.0
  0
VERTEX
  5
708
  8
0
  6
CONTINUOUS
 62
     7
 10
595.2201121693
 20
849.922937032
 30
0.0
  0
VERTEX
  5
709
  8
0
  6
CONTINUOUS
 62
     7
 10
592.9781877642
 20
849.9701290095
 30
0.0
  0
VERTEX
  5
70A
  8
0
  6
CONTINUOUS
 62
     7
 10
590.7397800332
 20
850.0487475359
 30
0.0
  0
VERTEX
  5
70B
  8
0
  6
CONTINUOUS
 62
     7
 10
588.5066622143
 20
850.1587181055
 30
0.0
  0
VERTEX
  5
70C
  8
0
  6
CONTINUOUS
 62
     7
 10
586.2805926448
 20
850.2999662125
 30
0.0
  0
VERTEX
  5
70D
  8
0
  6
CONTINUOUS
 62
     7
 10
584.0633147603
 20
850.4723726475
 30
0.0
  0
VERTEX
  5
70E
  8
0
  6
CONTINUOUS
 62
     7
 10
581.8565868979
 20
850.675788399
 30
0.0
  0
VERTEX
  5
70F
  8
0
  6
CONTINUOUS
 62
     7
 10
579.6621375924
 20
850.9100942576
 30
0.0
  0
VERTEX
  5
710
  8
0
  6
CONTINUOUS
 62
     7
 10
577.4816953784
 20
851.1750667059
 30
0.0
  0
VERTEX
  5
711
  8
0
  6
CONTINUOUS
 62
     7
 10
575.3169738894
 20
851.4705120289
 30
0.0
  0
VERTEX
  5
712
  8
0
  6
CONTINUOUS
 62
     7
 10
573.1696718579
 20
851.7962067091
 30
0.0
  0
VERTEX
  5
713
  8
0
  6
CONTINUOUS
 62
     7
 10
571.0414880162
 20
852.1518676245
 30
0.0
  0
VERTEX
  5
714
  8
0
  6
CONTINUOUS
 62
     7
 10
568.9340912943
 20
852.5372563565
 30
0.0
  0
VERTEX
  5
715
  8
0
  6
CONTINUOUS
 62
     7
 10
566.8491506224
 20
852.9520301783
 30
0.0
  0
VERTEX
  5
716
  8
0
  6
CONTINUOUS
 62
     7
 10
564.7882753258
 20
853.3958761656
 30
0.0
  0
VERTEX
  5
717
  8
0
  6
CONTINUOUS
 62
     7
 10
562.7531194335
 20
853.8684515917
 30
0.0
  0
VERTEX
  5
718
  8
0
  6
CONTINUOUS
 62
     7
 10
560.7452624684
 20
854.3693839276
 30
0.0
  0
VERTEX
  5
719
  8
0
  6
CONTINUOUS
 62
     7
 10
558.766313756
 20
854.8982708418
 30
0.0
  0
VERTEX
  5
71A
  8
0
  6
CONTINUOUS
 62
     7
 10
556.8177932149
 20
855.454695102
 30
0.0
  0
VERTEX
  5
71B
  8
0
  6
CONTINUOUS
 62
     7
 10
554.9012654667
 20
856.0382394755
 30
0.0
  0
VERTEX
  5
71C
  8
0
  6
CONTINUOUS
 62
     7
 10
553.0182057267
 20
856.6484271252
 30
0.0
  0
VERTEX
  5
71D
  8
0
  6
CONTINUOUS
 62
     7
 10
551.1701041108
 20
857.2847663128
 30
0.0
  0
VERTEX
  5
71E
  8
0
  6
CONTINUOUS
 62
     7
 10
549.3584507352
 20
857.9467802012
 30
0.0
  0
VERTEX
  5
71F
  8
0
  6
CONTINUOUS
 62
     7
 10
547.584646309
 20
858.6339472496
 30
0.0
  0
VERTEX
  5
720
  8
0
  6
CONTINUOUS
 62
     7
 10
545.850061739
 20
859.3457161152
 30
0.0
  0
VERTEX
  5
721
  8
0
  6
CONTINUOUS
 62
     7
 10
544.1560977345
 20
860.0815205538
 30
0.0
  0
VERTEX
  5
722
  8
0
  6
CONTINUOUS
 62
     7
 10
542.5040655976
 20
860.8407943213
 30
0.0
  0
VERTEX
  5
723
  8
0
  6
CONTINUOUS
 62
     7
 10
540.8952766305
 20
861.6229413712
 30
0.0
  0
VERTEX
  5
724
  8
0
  6
CONTINUOUS
 62
     7
 10
539.3309825307
 20
862.4273358547
 30
0.0
  0
VERTEX
  5
725
  8
0
  6
CONTINUOUS
 62
     7
 10
537.8124349957
 20
863.253337022
 30
0.0
  0
VERTEX
  5
726
  8
0
  6
CONTINUOUS
 62
     7
 10
536.3408261185
 20
864.1003339255
 30
0.0
  0
VERTEX
  5
727
  8
0
  6
CONTINUOUS
 62
     7
 10
534.9172883874
 20
864.9676113093
 30
0.0
  0
VERTEX
  5
728
  8
0
  6
CONTINUOUS
 62
     7
 10
533.5429840928
 20
865.8545284235
 30
0.0
  0
VERTEX
  5
729
  8
0
  6
CONTINUOUS
 62
     7
 10
532.2189563161
 20
866.7603551113
 30
0.0
  0
VERTEX
  5
72A
  8
0
  6
CONTINUOUS
 62
     7
 10
530.9462481385
 20
867.6843910181
 30
0.0
  0
VERTEX
  5
72B
  8
0
  6
CONTINUOUS
 62
     7
 10
529.725872839
 20
868.6259208882
 30
0.0
  0
VERTEX
  5
72C
  8
0
  6
CONTINUOUS
 62
     7
 10
528.5588138943
 20
869.5841996634
 30
0.0
  0
VERTEX
  5
72D
  8
0
  6
CONTINUOUS
 62
     7
 10
527.4459355717
 20
870.5584524834
 30
0.0
  0
VERTEX
  5
72E
  8
0
  6
CONTINUOUS
 62
     7
 10
526.3881617432
 20
871.5479342901
 30
0.0
  0
VERTEX
  5
72F
  8
0
  6
CONTINUOUS
 62
     7
 10
525.3862970715
 20
872.5518553221
 30
0.0
  0
VERTEX
  5
730
  8
0
  6
CONTINUOUS
 62
     7
 10
524.4411462193
 20
873.5694407189
 30
0.0
  0
VERTEX
  5
731
  8
0
  6
CONTINUOUS
 62
     7
 10
523.5534542447
 20
874.5998709166
 30
0.0
  0
VERTEX
  5
732
  8
0
  6
CONTINUOUS
 62
     7
 10
522.723906601
 20
875.6423412525
 30
0.0
  0
VERTEX
  5
733
  8
0
  6
CONTINUOUS
 62
     7
 10
521.9531589394
 20
876.696047064
 30
0.0
  0
VERTEX
  5
734
  8
0
  6
CONTINUOUS
 62
     7
 10
521.2418073063
 20
877.7601389849
 30
0.0
  0
VERTEX
  5
735
  8
0
  6
CONTINUOUS
 62
     7
 10
520.5904179459
 20
878.8337825501
 30
0.0
  0
VERTEX
  5
736
  8
0
  6
CONTINUOUS
 62
     7
 10
519.9995272999
 20
879.9161432945
 30
0.0
  0
VERTEX
  5
737
  8
0
  6
CONTINUOUS
 62
     7
 10
519.4695824032
 20
881.0063718521
 30
0.0
  0
VERTEX
  5
738
  8
0
  6
CONTINUOUS
 62
     7
 10
519.0010004883
 20
882.1035890543
 30
0.0
  0
VERTEX
  5
739
  8
0
  6
CONTINUOUS
 62
     7
 10
518.5941391831
 20
883.2069604361
 30
0.0
  0
VERTEX
  5
73A
  8
0
  6
CONTINUOUS
 62
     7
 10
518.2493263131
 20
884.3155919277
 30
0.0
  0
VERTEX
  5
73B
  8
0
  6
CONTINUOUS
 62
     7
 10
517.9668300992
 20
885.4286341631
 30
0.0
  0
VERTEX
  5
73C
  8
0
  6
CONTINUOUS
 62
     7
 10
517.7468889599
 20
886.5451930725
 30
0.0
  0
VERTEX
  5
73D
  8
0
  6
CONTINUOUS
 62
     7
 10
517.5896817093
 20
887.6643894875
 30
0.0
  0
VERTEX
  5
73E
  8
0
  6
CONTINUOUS
 62
     7
 10
517.4952977543
 20
888.7853591406
 30
0.0
  0
VERTEX
  5
73F
  8
0
  6
CONTINUOUS
 62
     7
 10
517.4638265019
 20
889.9072079623
 30
0.0
  0
SEQEND
  5
C10
  8
0
  6
CONTINUOUS
 62
     7
  0
LINE
  5
137
  8
0
  6
CONTINUOUS
 62
     7
 10
517.4638265019
 20
889.9072079623
 30
0.0
 11
517.4638265019
 21
915.887963649
 31
0.0
  0
LINE
  5
138
  8
0
  6
CONTINUOUS
 62
     7
 10
1017.4638116007
 20
849.9072014057
 30
0.0
 11
1017.4638116007
 21
875.8879719937
 31
0.0
  0
LINE
  5
139
  8
0
  6
CONTINUOUS
 62
     7
 10
1017.4638116007
 20
849.9072014057
 30
0.0
 11
1000.6406986361
 21
849.9072014057
 31
0.0
  0
LINE
  5
13A
  8
0
  6
CONTINUOUS
 62
     7
 10
614.2869376784
 20
849.9072014057
 30
0.0
 11
597.4638247138
 21
849.9072014057
 31
0.0
  0
LINE
  5
13B
  8
0
  6
CONTINUOUS
 62
     7
 10
1097.4638098126
 20
915.887963649
 30
0.0
 11
1097.4638098126
 21
889.9072079623
 31
0.0
  0
POLYLINE
  5
13C
  8
0
  6
CONTINUOUS
 62
     7
 66
     1
 10
0.0
 20
0.0
 30
0.0
  0
VERTEX
  5
740
  8
0
  6
CONTINUOUS
 62
     7
 10
1097.4638098126
 20
889.9072079623
 30
0.0
  0
VERTEX
  5
741
  8
0
  6
CONTINUOUS
 62
     7
 10
1097.4323385602
 20
888.7853591406
 30
0.0
  0
VERTEX
  5
742
  8
0
  6
CONTINUOUS
 62
     7
 10
1097.3379546052
 20
887.6643894875
 30
0.0
  0
VERTEX
  5
743
  8
0
  6
CONTINUOUS
 62
     7
 10
1097.1807473546
 20
886.5451930725
 30
0.0
  0
VERTEX
  5
744
  8
0
  6
CONTINUOUS
 62
     7
 10
1096.9608062153
 20
885.4286341631
 30
0.0
  0
VERTEX
  5
745
  8
0
  6
CONTINUOUS
 62
     7
 10
1096.6783100014
 20
884.3155919277
 30
0.0
  0
VERTEX
  5
746
  8
0
  6
CONTINUOUS
 62
     7
 10
1096.3334971314
 20
883.2069604361
 30
0.0
  0
VERTEX
  5
747
  8
0
  6
CONTINUOUS
 62
     7
 10
1095.9266358262
 20
882.1035890543
 30
0.0
  0
VERTEX
  5
748
  8
0
  6
CONTINUOUS
 62
     7
 10
1095.4580539113
 20
881.0063718521
 30
0.0
  0
VERTEX
  5
749
  8
0
  6
CONTINUOUS
 62
     7
 10
1094.9281090146
 20
879.9161432945
 30
0.0
  0
VERTEX
  5
74A
  8
0
  6
CONTINUOUS
 62
     7
 10
1094.3372183686
 20
878.8337825501
 30
0.0
  0
VERTEX
  5
74B
  8
0
  6
CONTINUOUS
 62
     7
 10
1093.6858290082
 20
877.7601389849
 30
0.0
  0
VERTEX
  5
74C
  8
0
  6
CONTINUOUS
 62
     7
 10
1092.9744773751
 20
876.696047064
 30
0.0
  0
VERTEX
  5
74D
  8
0
  6
CONTINUOUS
 62
     7
 10
1092.2037297135
 20
875.6423412525
 30
0.0
  0
VERTEX
  5
74E
  8
0
  6
CONTINUOUS
 62
     7
 10
1091.3741820698
 20
874.5998709166
 30
0.0
  0
VERTEX
  5
74F
  8
0
  6
CONTINUOUS
 62
     7
 10
1090.4864900952
 20
873.5694407189
 30
0.0
  0
VERTEX
  5
750
  8
0
  6
CONTINUOUS
 62
     7
 10
1089.541339243
 20
872.5518553221
 30
0.0
  0
VERTEX
  5
751
  8
0
  6
CONTINUOUS
 62
     7
 10
1088.5394745713
 20
871.5479342901
 30
0.0
  0
VERTEX
  5
752
  8
0
  6
CONTINUOUS
 62
     7
 10
1087.4817007428
 20
870.5584524834
 30
0.0
  0
VERTEX
  5
753
  8
0
  6
CONTINUOUS
 62
     7
 10
1086.3688224202
 20
869.5841996634
 30
0.0
  0
VERTEX
  5
754
  8
0
  6
CONTINUOUS
 62
     7
 10
1085.2017634755
 20
868.6259208882
 30
0.0
  0
VERTEX
  5
755
  8
0
  6
CONTINUOUS
 62
     7
 10
1083.981388176
 20
867.6843910181
 30
0.0
  0
VERTEX
  5
756
  8
0
  6
CONTINUOUS
 62
     7
 10
1082.7086799985
 20
866.7603551113
 30
0.0
  0
VERTEX
  5
757
  8
0
  6
CONTINUOUS
 62
     7
 10
1081.3846522217
 20
865.8545284235
 30
0.0
  0
VERTEX
  5
758
  8
0
  6
CONTINUOUS
 62
     7
 10
1080.0103479272
 20
864.9676113093
 30
0.0
  0
VERTEX
  5
759
  8
0
  6
CONTINUOUS
 62
     7
 10
1078.586810196
 20
864.1003339255
 30
0.0
  0
VERTEX
  5
75A
  8
0
  6
CONTINUOUS
 62
     7
 10
1077.1152013188
 20
863.253337022
 30
0.0
  0
VERTEX
  5
75B
  8
0
  6
CONTINUOUS
 62
     7
 10
1075.5966537839
 20
862.4273358547
 30
0.0
  0
VERTEX
  5
75C
  8
0
  6
CONTINUOUS
 62
     7
 10
1074.032359684
 20
861.6229413712
 30
0.0
  0
VERTEX
  5
75D
  8
0
  6
CONTINUOUS
 62
     7
 10
1072.4235707169
 20
860.8407943213
 30
0.0
  0
VERTEX
  5
75E
  8
0
  6
CONTINUOUS
 62
     7
 10
1070.77153858
 20
860.0815205538
 30
0.0
  0
VERTEX
  5
75F
  8
0
  6
CONTINUOUS
 62
     7
 10
1069.0775745755
 20
859.3457161152
 30
0.0
  0
VERTEX
  5
760
  8
0
  6
CONTINUOUS
 62
     7
 10
1067.3429900056
 20
858.6339472496
 30
0.0
  0
VERTEX
  5
761
  8
0
  6
CONTINUOUS
 62
     7
 10
1065.5691855794
 20
857.9467802012
 30
0.0
  0
VERTEX
  5
762
  8
0
  6
CONTINUOUS
 62
     7
 10
1063.7575322037
 20
857.2847663128
 30
0.0
  0
VERTEX
  5
763
  8
0
  6
CONTINUOUS
 62
     7
 10
1061.9094305878
 20
856.6484271252
 30
0.0
  0
VERTEX
  5
764
  8
0
  6
CONTINUOUS
 62
     7
 10
1060.0263708478
 20
856.0382394755
 30
0.0
  0
VERTEX
  5
765
  8
0
  6
CONTINUOUS
 62
     7
 10
1058.1098430997
 20
855.454695102
 30
0.0
  0
VERTEX
  5
766
  8
0
  6
CONTINUOUS
 62
     7
 10
1056.1613225585
 20
854.8982708418
 30
0.0
  0
VERTEX
  5
767
  8
0
  6
CONTINUOUS
 62
     7
 10
1054.1823738461
 20
854.3693839276
 30
0.0
  0
VERTEX
  5
768
  8
0
  6
CONTINUOUS
 62
     7
 10
1052.174516881
 20
853.8684515917
 30
0.0
  0
VERTEX
  5
769
  8
0
  6
CONTINUOUS
 62
     7
 10
1050.1393609887
 20
853.3958761656
 30
0.0
  0
VERTEX
  5
76A
  8
0
  6
CONTINUOUS
 62
     7
 10
1048.0784856921
 20
852.9520301783
 30
0.0
  0
VERTEX
  5
76B
  8
0
  6
CONTINUOUS
 62
     7
 10
1045.9935450202
 20
852.5372563565
 30
0.0
  0
VERTEX
  5
76C
  8
0
  6
CONTINUOUS
 62
     7
 10
1043.8861482983
 20
852.1518676245
 30
0.0
  0
VERTEX
  5
76D
  8
0
  6
CONTINUOUS
 62
     7
 10
1041.7579644566
 20
851.7962067091
 30
0.0
  0
VERTEX
  5
76E
  8
0
  6
CONTINUOUS
 62
     7
 10
1039.6106624251
 20
851.4705120289
 30
0.0
  0
VERTEX
  5
76F
  8
0
  6
CONTINUOUS
 62
     7
 10
1037.4459409361
 20
851.1750667059
 30
0.0
  0
VERTEX
  5
770
  8
0
  6
CONTINUOUS
 62
     7
 10
1035.2654987221
 20
850.9100942576
 30
0.0
  0
VERTEX
  5
771
  8
0
  6
CONTINUOUS
 62
     7
 10
1033.0710494166
 20
850.675788399
 30
0.0
  0
VERTEX
  5
772
  8
0
  6
CONTINUOUS
 62
     7
 10
1030.8643215542
 20
850.4723726475
 30
0.0
  0
VERTEX
  5
773
  8
0
  6
CONTINUOUS
 62
     7
 10
1028.6470436698
 20
850.2999662125
 30
0.0
  0
VERTEX
  5
774
  8
0
  6
CONTINUOUS
 62
     7
 10
1026.4209741002
 20
850.1587181055
 30
0.0
  0
VERTEX
  5
775
  8
0
  6
CONTINUOUS
 62
     7
 10
1024.1878562813
 20
850.0487475359
 30
0.0
  0
VERTEX
  5
776
  8
0
  6
CONTINUOUS
 62
     7
 10
1021.9494485503
 20
849.9701290095
 30
0.0
  0
VERTEX
  5
777
  8
0
  6
CONTINUOUS
 62
     7
 10
1019.7075241452
 20
849.922937032
 30
0.0
  0
VERTEX
  5
778
  8
0
  6
CONTINUOUS
 62
     7
 10
1017.4638116007
 20
849.9072014057
 30
0.0
  0
SEQEND
  5
C0F
  8
0
  6
CONTINUOUS
 62
     7
  0
LINE
  5
13D
  8
0
  6
CONTINUOUS
 62
     7
 10
998.4638177996
 20
955.0456373656
 30
0.0
 11
998.4638177996
 21
915.2084706986
 31
0.0
  0
LINE
  5
13E
  8
0
  6
CONTINUOUS
 62
     7
 10
616.4638185149
 20
955.0456373656
 30
0.0
 11
616.4638185149
 21
915.2084706986
 31
0.0
  0
LINE
  5
13F
  8
0
  6
CONTINUOUS
 62
     7
 10
567.4638235217
 20
963.045653578
 30
0.0
 11
616.4638185149
 21
963.045653578
 31
0.0
  0
LINE
  5
140
  8
0
  6
CONTINUOUS
 62
     7
 10
567.4638235217
 20
1045.5456345045
 30
0.0
 11
567.4638235217
 21
963.045653578
 31
0.0
  0
LINE
  5
141
  8
0
  6
CONTINUOUS
 62
     7
 10
1047.4638127928
 20
1045.5456345045
 30
0.0
 11
1047.4638127928
 21
963.045653578
 31
0.0
  0
LINE
  5
142
  8
0
  6
CONTINUOUS
 62
     7
 10
1047.4638127928
 20
963.045653578
 30
0.0
 11
998.4638177996
 21
963.045653578
 31
0.0
  0
LINE
  5
143
  8
0
  6
CONTINUOUS
 62
     7
 10
567.4638235217
 20
963.045653578
 30
0.0
 11
567.4638235217
 21
923.2084720099
 31
0.0
  0
LINE
  5
144
  8
0
  6
CONTINUOUS
 62
     7
 10
1047.4638127928
 20
963.045653578
 30
0.0
 11
1047.4638127928
 21
923.2084720099
 31
0.0
  0
LINE
  5
145
  8
0
  6
CONTINUOUS
 62
     7
 10
557.4638181573
 20
968.0456488096
 30
0.0
 11
567.4638235217
 21
968.0456488096
 31
0.0
  0
LINE
  5
146
  8
0
  6
CONTINUOUS
 62
     7
 10
557.4638181573
 20
1035.5456440413
 30
0.0
 11
557.4638181573
 21
968.0456488096
 31
0.0
  0
LINE
  5
147
  8
0
  6
CONTINUOUS
 62
     7
 10
1057.4638181573
 20
968.0456488096
 30
0.0
 11
1047.4638127928
 21
968.0456488096
 31
0.0
  0
LINE
  5
148
  8
0
  6
CONTINUOUS
 62
     7
 10
1057.4638181573
 20
1035.5456440413
 30
0.0
 11
1057.4638181573
 21
968.0456488096
 31
0.0
  0
LINE
  5
149
  8
0
  6
CONTINUOUS
 62
     7
 10
540.4638284093
 20
993.1437342131
 30
0.0
 11
540.4638284093
 21
1033.1437258684
 31
0.0
  0
LINE
  5
14A
  8
0
  6
CONTINUOUS
 62
     7
 10
540.4638284093
 20
953.1437127554
 30
0.0
 11
540.4638284093
 21
993.1437342131
 31
0.0
  0
LINE
  5
14B
  8
0
  6
CONTINUOUS
 62
     7
 10
1074.4638079053
 20
1033.1437258684
 30
0.0
 11
1074.4638079053
 21
953.1437127554
 31
0.0
  0
LINE
  5
14C
  8
0
  6
CONTINUOUS
 62
     7
 10
557.4638181573
 20
968.0456488096
 30
0.0
 11
557.4638181573
 21
928.2084672415
 31
0.0
  0
LINE
  5
14D
  8
0
  6
CONTINUOUS
 62
     7
 10
1057.4638181573
 20
968.0456488096
 30
0.0
 11
1057.4638181573
 21
928.2084672415
 31
0.0
  0
LINE
  5
14E
  8
0
  6
CONTINUOUS
 62
     7
 10
1222.4638098126
 20
1009.3937187159
 30
0.0
 11
1222.4638098126
 21
1025.643733021
 31
0.0
  0
LINE
  5
14F
  8
0
  6
CONTINUOUS
 62
     7
 10
1222.4638098126
 20
960.6437354052
 30
0.0
 11
1222.4638098126
 21
1009.3937187159
 31
0.0
  0
LINE
  5
150
  8
0
  6
CONTINUOUS
 62
     7
 10
1172.463827694
 20
1009.3937187159
 30
0.0
 11
1172.463827694
 21
1025.643733021
 31
0.0
  0
LINE
  5
151
  8
0
  6
CONTINUOUS
 62
     7
 10
1172.463827694
 20
960.6437354052
 30
0.0
 11
1172.463827694
 21
1009.3937187159
 31
0.0
  0
LINE
  5
152
  8
0
  6
CONTINUOUS
 62
     7
 10
1053.4638249522
 20
854.1860698426
 30
0.0
 11
1053.4638249522
 21
760.0544734561
 31
0.0
  0
LINE
  5
153
  8
0
  6
CONTINUOUS
 62
     7
 10
561.4638113623
 20
760.0544734561
 30
0.0
 11
561.4638113623
 21
854.1860698426
 31
0.0
  0
LINE
  5
154
  8
0
  6
CONTINUOUS
 62
     7
 10
1172.3409527188
 20
993.1437342131
 30
0.0
 11
1172.3409527188
 21
977.1437315905
 31
0.0
  0
LINE
  5
155
  8
0
  6
CONTINUOUS
 62
     7
 10
1172.3409527188
 20
1009.1437070334
 30
0.0
 11
1172.3409527188
 21
993.1437342131
 31
0.0
  0
LINE
  5
156
  8
0
  6
CONTINUOUS
 62
     7
 10
1225.4638307934
 20
1005.1437287295
 30
0.0
 11
1225.4638307934
 21
981.1437098944
 31
0.0
  0
LINE
  5
157
  8
0
  6
CONTINUOUS
 62
     7
 10
1241.4638036137
 20
1003.5437314474
 30
0.0
 11
1241.4638036137
 21
982.7437071764
 31
0.0
  0
ARC
  5
158
  8
0
  6
CONTINUOUS
 62
     7
 10
1186.8388057565
 20
794.3694633996
 30
0.0
 40
1.880536405282708
 50
184.4015942428
 51
273.811712884
  0
LINE
  5
159
  8
0
  6
CONTINUOUS
 62
     7
 10
1184.9638157731
 20
794.225138303
 30
0.0
 11
1184.9638157731
 21
960.3677360976
 31
0.0
  0
LINE
  5
15A
  8
0
  6
CONTINUOUS
 62
     7
 10
1209.9638217335
 20
960.3677360976
 30
0.0
 11
1209.9638217335
 21
794.225138303
 31
0.0
  0
ARC
  5
15B
  8
0
  6
CONTINUOUS
 62
     7
 10
1208.0888202785
 20
794.3694766459
 30
0.0
 40
1.880548859715544
 50
266.1886626845
 51
355.5980301886
  0
LINE
  5
15C
  8
0
  6
CONTINUOUS
 62
     7
 10
1207.9638176804
 20
792.4930869305
 30
0.0
 11
1186.9638198262
 21
792.4930869305
 31
0.0
  0
LINE
  5
15D
  8
0
  6
CONTINUOUS
 62
     7
 10
549.4638317471
 20
857.907202717
 30
0.0
 11
549.4638317471
 21
830.8879702055
 31
0.0
  0
LINE
  5
15E
  8
0
  6
CONTINUOUS
 62
     7
 10
1065.4638045674
 20
857.907202717
 30
0.0
 11
1065.4638045674
 21
830.8879702055
 31
0.0
  0
LINE
  5
15F
  8
0
  6
CONTINUOUS
 62
     7
 10
607.463815177
 20
1092.0241742098
 30
0.0
 11
607.463815177
 21
1045.5456345045
 31
0.0
  0
LINE
  5
160
  8
0
  6
CONTINUOUS
 62
     7
 10
587.4638193493
 20
1092.0241742098
 30
0.0
 11
587.4638193493
 21
1045.5456345045
 31
0.0
  0
LINE
  5
161
  8
0
  6
CONTINUOUS
 62
     7
 10
1027.4638169652
 20
1092.0241742098
 30
0.0
 11
1027.4638169652
 21
1045.5456345045
 31
0.0
  0
LINE
  5
162
  8
0
  6
CONTINUOUS
 62
     7
 10
1007.4638211375
 20
1092.0241742098
 30
0.0
 11
1007.4638211375
 21
1045.5456345045
 31
0.0
  0
LINE
  5
163
  8
0
  6
CONTINUOUS
 62
     7
 10
549.4638317471
 20
723.8879694307
 30
0.0
 11
549.4638317471
 21
708.074924227
 31
0.0
  0
LINE
  5
164
  8
0
  6
CONTINUOUS
 62
     7
 10
549.4638317471
 20
643.7010137999
 30
0.0
 11
549.4638317471
 21
627.8879685962
 31
0.0
  0
LINE
  5
165
  8
0
  6
CONTINUOUS
 62
     7
 10
1065.4638045674
 20
723.8879694307
 30
0.0
 11
1065.4638045674
 21
708.074924227
 31
0.0
  0
LINE
  5
166
  8
0
  6
CONTINUOUS
 62
     7
 10
1065.4638045674
 20
643.7010137999
 30
0.0
 11
1065.4638045674
 21
627.8879685962
 31
0.0
  0
LINE
  5
167
  8
0
  6
CONTINUOUS
 62
     7
 10
1248.4638327008
 20
725.8091314399
 30
0.0
 11
1146.4638048058
 21
725.8091314399
 31
0.0
  0
LINE
  5
168
  8
0
  6
CONTINUOUS
 62
     7
 10
1248.4638327008
 20
725.8091314399
 30
0.0
 11
1248.4638327008
 21
691.6584956163
 31
0.0
  0
LINE
  5
169
  8
0
  6
CONTINUOUS
 62
     7
 10
1248.4638327008
 20
691.6584956163
 30
0.0
 11
1146.4638048058
 21
691.6584956163
 31
0.0
  0
LINE
  5
16A
  8
0
  6
CONTINUOUS
 62
     7
 10
1146.4638048058
 20
725.8091314399
 30
0.0
 11
1146.4638048058
 21
691.6584956163
 31
0.0
  0
LINE
  5
16B
  8
0
  6
CONTINUOUS
 62
     7
 10
1248.4638327008
 20
902.4783192837
 30
0.0
 11
1248.4638327008
 21
725.8091314399
 31
0.0
  0
LINE
  5
16C
  8
0
  6
CONTINUOUS
 62
     7
 10
1146.4638048058
 20
902.4783192837
 30
0.0
 11
1146.4638048058
 21
725.8091314399
 31
0.0
  0
LINE
  5
16D
  8
0
  6
CONTINUOUS
 62
     7
 10
1248.4638327008
 20
665.6584950799
 30
0.0
 11
1146.4638048058
 21
665.6584950799
 31
0.0
  0
LINE
  5
16E
  8
0
  6
CONTINUOUS
 62
     7
 10
1248.4638327008
 20
691.6584956163
 30
0.0
 11
1248.4638327008
 21
665.6584950799
 31
0.0
  0
LINE
  5
16F
  8
0
  6
CONTINUOUS
 62
     7
 10
1146.4638048058
 20
691.6584956163
 30
0.0
 11
1146.4638048058
 21
665.6584950799
 31
0.0
  0
LINE
  5
170
  8
0
  6
CONTINUOUS
 62
     7
 10
1248.4638327008
 20
665.6584950799
 30
0.0
 11
1248.4638327008
 21
662.3091303447
 31
0.0
  0
LINE
  5
171
  8
0
  6
CONTINUOUS
 62
     7
 10
1146.4638048058
 20
665.6584950799
 30
0.0
 11
1146.4638048058
 21
662.3091303447
 31
0.0
  0
LINE
  5
172
  8
0
  6
CONTINUOUS
 62
     7
 10
1248.4638327008
 20
914.9783073628
 30
0.0
 11
1248.4638327008
 21
902.4783192837
 31
0.0
  0
LINE
  5
173
  8
0
  6
CONTINUOUS
 62
     7
 10
1146.4638048058
 20
914.9783073628
 30
0.0
 11
1146.4638048058
 21
902.4783192837
 31
0.0
  0
LINE
  5
174
  8
0
  6
CONTINUOUS
 62
     7
 10
1017.4638116007
 20
875.8879719937
 30
0.0
 11
973.5962980633
 21
875.8879719937
 31
0.0
  0
LINE
  5
175
  8
0
  6
CONTINUOUS
 62
     7
 10
942.6933014041
 20
875.8879719937
 30
0.0
 11
927.7966478115
 21
875.8879719937
 31
0.0
  0
LINE
  5
176
  8
0
  6
CONTINUOUS
 62
     7
 10
687.130988503
 20
875.8879719937
 30
0.0
 11
672.2343349105
 21
875.8879719937
 31
0.0
  0
LINE
  5
177
  8
0
  6
CONTINUOUS
 62
     7
 10
641.3313382512
 20
875.8879719937
 30
0.0
 11
597.4638247138
 21
875.8879719937
 31
0.0
  0
LINE
  5
178
  8
0
  6
CONTINUOUS
 62
     7
 10
1239.8638063317
 20
981.1437098944
 30
0.0
 11
1239.8638063317
 21
1005.1437287295
 31
0.0
  0
LINE
  5
179
  8
0
  6
CONTINUOUS
 62
     7
 10
1224.8638206368
 20
993.1437342131
 30
0.0
 11
1224.8638206368
 21
1001.1437206232
 31
0.0
  0
LINE
  5
17A
  8
0
  6
CONTINUOUS
 62
     7
 10
1224.8638206368
 20
985.1437180006
 30
0.0
 11
1224.8638206368
 21
993.1437342131
 31
0.0
  0
ARC
  5
17B
  8
0
  6
CONTINUOUS
 62
     7
 10
1186.5498755467
 20
956.7280029552
 30
0.0
 40
3.970295071259757
 50
99.5098238916
 51
113.5457739446
  0
ARC
  5
17C
  8
0
  6
CONTINUOUS
 62
     7
 10
1208.4878554358
 20
957.0889207008
 30
0.0
 40
3.595706734158518
 50
65.7649983435
 51
81.3507733772
  0
LINE
  5
17D
  8
0
  6
CONTINUOUS
 62
     7
 10
1186.9638198262
 20
960.6437354052
 30
0.0
 11
1186.9638198262
 21
792.4930869305
 31
0.0
  0
LINE
  5
17E
  8
0
  6
CONTINUOUS
 62
     7
 10
1207.9638176804
 20
792.4930869305
 30
0.0
 11
1207.9638176804
 21
960.6437354052
 31
0.0
  0
LINE
  5
17F
  8
0
  6
CONTINUOUS
 62
     7
 10
1248.4638327008
 20
902.4783192837
 30
0.0
 11
1209.9638217335
 21
902.4783192837
 31
0.0
  0
LINE
  5
180
  8
0
  6
CONTINUOUS
 62
     7
 10
1184.9638157731
 20
902.4783192837
 30
0.0
 11
1146.4638048058
 21
902.4783192837
 31
0.0
  0
INSERT
  5
18C
  8
FORMAT
  2
SW_CENTERMARKSYMBOL_0
 10
807.4638181573
 20
675.8879690134
 30
0.0
  0
LINE
  5
18D
  8
0
  6
CONTINUOUS
 62
     7
 10
-470.3128842837
 20
38.9846373911
 30
0.0
 11
-470.3128842837
 21
18.9846415634
 31
0.0
  0
LINE
  5
18E
  8
0
  6
CONTINUOUS
 62
     7
 10
-470.3128842837
 20
-381.015364397
 30
0.0
 11
-470.3128842837
 21
-401.0153602247
 31
0.0
  0
LINE
  5
18F
  8
0
  6
CONTINUOUS
 62
     7
 10
-651.6269652373
 20
9.9846382256
 30
0.0
 11
-651.6269652373
 21
-372.0153610592
 31
0.0
  0
LINE
  5
190
  8
0
  6
CONTINUOUS
 62
     7
 10
-635.6269328124
 20
58.9846332188
 30
0.0
 11
-635.6269328124
 21
9.9846382256
 31
0.0
  0
LINE
  5
191
  8
0
  6
CONTINUOUS
 62
     7
 10
-635.6269328124
 20
-372.0153610592
 30
0.0
 11
-635.6269328124
 21
-421.0153560524
 31
0.0
  0
LINE
  5
192
  8
0
  6
CONTINUOUS
 62
     7
 10
-625.6269423491
 20
68.9846385832
 30
0.0
 11
-625.6269423491
 21
58.9846332188
 31
0.0
  0
LINE
  5
193
  8
0
  6
CONTINUOUS
 62
     7
 10
-625.6269423491
 20
-421.0153560524
 30
0.0
 11
-625.6269423491
 21
-431.0153614168
 31
0.0
  0
LINE
  5
194
  8
0
  6
CONTINUOUS
 62
     7
 10
-542.1269146925
 20
-448.0153511648
 30
0.0
 11
-542.1269146925
 21
-431.0153614168
 31
0.0
  0
LINE
  5
195
  8
0
  6
CONTINUOUS
 62
     7
 10
-622.1269576079
 20
-431.0153614168
 30
0.0
 11
-622.1269576079
 21
-448.0153511648
 31
0.0
  0
LINE
  5
196
  8
0
  6
CONTINUOUS
 62
     7
 10
-622.1269576079
 20
85.9846283312
 30
0.0
 11
-622.1269576079
 21
68.9846385832
 31
0.0
  0
LINE
  5
197
  8
0
  6
CONTINUOUS
 62
     7
 10
-542.1269146925
 20
68.9846385832
 30
0.0
 11
-542.1269146925
 21
85.9846283312
 31
0.0
  0
LINE
  5
198
  8
0
  6
CONTINUOUS
 62
     7
 10
-549.62690754
 20
-556.5153549795
 30
0.0
 11
-549.62690754
 21
-546.0153709536
 31
0.0
  0
LINE
  5
199
  8
0
  6
CONTINUOUS
 62
     7
 10
-549.62690754
 20
-596.0153530722
 30
0.0
 11
-549.62690754
 21
-585.5153690462
 31
0.0
  0
LINE
  5
19A
  8
0
  6
CONTINUOUS
 62
     7
 10
-614.6269647604
 20
-546.0153709536
 30
0.0
 11
-614.6269647604
 21
-596.0153530722
 31
0.0
  0
LINE
  5
19B
  8
0
  6
CONTINUOUS
 62
     7
 10
-598.1269089705
 20
-448.0153511648
 30
0.0
 11
-598.1269089705
 21
-545.8924959784
 31
0.0
  0
LINE
  5
19C
  8
0
  6
CONTINUOUS
 62
     7
 10
-566.1269633299
 20
-545.8924959784
 30
0.0
 11
-566.1269633299
 21
-448.0153511648
 31
0.0
  0
LINE
  5
19D
  8
0
  6
CONTINUOUS
 62
     7
 10
-598.1269089705
 20
-545.8924959784
 30
0.0
 11
-598.0040637976
 21
-546.0153709536
 31
0.0
  0
LINE
  5
19E
  8
0
  6
CONTINUOUS
 62
     7
 10
-566.2498085028
 20
-546.0153709536
 30
0.0
 11
-566.1269633299
 21
-545.8924959784
 31
0.0
  0
LINE
  5
19F
  8
0
  6
CONTINUOUS
 62
     7
 10
-570.1269118315
 20
-613.4153495913
 30
0.0
 11
-570.1269118315
 21
-599.015374053
 31
0.0
  0
LINE
  5
1A0
  8
0
  6
CONTINUOUS
 62
     7
 10
-594.1269604689
 20
-599.015374053
 30
0.0
 11
-594.1269604689
 21
-613.4153495913
 31
0.0
  0
ARC
  5
1A1
  8
0
  6
CONTINUOUS
 62
     7
 10
-571.7269371089
 20
-613.4153614168
 30
0.0
 40
1.600000000000136
 50
270.0
 51
0.0
  0
ARC
  5
1A2
  8
0
  6
CONTINUOUS
 62
     7
 10
-592.5269371089
 20
-613.4153614168
 30
0.0
 40
1.600000000000136
 50
180.0
 51
270.0
  0
ARC
  5
1A3
  8
0
  6
CONTINUOUS
 62
     7
 10
-590.7269371089
 20
-598.4153614168
 30
0.0
 40
0.6000000000001364
 50
270.0
 51
0.0
  0
ARC
  5
1A4
  8
0
  6
CONTINUOUS
 62
     7
 10
-573.5269371089
 20
-598.4153614168
 30
0.0
 40
0.599999999999909
 50
180.0
 51
270.0
  0
LINE
  5
1A5
  8
0
  6
CONTINUOUS
 62
     7
 10
-574.1269199377
 20
-598.4153638964
 30
0.0
 11
-574.1269199377
 21
-596.0153530722
 31
0.0
  0
LINE
  5
1A6
  8
0
  6
CONTINUOUS
 62
     7
 10
-590.1269523627
 20
-596.0153530722
 30
0.0
 11
-590.1269523627
 21
-598.4153638964
 31
0.0
  0
ARC
  5
1A7
  8
0
  6
CONTINUOUS
 62
     7
 10
-547.6269371089
 20
-556.5153614168
 30
0.0
 40
2.0
 50
180.0
 51
270.0
  0
ARC
  5
1A8
  8
0
  6
CONTINUOUS
 62
     7
 10
-547.6269371089
 20
-585.5153614168
 30
0.0
 40
2.0
 50
90.0
 51
180.0
  0
POLYLINE
  5
1A9
  8
0
  6
CONTINUOUS
 62
     7
 66
     1
 10
0.0
 20
0.0
 30
0.0
  0
VERTEX
  5
779
  8
0
  6
CONTINUOUS
 62
     7
 10
-267.6050869948
 20
-426.7996590023
 30
0.0
  0
VERTEX
  5
77A
  8
0
  6
CONTINUOUS
 62
     7
 10
-267.3308162219
 20
-426.685739625
 30
0.0
  0
VERTEX
  5
77B
  8
0
  6
CONTINUOUS
 62
     7
 10
-267.0820562369
 20
-426.5826235895
 30
0.0
  0
VERTEX
  5
77C
  8
0
  6
CONTINUOUS
 62
     7
 10
-266.8587772376
 20
-426.4904003029
 30
0.0
  0
VERTEX
  5
77D
  8
0
  6
CONTINUOUS
 62
     7
 10
-266.6608898169
 20
-426.4090548639
 30
0.0
  0
VERTEX
  5
77E
  8
0
  6
CONTINUOUS
 62
     7
 10
-266.4975730902
 20
-426.3422827606
 30
0.0
  0
VERTEX
  5
77F
  8
0
  6
CONTINUOUS
 62
     7
 10
-266.35666771
 20
-426.2850474005
 30
0.0
  0
VERTEX
  5
780
  8
0
  6
CONTINUOUS
 62
     7
 10
-266.2381438738
 20
-426.2372444754
 30
0.0
  0
VERTEX
  5
781
  8
0
  6
CONTINUOUS
 62
     7
 10
-266.1418823725
 20
-426.1986951714
 30
0.0
  0
VERTEX
  5
782
  8
0
  6
CONTINUOUS
 62
     7
 10
-266.0677341944
 20
-426.1692057734
 30
0.0
  0
VERTEX
  5
783
  8
0
  6
CONTINUOUS
 62
     7
 10
-266.0176662928
 20
-426.1493425255
 30
0.0
  0
VERTEX
  5
784
  8
0
  6
CONTINUOUS
 62
     7
 10
-265.9873275286
 20
-426.1372278814
 30
0.0
  0
VERTEX
  5
785
  8
0
  6
CONTINUOUS
 62
     7
 10
-265.9765390879
 20
-426.1325787191
 30
0.0
  0
VERTEX
  5
786
  8
0
  6
CONTINUOUS
 62
     7
 10
-265.9851817614
 20
-426.1351119165
 30
0.0
  0
VERTEX
  5
787
  8
0
  6
CONTINUOUS
 62
     7
 10
-266.0130171305
 20
-426.1445443516
 30
0.0
  0
VERTEX
  5
788
  8
0
  6
CONTINUOUS
 62
     7
 10
-266.0588829047
 20
-426.1601905708
 30
0.0
  0
VERTEX
  5
789
  8
0
  6
CONTINUOUS
 62
     7
 10
-266.1192624098
 20
-426.1806200628
 30
0.0
  0
VERTEX
  5
78A
  8
0
  6
CONTINUOUS
 62
     7
 10
-266.1773769385
 20
-426.2000213747
 30
0.0
  0
VERTEX
  5
78B
  8
0
  6
CONTINUOUS
 62
     7
 10
-266.2310509211
 20
-426.2177388554
 30
0.0
  0
VERTEX
  5
78C
  8
0
  6
CONTINUOUS
 62
     7
 10
-266.3159279353
 20
-426.2453209047
 30
0.0
  0
VERTEX
  5
78D
  8
0
  6
CONTINUOUS
 62
     7
 10
-266.3867978579
 20
-426.2679855709
 30
0.0
  0
VERTEX
  5
78E
  8
0
  6
CONTINUOUS
 62
     7
 10
-266.443750096
 20
-426.2860457783
 30
0.0
  0
VERTEX
  5
78F
  8
0
  6
CONTINUOUS
 62
     7
 10
-266.4868144518
 20
-426.2997548466
 30
0.0
  0
VERTEX
  5
790
  8
0
  6
CONTINUOUS
 62
     7
 10
-266.5222792155
 20
-426.3114522581
 30
0.0
  0
VERTEX
  5
791
  8
0
  6
CONTINUOUS
 62
     7
 10
-266.5347365862
 20
-426.3166527634
 30
0.0
  0
VERTEX
  5
792
  8
0
  6
CONTINUOUS
 62
     7
 10
-266.5245143897
 20
-426.3157437925
 30
0.0
  0
VERTEX
  5
793
  8
0
  6
CONTINUOUS
 62
     7
 10
-266.4918510443
 20
-426.30903827
 30
0.0
  0
VERTEX
  5
794
  8
0
  6
CONTINUOUS
 62
     7
 10
-266.4370445734
 20
-426.2968193178
 30
0.0
  0
VERTEX
  5
795
  8
0
  6
CONTINUOUS
 62
     7
 10
-266.3604228026
 20
-426.2792955523
 30
0.0
  0
VERTEX
  5
796
  8
0
  6
CONTINUOUS
 62
     7
 10
-266.2623731619
 20
-426.2566159849
 30
0.0
  0
VERTEX
  5
797
  8
0
  6
CONTINUOUS
 62
     7
 10
-266.2128118998
 20
-426.2451122885
 30
0.0
  0
VERTEX
  5
798
  8
0
  6
CONTINUOUS
 62
     7
 10
-266.1592273241
 20
-426.2326549177
 30
0.0
  0
VERTEX
  5
799
  8
0
  6
CONTINUOUS
 62
     7
 10
-266.1016790396
 20
-426.2192587738
 30
0.0
  0
VERTEX
  5
79A
  8
0
  6
CONTINUOUS
 62
     7
 10
-266.0401968485
 20
-426.2049089556
 30
0.0
  0
VERTEX
  5
79B
  8
0
  6
CONTINUOUS
 62
     7
 10
-265.9747807509
 20
-426.1896203642
 30
0.0
  0
VERTEX
  5
79C
  8
0
  6
CONTINUOUS
 62
     7
 10
-265.9054903513
 20
-426.1734079008
 30
0.0
  0
VERTEX
  5
79D
  8
0
  6
CONTINUOUS
 62
     7
 10
-265.8246366507
 20
-426.1543046122
 30
0.0
  0
VERTEX
  5
79E
  8
0
  6
CONTINUOUS
 62
     7
 10
-265.6909732348
 20
-426.1218498831
 30
0.0
  0
VERTEX
  5
79F
  8
0
  6
CONTINUOUS
 62
     7
 10
-265.4985098368
 20
-426.0746728067
 30
0.0
  0
VERTEX
  5
7A0
  8
0
  6
CONTINUOUS
 62
     7
 10
-265.247455073
 20
-426.0128776913
 30
0.0
  0
VERTEX
  5
7A1
  8
0
  6
CONTINUOUS
 62
     7
 10
-264.9379281527
 20
-425.9365688448
 30
0.0
  0
VERTEX
  5
7A2
  8
0
  6
CONTINUOUS
 62
     7
 10
-264.5701078898
 20
-425.8458356743
 30
0.0
  0
VERTEX
  5
7A3
  8
0
  6
CONTINUOUS
 62
     7
 10
-264.1441134936
 20
-425.7407079821
 30
0.0
  0
VERTEX
  5
7A4
  8
0
  6
CONTINUOUS
 62
     7
 10
-263.6600641734
 20
-425.6212304716
 30
0.0
  0
VERTEX
  5
7A5
  8
0
  6
CONTINUOUS
 62
     7
 10
-263.1180791384
 20
-425.4874478464
 30
0.0
  0
VERTEX
  5
7A6
  8
0
  6
CONTINUOUS
 62
     7
 10
-262.5182179934
 20
-425.3393452053
 30
0.0
  0
VERTEX
  5
7A7
  8
0
  6
CONTINUOUS
 62
     7
 10
-261.8605999476
 20
-425.1769225483
 30
0.0
  0
VERTEX
  5
7A8
  8
0
  6
CONTINUOUS
 62
     7
 10
-261.1452846056
 20
-425.0001798754
 30
0.0
  0
VERTEX
  5
7A9
  8
0
  6
CONTINUOUS
 62
     7
 10
-260.2723745829
 20
-424.7844557648
 30
0.0
  0
VERTEX
  5
7AA
  8
0
  6
CONTINUOUS
 62
     7
 10
-259.3148855692
 20
-424.5478849297
 30
0.0
  0
VERTEX
  5
7AB
  8
0
  6
CONTINUOUS
 62
     7
 10
-258.2722811228
 20
-424.2903779631
 30
0.0
  0
VERTEX
  5
7AC
  8
0
  6
CONTINUOUS
 62
     7
 10
-257.144591046
 20
-424.011934865
 30
0.0
  0
VERTEX
  5
7AD
  8
0
  6
CONTINUOUS
 62
     7
 10
-255.9103278643
 20
-423.7072955255
 30
0.0
  0
VERTEX
  5
7AE
  8
0
  6
CONTINUOUS
 62
     7
 10
-254.526159001
 20
-423.3659546261
 30
0.0
  0
VERTEX
  5
7AF
  8
0
  6
CONTINUOUS
 62
     7
 10
-252.9908029562
 20
-422.9876141434
 30
0.0
  0
VERTEX
  5
7B0
  8
0
  6
CONTINUOUS
 62
     7
 10
-251.1272041327
 20
-422.5287775879
 30
0.0
  0
VERTEX
  5
7B1
  8
0
  6
CONTINUOUS
 62
     7
 10
-249.080559445
 20
-422.0252226477
 30
0.0
  0
VERTEX
  5
7B2
  8
0
  6
CONTINUOUS
 62
     7
 10
-246.850749684
 20
-421.4769195204
 30
0.0
  0
VERTEX
  5
7B3
  8
0
  6
CONTINUOUS
 62
     7
 10
-244.549026919
 20
-420.9109883194
 30
0.0
  0
VERTEX
  5
7B4
  8
0
  6
CONTINUOUS
 62
     7
 10
-242.3132864958
 20
-420.361105669
 30
0.0
  0
VERTEX
  5
7B5
  8
0
  6
CONTINUOUS
 62
     7
 10
-239.9685589796
 20
-419.7841476088
 30
0.0
  0
VERTEX
  5
7B6
  8
0
  6
CONTINUOUS
 62
     7
 10
-237.7017645365
 20
-419.2260693197
 30
0.0
  0
VERTEX
  5
7B7
  8
0
  6
CONTINUOUS
 62
     7
 10
-235.513052178
 20
-418.6869453077
 30
0.0
  0
VERTEX
  5
7B8
  8
0
  6
CONTINUOUS
 62
     7
 10
-233.4024517065
 20
-418.1668351774
 30
0.0
  0
VERTEX
  5
7B9
  8
0
  6
CONTINUOUS
 62
     7
 10
-231.3700227267
 20
-417.6658134346
 30
0.0
  0
VERTEX
  5
7BA
  8
0
  6
CONTINUOUS
 62
     7
 10
-229.4158546454
 20
-417.1839545851
 30
0.0
  0
VERTEX
  5
7BB
  8
0
  6
CONTINUOUS
 62
     7
 10
-228.1421331889
 20
-416.8698232059
 30
0.0
  0
VERTEX
  5
7BC
  8
0
  6
CONTINUOUS
 62
     7
 10
-226.784995032
 20
-416.535098422
 30
0.0
  0
VERTEX
  5
7BD
  8
0
  6
CONTINUOUS
 62
     7
 10
-225.2946106917
 20
-416.1675016766
 30
0.0
  0
VERTEX
  5
7BE
  8
0
  6
CONTINUOUS
 62
     7
 10
-223.670980168
 20
-415.7670478706
 30
0.0
  0
VERTEX
  5
7BF
  8
0
  6
CONTINUOUS
 62
     7
 10
-221.9141034609
 20
-415.3337221031
 30
0.0
  0
VERTEX
  5
7C0
  8
0
  6
CONTINUOUS
 62
     7
 10
-219.4119302756
 20
-414.7165905123
 30
0.0
  0
VERTEX
  5
7C1
  8
0
  6
CONTINUOUS
 62
     7
 10
-216.6812626845
 20
-414.0431027298
 30
0.0
  0
VERTEX
  5
7C2
  8
0
  6
CONTINUOUS
 62
     7
 10
-213.7221155888
 20
-413.3132587557
 30
0.0
  0
VERTEX
  5
7C3
  8
0
  6
CONTINUOUS
 62
     7
 10
-211.0099403387
 20
-412.6443307285
 30
0.0
  0
VERTEX
  5
7C4
  8
0
  6
CONTINUOUS
 62
     7
 10
-208.1306336647
 20
-411.9341860895
 30
0.0
  0
VERTEX
  5
7C5
  8
0
  6
CONTINUOUS
 62
     7
 10
-205.0841657645
 20
-411.1828099375
 30
0.0
  0
VERTEX
  5
7C6
  8
0
  6
CONTINUOUS
 62
     7
 10
-201.8705813414
 20
-410.3902171736
 30
0.0
  0
VERTEX
  5
7C7
  8
0
  6
CONTINUOUS
 62
     7
 10
-198.4898356921
 20
-409.5563928966
 30
0.0
  0
VERTEX
  5
7C8
  8
0
  6
CONTINUOUS
 62
     7
 10
-195.00677867
 20
-408.6973409538
 30
0.0
  0
VERTEX
  5
7C9
  8
0
  6
CONTINUOUS
 62
     7
 10
-191.3624910838
 20
-407.7985327129
 30
0.0
  0
VERTEX
  5
7CA
  8
0
  6
CONTINUOUS
 62
     7
 10
-187.5569729334
 20
-406.8599532728
 30
0.0
  0
VERTEX
  5
7CB
  8
0
  6
CONTINUOUS
 62
     7
 10
-183.590224219
 20
-405.8816175346
 30
0.0
  0
VERTEX
  5
7CC
  8
0
  6
CONTINUOUS
 62
     7
 10
-178.6577014452
 20
-404.6650867348
 30
0.0
  0
VERTEX
  5
7CD
  8
0
  6
CONTINUOUS
 62
     7
 10
-173.4966842658
 20
-403.3921997433
 30
0.0
  0
VERTEX
  5
7CE
  8
0
  6
CONTINUOUS
 62
     7
 10
-168.1071726805
 20
-402.0629565601
 30
0.0
  0
VERTEX
  5
7CF
  8
0
  6
CONTINUOUS
 62
     7
 10
-162.4891517884
 20
-400.6773720865
 30
0.0
  0
VERTEX
  5
7D0
  8
0
  6
CONTINUOUS
 62
     7
 10
-156.6426513916
 20
-399.2354165201
 30
0.0
  0
VERTEX
  5
7D1
  8
0
  6
CONTINUOUS
 62
     7
 10
-150.567641688
 20
-397.7371345644
 30
0.0
  0
VERTEX
  5
7D2
  8
0
  6
CONTINUOUS
 62
     7
 10
-145.1905725724
 20
-396.4109759216
 30
0.0
  0
VERTEX
  5
7D3
  8
0
  6
CONTINUOUS
 62
     7
 10
-139.6463571316
 20
-395.0435857658
 30
0.0
  0
VERTEX
  5
7D4
  8
0
  6
CONTINUOUS
 62
     7
 10
-133.9350102669
 20
-393.6349789982
 30
0.0
  0
VERTEX
  5
7D5
  8
0
  6
CONTINUOUS
 62
     7
 10
-128.0565021759
 20
-392.1851556187
 30
0.0
  0
VERTEX
  5
7D6
  8
0
  6
CONTINUOUS
 62
     7
 10
-122.010862661
 20
-390.6941156273
 30
0.0
  0
VERTEX
  5
7D7
  8
0
  6
CONTINUOUS
 62
     7
 10
-115.910491181
 20
-389.1895751839
 30
0.0
  0
VERTEX
  5
7D8
  8
0
  6
CONTINUOUS
 62
     7
 10
-109.6488891369
 20
-387.6452635412
 30
0.0
  0
VERTEX
  5
7D9
  8
0
  6
CONTINUOUS
 62
     7
 10
-103.2260565287
 20
-386.0611806993
 30
0.0
  0
VERTEX
  5
7DA
  8
0
  6
CONTINUOUS
 62
     7
 10
-96.6419933564
 20
-384.4373415594
 30
0.0
  0
VERTEX
  5
7DB
  8
0
  6
CONTINUOUS
 62
     7
 10
-88.5936154252
 20
-382.4523578768
 30
0.0
  0
VERTEX
  5
7DC
  8
0
  6
CONTINUOUS
 62
     7
 10
-80.3167356378
 20
-380.4110031013
 30
0.0
  0
VERTEX
  5
7DD
  8
0
  6
CONTINUOUS
 62
     7
 10
-71.8113614446
 20
-378.3132921343
 30
0.0
  0
VERTEX
  5
7DE
  8
0
  6
CONTINUOUS
 62
     7
 10
-63.0774928457
 20
-376.1592249756
 30
0.0
  0
VERTEX
  5
7DF
  8
0
  6
CONTINUOUS
 62
     7
 10
-54.1151223904
 20
-373.9488016252
 30
0.0
  0
VERTEX
  5
7E0
  8
0
  6
CONTINUOUS
 62
     7
 10
-46.275822652
 20
-372.015346158
 30
0.0
  0
SEQEND
  5
C0E
  8
0
  6
CONTINUOUS
 62
     7
  0
POLYLINE
  5
1AA
  8
0
  6
CONTINUOUS
 62
     7
 66
     1
 10
0.0
 20
0.0
 30
0.0
  0
VERTEX
  5
7E1
  8
0
  6
CONTINUOUS
 62
     7
 10
-46.2759418613
 20
9.9846531267
 30
0.0
  0
VERTEX
  5
7E2
  8
0
  6
CONTINUOUS
 62
     7
 10
-52.9090969092
 20
11.6206218119
 30
0.0
  0
VERTEX
  5
7E3
  8
0
  6
CONTINUOUS
 62
     7
 10
-60.7081858641
 20
13.5441531057
 30
0.0
  0
VERTEX
  5
7E4
  8
0
  6
CONTINUOUS
 62
     7
 10
-68.3215243942
 20
15.4218782301
 30
0.0
  0
VERTEX
  5
7E5
  8
0
  6
CONTINUOUS
 62
     7
 10
-75.7491124994
 20
17.2537673826
 30
0.0
  0
VERTEX
  5
7E6
  8
0
  6
CONTINUOUS
 62
     7
 10
-82.9909501797
 20
19.0398503656
 30
0.0
  0
VERTEX
  5
7E7
  8
0
  6
CONTINUOUS
 62
     7
 10
-89.9226648933
 20
20.7494456883
 30
0.0
  0
VERTEX
  5
7E8
  8
0
  6
CONTINUOUS
 62
     7
 10
-96.6752080447
 20
22.4148441668
 30
0.0
  0
VERTEX
  5
7E9
  8
0
  6
CONTINUOUS
 62
     7
 10
-103.2485721833
 20
24.0360458012
 30
0.0
  0
VERTEX
  5
7EA
  8
0
  6
CONTINUOUS
 62
     7
 10
-109.6427498585
 20
25.6130505915
 30
0.0
  0
VERTEX
  5
7EB
  8
0
  6
CONTINUOUS
 62
     7
 10
-115.9827320105
 20
27.1767039413
 30
0.0
  0
VERTEX
  5
7EC
  8
0
  6
CONTINUOUS
 62
     7
 10
-122.1361516243
 20
28.6943276043
 30
0.0
  0
VERTEX
  5
7ED
  8
0
  6
CONTINUOUS
 62
     7
 10
-128.1029937989
 20
30.1659513826
 30
0.0
  0
VERTEX
  5
7EE
  8
0
  6
CONTINUOUS
 62
     7
 10
-133.8832883364
 20
31.5915603752
 30
0.0
  0
VERTEX
  5
7EF
  8
0
  6
CONTINUOUS
 62
     7
 10
-139.4770203358
 20
32.971154582
 30
0.0
  0
VERTEX
  5
7F0
  8
0
  6
CONTINUOUS
 62
     7
 10
-144.8841748959
 20
34.3047340031
 30
0.0
  0
VERTEX
  5
7F1
  8
0
  6
CONTINUOUS
 62
     7
 10
-150.104781819
 20
35.5923135395
 30
0.0
  0
VERTEX
  5
7F2
  8
0
  6
CONTINUOUS
 62
     7
 10
-155.1388113028
 20
36.833863389
 30
0.0
  0
VERTEX
  5
7F3
  8
0
  6
CONTINUOUS
 62
     7
 10
-159.9862782484
 20
38.0294133539
 30
0.0
  0
VERTEX
  5
7F4
  8
0
  6
CONTINUOUS
 62
     7
 10
-164.6471975571
 20
39.1789485331
 30
0.0
  0
VERTEX
  5
7F5
  8
0
  6
CONTINUOUS
 62
     7
 10
-169.1215394265
 20
40.2824689264
 30
0.0
  0
VERTEX
  5
7F6
  8
0
  6
CONTINUOUS
 62
     7
 10
-173.4093187577
 20
41.3399894352
 30
0.0
  0
VERTEX
  5
7F7
  8
0
  6
CONTINUOUS
 62
     7
 10
-177.5105355507
 20
42.351480257
 30
0.0
  0
VERTEX
  5
7F8
  8
0
  6
CONTINUOUS
 62
     7
 10
-181.4251898056
 20
43.3169711943
 30
0.0
  0
VERTEX
  5
7F9
  8
0
  6
CONTINUOUS
 62
     7
 10
-185.5158267743
 20
44.3258692141
 30
0.0
  0
VERTEX
  5
7FA
  8
0
  6
CONTINUOUS
 62
     7
 10
-189.3807260519
 20
45.2790964956
 30
0.0
  0
VERTEX
  5
7FB
  8
0
  6
CONTINUOUS
 62
     7
 10
-193.0198876387
 20
46.1766381378
 30
0.0
  0
VERTEX
  5
7FC
  8
0
  6
CONTINUOUS
 62
     7
 10
-196.4333115345
 20
47.0185090418
 30
0.0
  0
VERTEX
  5
7FD
  8
0
  6
CONTINUOUS
 62
     7
 10
-199.6209828383
 20
47.8047092075
 30
0.0
  0
VERTEX
  5
7FE
  8
0
  6
CONTINUOUS
 62
     7
 10
-202.618217302
 20
48.543926012
 30
0.0
  0
VERTEX
  5
7FF
  8
0
  6
CONTINUOUS
 62
     7
 10
-205.3840814358
 20
49.2260862703
 30
0.0
  0
VERTEX
  5
800
  8
0
  6
CONTINUOUS
 62
     7
 10
-207.9240588671
 20
49.8525459881
 30
0.0
  0
VERTEX
  5
801
  8
0
  6
CONTINUOUS
 62
     7
 10
-210.3948949105
 20
50.4619438763
 30
0.0
  0
VERTEX
  5
802
  8
0
  6
CONTINUOUS
 62
     7
 10
-218.1772498614
 20
52.3813624496
 30
0.0
  0
VERTEX
  5
803
  8
0
  6
CONTINUOUS
 62
     7
 10
-232.13796897
 20
55.8246482725
 30
0.0
  0
VERTEX
  5
804
  8
0
  6
CONTINUOUS
 62
     7
 10
-234.1276614195
 20
56.315373313
 30
0.0
  0
VERTEX
  5
805
  8
0
  6
CONTINUOUS
 62
     7
 10
-236.1189929968
 20
56.8065304871
 30
0.0
  0
VERTEX
  5
806
  8
0
  6
CONTINUOUS
 62
     7
 10
-238.0907742506
 20
57.2928447838
 30
0.0
  0
VERTEX
  5
807
  8
0
  6
CONTINUOUS
 62
     7
 10
-239.9567274577
 20
57.7530075426
 30
0.0
  0
VERTEX
  5
808
  8
0
  6
CONTINUOUS
 62
     7
 10
-241.7076437003
 20
58.1847090836
 30
0.0
  0
VERTEX
  5
809
  8
0
  6
CONTINUOUS
 62
     7
 10
-243.3434633738
 20
58.5879494066
 30
0.0
  0
VERTEX
  5
80A
  8
0
  6
CONTINUOUS
 62
     7
 10
-244.864156676
 20
58.9626987095
 30
0.0
  0
VERTEX
  5
80B
  8
0
  6
CONTINUOUS
 62
     7
 10
-246.2697236067
 20
59.3088973875
 30
0.0
  0
VERTEX
  5
80C
  8
0
  6
CONTINUOUS
 62
     7
 10
-247.5600747591
 20
59.6265305395
 30
0.0
  0
VERTEX
  5
80D
  8
0
  6
CONTINUOUS
 62
     7
 10
-248.7351505286
 20
59.915553462
 30
0.0
  0
VERTEX
  5
80E
  8
0
  6
CONTINUOUS
 62
     7
 10
-249.6506182677
 20
60.1404566879
 30
0.0
  0
VERTEX
  5
80F
  8
0
  6
CONTINUOUS
 62
     7
 10
-250.4812983996
 20
60.3442747707
 30
0.0
  0
VERTEX
  5
810
  8
0
  6
CONTINUOUS
 62
     7
 10
-251.2321083075
 20
60.528170001
 30
0.0
  0
VERTEX
  5
811
  8
0
  6
CONTINUOUS
 62
     7
 10
-252.0363239771
 20
60.7251782532
 30
0.0
  0
VERTEX
  5
812
  8
0
  6
CONTINUOUS
 62
     7
 10
-252.9535202509
 20
60.9500963802
 30
0.0
  0
VERTEX
  5
813
  8
0
  6
CONTINUOUS
 62
     7
 10
-253.9836673266
 20
61.202998888
 30
0.0
  0
VERTEX
  5
814
  8
0
  6
CONTINUOUS
 62
     7
 10
-255.1267950064
 20
61.4840049858
 30
0.0
  0
VERTEX
  5
815
  8
0
  6
CONTINUOUS
 62
     7
 10
-256.7908374793
 20
61.8936677094
 30
0.0
  0
VERTEX
  5
816
  8
0
  6
CONTINUOUS
 62
     7
 10
-258.6478797919
 20
62.3516996021
 30
0.0
  0
VERTEX
  5
817
  8
0
  6
CONTINUOUS
 62
     7
 10
-259.4302503592
 20
62.5449378605
 30
0.0
  0
VERTEX
  5
818
  8
0
  6
CONTINUOUS
 62
     7
 10
-260.2424232489
 20
62.7457012053
 30
0.0
  0
VERTEX
  5
819
  8
0
  6
CONTINUOUS
 62
     7
 10
-261.0251514441
 20
62.9393268938
 30
0.0
  0
VERTEX
  5
81A
  8
0
  6
CONTINUOUS
 62
     7
 10
-261.6875080592
 20
63.1032694693
 30
0.0
  0
VERTEX
  5
81B
  8
0
  6
CONTINUOUS
 62
     7
 10
-262.2928528315
 20
63.2531751509
 30
0.0
  0
VERTEX
  5
81C
  8
0
  6
CONTINUOUS
 62
     7
 10
-262.7414671904
 20
63.3643229122
 30
0.0
  0
VERTEX
  5
81D
  8
0
  6
CONTINUOUS
 62
     7
 10
-263.0333511359
 20
63.4366233463
 30
0.0
  0
VERTEX
  5
81E
  8
0
  6
CONTINUOUS
 62
     7
 10
-263.1880549914
 20
63.4749193306
 30
0.0
  0
VERTEX
  5
81F
  8
0
  6
CONTINUOUS
 62
     7
 10
-263.4518949515
 20
63.5401417131
 30
0.0
  0
VERTEX
  5
820
  8
0
  6
CONTINUOUS
 62
     7
 10
-263.7057511336
 20
63.602801096
 30
0.0
  0
VERTEX
  5
821
  8
0
  6
CONTINUOUS
 62
     7
 10
-263.9836279875
 20
63.6712719317
 30
0.0
  0
VERTEX
  5
822
  8
0
  6
CONTINUOUS
 62
     7
 10
-264.2483024126
 20
63.7363900061
 30
0.0
  0
VERTEX
  5
823
  8
0
  6
CONTINUOUS
 62
     7
 10
-264.4997446066
 20
63.7981553192
 30
0.0
  0
VERTEX
  5
824
  8
0
  6
CONTINUOUS
 62
     7
 10
-264.7377757555
 20
63.8565529699
 30
0.0
  0
VERTEX
  5
825
  8
0
  6
CONTINUOUS
 62
     7
 10
-264.9623064524
 20
63.9115531559
 30
0.0
  0
VERTEX
  5
826
  8
0
  6
CONTINUOUS
 62
     7
 10
-265.173128081
 20
63.9631260748
 30
0.0
  0
VERTEX
  5
827
  8
0
  6
CONTINUOUS
 62
     7
 10
-265.370121432
 20
64.0112717266
 30
0.0
  0
VERTEX
  5
828
  8
0
  6
CONTINUOUS
 62
     7
 10
-265.5495612151
 20
64.0550662394
 30
0.0
  0
VERTEX
  5
829
  8
0
  6
CONTINUOUS
 62
     7
 10
-265.7153515345
 20
64.0954930897
 30
0.0
  0
VERTEX
  5
82A
  8
0
  6
CONTINUOUS
 62
     7
 10
-265.8672241694
 20
64.1325075741
 30
0.0
  0
VERTEX
  5
82B
  8
0
  6
CONTINUOUS
 62
     7
 10
-266.0050301081
 20
64.1660500879
 30
0.0
  0
VERTEX
  5
82C
  8
0
  6
CONTINUOUS
 62
     7
 10
-266.1285309321
 20
64.1960759277
 30
0.0
  0
VERTEX
  5
82D
  8
0
  6
CONTINUOUS
 62
     7
 10
-266.2374584204
 20
64.2225254889
 30
0.0
  0
VERTEX
  5
82E
  8
0
  6
CONTINUOUS
 62
     7
 10
-266.3315741545
 20
64.2453242655
 30
0.0
  0
VERTEX
  5
82F
  8
0
  6
CONTINUOUS
 62
     7
 10
-266.4106397158
 20
64.2643828507
 30
0.0
  0
VERTEX
  5
830
  8
0
  6
CONTINUOUS
 62
     7
 10
-266.4770392901
 20
64.280222785
 30
0.0
  0
VERTEX
  5
831
  8
0
  6
CONTINUOUS
 62
     7
 10
-266.5262727267
 20
64.2917115803
 30
0.0
  0
VERTEX
  5
832
  8
0
  6
CONTINUOUS
 62
     7
 10
-266.5580420023
 20
64.2987002249
 30
0.0
  0
VERTEX
  5
833
  8
0
  6
CONTINUOUS
 62
     7
 10
-266.5719894892
 20
64.3009801025
 30
0.0
  0
VERTEX
  5
834
  8
0
  6
CONTINUOUS
 62
     7
 10
-266.5678171641
 20
64.2983574982
 30
0.0
  0
VERTEX
  5
835
  8
0
  6
CONTINUOUS
 62
     7
 10
-266.5451375967
 20
64.2905641909
 30
0.0
  0
VERTEX
  5
836
  8
0
  6
CONTINUOUS
 62
     7
 10
-266.5018646246
 20
64.2765123959
 30
0.0
  0
VERTEX
  5
837
  8
0
  6
CONTINUOUS
 62
     7
 10
-266.4706317908
 20
64.2658729668
 30
0.0
  0
VERTEX
  5
838
  8
0
  6
CONTINUOUS
 62
     7
 10
-266.4540915019
 20
64.2596740837
 30
0.0
  0
VERTEX
  5
839
  8
0
  6
CONTINUOUS
 62
     7
 10
-266.452810002
 20
64.258407485
 30
0.0
  0
VERTEX
  5
83A
  8
0
  6
CONTINUOUS
 62
     7
 10
-266.467323733
 20
64.2625202055
 30
0.0
  0
VERTEX
  5
83B
  8
0
  6
CONTINUOUS
 62
     7
 10
-266.4980797297
 20
64.27245928
 30
0.0
  0
VERTEX
  5
83C
  8
0
  6
CONTINUOUS
 62
     7
 10
-266.5455846316
 20
64.2887015457
 30
0.0
  0
VERTEX
  5
83D
  8
0
  6
CONTINUOUS
 62
     7
 10
-266.6176466471
 20
64.3143762465
 30
0.0
  0
VERTEX
  5
83E
  8
0
  6
CONTINUOUS
 62
     7
 10
-266.7110173232
 20
64.34881283
 30
0.0
  0
VERTEX
  5
83F
  8
0
  6
CONTINUOUS
 62
     7
 10
-266.8261734969
 20
64.3925477381
 30
0.0
  0
VERTEX
  5
840
  8
0
  6
CONTINUOUS
 62
     7
 10
-266.9635324007
 20
64.4461174126
 30
0.0
  0
VERTEX
  5
841
  8
0
  6
CONTINUOUS
 62
     7
 10
-267.1235112673
 20
64.5099986906
 30
0.0
  0
VERTEX
  5
842
  8
0
  6
CONTINUOUS
 62
     7
 10
-267.3064379221
 20
64.5846535082
 30
0.0
  0
VERTEX
  5
843
  8
0
  6
CONTINUOUS
 62
     7
 10
-267.5126997954
 20
64.6704692955
 30
0.0
  0
VERTEX
  5
844
  8
0
  6
CONTINUOUS
 62
     7
 10
-267.7425055033
 20
64.7678036804
 30
0.0
  0
VERTEX
  5
845
  8
0
  6
CONTINUOUS
 62
     7
 10
-267.9961530692
 20
64.8769546862
 30
0.0
  0
VERTEX
  5
846
  8
0
  6
CONTINUOUS
 62
     7
 10
-268.1070773131
 20
64.9253685589
 30
0.0
  0
SEQEND
  5
C0D
  8
0
  6
CONTINUOUS
 62
     7
  0
LINE
  5
1AB
  8
0
  6
CONTINUOUS
 62
     7
 10
-767.2198621756
 20
-441.0153518801
 30
0.0
 11
-744.2198602683
 21
-441.0153518801
 31
0.0
  0
LINE
  5
1AC
  8
0
  6
CONTINUOUS
 62
     7
 10
-744.2198602683
 20
78.9846290464
 30
0.0
 11
-767.2198621756
 21
78.9846290464
 31
0.0
  0
LINE
  5
1AD
  8
0
  6
CONTINUOUS
 62
     7
 10
24.7801414491
 20
78.9846290464
 30
0.0
 11
1.7801409387
 21
78.9846290464
 31
0.0
  0
LINE
  5
1AE
  8
0
  6
CONTINUOUS
 62
     7
 10
1.7801409387
 20
-441.0153518801
 30
0.0
 11
24.7801414491
 21
-441.0153518801
 31
0.0
  0
LINE
  5
1AF
  8
0
  6
CONTINUOUS
 62
     7
 10
28.7801416391
 20
33.4846336956
 30
0.0
 11
24.7801414491
 21
33.4846336956
 31
0.0
  0
LINE
  5
1B0
  8
0
  6
CONTINUOUS
 62
     7
 10
24.7801414491
 20
-395.5153565292
 30
0.0
 11
28.7801416391
 21
-395.5153565292
 31
0.0
  0
LINE
  5
1B1
  8
0
  6
CONTINUOUS
 62
     7
 10
-771.2198702818
 20
-395.5153565292
 30
0.0
 11
-767.2198621756
 21
-395.5153565292
 31
0.0
  0
LINE
  5
1B2
  8
0
  6
CONTINUOUS
 62
     7
 10
-767.2198621756
 20
33.4846336956
 30
0.0
 11
-771.2198702818
 21
33.4846336956
 31
0.0
  0
LINE
  5
1B3
  8
0
  6
CONTINUOUS
 62
     7
 10
-129.405891729
 20
-622.0153759603
 30
0.0
 11
-129.405891729
 21
-520.0153480654
 31
0.0
  0
LINE
  5
1B4
  8
0
  6
CONTINUOUS
 62
     7
 10
-313.2198659903
 20
64.9846453781
 30
0.0
 11
-313.2198659903
 21
76.9846249933
 31
0.0
  0
LINE
  5
1B5
  8
0
  6
CONTINUOUS
 62
     7
 10
-313.2198659903
 20
-439.015347827
 30
0.0
 11
-313.2198659903
 21
-427.0153682117
 31
0.0
  0
LINE
  5
1B6
  8
0
  6
CONTINUOUS
 62
     7
 10
-744.2198602683
 20
-372.0153610592
 30
0.0
 11
-689.7016970641
 21
-372.0153610592
 31
0.0
  0
LINE
  5
1B7
  8
0
  6
CONTINUOUS
 62
     7
 10
-689.7198764807
 20
9.9846382256
 30
0.0
 11
-744.2198602683
 21
9.9846382256
 31
0.0
  0
LINE
  5
1B8
  8
0
  6
CONTINUOUS
 62
     7
 10
-46.2758897072
 20
-372.0153610592
 30
0.0
 11
1.7801409387
 21
-372.0153610592
 31
0.0
  0
LINE
  5
1B9
  8
0
  6
CONTINUOUS
 62
     7
 10
1.7801409387
 20
9.9846382256
 30
0.0
 11
-46.2758897072
 21
9.9846382256
 31
0.0
  0
LINE
  5
1BA
  8
0
  6
CONTINUOUS
 62
     7
 10
-326.4391927248
 20
-520.0153480654
 30
0.0
 11
-326.4391927248
 21
-558.5153590326
 31
0.0
  0
LINE
  5
1BB
  8
0
  6
CONTINUOUS
 62
     7
 10
-326.4391927248
 20
-583.5153649931
 30
0.0
 11
-326.4391927248
 21
-622.0153759603
 31
0.0
  0
LINE
  5
1BC
  8
0
  6
CONTINUOUS
 62
     7
 10
-689.7198764807
 20
27.9846449013
 30
0.0
 11
-689.7198764807
 21
9.9846382256
 31
0.0
  0
LINE
  5
1BD
  8
0
  6
CONTINUOUS
 62
     7
 10
-689.7198764807
 20
-372.0107267981
 30
0.0
 11
-689.7198764807
 21
-390.0153677349
 31
0.0
  0
LINE
  5
1BE
  8
0
  6
CONTINUOUS
 62
     7
 10
-285.2198688513
 20
64.9846453781
 30
0.0
 11
-285.2198688513
 21
76.9846249933
 31
0.0
  0
LINE
  5
1BF
  8
0
  6
CONTINUOUS
 62
     7
 10
-285.2198688513
 20
-439.015347827
 30
0.0
 11
-285.2198688513
 21
-427.0153682117
 31
0.0
  0
LINE
  5
1C0
  8
0
  6
CONTINUOUS
 62
     7
 10
-400.3369121081
 20
38.9846373911
 30
0.0
 11
-400.3369121081
 21
18.9846415634
 31
0.0
  0
LINE
  5
1C1
  8
0
  6
CONTINUOUS
 62
     7
 10
-400.3369121081
 20
18.9846415634
 30
0.0
 11
-470.3128842837
 21
18.9846415634
 31
0.0
  0
LINE
  5
1C2
  8
0
  6
CONTINUOUS
 62
     7
 10
-400.3369121081
 20
38.9846373911
 30
0.0
 11
-470.3128842837
 21
38.9846373911
 31
0.0
  0
LINE
  5
1C3
  8
0
  6
CONTINUOUS
 62
     7
 10
-400.3369121081
 20
-401.0153602247
 30
0.0
 11
-400.3369121081
 21
-381.015364397
 31
0.0
  0
LINE
  5
1C4
  8
0
  6
CONTINUOUS
 62
     7
 10
-400.3369121081
 20
-401.0153602247
 30
0.0
 11
-470.3128842837
 21
-401.0153602247
 31
0.0
  0
LINE
  5
1C5
  8
0
  6
CONTINUOUS
 62
     7
 10
-400.3369121081
 20
-381.015364397
 30
0.0
 11
-470.3128842837
 21
-381.015364397
 31
0.0
  0
LINE
  5
1C6
  8
0
  6
CONTINUOUS
 62
     7
 10
-386.5869252211
 20
38.9846373911
 30
0.0
 11
-386.5869252211
 21
18.9846415634
 31
0.0
  0
LINE
  5
1C7
  8
0
  6
CONTINUOUS
 62
     7
 10
-386.5869252211
 20
18.9846415634
 30
0.0
 11
-400.3369121081
 21
18.9846415634
 31
0.0
  0
LINE
  5
1C8
  8
0
  6
CONTINUOUS
 62
     7
 10
-386.5869252211
 20
38.9846373911
 30
0.0
 11
-400.3369121081
 21
38.9846373911
 31
0.0
  0
LINE
  5
1C9
  8
0
  6
CONTINUOUS
 62
     7
 10
-386.5869252211
 20
-381.015364397
 30
0.0
 11
-386.5869252211
 21
-401.0153602247
 31
0.0
  0
LINE
  5
1CA
  8
0
  6
CONTINUOUS
 62
     7
 10
-386.5869252211
 20
-401.0153602247
 30
0.0
 11
-400.3369121081
 21
-401.0153602247
 31
0.0
  0
LINE
  5
1CB
  8
0
  6
CONTINUOUS
 62
     7
 10
-386.5869252211
 20
-381.015364397
 30
0.0
 11
-400.3369121081
 21
-381.015364397
 31
0.0
  0
LINE
  5
1CC
  8
0
  6
CONTINUOUS
 62
     7
 10
-432.0532588488
 20
108.9846302385
 30
0.0
 11
-422.0532385832
 21
108.9846302385
 31
0.0
  0
POLYLINE
  5
1CD
  8
0
  6
CONTINUOUS
 62
     7
 66
     1
 10
0.0
 20
0.0
 30
0.0
  0
VERTEX
  5
847
  8
0
  6
CONTINUOUS
 62
     7
 10
-352.7712134844
 20
28.9846320267
 30
0.0
  0
VERTEX
  5
848
  8
0
  6
CONTINUOUS
 62
     7
 10
-352.7984826094
 20
31.2283445711
 30
0.0
  0
VERTEX
  5
849
  8
0
  6
CONTINUOUS
 62
     7
 10
-352.8802005774
 20
33.4702689762
 30
0.0
  0
VERTEX
  5
84A
  8
0
  6
CONTINUOUS
 62
     7
 10
-353.0163673884
 20
35.7086767073
 30
0.0
  0
VERTEX
  5
84B
  8
0
  6
CONTINUOUS
 62
     7
 10
-353.2068638331
 20
37.9417945261
 30
0.0
  0
VERTEX
  5
84C
  8
0
  6
CONTINUOUS
 62
     7
 10
-353.4514812952
 20
40.1678640957
 30
0.0
  0
VERTEX
  5
84D
  8
0
  6
CONTINUOUS
 62
     7
 10
-353.7501005656
 20
42.3851419802
 30
0.0
  0
VERTEX
  5
84E
  8
0
  6
CONTINUOUS
 62
     7
 10
-354.1024534232
 20
44.5918698425
 30
0.0
  0
VERTEX
  5
84F
  8
0
  6
CONTINUOUS
 62
     7
 10
-354.5082716471
 20
46.7863191481
 30
0.0
  0
VERTEX
  5
850
  8
0
  6
CONTINUOUS
 62
     7
 10
-354.9672274119
 20
48.9667613621
 30
0.0
  0
VERTEX
  5
851
  8
0
  6
CONTINUOUS
 62
     7
 10
-355.4789630896
 20
51.131482851
 30
0.0
  0
VERTEX
  5
852
  8
0
  6
CONTINUOUS
 62
     7
 10
-356.0430614478
 20
53.2787848825
 30
0.0
  0
VERTEX
  5
853
  8
0
  6
CONTINUOUS
 62
     7
 10
-356.6591052538
 20
55.4069687243
 30
0.0
  0
VERTEX
  5
854
  8
0
  6
CONTINUOUS
 62
     7
 10
-357.3265878684
 20
57.5143654461
 30
0.0
  0
VERTEX
  5
855
  8
0
  6
CONTINUOUS
 62
     7
 10
-358.0450026518
 20
59.599306118
 30
0.0
  0
VERTEX
  5
856
  8
0
  6
CONTINUOUS
 62
     7
 10
-358.8137833601
 20
61.6601814146
 30
0.0
  0
VERTEX
  5
857
  8
0
  6
CONTINUOUS
 62
     7
 10
-359.6323041445
 20
63.695337307
 30
0.0
  0
VERTEX
  5
858
  8
0
  6
CONTINUOUS
 62
     7
 10
-360.4999391562
 20
65.703194272
 30
0.0
  0
VERTEX
  5
859
  8
0
  6
CONTINUOUS
 62
     7
 10
-361.4160029417
 20
67.6821429844
 30
0.0
  0
VERTEX
  5
85A
  8
0
  6
CONTINUOUS
 62
     7
 10
-362.3797504431
 20
69.6306635256
 30
0.0
  0
VERTEX
  5
85B
  8
0
  6
CONTINUOUS
 62
     7
 10
-363.3904664046
 20
71.5471912737
 30
0.0
  0
VERTEX
  5
85C
  8
0
  6
CONTINUOUS
 62
     7
 10
-364.4473461634
 20
73.4302510138
 30
0.0
  0
VERTEX
  5
85D
  8
0
  6
CONTINUOUS
 62
     7
 10
-365.5495254523
 20
75.2783526297
 30
0.0
  0
VERTEX
  5
85E
  8
0
  6
CONTINUOUS
 62
     7
 10
-366.6961698061
 20
77.0900060053
 30
0.0
  0
VERTEX
  5
85F
  8
0
  6
CONTINUOUS
 62
     7
 10
-367.8863851553
 20
78.8638104315
 30
0.0
  0
VERTEX
  5
860
  8
0
  6
CONTINUOUS
 62
     7
 10
-369.1191880232
 20
80.5983950014
 30
0.0
  0
VERTEX
  5
861
  8
0
  6
CONTINUOUS
 62
     7
 10
-370.3936545378
 20
82.2923590059
 30
0.0
  0
VERTEX
  5
862
  8
0
  6
CONTINUOUS
 62
     7
 10
-371.7087416178
 20
83.9443911428
 30
0.0
  0
VERTEX
  5
863
  8
0
  6
CONTINUOUS
 62
     7
 10
-373.0634657866
 20
85.55318011
 30
0.0
  0
VERTEX
  5
864
  8
0
  6
CONTINUOUS
 62
     7
 10
-374.4567243582
 20
87.1174742098
 30
0.0
  0
VERTEX
  5
865
  8
0
  6
CONTINUOUS
 62
     7
 10
-375.8874146468
 20
88.6360217447
 30
0.0
  0
VERTEX
  5
866
  8
0
  6
CONTINUOUS
 62
     7
 10
-377.3544339663
 20
90.1076306219
 30
0.0
  0
VERTEX
  5
867
  8
0
  6
CONTINUOUS
 62
     7
 10
-378.8566200262
 20
91.5311683531
 30
0.0
  0
VERTEX
  5
868
  8
0
  6
CONTINUOUS
 62
     7
 10
-380.3927807337
 20
92.9054726477
 30
0.0
  0
VERTEX
  5
869
  8
0
  6
CONTINUOUS
 62
     7
 10
-381.9617239958
 20
94.2295004244
 30
0.0
  0
VERTEX
  5
86A
  8
0
  6
CONTINUOUS
 62
     7
 10
-383.5622279173
 20
95.502208602
 30
0.0
  0
VERTEX
  5
86B
  8
0
  6
CONTINUOUS
 62
     7
 10
-385.1929811961
 20
96.7225839014
 30
0.0
  0
VERTEX
  5
86C
  8
0
  6
CONTINUOUS
 62
     7
 10
-386.8527619368
 20
97.8896428461
 30
0.0
  0
VERTEX
  5
86D
  8
0
  6
CONTINUOUS
 62
     7
 10
-388.540229035
 20
99.0025211687
 30
0.0
  0
VERTEX
  5
86E
  8
0
  6
CONTINUOUS
 62
     7
 10
-390.2540711886
 20
100.0602949972
 30
0.0
  0
VERTEX
  5
86F
  8
0
  6
CONTINUOUS
 62
     7
 10
-391.9929174906
 20
101.0621596689
 30
0.0
  0
VERTEX
  5
870
  8
0
  6
CONTINUOUS
 62
     7
 10
-393.7553970343
 20
102.0073105211
 30
0.0
  0
VERTEX
  5
871
  8
0
  6
CONTINUOUS
 62
     7
 10
-395.5401687151
 20
102.8950024958
 30
0.0
  0
VERTEX
  5
872
  8
0
  6
CONTINUOUS
 62
     7
 10
-397.3458020216
 20
103.7245501394
 30
0.0
  0
VERTEX
  5
873
  8
0
  6
CONTINUOUS
 62
     7
 10
-399.17083664
 20
104.495297801
 30
0.0
  0
VERTEX
  5
874
  8
0
  6
CONTINUOUS
 62
     7
 10
-401.0139016634
 20
105.2066494341
 30
0.0
  0
VERTEX
  5
875
  8
0
  6
CONTINUOUS
 62
     7
 10
-402.8735367781
 20
105.8580387945
 30
0.0
  0
VERTEX
  5
876
  8
0
  6
CONTINUOUS
 62
     7
 10
-404.7482220656
 20
106.4489294405
 30
0.0
  0
VERTEX
  5
877
  8
0
  6
CONTINUOUS
 62
     7
 10
-406.6365568167
 20
106.9788743372
 30
0.0
  0
VERTEX
  5
878
  8
0
  6
CONTINUOUS
 62
     7
 10
-408.5369913107
 20
107.4474562521
 30
0.0
  0
VERTEX
  5
879
  8
0
  6
CONTINUOUS
 62
     7
 10
-410.4480950362
 20
107.8543175573
 30
0.0
  0
VERTEX
  5
87A
  8
0
  6
CONTINUOUS
 62
     7
 10
-412.3682884699
 20
108.1991304274
 30
0.0
  0
VERTEX
  5
87B
  8
0
  6
CONTINUOUS
 62
     7
 10
-414.2961411005
 20
108.4816266413
 30
0.0
  0
VERTEX
  5
87C
  8
0
  6
CONTINUOUS
 62
     7
 10
-416.2300734049
 20
108.7015677805
 30
0.0
  0
VERTEX
  5
87D
  8
0
  6
CONTINUOUS
 62
     7
 10
-418.1685654646
 20
108.8587750311
 30
0.0
  0
VERTEX
  5
87E
  8
0
  6
CONTINUOUS
 62
     7
 10
-420.1101569659
 20
108.9531589861
 30
0.0
  0
VERTEX
  5
87F
  8
0
  6
CONTINUOUS
 62
     7
 10
-422.0532385832
 20
108.9846302385
 30
0.0
  0
SEQEND
  5
C0C
  8
0
  6
CONTINUOUS
 62
     7
  0
LINE
  5
1CE
  8
0
  6
CONTINUOUS
 62
     7
 10
-352.7712134844
 20
28.9846320267
 30
0.0
 11
-362.77123375
 21
28.9846320267
 31
0.0
  0
POLYLINE
  5
1CF
  8
0
  6
CONTINUOUS
 62
     7
 66
     1
 10
0.0
 20
0.0
 30
0.0
  0
VERTEX
  5
880
  8
0
  6
CONTINUOUS
 62
     7
 10
-362.77123375
 20
28.9846320267
 30
0.0
  0
VERTEX
  5
881
  8
0
  6
CONTINUOUS
 62
     7
 10
-362.7984730727
 20
31.2283445711
 30
0.0
  0
VERTEX
  5
882
  8
0
  6
CONTINUOUS
 62
     7
 10
-362.880220843
 20
33.4702689762
 30
0.0
  0
VERTEX
  5
883
  8
0
  6
CONTINUOUS
 62
     7
 10
-363.016387654
 20
35.7086767073
 30
0.0
  0
VERTEX
  5
884
  8
0
  6
CONTINUOUS
 62
     7
 10
-363.2068542963
 20
37.9417945261
 30
0.0
  0
VERTEX
  5
885
  8
0
  6
CONTINUOUS
 62
     7
 10
-363.4515015608
 20
40.1678640957
 30
0.0
  0
VERTEX
  5
886
  8
0
  6
CONTINUOUS
 62
     7
 10
-363.7500910288
 20
42.3851419802
 30
0.0
  0
VERTEX
  5
887
  8
0
  6
CONTINUOUS
 62
     7
 10
-364.1024438864
 20
44.5918698425
 30
0.0
  0
VERTEX
  5
888
  8
0
  6
CONTINUOUS
 62
     7
 10
-364.5082621104
 20
46.7863191481
 30
0.0
  0
VERTEX
  5
889
  8
0
  6
CONTINUOUS
 62
     7
 10
-364.9672178751
 20
48.9667613621
 30
0.0
  0
VERTEX
  5
88A
  8
0
  6
CONTINUOUS
 62
     7
 10
-365.4789535529
 20
51.131482851
 30
0.0
  0
VERTEX
  5
88B
  8
0
  6
CONTINUOUS
 62
     7
 10
-366.043051911
 20
53.2787848825
 30
0.0
  0
VERTEX
  5
88C
  8
0
  6
CONTINUOUS
 62
     7
 10
-366.6590957171
 20
55.4069687243
 30
0.0
  0
VERTEX
  5
88D
  8
0
  6
CONTINUOUS
 62
     7
 10
-367.3265783316
 20
57.5143654461
 30
0.0
  0
VERTEX
  5
88E
  8
0
  6
CONTINUOUS
 62
     7
 10
-368.0449931151
 20
59.599306118
 30
0.0
  0
VERTEX
  5
88F
  8
0
  6
CONTINUOUS
 62
     7
 10
-368.8137738234
 20
61.6601814146
 30
0.0
  0
VERTEX
  5
890
  8
0
  6
CONTINUOUS
 62
     7
 10
-369.6322946078
 20
63.695337307
 30
0.0
  0
VERTEX
  5
891
  8
0
  6
CONTINUOUS
 62
     7
 10
-370.4999296195
 20
65.703194272
 30
0.0
  0
VERTEX
  5
892
  8
0
  6
CONTINUOUS
 62
     7
 10
-371.415993405
 20
67.6821429844
 30
0.0
  0
VERTEX
  5
893
  8
0
  6
CONTINUOUS
 62
     7
 10
-372.3797707087
 20
69.6306635256
 30
0.0
  0
VERTEX
  5
894
  8
0
  6
CONTINUOUS
 62
     7
 10
-373.3904866702
 20
71.5471912737
 30
0.0
  0
VERTEX
  5
895
  8
0
  6
CONTINUOUS
 62
     7
 10
-374.4473366267
 20
73.4302510138
 30
0.0
  0
VERTEX
  5
896
  8
0
  6
CONTINUOUS
 62
     7
 10
-375.5495457179
 20
75.2783526297
 30
0.0
  0
VERTEX
  5
897
  8
0
  6
CONTINUOUS
 62
     7
 10
-376.6961900717
 20
77.0900060053
 30
0.0
  0
VERTEX
  5
898
  8
0
  6
CONTINUOUS
 62
     7
 10
-377.8863756186
 20
78.8638104315
 30
0.0
  0
VERTEX
  5
899
  8
0
  6
CONTINUOUS
 62
     7
 10
-379.1191784865
 20
80.5983950014
 30
0.0
  0
VERTEX
  5
89A
  8
0
  6
CONTINUOUS
 62
     7
 10
-380.3936450011
 20
82.2923590059
 30
0.0
  0
VERTEX
  5
89B
  8
0
  6
CONTINUOUS
 62
     7
 10
-381.7087618834
 20
83.9443911428
 30
0.0
  0
VERTEX
  5
89C
  8
0
  6
CONTINUOUS
 62
     7
 10
-383.0634562499
 20
85.55318011
 30
0.0
  0
VERTEX
  5
89D
  8
0
  6
CONTINUOUS
 62
     7
 10
-384.4567148215
 20
87.1174742098
 30
0.0
  0
VERTEX
  5
89E
  8
0
  6
CONTINUOUS
 62
     7
 10
-385.88740511
 20
88.6360217447
 30
0.0
  0
VERTEX
  5
89F
  8
0
  6
CONTINUOUS
 62
     7
 10
-387.3544244296
 20
90.1076306219
 30
0.0
  0
VERTEX
  5
8A0
  8
0
  6
CONTINUOUS
 62
     7
 10
-388.8566104895
 20
91.5311683531
 30
0.0
  0
VERTEX
  5
8A1
  8
0
  6
CONTINUOUS
 62
     7
 10
-390.392771197
 20
92.9054726477
 30
0.0
  0
VERTEX
  5
8A2
  8
0
  6
CONTINUOUS
 62
     7
 10
-391.9617442614
 20
94.2295004244
 30
0.0
  0
VERTEX
  5
8A3
  8
0
  6
CONTINUOUS
 62
     7
 10
-393.5622183806
 20
95.502208602
 30
0.0
  0
VERTEX
  5
8A4
  8
0
  6
CONTINUOUS
 62
     7
 10
-395.1930014616
 20
96.7225839014
 30
0.0
  0
VERTEX
  5
8A5
  8
0
  6
CONTINUOUS
 62
     7
 10
-396.8527524001
 20
97.8896428461
 30
0.0
  0
VERTEX
  5
8A6
  8
0
  6
CONTINUOUS
 62
     7
 10
-398.5402194983
 20
99.0025211687
 30
0.0
  0
VERTEX
  5
8A7
  8
0
  6
CONTINUOUS
 62
     7
 10
-400.2540616518
 20
100.0602949972
 30
0.0
  0
VERTEX
  5
8A8
  8
0
  6
CONTINUOUS
 62
     7
 10
-401.9929079539
 20
101.0621596689
 30
0.0
  0
VERTEX
  5
8A9
  8
0
  6
CONTINUOUS
 62
     7
 10
-403.7554172999
 20
102.0073105211
 30
0.0
  0
VERTEX
  5
8AA
  8
0
  6
CONTINUOUS
 62
     7
 10
-405.5401591784
 20
102.8950024958
 30
0.0
  0
VERTEX
  5
8AB
  8
0
  6
CONTINUOUS
 62
     7
 10
-407.3457924849
 20
103.7245501394
 30
0.0
  0
VERTEX
  5
8AC
  8
0
  6
CONTINUOUS
 62
     7
 10
-409.1708569056
 20
104.495297801
 30
0.0
  0
VERTEX
  5
8AD
  8
0
  6
CONTINUOUS
 62
     7
 10
-411.013921929
 20
105.2066494341
 30
0.0
  0
VERTEX
  5
8AE
  8
0
  6
CONTINUOUS
 62
     7
 10
-412.8735272414
 20
105.8580387945
 30
0.0
  0
VERTEX
  5
8AF
  8
0
  6
CONTINUOUS
 62
     7
 10
-414.7482423312
 20
106.4489294405
 30
0.0
  0
VERTEX
  5
8B0
  8
0
  6
CONTINUOUS
 62
     7
 10
-416.63654728
 20
106.9788743372
 30
0.0
  0
VERTEX
  5
8B1
  8
0
  6
CONTINUOUS
 62
     7
 10
-418.5370115763
 20
107.4474562521
 30
0.0
  0
VERTEX
  5
8B2
  8
0
  6
CONTINUOUS
 62
     7
 10
-420.4480854994
 20
107.8543175573
 30
0.0
  0
VERTEX
  5
8B3
  8
0
  6
CONTINUOUS
 62
     7
 10
-422.3683087355
 20
108.1991304274
 30
0.0
  0
VERTEX
  5
8B4
  8
0
  6
CONTINUOUS
 62
     7
 10
-424.2961315638
 20
108.4816266413
 30
0.0
  0
VERTEX
  5
8B5
  8
0
  6
CONTINUOUS
 62
     7
 10
-426.2300638682
 20
108.7015677805
 30
0.0
  0
VERTEX
  5
8B6
  8
0
  6
CONTINUOUS
 62
     7
 10
-428.1685857302
 20
108.8587750311
 30
0.0
  0
VERTEX
  5
8B7
  8
0
  6
CONTINUOUS
 62
     7
 10
-430.1101474291
 20
108.9531589861
 30
0.0
  0
VERTEX
  5
8B8
  8
0
  6
CONTINUOUS
 62
     7
 10
-432.0532588488
 20
108.9846302385
 30
0.0
  0
SEQEND
  5
C0B
  8
0
  6
CONTINUOUS
 62
     7
  0
LINE
  5
1D0
  8
0
  6
CONTINUOUS
 62
     7
 10
-362.77123375
 20
-391.0153548603
 30
0.0
 11
-362.77123375
 21
28.9846320267
 31
0.0
  0
POLYLINE
  5
1D1
  8
0
  6
CONTINUOUS
 62
     7
 66
     1
 10
0.0
 20
0.0
 30
0.0
  0
VERTEX
  5
8B9
  8
0
  6
CONTINUOUS
 62
     7
 10
-432.0532588488
 20
-471.0153530722
 30
0.0
  0
VERTEX
  5
8BA
  8
0
  6
CONTINUOUS
 62
     7
 10
-430.1101474291
 20
-470.9838818197
 30
0.0
  0
VERTEX
  5
8BB
  8
0
  6
CONTINUOUS
 62
     7
 10
-428.1685857302
 20
-470.8894978647
 30
0.0
  0
VERTEX
  5
8BC
  8
0
  6
CONTINUOUS
 62
     7
 10
-426.2300638682
 20
-470.7322906141
 30
0.0
  0
VERTEX
  5
8BD
  8
0
  6
CONTINUOUS
 62
     7
 10
-424.2961315638
 20
-470.5123494749
 30
0.0
  0
VERTEX
  5
8BE
  8
0
  6
CONTINUOUS
 62
     7
 10
-422.3683087355
 20
-470.229853261
 30
0.0
  0
VERTEX
  5
8BF
  8
0
  6
CONTINUOUS
 62
     7
 10
-420.4480854994
 20
-469.885040391
 30
0.0
  0
VERTEX
  5
8C0
  8
0
  6
CONTINUOUS
 62
     7
 10
-418.5370115763
 20
-469.4781790857
 30
0.0
  0
VERTEX
  5
8C1
  8
0
  6
CONTINUOUS
 62
     7
 10
-416.63654728
 20
-469.0095971708
 30
0.0
  0
VERTEX
  5
8C2
  8
0
  6
CONTINUOUS
 62
     7
 10
-414.7482423312
 20
-468.4796522741
 30
0.0
  0
VERTEX
  5
8C3
  8
0
  6
CONTINUOUS
 62
     7
 10
-412.8735272414
 20
-467.8887616281
 30
0.0
  0
VERTEX
  5
8C4
  8
0
  6
CONTINUOUS
 62
     7
 10
-411.013921929
 20
-467.2373722677
 30
0.0
  0
VERTEX
  5
8C5
  8
0
  6
CONTINUOUS
 62
     7
 10
-409.1708569056
 20
-466.5260206346
 30
0.0
  0
VERTEX
  5
8C6
  8
0
  6
CONTINUOUS
 62
     7
 10
-407.3457924849
 20
-465.7552729731
 30
0.0
  0
VERTEX
  5
8C7
  8
0
  6
CONTINUOUS
 62
     7
 10
-405.5401591784
 20
-464.9257253294
 30
0.0
  0
VERTEX
  5
8C8
  8
0
  6
CONTINUOUS
 62
     7
 10
-403.7554172999
 20
-464.0380333548
 30
0.0
  0
VERTEX
  5
8C9
  8
0
  6
CONTINUOUS
 62
     7
 10
-401.9929079539
 20
-463.0928825026
 30
0.0
  0
VERTEX
  5
8CA
  8
0
  6
CONTINUOUS
 62
     7
 10
-400.2540616518
 20
-462.0910178308
 30
0.0
  0
VERTEX
  5
8CB
  8
0
  6
CONTINUOUS
 62
     7
 10
-398.5402194983
 20
-461.0332440023
 30
0.0
  0
VERTEX
  5
8CC
  8
0
  6
CONTINUOUS
 62
     7
 10
-396.8527524001
 20
-459.9203656797
 30
0.0
  0
VERTEX
  5
8CD
  8
0
  6
CONTINUOUS
 62
     7
 10
-395.1930014616
 20
-458.753306735
 30
0.0
  0
VERTEX
  5
8CE
  8
0
  6
CONTINUOUS
 62
     7
 10
-393.5622183806
 20
-457.5329314356
 30
0.0
  0
VERTEX
  5
8CF
  8
0
  6
CONTINUOUS
 62
     7
 10
-391.9617442614
 20
-456.260223258
 30
0.0
  0
VERTEX
  5
8D0
  8
0
  6
CONTINUOUS
 62
     7
 10
-390.392771197
 20
-454.9361954813
 30
0.0
  0
VERTEX
  5
8D1
  8
0
  6
CONTINUOUS
 62
     7
 10
-388.8566104895
 20
-453.5618911867
 30
0.0
  0
VERTEX
  5
8D2
  8
0
  6
CONTINUOUS
 62
     7
 10
-387.3544244296
 20
-452.1383534555
 30
0.0
  0
VERTEX
  5
8D3
  8
0
  6
CONTINUOUS
 62
     7
 10
-385.88740511
 20
-450.6667445784
 30
0.0
  0
VERTEX
  5
8D4
  8
0
  6
CONTINUOUS
 62
     7
 10
-384.4567148215
 20
-449.1481970434
 30
0.0
  0
VERTEX
  5
8D5
  8
0
  6
CONTINUOUS
 62
     7
 10
-383.0634562499
 20
-447.5839029436
 30
0.0
  0
VERTEX
  5
8D6
  8
0
  6
CONTINUOUS
 62
     7
 10
-381.7087618834
 20
-445.9751139765
 30
0.0
  0
VERTEX
  5
8D7
  8
0
  6
CONTINUOUS
 62
     7
 10
-380.3936450011
 20
-444.3230818396
 30
0.0
  0
VERTEX
  5
8D8
  8
0
  6
CONTINUOUS
 62
     7
 10
-379.1191784865
 20
-442.629117835
 30
0.0
  0
VERTEX
  5
8D9
  8
0
  6
CONTINUOUS
 62
     7
 10
-377.8863756186
 20
-440.8945332651
 30
0.0
  0
VERTEX
  5
8DA
  8
0
  6
CONTINUOUS
 62
     7
 10
-376.6961900717
 20
-439.1207288389
 30
0.0
  0
VERTEX
  5
8DB
  8
0
  6
CONTINUOUS
 62
     7
 10
-375.5495457179
 20
-437.3090754633
 30
0.0
  0
VERTEX
  5
8DC
  8
0
  6
CONTINUOUS
 62
     7
 10
-374.4473366267
 20
-435.4609738474
 30
0.0
  0
VERTEX
  5
8DD
  8
0
  6
CONTINUOUS
 62
     7
 10
-373.3904866702
 20
-433.5779141073
 30
0.0
  0
VERTEX
  5
8DE
  8
0
  6
CONTINUOUS
 62
     7
 10
-372.3797707087
 20
-431.6613863592
 30
0.0
  0
VERTEX
  5
8DF
  8
0
  6
CONTINUOUS
 62
     7
 10
-371.415993405
 20
-429.712865818
 30
0.0
  0
VERTEX
  5
8E0
  8
0
  6
CONTINUOUS
 62
     7
 10
-370.4999296195
 20
-427.7339171057
 30
0.0
  0
VERTEX
  5
8E1
  8
0
  6
CONTINUOUS
 62
     7
 10
-369.6322946078
 20
-425.7260601406
 30
0.0
  0
VERTEX
  5
8E2
  8
0
  6
CONTINUOUS
 62
     7
 10
-368.8137738234
 20
-423.6909042482
 30
0.0
  0
VERTEX
  5
8E3
  8
0
  6
CONTINUOUS
 62
     7
 10
-368.0449931151
 20
-421.6300289516
 30
0.0
  0
VERTEX
  5
8E4
  8
0
  6
CONTINUOUS
 62
     7
 10
-367.3265783316
 20
-419.5450882797
 30
0.0
  0
VERTEX
  5
8E5
  8
0
  6
CONTINUOUS
 62
     7
 10
-366.6590957171
 20
-417.4376915579
 30
0.0
  0
VERTEX
  5
8E6
  8
0
  6
CONTINUOUS
 62
     7
 10
-366.043051911
 20
-415.3095077162
 30
0.0
  0
VERTEX
  5
8E7
  8
0
  6
CONTINUOUS
 62
     7
 10
-365.4789535529
 20
-413.1622056847
 30
0.0
  0
VERTEX
  5
8E8
  8
0
  6
CONTINUOUS
 62
     7
 10
-364.9672178751
 20
-410.9974841957
 30
0.0
  0
VERTEX
  5
8E9
  8
0
  6
CONTINUOUS
 62
     7
 10
-364.5082621104
 20
-408.8170419817
 30
0.0
  0
VERTEX
  5
8EA
  8
0
  6
CONTINUOUS
 62
     7
 10
-364.1024438864
 20
-406.6225926762
 30
0.0
  0
VERTEX
  5
8EB
  8
0
  6
CONTINUOUS
 62
     7
 10
-363.7500910288
 20
-404.4158648138
 30
0.0
  0
VERTEX
  5
8EC
  8
0
  6
CONTINUOUS
 62
     7
 10
-363.4515015608
 20
-402.1985869293
 30
0.0
  0
VERTEX
  5
8ED
  8
0
  6
CONTINUOUS
 62
     7
 10
-363.2068542963
 20
-399.9725173597
 30
0.0
  0
VERTEX
  5
8EE
  8
0
  6
CONTINUOUS
 62
     7
 10
-363.016387654
 20
-397.7393995409
 30
0.0
  0
VERTEX
  5
8EF
  8
0
  6
CONTINUOUS
 62
     7
 10
-362.880220843
 20
-395.5009918098
 30
0.0
  0
VERTEX
  5
8F0
  8
0
  6
CONTINUOUS
 62
     7
 10
-362.7984730727
 20
-393.2590674047
 30
0.0
  0
VERTEX
  5
8F1
  8
0
  6
CONTINUOUS
 62
     7
 10
-362.77123375
 20
-391.0153548603
 30
0.0
  0
SEQEND
  5
C0A
  8
0
  6
CONTINUOUS
 62
     7
  0
LINE
  5
1D2
  8
0
  6
CONTINUOUS
 62
     7
 10
-566.1269633299
 20
-471.0153530722
 30
0.0
 11
-432.0532588488
 21
-471.0153530722
 31
0.0
  0
POLYLINE
  5
1D3
  8
0
  6
CONTINUOUS
 62
     7
 66
     1
 10
0.0
 20
0.0
 30
0.0
  0
VERTEX
  5
8F2
  8
0
  6
CONTINUOUS
 62
     7
 10
-657.2198478705
 20
-391.0153548603
 30
0.0
  0
VERTEX
  5
8F3
  8
0
  6
CONTINUOUS
 62
     7
 10
-657.1926085478
 20
-393.2590674047
 30
0.0
  0
VERTEX
  5
8F4
  8
0
  6
CONTINUOUS
 62
     7
 10
-657.1108905798
 20
-395.5009918098
 30
0.0
  0
VERTEX
  5
8F5
  8
0
  6
CONTINUOUS
 62
     7
 10
-656.9746939665
 20
-397.7393995409
 30
0.0
  0
VERTEX
  5
8F6
  8
0
  6
CONTINUOUS
 62
     7
 10
-656.7842571265
 20
-399.9725173597
 30
0.0
  0
VERTEX
  5
8F7
  8
0
  6
CONTINUOUS
 62
     7
 10
-656.5395800597
 20
-402.1985869293
 30
0.0
  0
VERTEX
  5
8F8
  8
0
  6
CONTINUOUS
 62
     7
 10
-656.2409607893
 20
-404.4158648138
 30
0.0
  0
VERTEX
  5
8F9
  8
0
  6
CONTINUOUS
 62
     7
 10
-655.8886377341
 20
-406.6225926762
 30
0.0
  0
VERTEX
  5
8FA
  8
0
  6
CONTINUOUS
 62
     7
 10
-655.4827897078
 20
-408.8170419817
 30
0.0
  0
VERTEX
  5
8FB
  8
0
  6
CONTINUOUS
 62
     7
 10
-655.023833943
 20
-410.9974841957
 30
0.0
  0
VERTEX
  5
8FC
  8
0
  6
CONTINUOUS
 62
     7
 10
-654.5121280676
 20
-413.1622056847
 30
0.0
  0
VERTEX
  5
8FD
  8
0
  6
CONTINUOUS
 62
     7
 10
-653.9480297095
 20
-415.3095077162
 30
0.0
  0
VERTEX
  5
8FE
  8
0
  6
CONTINUOUS
 62
     7
 10
-653.3319561011
 20
-417.4376915579
 30
0.0
  0
VERTEX
  5
8FF
  8
0
  6
CONTINUOUS
 62
     7
 10
-652.6645032889
 20
-419.5450882797
 30
0.0
  0
VERTEX
  5
900
  8
0
  6
CONTINUOUS
 62
     7
 10
-651.9460885054
 20
-421.6300289516
 30
0.0
  0
VERTEX
  5
901
  8
0
  6
CONTINUOUS
 62
     7
 10
-651.1773077971
 20
-423.6909042482
 30
0.0
  0
VERTEX
  5
902
  8
0
  6
CONTINUOUS
 62
     7
 10
-650.3587572104
 20
-425.7260601406
 30
0.0
  0
VERTEX
  5
903
  8
0
  6
CONTINUOUS
 62
     7
 10
-649.491152001
 20
-427.7339171057
 30
0.0
  0
VERTEX
  5
904
  8
0
  6
CONTINUOUS
 62
     7
 10
-648.5750882155
 20
-429.712865818
 30
0.0
  0
VERTEX
  5
905
  8
0
  6
CONTINUOUS
 62
     7
 10
-647.6113407141
 20
-431.6613863592
 30
0.0
  0
VERTEX
  5
906
  8
0
  6
CONTINUOUS
 62
     7
 10
-646.6006247527
 20
-433.5779141073
 30
0.0
  0
VERTEX
  5
907
  8
0
  6
CONTINUOUS
 62
     7
 10
-645.5437151915
 20
-435.4609738474
 30
0.0
  0
VERTEX
  5
908
  8
0
  6
CONTINUOUS
 62
     7
 10
-644.441565705
 20
-437.3090754633
 30
0.0
  0
VERTEX
  5
909
  8
0
  6
CONTINUOUS
 62
     7
 10
-643.2948915488
 20
-439.1207288389
 30
0.0
  0
VERTEX
  5
90A
  8
0
  6
CONTINUOUS
 62
     7
 10
-642.1047060019
 20
-440.8945332651
 30
0.0
  0
VERTEX
  5
90B
  8
0
  6
CONTINUOUS
 62
     7
 10
-640.871903134
 20
-442.629117835
 30
0.0
  0
VERTEX
  5
90C
  8
0
  6
CONTINUOUS
 62
     7
 10
-639.5974366194
 20
-444.3230818396
 30
0.0
  0
VERTEX
  5
90D
  8
0
  6
CONTINUOUS
 62
     7
 10
-638.2823197371
 20
-445.9751139765
 30
0.0
  0
VERTEX
  5
90E
  8
0
  6
CONTINUOUS
 62
     7
 10
-636.9276253706
 20
-447.5839029436
 30
0.0
  0
VERTEX
  5
90F
  8
0
  6
CONTINUOUS
 62
     7
 10
-635.534366799
 20
-449.1481970434
 30
0.0
  0
VERTEX
  5
910
  8
0
  6
CONTINUOUS
 62
     7
 10
-634.1036765105
 20
-450.6667445784
 30
0.0
  0
VERTEX
  5
911
  8
0
  6
CONTINUOUS
 62
     7
 10
-632.6366273886
 20
-452.1383534555
 30
0.0
  0
VERTEX
  5
912
  8
0
  6
CONTINUOUS
 62
     7
 10
-631.134471131
 20
-453.5618911867
 30
0.0
  0
VERTEX
  5
913
  8
0
  6
CONTINUOUS
 62
     7
 10
-629.5982806212
 20
-454.9361954813
 30
0.0
  0
VERTEX
  5
914
  8
0
  6
CONTINUOUS
 62
     7
 10
-628.0293671614
 20
-456.260223258
 30
0.0
  0
VERTEX
  5
915
  8
0
  6
CONTINUOUS
 62
     7
 10
-626.4288632399
 20
-457.5329314356
 30
0.0
  0
VERTEX
  5
916
  8
0
  6
CONTINUOUS
 62
     7
 10
-624.7980801588
 20
-458.753306735
 30
0.0
  0
VERTEX
  5
917
  8
0
  6
CONTINUOUS
 62
     7
 10
-623.1383292204
 20
-459.9203656797
 30
0.0
  0
VERTEX
  5
918
  8
0
  6
CONTINUOUS
 62
     7
 10
-621.4508621222
 20
-461.0332440023
 30
0.0
  0
VERTEX
  5
919
  8
0
  6
CONTINUOUS
 62
     7
 10
-619.737049771
 20
-462.0910178308
 30
0.0
  0
VERTEX
  5
91A
  8
0
  6
CONTINUOUS
 62
     7
 10
-617.9981438643
 20
-463.0928825026
 30
0.0
  0
VERTEX
  5
91B
  8
0
  6
CONTINUOUS
 62
     7
 10
-616.2356941229
 20
-464.0380333548
 30
0.0
  0
VERTEX
  5
91C
  8
0
  6
CONTINUOUS
 62
     7
 10
-614.4508926398
 20
-464.9257253294
 30
0.0
  0
VERTEX
  5
91D
  8
0
  6
CONTINUOUS
 62
     7
 10
-612.6452891356
 20
-465.7552729731
 30
0.0
  0
VERTEX
  5
91E
  8
0
  6
CONTINUOUS
 62
     7
 10
-610.8202545172
 20
-466.5260206346
 30
0.0
  0
VERTEX
  5
91F
  8
0
  6
CONTINUOUS
 62
     7
 10
-608.9771596915
 20
-467.2373722677
 30
0.0
  0
VERTEX
  5
920
  8
0
  6
CONTINUOUS
 62
     7
 10
-607.1175543791
 20
-467.8887616281
 30
0.0
  0
VERTEX
  5
921
  8
0
  6
CONTINUOUS
 62
     7
 10
-605.2428690916
 20
-468.4796522741
 30
0.0
  0
VERTEX
  5
922
  8
0
  6
CONTINUOUS
 62
     7
 10
-603.3545343405
 20
-469.0095971708
 30
0.0
  0
VERTEX
  5
923
  8
0
  6
CONTINUOUS
 62
     7
 10
-601.4540998465
 20
-469.4781790857
 30
0.0
  0
VERTEX
  5
924
  8
0
  6
CONTINUOUS
 62
     7
 10
-599.5429961211
 20
-469.885040391
 30
0.0
  0
VERTEX
  5
925
  8
0
  6
CONTINUOUS
 62
     7
 10
-598.1269089705
 20
-470.1454828863
 30
0.0
  0
SEQEND
  5
C09
  8
0
  6
CONTINUOUS
 62
     7
  0
LINE
  5
1D4
  8
0
  6
CONTINUOUS
 62
     7
 10
-657.2198478705
 20
28.9846320267
 30
0.0
 11
-657.2198478705
 21
-391.0153548603
 31
0.0
  0
POLYLINE
  5
1D5
  8
0
  6
CONTINUOUS
 62
     7
 66
     1
 10
0.0
 20
0.0
 30
0.0
  0
VERTEX
  5
926
  8
0
  6
CONTINUOUS
 62
     7
 10
-587.937852574
 20
108.9846302385
 30
0.0
  0
VERTEX
  5
927
  8
0
  6
CONTINUOUS
 62
     7
 10
-589.880904389
 20
108.9531589861
 30
0.0
  0
VERTEX
  5
928
  8
0
  6
CONTINUOUS
 62
     7
 10
-591.8225256926
 20
108.8587750311
 30
0.0
  0
VERTEX
  5
929
  8
0
  6
CONTINUOUS
 62
     7
 10
-593.76098795
 20
108.7015677805
 30
0.0
  0
VERTEX
  5
92A
  8
0
  6
CONTINUOUS
 62
     7
 10
-595.694979859
 20
108.4816266413
 30
0.0
  0
VERTEX
  5
92B
  8
0
  6
CONTINUOUS
 62
     7
 10
-597.622772885
 20
108.1991304274
 30
0.0
  0
VERTEX
  5
92C
  8
0
  6
CONTINUOUS
 62
     7
 10
-599.5429961211
 20
107.8543175573
 30
0.0
  0
VERTEX
  5
92D
  8
0
  6
CONTINUOUS
 62
     7
 10
-601.4540998465
 20
107.4474562521
 30
0.0
  0
VERTEX
  5
92E
  8
0
  6
CONTINUOUS
 62
     7
 10
-603.3545343405
 20
106.9788743372
 30
0.0
  0
VERTEX
  5
92F
  8
0
  6
CONTINUOUS
 62
     7
 10
-605.2428690916
 20
106.4489294405
 30
0.0
  0
VERTEX
  5
930
  8
0
  6
CONTINUOUS
 62
     7
 10
-607.1175543791
 20
105.8580387945
 30
0.0
  0
VERTEX
  5
931
  8
0
  6
CONTINUOUS
 62
     7
 10
-608.9771596915
 20
105.2066494341
 30
0.0
  0
VERTEX
  5
932
  8
0
  6
CONTINUOUS
 62
     7
 10
-610.8202545172
 20
104.495297801
 30
0.0
  0
VERTEX
  5
933
  8
0
  6
CONTINUOUS
 62
     7
 10
-612.6452891356
 20
103.7245501394
 30
0.0
  0
VERTEX
  5
934
  8
0
  6
CONTINUOUS
 62
     7
 10
-614.4508926398
 20
102.8950024958
 30
0.0
  0
VERTEX
  5
935
  8
0
  6
CONTINUOUS
 62
     7
 10
-616.2356941229
 20
102.0073105211
 30
0.0
  0
VERTEX
  5
936
  8
0
  6
CONTINUOUS
 62
     7
 10
-617.9981438643
 20
101.0621596689
 30
0.0
  0
VERTEX
  5
937
  8
0
  6
CONTINUOUS
 62
     7
 10
-619.737049771
 20
100.0602949972
 30
0.0
  0
VERTEX
  5
938
  8
0
  6
CONTINUOUS
 62
     7
 10
-621.4508621222
 20
99.0025211687
 30
0.0
  0
VERTEX
  5
939
  8
0
  6
CONTINUOUS
 62
     7
 10
-623.1383292204
 20
97.8896428461
 30
0.0
  0
VERTEX
  5
93A
  8
0
  6
CONTINUOUS
 62
     7
 10
-624.7980801588
 20
96.7225839014
 30
0.0
  0
VERTEX
  5
93B
  8
0
  6
CONTINUOUS
 62
     7
 10
-626.4288632399
 20
95.502208602
 30
0.0
  0
VERTEX
  5
93C
  8
0
  6
CONTINUOUS
 62
     7
 10
-628.0293671614
 20
94.2295004244
 30
0.0
  0
VERTEX
  5
93D
  8
0
  6
CONTINUOUS
 62
     7
 10
-629.5982806212
 20
92.9054726477
 30
0.0
  0
VERTEX
  5
93E
  8
0
  6
CONTINUOUS
 62
     7
 10
-631.134471131
 20
91.5311683531
 30
0.0
  0
VERTEX
  5
93F
  8
0
  6
CONTINUOUS
 62
     7
 10
-632.6366273886
 20
90.1076306219
 30
0.0
  0
VERTEX
  5
940
  8
0
  6
CONTINUOUS
 62
     7
 10
-634.1036765105
 20
88.6360217447
 30
0.0
  0
VERTEX
  5
941
  8
0
  6
CONTINUOUS
 62
     7
 10
-635.534366799
 20
87.1174742098
 30
0.0
  0
VERTEX
  5
942
  8
0
  6
CONTINUOUS
 62
     7
 10
-636.9276253706
 20
85.55318011
 30
0.0
  0
VERTEX
  5
943
  8
0
  6
CONTINUOUS
 62
     7
 10
-638.2823197371
 20
83.9443911428
 30
0.0
  0
VERTEX
  5
944
  8
0
  6
CONTINUOUS
 62
     7
 10
-639.5974366194
 20
82.2923590059
 30
0.0
  0
VERTEX
  5
945
  8
0
  6
CONTINUOUS
 62
     7
 10
-640.871903134
 20
80.5983950014
 30
0.0
  0
VERTEX
  5
946
  8
0
  6
CONTINUOUS
 62
     7
 10
-642.1047060019
 20
78.8638104315
 30
0.0
  0
VERTEX
  5
947
  8
0
  6
CONTINUOUS
 62
     7
 10
-643.2948915488
 20
77.0900060053
 30
0.0
  0
VERTEX
  5
948
  8
0
  6
CONTINUOUS
 62
     7
 10
-644.441565705
 20
75.2783526297
 30
0.0
  0
VERTEX
  5
949
  8
0
  6
CONTINUOUS
 62
     7
 10
-645.5437151915
 20
73.4302510138
 30
0.0
  0
VERTEX
  5
94A
  8
0
  6
CONTINUOUS
 62
     7
 10
-646.6006247527
 20
71.5471912737
 30
0.0
  0
VERTEX
  5
94B
  8
0
  6
CONTINUOUS
 62
     7
 10
-647.6113407141
 20
69.6306635256
 30
0.0
  0
VERTEX
  5
94C
  8
0
  6
CONTINUOUS
 62
     7
 10
-648.5750882155
 20
67.6821429844
 30
0.0
  0
VERTEX
  5
94D
  8
0
  6
CONTINUOUS
 62
     7
 10
-649.491152001
 20
65.703194272
 30
0.0
  0
VERTEX
  5
94E
  8
0
  6
CONTINUOUS
 62
     7
 10
-650.3587572104
 20
63.695337307
 30
0.0
  0
VERTEX
  5
94F
  8
0
  6
CONTINUOUS
 62
     7
 10
-651.1773077971
 20
61.6601814146
 30
0.0
  0
VERTEX
  5
950
  8
0
  6
CONTINUOUS
 62
     7
 10
-651.9460885054
 20
59.599306118
 30
0.0
  0
VERTEX
  5
951
  8
0
  6
CONTINUOUS
 62
     7
 10
-652.6645032889
 20
57.5143654461
 30
0.0
  0
VERTEX
  5
952
  8
0
  6
CONTINUOUS
 62
     7
 10
-653.3319561011
 20
55.4069687243
 30
0.0
  0
VERTEX
  5
953
  8
0
  6
CONTINUOUS
 62
     7
 10
-653.9480297095
 20
53.2787848825
 30
0.0
  0
VERTEX
  5
954
  8
0
  6
CONTINUOUS
 62
     7
 10
-654.5121280676
 20
51.131482851
 30
0.0
  0
VERTEX
  5
955
  8
0
  6
CONTINUOUS
 62
     7
 10
-655.023833943
 20
48.9667613621
 30
0.0
  0
VERTEX
  5
956
  8
0
  6
CONTINUOUS
 62
     7
 10
-655.4827897078
 20
46.7863191481
 30
0.0
  0
VERTEX
  5
957
  8
0
  6
CONTINUOUS
 62
     7
 10
-655.8886377341
 20
44.5918698425
 30
0.0
  0
VERTEX
  5
958
  8
0
  6
CONTINUOUS
 62
     7
 10
-656.2409607893
 20
42.3851419802
 30
0.0
  0
VERTEX
  5
959
  8
0
  6
CONTINUOUS
 62
     7
 10
-656.5395800597
 20
40.1678640957
 30
0.0
  0
VERTEX
  5
95A
  8
0
  6
CONTINUOUS
 62
     7
 10
-656.7842571265
 20
37.9417945261
 30
0.0
  0
VERTEX
  5
95B
  8
0
  6
CONTINUOUS
 62
     7
 10
-656.9746939665
 20
35.7086767073
 30
0.0
  0
VERTEX
  5
95C
  8
0
  6
CONTINUOUS
 62
     7
 10
-657.1108905798
 20
33.4702689762
 30
0.0
  0
VERTEX
  5
95D
  8
0
  6
CONTINUOUS
 62
     7
 10
-657.1926085478
 20
31.2283445711
 30
0.0
  0
VERTEX
  5
95E
  8
0
  6
CONTINUOUS
 62
     7
 10
-657.2198478705
 20
28.9846320267
 30
0.0
  0
SEQEND
  5
C08
  8
0
  6
CONTINUOUS
 62
     7
  0
LINE
  5
1D6
  8
0
  6
CONTINUOUS
 62
     7
 10
-432.0532588488
 20
108.9846302385
 30
0.0
 11
-587.937852574
 21
108.9846302385
 31
0.0
  0
LINE
  5
1D7
  8
0
  6
CONTINUOUS
 62
     7
 10
-518.6557976729
 20
-431.0153614168
 30
0.0
 11
-518.6557976729
 21
-421.0153560524
 31
0.0
  0
LINE
  5
1D8
  8
0
  6
CONTINUOUS
 62
     7
 10
-509.9955408102
 20
-421.0153560524
 30
0.0
 11
-509.9955408102
 21
-372.0153610592
 31
0.0
  0
LINE
  5
1D9
  8
0
  6
CONTINUOUS
 62
     7
 10
-413.8660041815
 20
-272.6419459467
 30
0.0
 11
-499.9258725172
 21
-372.0153610592
 31
0.0
  0
LINE
  5
1DA
  8
0
  6
CONTINUOUS
 62
     7
 10
-413.8660041815
 20
-272.6419459467
 30
0.0
 11
-413.8660041815
 21
-89.3887768869
 31
0.0
  0
LINE
  5
1DB
  8
0
  6
CONTINUOUS
 62
     7
 10
-413.8660041815
 20
-89.3887768869
 30
0.0
 11
-499.9258725172
 21
9.9846382256
 31
0.0
  0
LINE
  5
1DC
  8
0
  6
CONTINUOUS
 62
     7
 10
-509.9955408102
 20
58.9846332188
 30
0.0
 11
-509.9955408102
 21
9.9846382256
 31
0.0
  0
LINE
  5
1DD
  8
0
  6
CONTINUOUS
 62
     7
 10
-518.6557976729
 20
68.9846385832
 30
0.0
 11
-518.6557976729
 21
58.9846332188
 31
0.0
  0
LINE
  5
1DE
  8
0
  6
CONTINUOUS
 62
     7
 10
-362.77123375
 20
-391.0153548603
 30
0.0
 11
-352.7712134844
 21
-391.0153548603
 31
0.0
  0
LINE
  5
1DF
  8
0
  6
CONTINUOUS
 62
     7
 10
-352.7712134844
 20
-391.0153548603
 30
0.0
 11
-352.7712134844
 21
28.9846320267
 31
0.0
  0
POLYLINE
  5
1E0
  8
0
  6
CONTINUOUS
 62
     7
 66
     1
 10
0.0
 20
0.0
 30
0.0
  0
VERTEX
  5
95F
  8
0
  6
CONTINUOUS
 62
     7
 10
-422.0532385832
 20
-471.0153530722
 30
0.0
  0
VERTEX
  5
960
  8
0
  6
CONTINUOUS
 62
     7
 10
-420.1101569659
 20
-470.9838818197
 30
0.0
  0
VERTEX
  5
961
  8
0
  6
CONTINUOUS
 62
     7
 10
-418.1685654646
 20
-470.8894978647
 30
0.0
  0
VERTEX
  5
962
  8
0
  6
CONTINUOUS
 62
     7
 10
-416.2300734049
 20
-470.7322906141
 30
0.0
  0
VERTEX
  5
963
  8
0
  6
CONTINUOUS
 62
     7
 10
-414.2961411005
 20
-470.5123494749
 30
0.0
  0
VERTEX
  5
964
  8
0
  6
CONTINUOUS
 62
     7
 10
-412.3682884699
 20
-470.229853261
 30
0.0
  0
VERTEX
  5
965
  8
0
  6
CONTINUOUS
 62
     7
 10
-410.4480950362
 20
-469.885040391
 30
0.0
  0
VERTEX
  5
966
  8
0
  6
CONTINUOUS
 62
     7
 10
-408.5369913107
 20
-469.4781790857
 30
0.0
  0
VERTEX
  5
967
  8
0
  6
CONTINUOUS
 62
     7
 10
-406.6365568167
 20
-469.0095971708
 30
0.0
  0
VERTEX
  5
968
  8
0
  6
CONTINUOUS
 62
     7
 10
-404.7482220656
 20
-468.4796522741
 30
0.0
  0
VERTEX
  5
969
  8
0
  6
CONTINUOUS
 62
     7
 10
-402.8735367781
 20
-467.8887616281
 30
0.0
  0
VERTEX
  5
96A
  8
0
  6
CONTINUOUS
 62
     7
 10
-401.0139016634
 20
-467.2373722677
 30
0.0
  0
VERTEX
  5
96B
  8
0
  6
CONTINUOUS
 62
     7
 10
-399.17083664
 20
-466.5260206346
 30
0.0
  0
VERTEX
  5
96C
  8
0
  6
CONTINUOUS
 62
     7
 10
-397.3458020216
 20
-465.7552729731
 30
0.0
  0
VERTEX
  5
96D
  8
0
  6
CONTINUOUS
 62
     7
 10
-395.5401687151
 20
-464.9257253294
 30
0.0
  0
VERTEX
  5
96E
  8
0
  6
CONTINUOUS
 62
     7
 10
-393.7553970343
 20
-464.0380333548
 30
0.0
  0
VERTEX
  5
96F
  8
0
  6
CONTINUOUS
 62
     7
 10
-391.9929174906
 20
-463.0928825026
 30
0.0
  0
VERTEX
  5
970
  8
0
  6
CONTINUOUS
 62
     7
 10
-390.2540711886
 20
-462.0910178308
 30
0.0
  0
VERTEX
  5
971
  8
0
  6
CONTINUOUS
 62
     7
 10
-388.540229035
 20
-461.0332440023
 30
0.0
  0
VERTEX
  5
972
  8
0
  6
CONTINUOUS
 62
     7
 10
-386.8527619368
 20
-459.9203656797
 30
0.0
  0
VERTEX
  5
973
  8
0
  6
CONTINUOUS
 62
     7
 10
-385.1929811961
 20
-458.753306735
 30
0.0
  0
VERTEX
  5
974
  8
0
  6
CONTINUOUS
 62
     7
 10
-383.5622279173
 20
-457.5329314356
 30
0.0
  0
VERTEX
  5
975
  8
0
  6
CONTINUOUS
 62
     7
 10
-381.9617239958
 20
-456.260223258
 30
0.0
  0
VERTEX
  5
976
  8
0
  6
CONTINUOUS
 62
     7
 10
-380.3927807337
 20
-454.9361954813
 30
0.0
  0
VERTEX
  5
977
  8
0
  6
CONTINUOUS
 62
     7
 10
-378.8566200262
 20
-453.5618911867
 30
0.0
  0
VERTEX
  5
978
  8
0
  6
CONTINUOUS
 62
     7
 10
-377.3544339663
 20
-452.1383534555
 30
0.0
  0
VERTEX
  5
979
  8
0
  6
CONTINUOUS
 62
     7
 10
-375.8874146468
 20
-450.6667445784
 30
0.0
  0
VERTEX
  5
97A
  8
0
  6
CONTINUOUS
 62
     7
 10
-374.4567243582
 20
-449.1481970434
 30
0.0
  0
VERTEX
  5
97B
  8
0
  6
CONTINUOUS
 62
     7
 10
-373.0634657866
 20
-447.5839029436
 30
0.0
  0
VERTEX
  5
97C
  8
0
  6
CONTINUOUS
 62
     7
 10
-371.7087416178
 20
-445.9751139765
 30
0.0
  0
VERTEX
  5
97D
  8
0
  6
CONTINUOUS
 62
     7
 10
-370.3936545378
 20
-444.3230818396
 30
0.0
  0
VERTEX
  5
97E
  8
0
  6
CONTINUOUS
 62
     7
 10
-369.1191880232
 20
-442.629117835
 30
0.0
  0
VERTEX
  5
97F
  8
0
  6
CONTINUOUS
 62
     7
 10
-367.8863851553
 20
-440.8945332651
 30
0.0
  0
VERTEX
  5
980
  8
0
  6
CONTINUOUS
 62
     7
 10
-366.6961698061
 20
-439.1207288389
 30
0.0
  0
VERTEX
  5
981
  8
0
  6
CONTINUOUS
 62
     7
 10
-365.5495254523
 20
-437.3090754633
 30
0.0
  0
VERTEX
  5
982
  8
0
  6
CONTINUOUS
 62
     7
 10
-364.4473461634
 20
-435.4609738474
 30
0.0
  0
VERTEX
  5
983
  8
0
  6
CONTINUOUS
 62
     7
 10
-363.3904664046
 20
-433.5779141073
 30
0.0
  0
VERTEX
  5
984
  8
0
  6
CONTINUOUS
 62
     7
 10
-362.3797504431
 20
-431.6613863592
 30
0.0
  0
VERTEX
  5
985
  8
0
  6
CONTINUOUS
 62
     7
 10
-361.4160029417
 20
-429.712865818
 30
0.0
  0
VERTEX
  5
986
  8
0
  6
CONTINUOUS
 62
     7
 10
-360.4999391562
 20
-427.7339171057
 30
0.0
  0
VERTEX
  5
987
  8
0
  6
CONTINUOUS
 62
     7
 10
-359.6323041445
 20
-425.7260601406
 30
0.0
  0
VERTEX
  5
988
  8
0
  6
CONTINUOUS
 62
     7
 10
-358.8137833601
 20
-423.6909042482
 30
0.0
  0
VERTEX
  5
989
  8
0
  6
CONTINUOUS
 62
     7
 10
-358.0450026518
 20
-421.6300289516
 30
0.0
  0
VERTEX
  5
98A
  8
0
  6
CONTINUOUS
 62
     7
 10
-357.3265878684
 20
-419.5450882797
 30
0.0
  0
VERTEX
  5
98B
  8
0
  6
CONTINUOUS
 62
     7
 10
-356.6591052538
 20
-417.4376915579
 30
0.0
  0
VERTEX
  5
98C
  8
0
  6
CONTINUOUS
 62
     7
 10
-356.0430614478
 20
-415.3095077162
 30
0.0
  0
VERTEX
  5
98D
  8
0
  6
CONTINUOUS
 62
     7
 10
-355.4789630896
 20
-413.1622056847
 30
0.0
  0
VERTEX
  5
98E
  8
0
  6
CONTINUOUS
 62
     7
 10
-354.9672274119
 20
-410.9974841957
 30
0.0
  0
VERTEX
  5
98F
  8
0
  6
CONTINUOUS
 62
     7
 10
-354.5082716471
 20
-408.8170419817
 30
0.0
  0
VERTEX
  5
990
  8
0
  6
CONTINUOUS
 62
     7
 10
-354.1024534232
 20
-406.6225926762
 30
0.0
  0
VERTEX
  5
991
  8
0
  6
CONTINUOUS
 62
     7
 10
-353.7501005656
 20
-404.4158648138
 30
0.0
  0
VERTEX
  5
992
  8
0
  6
CONTINUOUS
 62
     7
 10
-353.4514812952
 20
-402.1985869293
 30
0.0
  0
VERTEX
  5
993
  8
0
  6
CONTINUOUS
 62
     7
 10
-353.2068638331
 20
-399.9725173597
 30
0.0
  0
VERTEX
  5
994
  8
0
  6
CONTINUOUS
 62
     7
 10
-353.0163673884
 20
-397.7393995409
 30
0.0
  0
VERTEX
  5
995
  8
0
  6
CONTINUOUS
 62
     7
 10
-352.8802005774
 20
-395.5009918098
 30
0.0
  0
VERTEX
  5
996
  8
0
  6
CONTINUOUS
 62
     7
 10
-352.7984826094
 20
-393.2590674047
 30
0.0
  0
VERTEX
  5
997
  8
0
  6
CONTINUOUS
 62
     7
 10
-352.7712134844
 20
-391.0153548603
 30
0.0
  0
SEQEND
  5
C07
  8
0
  6
CONTINUOUS
 62
     7
  0
LINE
  5
1E1
  8
0
  6
CONTINUOUS
 62
     7
 10
-422.0532385832
 20
-471.0153530722
 30
0.0
 11
-432.0532588488
 21
-471.0153530722
 31
0.0
  0
LINE
  5
1E2
  8
0
  6
CONTINUOUS
 62
     7
 10
-568.5053674704
 20
-372.0153610592
 30
0.0
 11
-568.5053674704
 21
9.9846382256
 31
0.0
  0
LINE
  5
1E3
  8
0
  6
CONTINUOUS
 62
     7
 10
-568.5053674704
 20
-372.0153610592
 30
0.0
 11
-651.6269652373
 21
-372.0153610592
 31
0.0
  0
LINE
  5
1E4
  8
0
  6
CONTINUOUS
 62
     7
 10
-568.5053674704
 20
9.9846382256
 30
0.0
 11
-651.6269652373
 21
9.9846382256
 31
0.0
  0
LINE
  5
1E5
  8
0
  6
CONTINUOUS
 62
     7
 10
-528.1899182326
 20
-126.8486942534
 30
0.0
 11
-528.1899182326
 21
-136.9933191125
 31
0.0
  0
ARC
  5
1E6
  8
0
  6
CONTINUOUS
 62
     7
 10
-528.2656599737
 20
-151.8165367574
 30
0.0
 40
14.82341115118811
 50
13.8886346778
 51
89.7072400584
  0
LINE
  5
1E7
  8
0
  6
CONTINUOUS
 62
     7
 10
-528.1899182326
 20
-143.1599858587
 30
0.0
 11
-528.1899182326
 21
-151.9933178459
 31
0.0
  0
LINE
  5
1E8
  8
0
  6
CONTINUOUS
 62
     7
 10
-528.1899182326
 20
-151.9933178459
 30
0.0
 11
-485.4927865988
 21
-167.7653615733
 31
0.0
  0
LINE
  5
1E9
  8
0
  6
CONTINUOUS
 62
     7
 10
-485.4927865988
 20
-133.6060802822
 30
0.0
 11
-504.7691671378
 21
-150.0219072585
 31
0.0
  0
LINE
  5
1EA
  8
0
  6
CONTINUOUS
 62
     7
 10
-413.8660041815
 20
-89.3887768869
 30
0.0
 11
-541.3674323088
 21
9.9846382256
 31
0.0
  0
LINE
  5
1EB
  8
0
  6
CONTINUOUS
 62
     7
 10
-413.8660041815
 20
-272.6419459467
 30
0.0
 11
-541.3674323088
 21
-372.0153610592
 31
0.0
  0
LINE
  5
1EC
  8
0
  6
CONTINUOUS
 62
     7
 10
-544.6118919379
 20
-126.8486942534
 30
0.0
 11
-544.6118919379
 21
-163.6634434943
 31
0.0
  0
LINE
  5
1ED
  8
0
  6
CONTINUOUS
 62
     7
 10
-544.6118919379
 20
-163.6634434943
 30
0.0
 11
-497.6378290183
 21
-181.0153614168
 31
0.0
  0
LINE
  5
1EE
  8
0
  6
CONTINUOUS
 62
     7
 10
-497.6378290183
 20
-181.0153614168
 30
0.0
 11
-544.6118919379
 21
-198.3672793393
 31
0.0
  0
LINE
  5
1EF
  8
0
  6
CONTINUOUS
 62
     7
 10
-544.6118919379
 20
-198.3672793393
 30
0.0
 11
-544.6118919379
 21
-235.1820285802
 31
0.0
  0
LINE
  5
1F0
  8
0
  6
CONTINUOUS
 62
     7
 10
-519.4667188651
 20
-222.6322668974
 30
0.0
 11
-485.4927865988
 21
-235.1820285802
 31
0.0
  0
LINE
  5
1F1
  8
0
  6
CONTINUOUS
 62
     7
 10
-485.4927865988
 20
-194.2653612604
 30
0.0
 11
-528.1899182326
 21
-210.0374049877
 31
0.0
  0
LINE
  5
1F2
  8
0
  6
CONTINUOUS
 62
     7
 10
-528.1899182326
 20
-210.0374049877
 30
0.0
 11
-528.1899182326
 21
-235.1820285802
 31
0.0
  0
LINE
  5
1F3
  8
0
  6
CONTINUOUS
 62
     7
 10
-541.3674323088
 20
-372.0153610592
 30
0.0
 11
-568.5053674704
 21
-372.0153610592
 31
0.0
  0
LINE
  5
1F4
  8
0
  6
CONTINUOUS
 62
     7
 10
-541.3674323088
 20
9.9846382256
 30
0.0
 11
-568.5053674704
 21
9.9846382256
 31
0.0
  0
LINE
  5
1F5
  8
0
  6
CONTINUOUS
 62
     7
 10
-544.0997092253
 20
-126.8486942534
 30
0.0
 11
-544.6118919379
 21
-126.8486942534
 31
0.0
  0
LINE
  5
1F6
  8
0
  6
CONTINUOUS
 62
     7
 10
-544.0997092253
 20
-126.8486942534
 30
0.0
 11
-544.0997092253
 21
-163.6634434943
 31
0.0
  0
LINE
  5
1F7
  8
0
  6
CONTINUOUS
 62
     7
 10
-544.0997092253
 20
-163.6634434943
 30
0.0
 11
-544.6118919379
 21
-163.6634434943
 31
0.0
  0
LINE
  5
1F8
  8
0
  6
CONTINUOUS
 62
     7
 10
-535.8886925703
 20
-157.8283816014
 30
0.0
 11
-535.8886925703
 21
-126.8486942534
 31
0.0
  0
LINE
  5
1F9
  8
0
  6
CONTINUOUS
 62
     7
 10
-484.9806038863
 20
-176.633509658
 30
0.0
 11
-535.8886925703
 21
-157.8283816014
 31
0.0
  0
LINE
  5
1FA
  8
0
  6
CONTINUOUS
 62
     7
 10
-484.9806038863
 20
-185.3972131756
 30
0.0
 11
-484.9806038863
 21
-176.633509658
 31
0.0
  0
LINE
  5
1FB
  8
0
  6
CONTINUOUS
 62
     7
 10
-535.8886925703
 20
-204.2023412322
 30
0.0
 11
-484.9806038863
 21
-185.3972131756
 31
0.0
  0
LINE
  5
1FC
  8
0
  6
CONTINUOUS
 62
     7
 10
-535.8886925703
 20
-235.1820285802
 30
0.0
 11
-535.8886925703
 21
-204.2023412322
 31
0.0
  0
LINE
  5
1FD
  8
0
  6
CONTINUOUS
 62
     7
 10
-544.0997092253
 20
-235.1820285802
 30
0.0
 11
-535.8886925703
 21
-235.1820285802
 31
0.0
  0
LINE
  5
1FE
  8
0
  6
CONTINUOUS
 62
     7
 10
-544.0997092253
 20
-198.3672793393
 30
0.0
 11
-544.0997092253
 21
-235.1820285802
 31
0.0
  0
LINE
  5
1FF
  8
0
  6
CONTINUOUS
 62
     7
 10
-497.1256463057
 20
-181.0153614168
 30
0.0
 11
-544.0997092253
 21
-198.3672793393
 31
0.0
  0
LINE
  5
200
  8
0
  6
CONTINUOUS
 62
     7
 10
-544.0997092253
 20
-163.6634434943
 30
0.0
 11
-497.1256463057
 21
-181.0153614168
 31
0.0
  0
LINE
  5
201
  8
0
  6
CONTINUOUS
 62
     7
 10
-535.8886925703
 20
-126.8486942534
 30
0.0
 11
-544.0997092253
 21
-126.8486942534
 31
0.0
  0
LINE
  5
202
  8
0
  6
CONTINUOUS
 62
     7
 10
-497.1256463057
 20
-181.0153614168
 30
0.0
 11
-497.6378290183
 21
-181.0153614168
 31
0.0
  0
LINE
  5
203
  8
0
  6
CONTINUOUS
 62
     7
 10
-544.0997092253
 20
-198.3672793393
 30
0.0
 11
-544.6118919379
 21
-198.3672793393
 31
0.0
  0
LINE
  5
204
  8
0
  6
CONTINUOUS
 62
     7
 10
-544.0997092253
 20
-235.1820285802
 30
0.0
 11
-544.6118919379
 21
-235.1820285802
 31
0.0
  0
LINE
  5
205
  8
0
  6
CONTINUOUS
 62
     7
 10
-519.4667188651
 20
-130.1988217418
 30
0.0
 11
-519.4667188651
 21
-126.8486942534
 31
0.0
  0
ARC
  5
206
  8
0
  6
CONTINUOUS
 62
     7
 10
-527.990601231
 20
-151.8807002916
 30
0.0
 40
23.29721931982056
 50
3.5652514022
 51
68.5385260176
  0
LINE
  5
207
  8
0
  6
CONTINUOUS
 62
     7
 10
-484.9806038863
 20
-133.6060802822
 30
0.0
 11
-504.7384707457
 21
-150.4319574122
 31
0.0
  0
LINE
  5
208
  8
0
  6
CONTINUOUS
 62
     7
 10
-484.9806038863
 20
-143.2727466707
 30
0.0
 11
-484.9806038863
 21
-133.6060802822
 31
0.0
  0
LINE
  5
209
  8
0
  6
CONTINUOUS
 62
     7
 10
-497.8056160933
 20
-154.1945546304
 30
0.0
 11
-484.9806038863
 21
-143.2727466707
 31
0.0
  0
LINE
  5
20A
  8
0
  6
CONTINUOUS
 62
     7
 10
-484.9806038863
 20
-158.9320286547
 30
0.0
 11
-497.8056160933
 21
-154.1945546304
 31
0.0
  0
LINE
  5
20B
  8
0
  6
CONTINUOUS
 62
     7
 10
-484.9806038863
 20
-167.7653615733
 30
0.0
 11
-484.9806038863
 21
-158.9320286547
 31
0.0
  0
LINE
  5
20C
  8
0
  6
CONTINUOUS
 62
     7
 10
-527.67773552
 20
-151.9933178459
 30
0.0
 11
-484.9806038863
 21
-167.7653615733
 31
0.0
  0
LINE
  5
20D
  8
0
  6
CONTINUOUS
 62
     7
 10
-527.67773552
 20
-143.1599858587
 30
0.0
 11
-527.67773552
 21
-151.9933178459
 31
0.0
  0
LINE
  5
20E
  8
0
  6
CONTINUOUS
 62
     7
 10
-513.3123008734
 20
-148.4664830749
 30
0.0
 11
-527.67773552
 21
-143.1599858587
 31
0.0
  0
ARC
  5
20F
  8
0
  6
CONTINUOUS
 62
     7
 10
-527.7544729369
 20
-151.8193922735
 30
0.0
 40
14.82627175006722
 50
13.0703045861
 51
89.7034487277
  0
LINE
  5
210
  8
0
  6
CONTINUOUS
 62
     7
 10
-527.67773552
 20
-126.8486942534
 30
0.0
 11
-527.67773552
 21
-136.9933191125
 31
0.0
  0
LINE
  5
211
  8
0
  6
CONTINUOUS
 62
     7
 10
-519.4667188651
 20
-126.8486942534
 30
0.0
 11
-527.67773552
 21
-126.8486942534
 31
0.0
  0
LINE
  5
212
  8
0
  6
CONTINUOUS
 62
     7
 10
-527.67773552
 20
-151.9933178459
 30
0.0
 11
-528.1899182326
 21
-151.9933178459
 31
0.0
  0
LINE
  5
213
  8
0
  6
CONTINUOUS
 62
     7
 10
-527.67773552
 20
-143.1599858587
 30
0.0
 11
-528.1899182326
 21
-143.1599858587
 31
0.0
  0
LINE
  5
214
  8
0
  6
CONTINUOUS
 62
     7
 10
-484.9806038863
 20
-167.7653615733
 30
0.0
 11
-485.4927865988
 21
-167.7653615733
 31
0.0
  0
LINE
  5
215
  8
0
  6
CONTINUOUS
 62
     7
 10
-527.67773552
 20
-126.8486942534
 30
0.0
 11
-528.1899182326
 21
-126.8486942534
 31
0.0
  0
LINE
  5
216
  8
0
  6
CONTINUOUS
 62
     7
 10
-527.67773552
 20
-136.9933191125
 30
0.0
 11
-528.1899182326
 21
-136.9933191125
 31
0.0
  0
LINE
  5
217
  8
0
  6
CONTINUOUS
 62
     7
 10
-484.9806038863
 20
-194.2653612604
 30
0.0
 11
-485.4927865988
 21
-194.2653612604
 31
0.0
  0
LINE
  5
218
  8
0
  6
CONTINUOUS
 62
     7
 10
-484.9806038863
 20
-194.2653612604
 30
0.0
 11
-527.67773552
 21
-210.0374049877
 31
0.0
  0
LINE
  5
219
  8
0
  6
CONTINUOUS
 62
     7
 10
-527.67773552
 20
-210.0374049877
 30
0.0
 11
-528.1899182326
 21
-210.0374049877
 31
0.0
  0
LINE
  5
21A
  8
0
  6
CONTINUOUS
 62
     7
 10
-501.5599338538
 20
-209.2229838853
 30
0.0
 11
-516.5639130598
 21
-214.7653627579
 31
0.0
  0
LINE
  5
21B
  8
0
  6
CONTINUOUS
 62
     7
 10
-516.5639130598
 20
-214.7653627579
 30
0.0
 11
-501.5599338538
 21
-220.3077379053
 31
0.0
  0
LINE
  5
21C
  8
0
  6
CONTINUOUS
 62
     7
 10
-501.5599338538
 20
-220.3077379053
 30
0.0
 11
-501.5599338538
 21
-209.2229838853
 31
0.0
  0
LINE
  5
21D
  8
0
  6
CONTINUOUS
 62
     7
 10
-527.67773552
 20
-210.0374049877
 30
0.0
 11
-527.67773552
 21
-235.1820285802
 31
0.0
  0
LINE
  5
21E
  8
0
  6
CONTINUOUS
 62
     7
 10
-484.9806038863
 20
-203.0986941789
 30
0.0
 11
-484.9806038863
 21
-194.2653612604
 31
0.0
  0
LINE
  5
21F
  8
0
  6
CONTINUOUS
 62
     7
 10
-493.3489171988
 20
-206.1898990904
 30
0.0
 11
-484.9806038863
 21
-203.0986941789
 31
0.0
  0
LINE
  5
220
  8
0
  6
CONTINUOUS
 62
     7
 10
-493.3489171988
 20
-223.3408245628
 30
0.0
 11
-493.3489171988
 21
-206.1898990904
 31
0.0
  0
LINE
  5
221
  8
0
  6
CONTINUOUS
 62
     7
 10
-484.9806038863
 20
-226.4320294743
 30
0.0
 11
-493.3489171988
 21
-223.3408245628
 31
0.0
  0
LINE
  5
222
  8
0
  6
CONTINUOUS
 62
     7
 10
-484.9806038863
 20
-235.1820285802
 30
0.0
 11
-484.9806038863
 21
-226.4320294743
 31
0.0
  0
LINE
  5
223
  8
0
  6
CONTINUOUS
 62
     7
 10
-519.4667188651
 20
-222.443070579
 30
0.0
 11
-484.9806038863
 21
-235.1820285802
 31
0.0
  0
LINE
  5
224
  8
0
  6
CONTINUOUS
 62
     7
 10
-519.4667188651
 20
-235.1820285802
 30
0.0
 11
-519.4667188651
 21
-222.443070579
 31
0.0
  0
LINE
  5
225
  8
0
  6
CONTINUOUS
 62
     7
 10
-527.67773552
 20
-235.1820285802
 30
0.0
 11
-519.4667188651
 21
-235.1820285802
 31
0.0
  0
LINE
  5
226
  8
0
  6
CONTINUOUS
 62
     7
 10
-527.67773552
 20
-235.1820285802
 30
0.0
 11
-528.1899182326
 21
-235.1820285802
 31
0.0
  0
LINE
  5
227
  8
0
  6
CONTINUOUS
 62
     7
 10
-241.2198690897
 20
-189.0153617968
 30
0.0
 11
-241.2198690897
 21
-173.0153610368
 31
0.0
  0
LINE
  5
228
  8
0
  6
CONTINUOUS
 62
     7
 10
-241.2198690897
 20
-189.0153617968
 30
0.0
 11
-301.2198714739
 21
-189.0153617968
 31
0.0
  0
LINE
  5
229
  8
0
  6
CONTINUOUS
 62
     7
 10
-301.2198714739
 20
-189.0153617968
 30
0.0
 11
-301.2198714739
 21
-173.0153610368
 31
0.0
  0
LINE
  5
22A
  8
0
  6
CONTINUOUS
 62
     7
 10
-241.2198690897
 20
-173.0153610368
 30
0.0
 11
-301.2198714739
 21
-173.0153610368
 31
0.0
  0
LINE
  5
22B
  8
0
  6
CONTINUOUS
 62
     7
 10
-499.9258725172
 20
9.9846382256
 30
0.0
 11
-541.3674323088
 21
9.9846382256
 31
0.0
  0
LINE
  5
22C
  8
0
  6
CONTINUOUS
 62
     7
 10
-541.3674323088
 20
-372.0153610592
 30
0.0
 11
-499.9258725172
 21
-372.0153610592
 31
0.0
  0
LINE
  5
22D
  8
0
  6
CONTINUOUS
 62
     7
 10
-484.9806038863
 20
-235.1820285802
 30
0.0
 11
-485.4927865988
 21
-235.1820285802
 31
0.0
  0
LINE
  5
22E
  8
0
  6
CONTINUOUS
 62
     7
 10
-484.9806038863
 20
-133.6060802822
 30
0.0
 11
-485.4927865988
 21
-133.6060802822
 31
0.0
  0
LINE
  5
22F
  8
0
  6
CONTINUOUS
 62
     7
 10
-502.0720569617
 20
-220.1185453122
 30
0.0
 11
-502.0720569617
 21
-209.412178341
 31
0.0
  0
LINE
  5
230
  8
0
  6
CONTINUOUS
 62
     7
 10
-337.7712277895
 20
28.9846320267
 30
0.0
 11
-352.7712134844
 21
28.9846320267
 31
0.0
  0
LINE
  5
231
  8
0
  6
CONTINUOUS
 62
     7
 10
-422.0532385832
 20
108.9846302385
 30
0.0
 11
-407.0532528883
 21
108.9846302385
 31
0.0
  0
POLYLINE
  5
232
  8
0
  6
CONTINUOUS
 62
     7
 66
     1
 10
0.0
 20
0.0
 30
0.0
  0
VERTEX
  5
998
  8
0
  6
CONTINUOUS
 62
     7
 10
-407.0532528883
 20
108.9846302385
 30
0.0
  0
VERTEX
  5
999
  8
0
  6
CONTINUOUS
 62
     7
 10
-405.1101414687
 20
108.9531589861
 30
0.0
  0
VERTEX
  5
99A
  8
0
  6
CONTINUOUS
 62
     7
 10
-403.1685797697
 20
108.8587750311
 30
0.0
  0
VERTEX
  5
99B
  8
0
  6
CONTINUOUS
 62
     7
 10
-401.2300579077
 20
108.7015677805
 30
0.0
  0
VERTEX
  5
99C
  8
0
  6
CONTINUOUS
 62
     7
 10
-399.2961256033
 20
108.4816266413
 30
0.0
  0
VERTEX
  5
99D
  8
0
  6
CONTINUOUS
 62
     7
 10
-397.368302775
 20
108.1991304274
 30
0.0
  0
VERTEX
  5
99E
  8
0
  6
CONTINUOUS
 62
     7
 10
-395.448079539
 20
107.8543175573
 30
0.0
  0
VERTEX
  5
99F
  8
0
  6
CONTINUOUS
 62
     7
 10
-393.5370056158
 20
107.4474562521
 30
0.0
  0
VERTEX
  5
9A0
  8
0
  6
CONTINUOUS
 62
     7
 10
-391.6365413195
 20
106.9788743372
 30
0.0
  0
VERTEX
  5
9A1
  8
0
  6
CONTINUOUS
 62
     7
 10
-389.7482363707
 20
106.4489294405
 30
0.0
  0
VERTEX
  5
9A2
  8
0
  6
CONTINUOUS
 62
     7
 10
-387.8735212809
 20
105.8580387945
 30
0.0
  0
VERTEX
  5
9A3
  8
0
  6
CONTINUOUS
 62
     7
 10
-386.0139159686
 20
105.2066494341
 30
0.0
  0
VERTEX
  5
9A4
  8
0
  6
CONTINUOUS
 62
     7
 10
-384.1708509451
 20
104.495297801
 30
0.0
  0
VERTEX
  5
9A5
  8
0
  6
CONTINUOUS
 62
     7
 10
-382.3457865244
 20
103.7245501394
 30
0.0
  0
VERTEX
  5
9A6
  8
0
  6
CONTINUOUS
 62
     7
 10
-380.5401532179
 20
102.8950024958
 30
0.0
  0
VERTEX
  5
9A7
  8
0
  6
CONTINUOUS
 62
     7
 10
-378.7554113394
 20
102.0073105211
 30
0.0
  0
VERTEX
  5
9A8
  8
0
  6
CONTINUOUS
 62
     7
 10
-376.9929019934
 20
101.0621596689
 30
0.0
  0
VERTEX
  5
9A9
  8
0
  6
CONTINUOUS
 62
     7
 10
-375.2540556914
 20
100.0602949972
 30
0.0
  0
VERTEX
  5
9AA
  8
0
  6
CONTINUOUS
 62
     7
 10
-373.5402135378
 20
99.0025211687
 30
0.0
  0
VERTEX
  5
9AB
  8
0
  6
CONTINUOUS
 62
     7
 10
-371.8527464396
 20
97.8896428461
 30
0.0
  0
VERTEX
  5
9AC
  8
0
  6
CONTINUOUS
 62
     7
 10
-370.1929955012
 20
96.7225839014
 30
0.0
  0
VERTEX
  5
9AD
  8
0
  6
CONTINUOUS
 62
     7
 10
-368.5622124201
 20
95.502208602
 30
0.0
  0
VERTEX
  5
9AE
  8
0
  6
CONTINUOUS
 62
     7
 10
-366.9617383009
 20
94.2295004244
 30
0.0
  0
VERTEX
  5
9AF
  8
0
  6
CONTINUOUS
 62
     7
 10
-365.3927950388
 20
92.9054726477
 30
0.0
  0
VERTEX
  5
9B0
  8
0
  6
CONTINUOUS
 62
     7
 10
-363.856604529
 20
91.5311683531
 30
0.0
  0
VERTEX
  5
9B1
  8
0
  6
CONTINUOUS
 62
     7
 10
-362.3544184691
 20
90.1076306219
 30
0.0
  0
VERTEX
  5
9B2
  8
0
  6
CONTINUOUS
 62
     7
 10
-360.8873991496
 20
88.6360217447
 30
0.0
  0
VERTEX
  5
9B3
  8
0
  6
CONTINUOUS
 62
     7
 10
-359.456708861
 20
87.1174742098
 30
0.0
  0
VERTEX
  5
9B4
  8
0
  6
CONTINUOUS
 62
     7
 10
-358.0634502894
 20
85.55318011
 30
0.0
  0
VERTEX
  5
9B5
  8
0
  6
CONTINUOUS
 62
     7
 10
-356.7087559229
 20
83.9443911428
 30
0.0
  0
VERTEX
  5
9B6
  8
0
  6
CONTINUOUS
 62
     7
 10
-355.3936390406
 20
82.2923590059
 30
0.0
  0
VERTEX
  5
9B7
  8
0
  6
CONTINUOUS
 62
     7
 10
-354.1192023283
 20
80.5983950014
 30
0.0
  0
VERTEX
  5
9B8
  8
0
  6
CONTINUOUS
 62
     7
 10
-352.8863696581
 20
78.8638104315
 30
0.0
  0
VERTEX
  5
9B9
  8
0
  6
CONTINUOUS
 62
     7
 10
-351.6961841113
 20
77.0900060053
 30
0.0
  0
VERTEX
  5
9BA
  8
0
  6
CONTINUOUS
 62
     7
 10
-350.5495397574
 20
75.2783526297
 30
0.0
  0
VERTEX
  5
9BB
  8
0
  6
CONTINUOUS
 62
     7
 10
-349.4473604685
 20
73.4302510138
 30
0.0
  0
VERTEX
  5
9BC
  8
0
  6
CONTINUOUS
 62
     7
 10
-348.3904807097
 20
71.5471912737
 30
0.0
  0
VERTEX
  5
9BD
  8
0
  6
CONTINUOUS
 62
     7
 10
-347.3797647482
 20
69.6306635256
 30
0.0
  0
VERTEX
  5
9BE
  8
0
  6
CONTINUOUS
 62
     7
 10
-346.4159874445
 20
67.6821429844
 30
0.0
  0
VERTEX
  5
9BF
  8
0
  6
CONTINUOUS
 62
     7
 10
-345.499923659
 20
65.703194272
 30
0.0
  0
VERTEX
  5
9C0
  8
0
  6
CONTINUOUS
 62
     7
 10
-344.6322886473
 20
63.695337307
 30
0.0
  0
VERTEX
  5
9C1
  8
0
  6
CONTINUOUS
 62
     7
 10
-343.8137678629
 20
61.6601814146
 30
0.0
  0
VERTEX
  5
9C2
  8
0
  6
CONTINUOUS
 62
     7
 10
-343.0449871546
 20
59.599306118
 30
0.0
  0
VERTEX
  5
9C3
  8
0
  6
CONTINUOUS
 62
     7
 10
-342.3266021735
 20
57.5143654461
 30
0.0
  0
VERTEX
  5
9C4
  8
0
  6
CONTINUOUS
 62
     7
 10
-341.6590897566
 20
55.4069687243
 30
0.0
  0
VERTEX
  5
9C5
  8
0
  6
CONTINUOUS
 62
     7
 10
-341.0430459506
 20
53.2787848825
 30
0.0
  0
VERTEX
  5
9C6
  8
0
  6
CONTINUOUS
 62
     7
 10
-340.4789475924
 20
51.131482851
 30
0.0
  0
VERTEX
  5
9C7
  8
0
  6
CONTINUOUS
 62
     7
 10
-339.9672119147
 20
48.9667613621
 30
0.0
  0
VERTEX
  5
9C8
  8
0
  6
CONTINUOUS
 62
     7
 10
-339.5082561499
 20
46.7863191481
 30
0.0
  0
VERTEX
  5
9C9
  8
0
  6
CONTINUOUS
 62
     7
 10
-339.1024677283
 20
44.5918698425
 30
0.0
  0
VERTEX
  5
9CA
  8
0
  6
CONTINUOUS
 62
     7
 10
-338.7501148707
 20
42.3851419802
 30
0.0
  0
VERTEX
  5
9CB
  8
0
  6
CONTINUOUS
 62
     7
 10
-338.4514956004
 20
40.1678640957
 30
0.0
  0
VERTEX
  5
9CC
  8
0
  6
CONTINUOUS
 62
     7
 10
-338.2068483359
 20
37.9417945261
 30
0.0
  0
VERTEX
  5
9CD
  8
0
  6
CONTINUOUS
 62
     7
 10
-338.0163816935
 20
35.7086767073
 30
0.0
  0
VERTEX
  5
9CE
  8
0
  6
CONTINUOUS
 62
     7
 10
-337.8802148825
 20
33.4702689762
 30
0.0
  0
VERTEX
  5
9CF
  8
0
  6
CONTINUOUS
 62
     7
 10
-337.7984671122
 20
31.2283445711
 30
0.0
  0
VERTEX
  5
9D0
  8
0
  6
CONTINUOUS
 62
     7
 10
-337.7712277895
 20
28.9846320267
 30
0.0
  0
SEQEND
  5
C06
  8
0
  6
CONTINUOUS
 62
     7
  0
LINE
  5
233
  8
0
  6
CONTINUOUS
 62
     7
 10
-352.7712134844
 20
-391.0153548603
 30
0.0
 11
-337.7712277895
 21
-391.0153548603
 31
0.0
  0
LINE
  5
234
  8
0
  6
CONTINUOUS
 62
     7
 10
-337.7712277895
 20
-173.0153610368
 30
0.0
 11
-337.7712277895
 21
28.9846320267
 31
0.0
  0
LINE
  5
235
  8
0
  6
CONTINUOUS
 62
     7
 10
-345.3920094496
 20
-173.0153610368
 30
0.0
 11
-345.3920094496
 21
-189.0153617968
 31
0.0
  0
LINE
  5
236
  8
0
  6
CONTINUOUS
 62
     7
 10
-337.7712277895
 20
-391.0153548603
 30
0.0
 11
-337.7712277895
 21
-189.0153617968
 31
0.0
  0
LINE
  5
237
  8
0
  6
CONTINUOUS
 62
     7
 10
-407.0532528883
 20
-471.0153530722
 30
0.0
 11
-422.0532385832
 21
-471.0153530722
 31
0.0
  0
POLYLINE
  5
238
  8
0
  6
CONTINUOUS
 62
     7
 66
     1
 10
0.0
 20
0.0
 30
0.0
  0
VERTEX
  5
9D1
  8
0
  6
CONTINUOUS
 62
     7
 10
-337.7712277895
 20
-391.0153548603
 30
0.0
  0
VERTEX
  5
9D2
  8
0
  6
CONTINUOUS
 62
     7
 10
-337.7984671122
 20
-393.2590674047
 30
0.0
  0
VERTEX
  5
9D3
  8
0
  6
CONTINUOUS
 62
     7
 10
-337.8802148825
 20
-395.5009918098
 30
0.0
  0
VERTEX
  5
9D4
  8
0
  6
CONTINUOUS
 62
     7
 10
-338.0163816935
 20
-397.7393995409
 30
0.0
  0
VERTEX
  5
9D5
  8
0
  6
CONTINUOUS
 62
     7
 10
-338.2068483359
 20
-399.9725173597
 30
0.0
  0
VERTEX
  5
9D6
  8
0
  6
CONTINUOUS
 62
     7
 10
-338.4514956004
 20
-402.1985869293
 30
0.0
  0
VERTEX
  5
9D7
  8
0
  6
CONTINUOUS
 62
     7
 10
-338.7501148707
 20
-404.4158648138
 30
0.0
  0
VERTEX
  5
9D8
  8
0
  6
CONTINUOUS
 62
     7
 10
-339.1024677283
 20
-406.6225926762
 30
0.0
  0
VERTEX
  5
9D9
  8
0
  6
CONTINUOUS
 62
     7
 10
-339.5082561499
 20
-408.8170419817
 30
0.0
  0
VERTEX
  5
9DA
  8
0
  6
CONTINUOUS
 62
     7
 10
-339.9672119147
 20
-410.9974841957
 30
0.0
  0
VERTEX
  5
9DB
  8
0
  6
CONTINUOUS
 62
     7
 10
-340.4789475924
 20
-413.1622056847
 30
0.0
  0
VERTEX
  5
9DC
  8
0
  6
CONTINUOUS
 62
     7
 10
-341.0430459506
 20
-415.3095077162
 30
0.0
  0
VERTEX
  5
9DD
  8
0
  6
CONTINUOUS
 62
     7
 10
-341.6590897566
 20
-417.4376915579
 30
0.0
  0
VERTEX
  5
9DE
  8
0
  6
CONTINUOUS
 62
     7
 10
-342.3266021735
 20
-419.5450882797
 30
0.0
  0
VERTEX
  5
9DF
  8
0
  6
CONTINUOUS
 62
     7
 10
-343.0449871546
 20
-421.6300289516
 30
0.0
  0
VERTEX
  5
9E0
  8
0
  6
CONTINUOUS
 62
     7
 10
-343.8137678629
 20
-423.6909042482
 30
0.0
  0
VERTEX
  5
9E1
  8
0
  6
CONTINUOUS
 62
     7
 10
-344.6322886473
 20
-425.7260601406
 30
0.0
  0
VERTEX
  5
9E2
  8
0
  6
CONTINUOUS
 62
     7
 10
-345.499923659
 20
-427.7339171057
 30
0.0
  0
VERTEX
  5
9E3
  8
0
  6
CONTINUOUS
 62
     7
 10
-346.4159874445
 20
-429.712865818
 30
0.0
  0
VERTEX
  5
9E4
  8
0
  6
CONTINUOUS
 62
     7
 10
-347.3797647482
 20
-431.6613863592
 30
0.0
  0
VERTEX
  5
9E5
  8
0
  6
CONTINUOUS
 62
     7
 10
-348.3904807097
 20
-433.5779141073
 30
0.0
  0
VERTEX
  5
9E6
  8
0
  6
CONTINUOUS
 62
     7
 10
-349.4473604685
 20
-435.4609738474
 30
0.0
  0
VERTEX
  5
9E7
  8
0
  6
CONTINUOUS
 62
     7
 10
-350.5495397574
 20
-437.3090754633
 30
0.0
  0
VERTEX
  5
9E8
  8
0
  6
CONTINUOUS
 62
     7
 10
-351.6961841113
 20
-439.1207288389
 30
0.0
  0
VERTEX
  5
9E9
  8
0
  6
CONTINUOUS
 62
     7
 10
-352.8863696581
 20
-440.8945332651
 30
0.0
  0
VERTEX
  5
9EA
  8
0
  6
CONTINUOUS
 62
     7
 10
-354.1192023283
 20
-442.629117835
 30
0.0
  0
VERTEX
  5
9EB
  8
0
  6
CONTINUOUS
 62
     7
 10
-355.3936390406
 20
-444.3230818396
 30
0.0
  0
VERTEX
  5
9EC
  8
0
  6
CONTINUOUS
 62
     7
 10
-356.7087559229
 20
-445.9751139765
 30
0.0
  0
VERTEX
  5
9ED
  8
0
  6
CONTINUOUS
 62
     7
 10
-358.0634502894
 20
-447.5839029436
 30
0.0
  0
VERTEX
  5
9EE
  8
0
  6
CONTINUOUS
 62
     7
 10
-359.456708861
 20
-449.1481970434
 30
0.0
  0
VERTEX
  5
9EF
  8
0
  6
CONTINUOUS
 62
     7
 10
-360.8873991496
 20
-450.6667445784
 30
0.0
  0
VERTEX
  5
9F0
  8
0
  6
CONTINUOUS
 62
     7
 10
-362.3544184691
 20
-452.1383534555
 30
0.0
  0
VERTEX
  5
9F1
  8
0
  6
CONTINUOUS
 62
     7
 10
-363.856604529
 20
-453.5618911867
 30
0.0
  0
VERTEX
  5
9F2
  8
0
  6
CONTINUOUS
 62
     7
 10
-365.3927950388
 20
-454.9361954813
 30
0.0
  0
VERTEX
  5
9F3
  8
0
  6
CONTINUOUS
 62
     7
 10
-366.9617383009
 20
-456.260223258
 30
0.0
  0
VERTEX
  5
9F4
  8
0
  6
CONTINUOUS
 62
     7
 10
-368.5622124201
 20
-457.5329314356
 30
0.0
  0
VERTEX
  5
9F5
  8
0
  6
CONTINUOUS
 62
     7
 10
-370.1929955012
 20
-458.753306735
 30
0.0
  0
VERTEX
  5
9F6
  8
0
  6
CONTINUOUS
 62
     7
 10
-371.8527464396
 20
-459.9203656797
 30
0.0
  0
VERTEX
  5
9F7
  8
0
  6
CONTINUOUS
 62
     7
 10
-373.5402135378
 20
-461.0332440023
 30
0.0
  0
VERTEX
  5
9F8
  8
0
  6
CONTINUOUS
 62
     7
 10
-375.2540556914
 20
-462.0910178308
 30
0.0
  0
VERTEX
  5
9F9
  8
0
  6
CONTINUOUS
 62
     7
 10
-376.9929019934
 20
-463.0928825026
 30
0.0
  0
VERTEX
  5
9FA
  8
0
  6
CONTINUOUS
 62
     7
 10
-378.7554113394
 20
-464.0380333548
 30
0.0
  0
VERTEX
  5
9FB
  8
0
  6
CONTINUOUS
 62
     7
 10
-380.5401532179
 20
-464.9257253294
 30
0.0
  0
VERTEX
  5
9FC
  8
0
  6
CONTINUOUS
 62
     7
 10
-382.3457865244
 20
-465.7552729731
 30
0.0
  0
VERTEX
  5
9FD
  8
0
  6
CONTINUOUS
 62
     7
 10
-384.1708509451
 20
-466.5260206346
 30
0.0
  0
VERTEX
  5
9FE
  8
0
  6
CONTINUOUS
 62
     7
 10
-386.0139159686
 20
-467.2373722677
 30
0.0
  0
VERTEX
  5
9FF
  8
0
  6
CONTINUOUS
 62
     7
 10
-387.8735212809
 20
-467.8887616281
 30
0.0
  0
VERTEX
  5
A00
  8
0
  6
CONTINUOUS
 62
     7
 10
-389.7482363707
 20
-468.4796522741
 30
0.0
  0
VERTEX
  5
A01
  8
0
  6
CONTINUOUS
 62
     7
 10
-391.6365413195
 20
-469.0095971708
 30
0.0
  0
VERTEX
  5
A02
  8
0
  6
CONTINUOUS
 62
     7
 10
-393.5370056158
 20
-469.4781790857
 30
0.0
  0
VERTEX
  5
A03
  8
0
  6
CONTINUOUS
 62
     7
 10
-395.448079539
 20
-469.885040391
 30
0.0
  0
VERTEX
  5
A04
  8
0
  6
CONTINUOUS
 62
     7
 10
-397.368302775
 20
-470.229853261
 30
0.0
  0
VERTEX
  5
A05
  8
0
  6
CONTINUOUS
 62
     7
 10
-399.2961256033
 20
-470.5123494749
 30
0.0
  0
VERTEX
  5
A06
  8
0
  6
CONTINUOUS
 62
     7
 10
-401.2300579077
 20
-470.7322906141
 30
0.0
  0
VERTEX
  5
A07
  8
0
  6
CONTINUOUS
 62
     7
 10
-403.1685797697
 20
-470.8894978647
 30
0.0
  0
VERTEX
  5
A08
  8
0
  6
CONTINUOUS
 62
     7
 10
-405.1101414687
 20
-470.9838818197
 30
0.0
  0
VERTEX
  5
A09
  8
0
  6
CONTINUOUS
 62
     7
 10
-407.0532528883
 20
-471.0153530722
 30
0.0
  0
SEQEND
  5
C05
  8
0
  6
CONTINUOUS
 62
     7
  0
LINE
  5
239
  8
0
  6
CONTINUOUS
 62
     7
 10
-532.9955427176
 20
58.9846332188
 30
0.0
 11
-532.9955427176
 21
9.9846382256
 31
0.0
  0
LINE
  5
23A
  8
0
  6
CONTINUOUS
 62
     7
 10
-532.9955427176
 20
58.9846332188
 30
0.0
 11
-635.6269328124
 21
58.9846332188
 31
0.0
  0
LINE
  5
23B
  8
0
  6
CONTINUOUS
 62
     7
 10
-532.9955427176
 20
-421.0153560524
 30
0.0
 11
-532.9955427176
 21
-372.0153610592
 31
0.0
  0
LINE
  5
23C
  8
0
  6
CONTINUOUS
 62
     7
 10
-532.9955427176
 20
-421.0153560524
 30
0.0
 11
-635.6269328124
 21
-421.0153560524
 31
0.0
  0
LINE
  5
23D
  8
0
  6
CONTINUOUS
 62
     7
 10
-541.6557995802
 20
68.9846385832
 30
0.0
 11
-625.6269423491
 21
68.9846385832
 31
0.0
  0
LINE
  5
23E
  8
0
  6
CONTINUOUS
 62
     7
 10
-541.6557995802
 20
68.9846385832
 30
0.0
 11
-541.6557995802
 21
58.9846332188
 31
0.0
  0
LINE
  5
23F
  8
0
  6
CONTINUOUS
 62
     7
 10
-541.6557995802
 20
-431.0153614168
 30
0.0
 11
-541.6557995802
 21
-421.0153560524
 31
0.0
  0
LINE
  5
240
  8
0
  6
CONTINUOUS
 62
     7
 10
-541.6557995802
 20
-431.0153614168
 30
0.0
 11
-625.6269423491
 21
-431.0153614168
 31
0.0
  0
ARC
  5
241
  8
0
  6
CONTINUOUS
 62
     7
 10
-226.7961440922
 20
-17.3081185983
 30
0.0
 40
100.35899212903
 50
152.5308094381
 51
167.9007003367
  0
POLYLINE
  5
242
  8
0
  6
CONTINUOUS
 62
     7
 66
     1
 10
0.0
 20
0.0
 30
0.0
  0
VERTEX
  5
A0A
  8
0
  6
CONTINUOUS
 62
     7
 10
-337.7712277895
 20
-72.2671415095
 30
0.0
  0
VERTEX
  5
A0B
  8
0
  6
CONTINUOUS
 62
     7
 10
-337.1620683199
 20
-67.2671015744
 30
0.0
  0
VERTEX
  5
A0C
  8
0
  6
CONTINUOUS
 62
     7
 10
-335.7987014777
 20
-57.0943395977
 30
0.0
  0
VERTEX
  5
A0D
  8
0
  6
CONTINUOUS
 62
     7
 10
-334.3194334036
 20
-46.9865541344
 30
0.0
  0
VERTEX
  5
A0E
  8
0
  6
CONTINUOUS
 62
     7
 10
-332.7254561907
 20
-36.9516502504
 30
0.0
  0
VERTEX
  5
A0F
  8
0
  6
CONTINUOUS
 62
     7
 10
-331.3195912367
 20
-28.7025611286
 30
0.0
  0
VERTEX
  5
A10
  8
0
  6
CONTINUOUS
 62
     7
 10
-329.8357038027
 20
-20.5058346872
 30
0.0
  0
VERTEX
  5
A11
  8
0
  6
CONTINUOUS
 62
     7
 10
-328.2747773653
 20
-12.3657028561
 30
0.0
  0
VERTEX
  5
A12
  8
0
  6
CONTINUOUS
 62
     7
 10
-326.6377954012
 20
-4.2863826637
 30
0.0
  0
VERTEX
  5
A13
  8
0
  6
CONTINUOUS
 62
     7
 10
-324.9257115847
 20
3.7279237623
 30
0.0
  0
SEQEND
  5
C04
  8
0
  6
CONTINUOUS
 62
     7
  0
POLYLINE
  5
243
  8
0
  6
CONTINUOUS
 62
     7
 66
     1
 10
0.0
 20
0.0
 30
0.0
  0
VERTEX
  5
A14
  8
0
  6
CONTINUOUS
 62
     7
 10
-264.6198479659
 20
4.6719570274
 30
0.0
  0
VERTEX
  5
A15
  8
0
  6
CONTINUOUS
 62
     7
 10
-294.5727018839
 20
4.1699965115
 30
0.0
  0
VERTEX
  5
A16
  8
0
  6
CONTINUOUS
 62
     7
 10
-324.925741387
 20
3.7279237623
 30
0.0
  0
SEQEND
  5
C03
  8
0
  6
CONTINUOUS
 62
     7
  0
POLYLINE
  5
244
  8
0
  6
CONTINUOUS
 62
     7
 66
     1
 10
0.0
 20
0.0
 30
0.0
  0
VERTEX
  5
A17
  8
0
  6
CONTINUOUS
 62
     7
 10
-264.6198479659
 20
4.6719719286
 30
0.0
  0
VERTEX
  5
A18
  8
0
  6
CONTINUOUS
 62
     7
 10
-264.7098509795
 20
-5.9630762224
 30
0.0
  0
VERTEX
  5
A19
  8
0
  6
CONTINUOUS
 62
     7
 10
-264.7974102026
 20
-16.6591297274
 30
0.0
  0
VERTEX
  5
A1A
  8
0
  6
CONTINUOUS
 62
     7
 10
-264.881750775
 20
-27.410898674
 30
0.0
  0
VERTEX
  5
A1B
  8
0
  6
CONTINUOUS
 62
     7
 10
-264.9619786269
 20
-38.2131229525
 30
0.0
  0
VERTEX
  5
A1C
  8
0
  6
CONTINUOUS
 62
     7
 10
-265.0372592932
 20
-49.0605275516
 30
0.0
  0
VERTEX
  5
A1D
  8
0
  6
CONTINUOUS
 62
     7
 10
-265.1082782275
 20
-60.0446428542
 30
0.0
  0
VERTEX
  5
A1E
  8
0
  6
CONTINUOUS
 62
     7
 10
-265.1745585925
 20
-71.0728208904
 30
0.0
  0
VERTEX
  5
A1F
  8
0
  6
CONTINUOUS
 62
     7
 10
-265.2351765162
 20
-82.1394439225
 30
0.0
  0
VERTEX
  5
A20
  8
0
  6
CONTINUOUS
 62
     7
 10
-265.289327336
 20
-93.2389165645
 30
0.0
  0
VERTEX
  5
A21
  8
0
  6
CONTINUOUS
 62
     7
 10
-265.3361765868
 20
-104.3656061773
 30
0.0
  0
VERTEX
  5
A22
  8
0
  6
CONTINUOUS
 62
     7
 10
-265.3762607104
 20
-115.1390712147
 30
0.0
  0
VERTEX
  5
A23
  8
0
  6
CONTINUOUS
 62
     7
 10
-265.4111294276
 20
-125.9343627279
 30
0.0
  0
VERTEX
  5
A24
  8
0
  6
CONTINUOUS
 62
     7
 10
-265.437057448
 20
-136.7464441245
 30
0.0
  0
VERTEX
  5
A25
  8
0
  6
CONTINUOUS
 62
     7
 10
-265.4527930743
 20
-147.6041081731
 30
0.0
  0
VERTEX
  5
A26
  8
0
  6
CONTINUOUS
 62
     7
 10
-265.4623596198
 20
-158.4733280723
 30
0.0
  0
VERTEX
  5
A27
  8
0
  6
CONTINUOUS
 62
     7
 10
-265.469959212
 20
-169.3488437121
 30
0.0
  0
VERTEX
  5
A28
  8
0
  6
CONTINUOUS
 62
     7
 10
-265.4724924094
 20
-173.0153610368
 30
0.0
  0
SEQEND
  5
C02
  8
0
  6
CONTINUOUS
 62
     7
  0
LINE
  5
245
  8
0
  6
CONTINUOUS
 62
     7
 10
-545.32130642
 20
-448.0153511648
 30
0.0
 11
-622.1269576079
 21
-448.0153511648
 31
0.0
  0
LINE
  5
246
  8
0
  6
CONTINUOUS
 62
     7
 10
-542.1269146925
 20
-448.0153511648
 30
0.0
 11
-545.32130642
 21
-448.0153511648
 31
0.0
  0
LINE
  5
247
  8
0
  6
CONTINUOUS
 62
     7
 10
-622.1269576079
 20
85.9846283312
 30
0.0
 11
-542.1269146925
 21
85.9846283312
 31
0.0
  0
LINE
  5
248
  8
0
  6
CONTINUOUS
 62
     7
 10
-301.2198714739
 20
-189.0153617968
 30
0.0
 11
-345.3920094496
 21
-189.0153617968
 31
0.0
  0
LINE
  5
249
  8
0
  6
CONTINUOUS
 62
     7
 10
-301.2198714739
 20
-173.0153610368
 30
0.0
 11
-345.3920094496
 21
-173.0153610368
 31
0.0
  0
POLYLINE
  5
24A
  8
0
  6
CONTINUOUS
 62
     7
 66
     1
 10
0.0
 20
0.0
 30
0.0
  0
VERTEX
  5
A29
  8
0
  6
CONTINUOUS
 62
     7
 10
-324.9257115847
 20
-365.758646596
 30
0.0
  0
VERTEX
  5
A2A
  8
0
  6
CONTINUOUS
 62
     7
 10
-326.8278150088
 20
-356.8283210878
 30
0.0
  0
VERTEX
  5
A2B
  8
0
  6
CONTINUOUS
 62
     7
 10
-328.6366967684
 20
-347.8174101
 30
0.0
  0
VERTEX
  5
A2C
  8
0
  6
CONTINUOUS
 62
     7
 10
-330.3510455615
 20
-338.7317399864
 30
0.0
  0
VERTEX
  5
A2D
  8
0
  6
CONTINUOUS
 62
     7
 10
-331.9695500857
 20
-329.5771818047
 30
0.0
  0
VERTEX
  5
A2E
  8
0
  6
CONTINUOUS
 62
     7
 10
-333.4908692366
 20
-320.3595768099
 30
0.0
  0
VERTEX
  5
A2F
  8
0
  6
CONTINUOUS
 62
     7
 10
-334.9300829894
 20
-310.9748701935
 30
0.0
  0
VERTEX
  5
A30
  8
0
  6
CONTINUOUS
 62
     7
 10
-336.2693397528
 20
-301.5277053599
 30
0.0
  0
VERTEX
  5
A31
  8
0
  6
CONTINUOUS
 62
     7
 10
-337.5077752596
 20
-292.0245121603
 30
0.0
  0
VERTEX
  5
A32
  8
0
  6
CONTINUOUS
 62
     7
 10
-337.7712277895
 20
-289.8105870371
 30
0.0
  0
SEQEND
  5
C01
  8
0
  6
CONTINUOUS
 62
     7
  0
ARC
  5
24B
  8
0
  6
CONTINUOUS
 62
     7
 10
-226.6019552358
 20
-344.6527522572
 30
0.0
 40
100.5635124581906
 50
192.1150229792
 51
207.453467246
  0
POLYLINE
  5
24C
  8
0
  6
CONTINUOUS
 62
     7
 66
     1
 10
0.0
 20
0.0
 30
0.0
  0
VERTEX
  5
A33
  8
0
  6
CONTINUOUS
 62
     7
 10
-265.4724924094
 20
-189.0153617968
 30
0.0
  0
VERTEX
  5
A34
  8
0
  6
CONTINUOUS
 62
     7
 10
-265.4710320956
 20
-191.1872740273
 30
0.0
  0
VERTEX
  5
A35
  8
0
  6
CONTINUOUS
 62
     7
 10
-265.4636709219
 20
-202.1094638293
 30
0.0
  0
VERTEX
  5
A36
  8
0
  6
CONTINUOUS
 62
     7
 10
-265.4543129927
 20
-213.0266654675
 30
0.0
  0
VERTEX
  5
A37
  8
0
  6
CONTINUOUS
 62
     7
 10
-265.4390542036
 20
-223.9335070734
 30
0.0
  0
VERTEX
  5
A38
  8
0
  6
CONTINUOUS
 62
     7
 10
-265.4140500552
 20
-234.8246205037
 30
0.0
  0
VERTEX
  5
A39
  8
0
  6
CONTINUOUS
 62
     7
 10
-265.3803436285
 20
-245.755028296
 30
0.0
  0
VERTEX
  5
A3A
  8
0
  6
CONTINUOUS
 62
     7
 10
-265.3413919932
 20
-256.6660906558
 30
0.0
  0
VERTEX
  5
A3B
  8
0
  6
CONTINUOUS
 62
     7
 10
-265.2961520678
 20
-267.5524096374
 30
0.0
  0
VERTEX
  5
A3C
  8
0
  6
CONTINUOUS
 62
     7
 10
-265.2436105734
 20
-278.40858357
 30
0.0
  0
VERTEX
  5
A3D
  8
0
  6
CONTINUOUS
 62
     7
 10
-265.1828436381
 20
-289.5728390102
 30
0.0
  0
VERTEX
  5
A3E
  8
0
  6
CONTINUOUS
 62
     7
 10
-265.1169507033
 20
-300.7013465648
 30
0.0
  0
VERTEX
  5
A3F
  8
0
  6
CONTINUOUS
 62
     7
 10
-265.0456635481
 20
-311.7883245831
 30
0.0
  0
VERTEX
  5
A40
  8
0
  6
CONTINUOUS
 62
     7
 10
-264.9687139517
 20
-322.8279690628
 30
0.0
  0
VERTEX
  5
A41
  8
0
  6
CONTINUOUS
 62
     7
 10
-264.8864595419
 20
-333.8796089773
 30
0.0
  0
VERTEX
  5
A42
  8
0
  6
CONTINUOUS
 62
     7
 10
-264.8006288535
 20
-344.8797355776
 30
0.0
  0
VERTEX
  5
A43
  8
0
  6
CONTINUOUS
 62
     7
 10
-264.7116093165
 20
-355.82265662
 30
0.0
  0
VERTEX
  5
A44
  8
0
  6
CONTINUOUS
 62
     7
 10
-264.6198479659
 20
-366.7027245645
 30
0.0
  0
SEQEND
  5
C00
  8
0
  6
CONTINUOUS
 62
     7
  0
POLYLINE
  5
24D
  8
0
  6
CONTINUOUS
 62
     7
 66
     1
 10
0.0
 20
0.0
 30
0.0
  0
VERTEX
  5
A45
  8
0
  6
CONTINUOUS
 62
     7
 10
-324.925741387
 20
-365.758646596
 30
0.0
  0
VERTEX
  5
A46
  8
0
  6
CONTINUOUS
 62
     7
 10
-294.5727018839
 20
-366.2007193451
 30
0.0
  0
VERTEX
  5
A47
  8
0
  6
CONTINUOUS
 62
     7
 10
-264.6198479659
 20
-366.7026798611
 30
0.0
  0
SEQEND
  5
BFF
  8
0
  6
CONTINUOUS
 62
     7
  0
LINE
  5
24E
  8
0
  6
CONTINUOUS
 62
     7
 10
-610.272785855
 20
-596.0153530722
 30
0.0
 11
-549.62690754
 21
-596.0153530722
 31
0.0
  0
LINE
  5
24F
  8
0
  6
CONTINUOUS
 62
     7
 10
-614.6269647604
 20
-596.0153530722
 30
0.0
 11
-610.272785855
 21
-596.0153530722
 31
0.0
  0
POLYLINE
  5
250
  8
0
  6
CONTINUOUS
 62
     7
 66
     1
 10
0.0
 20
0.0
 30
0.0
  0
VERTEX
  5
A48
  8
0
  6
CONTINUOUS
 62
     7
 10
-551.8883673674
 20
-560.5153630857
 30
0.0
  0
VERTEX
  5
A49
  8
0
  6
CONTINUOUS
 62
     7
 10
-551.8705455786
 20
-560.0122104769
 30
0.0
  0
VERTEX
  5
A4A
  8
0
  6
CONTINUOUS
 62
     7
 10
-551.8201796538
 20
-559.5257769709
 30
0.0
  0
VERTEX
  5
A4B
  8
0
  6
CONTINUOUS
 62
     7
 10
-551.7438857085
 20
-559.0796362047
 30
0.0
  0
VERTEX
  5
A4C
  8
0
  6
CONTINUOUS
 62
     7
 10
-551.6473857886
 20
-558.6681555395
 30
0.0
  0
VERTEX
  5
A4D
  8
0
  6
CONTINUOUS
 62
     7
 10
-551.4713732726
 20
-558.1060837393
 30
0.0
  0
VERTEX
  5
A4E
  8
0
  6
CONTINUOUS
 62
     7
 10
-551.2767045027
 20
-557.6323162203
 30
0.0
  0
VERTEX
  5
A4F
  8
0
  6
CONTINUOUS
 62
     7
 10
-550.9907810217
 20
-557.1046661024
 30
0.0
  0
VERTEX
  5
A50
  8
0
  6
CONTINUOUS
 62
     7
 10
-550.7117120749
 20
-556.7425976877
 30
0.0
  0
VERTEX
  5
A51
  8
0
  6
CONTINUOUS
 62
     7
 10
-550.5039898879
 20
-556.5733801012
 30
0.0
  0
VERTEX
  5
A52
  8
0
  6
CONTINUOUS
 62
     7
 10
-550.3149239546
 20
-556.5153549795
 30
0.0
  0
SEQEND
  5
BFE
  8
0
  6
CONTINUOUS
 62
     7
  0
LINE
  5
251
  8
0
  6
CONTINUOUS
 62
     7
 10
-551.8883673674
 20
-581.51536094
 30
0.0
 11
-551.8883673674
 21
-560.5153630857
 31
0.0
  0
POLYLINE
  5
252
  8
0
  6
CONTINUOUS
 62
     7
 66
     1
 10
0.0
 20
0.0
 30
0.0
  0
VERTEX
  5
A53
  8
0
  6
CONTINUOUS
 62
     7
 10
-550.3149239546
 20
-585.5153690462
 30
0.0
  0
VERTEX
  5
A54
  8
0
  6
CONTINUOUS
 62
     7
 10
-550.5752174384
 20
-585.4102264528
 30
0.0
  0
VERTEX
  5
A55
  8
0
  6
CONTINUOUS
 62
     7
 10
-550.8661477095
 20
-585.1053486948
 30
0.0
  0
VERTEX
  5
A56
  8
0
  6
CONTINUOUS
 62
     7
 10
-550.9444086081
 20
-584.9958549623
 30
0.0
  0
VERTEX
  5
A57
  8
0
  6
CONTINUOUS
 62
     7
 10
-551.2200204855
 20
-584.517527688
 30
0.0
  0
VERTEX
  5
A58
  8
0
  6
CONTINUOUS
 62
     7
 10
-551.4866320616
 20
-583.8820229654
 30
0.0
  0
VERTEX
  5
A59
  8
0
  6
CONTINUOUS
 62
     7
 10
-551.619967652
 20
-583.4625254755
 30
0.0
  0
VERTEX
  5
A5A
  8
0
  6
CONTINUOUS
 62
     7
 10
-551.7353622443
 20
-582.9926620607
 30
0.0
  0
VERTEX
  5
A5B
  8
0
  6
CONTINUOUS
 62
     7
 10
-551.8121926314
 20
-582.5602303629
 30
0.0
  0
VERTEX
  5
A5C
  8
0
  6
CONTINUOUS
 62
     7
 10
-551.8646447188
 20
-582.1000229006
 30
0.0
  0
VERTEX
  5
A5D
  8
0
  6
CONTINUOUS
 62
     7
 10
-551.8883673674
 20
-581.51536094
 30
0.0
  0
SEQEND
  5
BFD
  8
0
  6
CONTINUOUS
 62
     7
  0
LINE
  5
253
  8
0
  6
CONTINUOUS
 62
     7
 10
-610.272785855
 20
-546.0153709536
 30
0.0
 11
-549.62690754
 21
-546.0153709536
 31
0.0
  0
LINE
  5
254
  8
0
  6
CONTINUOUS
 62
     7
 10
-614.6269647604
 20
-546.0153709536
 30
0.0
 11
-610.272785855
 21
-546.0153709536
 31
0.0
  0
LINE
  5
255
  8
0
  6
CONTINUOUS
 62
     7
 10
-509.9955408102
 20
58.9846332188
 30
0.0
 11
-532.9955427176
 21
58.9846332188
 31
0.0
  0
LINE
  5
256
  8
0
  6
CONTINUOUS
 62
     7
 10
-509.9955408102
 20
-421.0153560524
 30
0.0
 11
-532.9955427176
 21
-421.0153560524
 31
0.0
  0
LINE
  5
257
  8
0
  6
CONTINUOUS
 62
     7
 10
-518.6557976729
 20
68.9846385832
 30
0.0
 11
-541.6557995802
 21
68.9846385832
 31
0.0
  0
LINE
  5
258
  8
0
  6
CONTINUOUS
 62
     7
 10
-518.6557976729
 20
-431.0153614168
 30
0.0
 11
-541.6557995802
 21
-431.0153614168
 31
0.0
  0
LINE
  5
259
  8
0
  6
CONTINUOUS
 62
     7
 10
-566.1269633299
 20
-545.8924959784
 30
0.0
 11
-598.1269089705
 21
-545.8924959784
 31
0.0
  0
POLYLINE
  5
25A
  8
0
  6
CONTINUOUS
 62
     7
 66
     1
 10
0.0
 20
0.0
 30
0.0
  0
VERTEX
  5
A5E
  8
0
  6
CONTINUOUS
 62
     7
 10
-548.3572690016
 20
-583.5153649931
 30
0.0
  0
VERTEX
  5
A5F
  8
0
  6
CONTINUOUS
 62
     7
 10
-548.8584248549
 20
-583.4633599405
 30
0.0
  0
VERTEX
  5
A60
  8
0
  6
CONTINUOUS
 62
     7
 10
-549.3834225661
 20
-583.3103548174
 30
0.0
  0
VERTEX
  5
A61
  8
0
  6
CONTINUOUS
 62
     7
 10
-549.8944131857
 20
-583.0667804365
 30
0.0
  0
VERTEX
  5
A62
  8
0
  6
CONTINUOUS
 62
     7
 10
-550.4072515494
 20
-582.6986919527
 30
0.0
  0
VERTEX
  5
A63
  8
0
  6
CONTINUOUS
 62
     7
 10
-550.607165528
 20
-582.4990759973
 30
0.0
  0
VERTEX
  5
A64
  8
0
  6
CONTINUOUS
 62
     7
 10
-550.7944433218
 20
-582.2540115004
 30
0.0
  0
VERTEX
  5
A65
  8
0
  6
CONTINUOUS
 62
     7
 10
-550.9369580275
 20
-581.9784890299
 30
0.0
  0
VERTEX
  5
A66
  8
0
  6
CONTINUOUS
 62
     7
 10
-550.9916154868
 20
-581.8076919203
 30
0.0
  0
VERTEX
  5
A67
  8
0
  6
CONTINUOUS
 62
     7
 10
-551.0275570876
 20
-581.51536094
 30
0.0
  0
SEQEND
  5
BFC
  8
0
  6
CONTINUOUS
 62
     7
  0
ARC
  5
25B
  8
0
  6
CONTINUOUS
 62
     7
 10
-548.3359156285
 20
-585.4943695327
 30
0.0
 40
1.979119737274704
 50
90.6181949854
 51
180.6079501148
  0
LINE
  5
25C
  8
0
  6
CONTINUOUS
 62
     7
 10
-551.0275570876
 20
-581.51536094
 30
0.0
 11
-551.8883673674
 21
-581.51536094
 31
0.0
  0
ARC
  5
25D
  8
0
  6
CONTINUOUS
 62
     7
 10
-548.538773233
 20
-561.0556332599
 30
0.0
 40
2.546750269638677
 50
85.9131249341
 51
167.7521495258
  0
LINE
  5
25E
  8
0
  6
CONTINUOUS
 62
     7
 10
-551.0275570876
 20
-560.5153630857
 30
0.0
 11
-551.8883673674
 21
-560.5153630857
 31
0.0
  0
ARC
  5
25F
  8
0
  6
CONTINUOUS
 62
     7
 10
-548.3359156285
 20
-556.536354493
 30
0.0
 40
1.979119737274704
 50
179.3920498852
 51
269.3818050146
  0
LINE
  5
260
  8
0
  6
CONTINUOUS
 62
     7
 10
-570.1269118315
 20
-599.015374053
 30
0.0
 11
-594.1269604689
 21
-599.015374053
 31
0.0
  0
LINE
  5
261
  8
0
  6
CONTINUOUS
 62
     7
 10
-571.7269389159
 20
-615.0153468733
 30
0.0
 11
-592.5269333846
 21
-615.0153468733
 31
0.0
  0
LINE
  5
262
  8
0
  6
CONTINUOUS
 62
     7
 10
-551.0275570876
 20
-560.5153630857
 30
0.0
 11
-551.0275570876
 21
-581.51536094
 31
0.0
  0
LINE
  5
263
  8
0
  6
CONTINUOUS
 62
     7
 10
-551.0275570876
 20
-581.51536094
 30
0.0
 11
-259.5898417956
 21
-581.51536094
 31
0.0
  0
POLYLINE
  5
264
  8
0
  6
CONTINUOUS
 62
     7
 66
     1
 10
0.0
 20
0.0
 30
0.0
  0
VERTEX
  5
A68
  8
0
  6
CONTINUOUS
 62
     7
 10
-260.589828921
 20
-583.5153649931
 30
0.0
  0
VERTEX
  5
A69
  8
0
  6
CONTINUOUS
 62
     7
 10
-260.3947429186
 20
-583.4769199972
 30
0.0
  0
VERTEX
  5
A6A
  8
0
  6
CONTINUOUS
 62
     7
 10
-260.2071671015
 20
-583.3631347303
 30
0.0
  0
VERTEX
  5
A6B
  8
0
  6
CONTINUOUS
 62
     7
 10
-260.0342838294
 20
-583.1783007269
 30
0.0
  0
VERTEX
  5
A6C
  8
0
  6
CONTINUOUS
 62
     7
 10
-259.88273902
 20
-582.9295705442
 30
0.0
  0
VERTEX
  5
A6D
  8
0
  6
CONTINUOUS
 62
     7
 10
-259.7583739287
 20
-582.6265107279
 30
0.0
  0
VERTEX
  5
A6E
  8
0
  6
CONTINUOUS
 62
     7
 10
-259.665956927
 20
-582.2807143812
 30
0.0
  0
VERTEX
  5
A6F
  8
0
  6
CONTINUOUS
 62
     7
 10
-259.6090642935
 20
-581.9055329447
 30
0.0
  0
VERTEX
  5
A70
  8
0
  6
CONTINUOUS
 62
     7
 10
-259.5898417956
 20
-581.51536094
 30
0.0
  0
SEQEND
  5
BFB
  8
0
  6
CONTINUOUS
 62
     7
  0
LINE
  5
265
  8
0
  6
CONTINUOUS
 62
     7
 10
-260.589828921
 20
-583.5153649931
 30
0.0
 11
-548.3572690016
 21
-583.5153649931
 31
0.0
  0
LINE
  5
266
  8
0
  6
CONTINUOUS
 62
     7
 10
-548.3572690016
 20
-558.5153590326
 30
0.0
 11
-260.589828921
 21
-558.5153590326
 31
0.0
  0
POLYLINE
  5
267
  8
0
  6
CONTINUOUS
 62
     7
 66
     1
 10
0.0
 20
0.0
 30
0.0
  0
VERTEX
  5
A71
  8
0
  6
CONTINUOUS
 62
     7
 10
-259.5898417956
 20
-560.5153630857
 30
0.0
  0
VERTEX
  5
A72
  8
0
  6
CONTINUOUS
 62
     7
 10
-259.6090642935
 20
-560.125191081
 30
0.0
  0
VERTEX
  5
A73
  8
0
  6
CONTINUOUS
 62
     7
 10
-259.665956927
 20
-559.7499798422
 30
0.0
  0
VERTEX
  5
A74
  8
0
  6
CONTINUOUS
 62
     7
 10
-259.7583739287
 20
-559.4042132978
 30
0.0
  0
VERTEX
  5
A75
  8
0
  6
CONTINUOUS
 62
     7
 10
-259.88273902
 20
-559.1011534815
 30
0.0
  0
VERTEX
  5
A76
  8
0
  6
CONTINUOUS
 62
     7
 10
-260.0342838294
 20
-558.8524232988
 30
0.0
  0
VERTEX
  5
A77
  8
0
  6
CONTINUOUS
 62
     7
 10
-260.2071671015
 20
-558.6675892954
 30
0.0
  0
VERTEX
  5
A78
  8
0
  6
CONTINUOUS
 62
     7
 10
-260.3947429186
 20
-558.5538040285
 30
0.0
  0
VERTEX
  5
A79
  8
0
  6
CONTINUOUS
 62
     7
 10
-260.589828921
 20
-558.5153590326
 30
0.0
  0
SEQEND
  5
BFA
  8
0
  6
CONTINUOUS
 62
     7
  0
LINE
  5
268
  8
0
  6
CONTINUOUS
 62
     7
 10
-259.5898417956
 20
-560.5153630857
 30
0.0
 11
-551.0275570876
 21
-560.5153630857
 31
0.0
  0
LINE
  5
269
  8
0
  6
CONTINUOUS
 62
     7
 10
-259.5898417956
 20
-560.5153630857
 30
0.0
 11
-259.5898417956
 21
-581.51536094
 31
0.0
  0
POLYLINE
  5
26A
  8
0
  6
CONTINUOUS
 62
     7
 66
     1
 10
0.0
 20
0.0
 30
0.0
  0
VERTEX
  5
A7A
  8
0
  6
CONTINUOUS
 62
     7
 10
-264.6198479659
 20
-366.7027245645
 30
0.0
  0
VERTEX
  5
A7B
  8
0
  6
CONTINUOUS
 62
     7
 10
-264.5927576548
 20
-370.1198588495
 30
0.0
  0
VERTEX
  5
A7C
  8
0
  6
CONTINUOUS
 62
     7
 10
-264.5719854361
 20
-373.4882514362
 30
0.0
  0
VERTEX
  5
A7D
  8
0
  6
CONTINUOUS
 62
     7
 10
-264.559677077
 20
-376.7994980698
 30
0.0
  0
VERTEX
  5
A7E
  8
0
  6
CONTINUOUS
 62
     7
 10
-264.5580379492
 20
-380.0451348906
 30
0.0
  0
VERTEX
  5
A7F
  8
0
  6
CONTINUOUS
 62
     7
 10
-264.5664124018
 20
-383.3130042438
 30
0.0
  0
VERTEX
  5
A80
  8
0
  6
CONTINUOUS
 62
     7
 10
-264.5831017024
 20
-386.5048478727
 30
0.0
  0
VERTEX
  5
A81
  8
0
  6
CONTINUOUS
 62
     7
 10
-264.6090595252
 20
-389.6121721153
 30
0.0
  0
VERTEX
  5
A82
  8
0
  6
CONTINUOUS
 62
     7
 10
-264.6451501376
 20
-392.6264982109
 30
0.0
  0
VERTEX
  5
A83
  8
0
  6
CONTINUOUS
 62
     7
 10
-264.6898834235
 20
-395.4644243603
 30
0.0
  0
VERTEX
  5
A84
  8
0
  6
CONTINUOUS
 62
     7
 10
-264.7440044409
 20
-398.2094268684
 30
0.0
  0
VERTEX
  5
A85
  8
0
  6
CONTINUOUS
 62
     7
 10
-264.808347655
 20
-400.8546810036
 30
0.0
  0
VERTEX
  5
A86
  8
0
  6
CONTINUOUS
 62
     7
 10
-264.8838667399
 20
-403.3934365396
 30
0.0
  0
VERTEX
  5
A87
  8
0
  6
CONTINUOUS
 62
     7
 10
-264.9730948931
 20
-405.8918695335
 30
0.0
  0
VERTEX
  5
A88
  8
0
  6
CONTINUOUS
 62
     7
 10
-265.0735883242
 20
-408.2726578598
 30
0.0
  0
VERTEX
  5
A89
  8
0
  6
CONTINUOUS
 62
     7
 10
-265.1857344634
 20
-410.5293940191
 30
0.0
  0
VERTEX
  5
A8A
  8
0
  6
CONTINUOUS
 62
     7
 10
-265.3098611361
 20
-412.6556258087
 30
0.0
  0
VERTEX
  5
A8B
  8
0
  6
CONTINUOUS
 62
     7
 10
-265.4418258196
 20
-414.5954142694
 30
0.0
  0
VERTEX
  5
A8C
  8
0
  6
CONTINUOUS
 62
     7
 10
-265.5843703276
 20
-416.4076338892
 30
0.0
  0
VERTEX
  5
A8D
  8
0
  6
CONTINUOUS
 62
     7
 10
-265.7373158461
 20
-418.0873672848
 30
0.0
  0
VERTEX
  5
A8E
  8
0
  6
CONTINUOUS
 62
     7
 10
-265.9005729681
 20
-419.6297119741
 30
0.0
  0
VERTEX
  5
A8F
  8
0
  6
CONTINUOUS
 62
     7
 10
-266.0791782862
 20
-421.0721294765
 30
0.0
  0
VERTEX
  5
A90
  8
0
  6
CONTINUOUS
 62
     7
 10
-266.2679759985
 20
-422.365073431
 30
0.0
  0
VERTEX
  5
A91
  8
0
  6
CONTINUOUS
 62
     7
 10
-266.4665190703
 20
-423.5046695356
 30
0.0
  0
VERTEX
  5
A92
  8
0
  6
CONTINUOUS
 62
     7
 10
-266.6744796759
 20
-424.4870136862
 30
0.0
  0
VERTEX
  5
A93
  8
0
  6
CONTINUOUS
 62
     7
 10
-266.8962089545
 20
-425.325084794
 30
0.0
  0
VERTEX
  5
A94
  8
0
  6
CONTINUOUS
 62
     7
 10
-267.1278922087
 20
-425.9969930534
 30
0.0
  0
VERTEX
  5
A95
  8
0
  6
CONTINUOUS
 62
     7
 10
-267.369469834
 20
-426.5008013134
 30
0.0
  0
VERTEX
  5
A96
  8
0
  6
CONTINUOUS
 62
     7
 10
-267.6208524233
 20
-426.8345426207
 30
0.0
  0
SEQEND
  5
BF9
  8
0
  6
CONTINUOUS
 62
     7
  0
POLYLINE
  5
26B
  8
0
  6
CONTINUOUS
 62
     7
 66
     1
 10
0.0
 20
0.0
 30
0.0
  0
VERTEX
  5
A97
  8
0
  6
CONTINUOUS
 62
     7
 10
-43.0182574517
 20
-189.0153617968
 30
0.0
  0
VERTEX
  5
A98
  8
0
  6
CONTINUOUS
 62
     7
 10
-43.0161936408
 20
-195.0081552749
 30
0.0
  0
VERTEX
  5
A99
  8
0
  6
CONTINUOUS
 62
     7
 10
-43.0125205046
 20
-200.9900774245
 30
0.0
  0
VERTEX
  5
A9A
  8
0
  6
CONTINUOUS
 62
     7
 10
-43.0075137145
 20
-206.9522834753
 30
0.0
  0
VERTEX
  5
A9B
  8
0
  6
CONTINUOUS
 62
     7
 10
-43.0014414913
 20
-212.8859314506
 30
0.0
  0
VERTEX
  5
A9C
  8
0
  6
CONTINUOUS
 62
     7
 10
-42.9938195473
 20
-218.8836935346
 30
0.0
  0
VERTEX
  5
A9D
  8
0
  6
CONTINUOUS
 62
     7
 10
-42.9841933972
 20
-224.8458604698
 30
0.0
  0
VERTEX
  5
A9E
  8
0
  6
CONTINUOUS
 62
     7
 10
-42.9725853926
 20
-230.7633499985
 30
0.0
  0
VERTEX
  5
A9F
  8
0
  6
CONTINUOUS
 62
     7
 10
-42.9590253359
 20
-236.627068687
 30
0.0
  0
VERTEX
  5
AA0
  8
0
  6
CONTINUOUS
 62
     7
 10
-42.9448394305
 20
-241.9412698035
 30
0.0
  0
VERTEX
  5
AA1
  8
0
  6
CONTINUOUS
 62
     7
 10
-42.9287759787
 20
-247.2067813759
 30
0.0
  0
VERTEX
  5
AA2
  8
0
  6
CONTINUOUS
 62
     7
 10
-42.9107455737
 20
-252.416942585
 30
0.0
  0
VERTEX
  5
AA3
  8
0
  6
CONTINUOUS
 62
     7
 10
-42.8906215555
 20
-257.5650777106
 30
0.0
  0
VERTEX
  5
AA4
  8
0
  6
CONTINUOUS
 62
     7
 10
-42.8683070666
 20
-262.6445333843
 30
0.0
  0
VERTEX
  5
AA5
  8
0
  6
CONTINUOUS
 62
     7
 10
-42.8430123455
 20
-267.7643414025
 30
0.0
  0
VERTEX
  5
AA6
  8
0
  6
CONTINUOUS
 62
     7
 10
-42.8151620752
 20
-272.810083199
 30
0.0
  0
VERTEX
  5
AA7
  8
0
  6
CONTINUOUS
 62
     7
 10
-42.7848754651
 20
-277.7751128559
 30
0.0
  0
VERTEX
  5
AA8
  8
0
  6
CONTINUOUS
 62
     7
 10
-42.7522568232
 20
-282.6527919059
 30
0.0
  0
VERTEX
  5
AA9
  8
0
  6
CONTINUOUS
 62
     7
 10
-42.7174402601
 20
-287.4364893322
 30
0.0
  0
SEQEND
  5
BF8
  8
0
  6
CONTINUOUS
 62
     7
  0
POLYLINE
  5
26C
  8
0
  6
CONTINUOUS
 62
     7
 66
     1
 10
0.0
 20
0.0
 30
0.0
  0
VERTEX
  5
AAA
  8
0
  6
CONTINUOUS
 62
     7
 10
-42.7174402601
 20
-287.4364893322
 30
0.0
  0
VERTEX
  5
AAB
  8
0
  6
CONTINUOUS
 62
     7
 10
-42.6937623149
 20
-292.4784834866
 30
0.0
  0
VERTEX
  5
AAC
  8
0
  6
CONTINUOUS
 62
     7
 10
-42.703336311
 20
-297.4053885226
 30
0.0
  0
VERTEX
  5
AAD
  8
0
  6
CONTINUOUS
 62
     7
 10
-42.7505953437
 20
-302.2322993164
 30
0.0
  0
VERTEX
  5
AAE
  8
0
  6
CONTINUOUS
 62
     7
 10
-42.837335003
 20
-306.9326172953
 30
0.0
  0
VERTEX
  5
AAF
  8
0
  6
CONTINUOUS
 62
     7
 10
-42.9629219896
 20
-311.4722262506
 30
0.0
  0
VERTEX
  5
AB0
  8
0
  6
CONTINUOUS
 62
     7
 10
-43.1220291382
 20
-315.8772032146
 30
0.0
  0
VERTEX
  5
AB1
  8
0
  6
CONTINUOUS
 62
     7
 10
-43.3092622286
 20
-320.1607357149
 30
0.0
  0
VERTEX
  5
AB2
  8
0
  6
CONTINUOUS
 62
     7
 10
-43.5163436657
 20
-324.2996822481
 30
0.0
  0
SEQEND
  5
BF7
  8
0
  6
CONTINUOUS
 62
     7
  0
POLYLINE
  5
26D
  8
0
  6
CONTINUOUS
 62
     7
 66
     1
 10
0.0
 20
0.0
 30
0.0
  0
VERTEX
  5
AB3
  8
0
  6
CONTINUOUS
 62
     7
 10
-43.5163436657
 20
-324.2996822481
 30
0.0
  0
VERTEX
  5
AB4
  8
0
  6
CONTINUOUS
 62
     7
 10
-43.7049923665
 20
-327.8411965256
 30
0.0
  0
VERTEX
  5
AB5
  8
0
  6
CONTINUOUS
 62
     7
 10
-43.9196286923
 20
-331.764776576
 30
0.0
  0
VERTEX
  5
AB6
  8
0
  6
CONTINUOUS
 62
     7
 10
-44.1308973557
 20
-335.5293910389
 30
0.0
  0
VERTEX
  5
AB7
  8
0
  6
CONTINUOUS
 62
     7
 10
-44.3373305923
 20
-339.1292880659
 30
0.0
  0
VERTEX
  5
AB8
  8
0
  6
CONTINUOUS
 62
     7
 10
-44.5374457365
 20
-342.5586413031
 30
0.0
  0
VERTEX
  5
AB9
  8
0
  6
CONTINUOUS
 62
     7
 10
-44.7297750241
 20
-345.8116989021
 30
0.0
  0
VERTEX
  5
ABA
  8
0
  6
CONTINUOUS
 62
     7
 10
-44.9184833294
 20
-348.9712368135
 30
0.0
  0
VERTEX
  5
ABB
  8
0
  6
CONTINUOUS
 62
     7
 10
-45.0974611765
 20
-351.9424836521
 30
0.0
  0
VERTEX
  5
ABC
  8
0
  6
CONTINUOUS
 62
     7
 10
-45.2656878358
 20
-354.7206859474
 30
0.0
  0
VERTEX
  5
ABD
  8
0
  6
CONTINUOUS
 62
     7
 10
-45.4221574789
 20
-357.3010753279
 30
0.0
  0
VERTEX
  5
ABE
  8
0
  6
CONTINUOUS
 62
     7
 10
-45.5658493763
 20
-359.6789281254
 30
0.0
  0
VERTEX
  5
ABF
  8
0
  6
CONTINUOUS
 62
     7
 10
-45.6796867973
 20
-361.5741919165
 30
0.0
  0
VERTEX
  5
AC0
  8
0
  6
CONTINUOUS
 62
     7
 10
-45.7837639576
 20
-363.3165697937
 30
0.0
  0
VERTEX
  5
AC1
  8
0
  6
CONTINUOUS
 62
     7
 10
-45.877946747
 20
-364.9039904957
 30
0.0
  0
VERTEX
  5
AC2
  8
0
  6
CONTINUOUS
 62
     7
 10
-45.9621085054
 20
-366.3344125633
 30
0.0
  0
VERTEX
  5
AC3
  8
0
  6
CONTINUOUS
 62
     7
 10
-46.036122573
 20
-367.6057945375
 30
0.0
  0
VERTEX
  5
AC4
  8
0
  6
CONTINUOUS
 62
     7
 10
-46.1004061824
 20
-368.7403987532
 30
0.0
  0
VERTEX
  5
AC5
  8
0
  6
CONTINUOUS
 62
     7
 10
-46.1531264907
 20
-369.7082142715
 30
0.0
  0
VERTEX
  5
AC6
  8
0
  6
CONTINUOUS
 62
     7
 10
-46.1953116781
 20
-370.5081682091
 30
0.0
  0
VERTEX
  5
AC7
  8
0
  6
CONTINUOUS
 62
     7
 10
-46.2280048257
 20
-371.1391876821
 30
0.0
  0
VERTEX
  5
AC8
  8
0
  6
CONTINUOUS
 62
     7
 10
-46.252249015
 20
-371.600184906
 30
0.0
  0
VERTEX
  5
AC9
  8
0
  6
CONTINUOUS
 62
     7
 10
-46.2696312195
 20
-371.9114254599
 30
0.0
  0
VERTEX
  5
ACA
  8
0
  6
CONTINUOUS
 62
     7
 10
-46.2758897072
 20
-372.0153610592
 30
0.0
  0
SEQEND
  5
BF6
  8
0
  6
CONTINUOUS
 62
     7
  0
POLYLINE
  5
26E
  8
0
  6
CONTINUOUS
 62
     7
 66
     1
 10
0.0
 20
0.0
 30
0.0
  0
VERTEX
  5
ACB
  8
0
  6
CONTINUOUS
 62
     7
 10
-46.2758897072
 20
9.9846382256
 30
0.0
  0
VERTEX
  5
ACC
  8
0
  6
CONTINUOUS
 62
     7
 10
-46.2723506814
 20
9.9267770166
 30
0.0
  0
VERTEX
  5
ACD
  8
0
  6
CONTINUOUS
 62
     7
 10
-46.2582318312
 20
9.66529144
 30
0.0
  0
VERTEX
  5
ACE
  8
0
  6
CONTINUOUS
 62
     7
 10
-46.2338758832
 20
9.1933418627
 30
0.0
  0
VERTEX
  5
ACF
  8
0
  6
CONTINUOUS
 62
     7
 10
-46.1983962184
 20
8.5120607729
 30
0.0
  0
VERTEX
  5
AD0
  8
0
  6
CONTINUOUS
 62
     7
 10
-46.1508615142
 20
7.6225657578
 30
0.0
  0
VERTEX
  5
AD1
  8
0
  6
CONTINUOUS
 62
     7
 10
-46.0903851515
 20
6.5260191078
 30
0.0
  0
VERTEX
  5
AD2
  8
0
  6
CONTINUOUS
 62
     7
 10
-46.0137335783
 20
5.1812340136
 30
0.0
  0
VERTEX
  5
AD3
  8
0
  6
CONTINUOUS
 62
     7
 10
-45.9224937684
 20
3.6179084892
 30
0.0
  0
VERTEX
  5
AD4
  8
0
  6
CONTINUOUS
 62
     7
 10
-45.8171276576
 20
1.8392164822
 30
0.0
  0
VERTEX
  5
AD5
  8
0
  6
CONTINUOUS
 62
     7
 10
-45.6980897314
 20
-0.1517425661
 30
0.0
  0
VERTEX
  5
AD6
  8
0
  6
CONTINUOUS
 62
     7
 10
-45.5658493763
 20
-2.3517947082
 30
0.0
  0
VERTEX
  5
AD7
  8
0
  6
CONTINUOUS
 62
     7
 10
-45.4420952326
 20
-4.3998550062
 30
0.0
  0
VERTEX
  5
AD8
  8
0
  6
CONTINUOUS
 62
     7
 10
-45.3086553341
 20
-6.5999071484
 30
0.0
  0
VERTEX
  5
AD9
  8
0
  6
CONTINUOUS
 62
     7
 10
-45.1662076837
 20
-8.9489709024
 30
0.0
  0
VERTEX
  5
ADA
  8
0
  6
CONTINUOUS
 62
     7
 10
-45.0154749876
 20
-11.4439915304
 30
0.0
  0
VERTEX
  5
ADB
  8
0
  6
CONTINUOUS
 62
     7
 10
-44.8571352488
 20
-14.0819738989
 30
0.0
  0
VERTEX
  5
ADC
  8
0
  6
CONTINUOUS
 62
     7
 10
-44.6876866943
 20
-16.9258754139
 30
0.0
  0
VERTEX
  5
ADD
  8
0
  6
CONTINUOUS
 62
     7
 10
-44.5110334283
 20
-19.9178944712
 30
0.0
  0
VERTEX
  5
ADE
  8
0
  6
CONTINUOUS
 62
     7
 10
-44.3282557851
 20
-23.0538438444
 30
0.0
  0
VERTEX
  5
ADF
  8
0
  6
CONTINUOUS
 62
     7
 10
-44.140449
 20
-26.3295363073
 30
0.0
  0
VERTEX
  5
AE0
  8
0
  6
CONTINUOUS
 62
     7
 10
-43.9486859566
 20
-29.7407846336
 30
0.0
  0
VERTEX
  5
AE1
  8
0
  6
CONTINUOUS
 62
     7
 10
-43.7339229709
 20
-33.6541126852
 30
0.0
  0
VERTEX
  5
AE2
  8
0
  6
CONTINUOUS
 62
     7
 10
-43.5163436657
 20
-37.7310405855
 30
0.0
  0
SEQEND
  5
BF5
  8
0
  6
CONTINUOUS
 62
     7
  0
POLYLINE
  5
26F
  8
0
  6
CONTINUOUS
 62
     7
 66
     1
 10
0.0
 20
0.0
 30
0.0
  0
VERTEX
  5
AE3
  8
0
  6
CONTINUOUS
 62
     7
 10
-43.5163436657
 20
-37.7310405855
 30
0.0
  0
VERTEX
  5
AE4
  8
0
  6
CONTINUOUS
 62
     7
 10
-43.3100817925
 20
-41.8523143415
 30
0.0
  0
VERTEX
  5
AE5
  8
0
  6
CONTINUOUS
 62
     7
 10
-43.1234969026
 20
-46.1169521694
 30
0.0
  0
VERTEX
  5
AE6
  8
0
  6
CONTINUOUS
 62
     7
 10
-42.9635329372
 20
-50.5396317129
 30
0.0
  0
VERTEX
  5
AE7
  8
0
  6
CONTINUOUS
 62
     7
 10
-42.837335003
 20
-55.0981055384
 30
0.0
  0
VERTEX
  5
AE8
  8
0
  6
CONTINUOUS
 62
     7
 10
-42.7508710152
 20
-59.7780014758
 30
0.0
  0
VERTEX
  5
AE9
  8
0
  6
CONTINUOUS
 62
     7
 10
-42.7035747296
 20
-64.5834247951
 30
0.0
  0
VERTEX
  5
AEA
  8
0
  6
CONTINUOUS
 62
     7
 10
-42.6937325126
 20
-69.5307742243
 30
0.0
  0
VERTEX
  5
AEB
  8
0
  6
CONTINUOUS
 62
     7
 10
-42.7174402601
 20
-74.5942335014
 30
0.0
  0
SEQEND
  5
BF4
  8
0
  6
CONTINUOUS
 62
     7
  0
POLYLINE
  5
270
  8
0
  6
CONTINUOUS
 62
     7
 66
     1
 10
0.0
 20
0.0
 30
0.0
  0
VERTEX
  5
AEC
  8
0
  6
CONTINUOUS
 62
     7
 10
-42.7174402601
 20
-74.5942335014
 30
0.0
  0
VERTEX
  5
AED
  8
0
  6
CONTINUOUS
 62
     7
 10
-42.741975022
 20
-77.8585042243
 30
0.0
  0
VERTEX
  5
AEE
  8
0
  6
CONTINUOUS
 62
     7
 10
-42.7656529671
 20
-81.1658914571
 30
0.0
  0
VERTEX
  5
AEF
  8
0
  6
CONTINUOUS
 62
     7
 10
-42.7878482467
 20
-84.5206569319
 30
0.0
  0
VERTEX
  5
AF0
  8
0
  6
CONTINUOUS
 62
     7
 10
-42.8086502677
 20
-87.9158865099
 30
0.0
  0
VERTEX
  5
AF1
  8
0
  6
CONTINUOUS
 62
     7
 10
-42.8396893865
 20
-93.4870656018
 30
0.0
  0
VERTEX
  5
AF2
  8
0
  6
CONTINUOUS
 62
     7
 10
-42.8678525812
 20
-99.1589094882
 30
0.0
  0
VERTEX
  5
AF3
  8
0
  6
CONTINUOUS
 62
     7
 10
-42.8931547529
 20
-104.9219559317
 30
0.0
  0
VERTEX
  5
AF4
  8
0
  6
CONTINUOUS
 62
     7
 10
-42.9155959016
 20
-110.7667426949
 30
0.0
  0
VERTEX
  5
AF5
  8
0
  6
CONTINUOUS
 62
     7
 10
-42.9351685769
 20
-116.6838075404
 30
0.0
  0
VERTEX
  5
AF6
  8
0
  6
CONTINUOUS
 62
     7
 10
-42.9527221447
 20
-122.845128495
 30
0.0
  0
VERTEX
  5
AF7
  8
0
  6
CONTINUOUS
 62
     7
 10
-42.9680256373
 20
-129.0794018095
 30
0.0
  0
VERTEX
  5
AF8
  8
0
  6
CONTINUOUS
 62
     7
 10
-42.9810641533
 20
-135.3756788557
 30
0.0
  0
VERTEX
  5
AF9
  8
0
  6
CONTINUOUS
 62
     7
 10
-42.9918227917
 20
-141.723018456
 30
0.0
  0
VERTEX
  5
AFA
  8
0
  6
CONTINUOUS
 62
     7
 10
-43.0002866513
 20
-148.1104757075
 30
0.0
  0
VERTEX
  5
AFB
  8
0
  6
CONTINUOUS
 62
     7
 10
-43.0068208105
 20
-154.2868878131
 30
0.0
  0
VERTEX
  5
AFC
  8
0
  6
CONTINUOUS
 62
     7
 10
-43.0122448331
 20
-160.4919418131
 30
0.0
  0
VERTEX
  5
AFD
  8
0
  6
CONTINUOUS
 62
     7
 10
-43.0161489374
 20
-166.7459396084
 30
0.0
  0
VERTEX
  5
AFE
  8
0
  6
CONTINUOUS
 62
     7
 10
-43.0182574517
 20
-173.0153610368
 30
0.0
  0
SEQEND
  5
BF3
  8
0
  6
CONTINUOUS
 62
     7
  0
POLYLINE
  5
271
  8
0
  6
CONTINUOUS
 62
     7
 66
     1
 10
0.0
 20
0.0
 30
0.0
  0
VERTEX
  5
AFF
  8
0
  6
CONTINUOUS
 62
     7
 10
-267.620822621
 20
64.803819787
 30
0.0
  0
VERTEX
  5
B00
  8
0
  6
CONTINUOUS
 62
     7
 10
-267.419299317
 20
64.5513643141
 30
0.0
  0
VERTEX
  5
B01
  8
0
  6
CONTINUOUS
 62
     7
 10
-267.2200409895
 20
64.1820539351
 30
0.0
  0
VERTEX
  5
B02
  8
0
  6
CONTINUOUS
 62
     7
 10
-267.0276968008
 20
63.7015957947
 30
0.0
  0
VERTEX
  5
B03
  8
0
  6
CONTINUOUS
 62
     7
 10
-266.847631169
 20
63.1303895826
 30
0.0
  0
VERTEX
  5
B04
  8
0
  6
CONTINUOUS
 62
     7
 10
-266.6686980254
 20
62.4343563433
 30
0.0
  0
VERTEX
  5
B05
  8
0
  6
CONTINUOUS
 62
     7
 10
-266.4912549979
 20
61.6046894903
 30
0.0
  0
VERTEX
  5
B06
  8
0
  6
CONTINUOUS
 62
     7
 10
-266.3156597144
 20
60.632165205
 30
0.0
  0
VERTEX
  5
B07
  8
0
  6
CONTINUOUS
 62
     7
 10
-266.224017573
 20
60.0579787607
 30
0.0
  0
VERTEX
  5
B08
  8
0
  6
CONTINUOUS
 62
     7
 10
-266.1367563731
 20
59.4633628244
 30
0.0
  0
VERTEX
  5
B09
  8
0
  6
CONTINUOUS
 62
     7
 10
-266.0536376959
 20
58.8509549017
 30
0.0
  0
VERTEX
  5
B0A
  8
0
  6
CONTINUOUS
 62
     7
 10
-265.97451253
 20
58.2248826141
 30
0.0
  0
VERTEX
  5
B0B
  8
0
  6
CONTINUOUS
 62
     7
 10
-265.9076361186
 20
57.6611120815
 30
0.0
  0
VERTEX
  5
B0C
  8
0
  6
CONTINUOUS
 62
     7
 10
-265.8499388224
 20
57.1472008343
 30
0.0
  0
VERTEX
  5
B0D
  8
0
  6
CONTINUOUS
 62
     7
 10
-265.7881288058
 20
56.5656830187
 30
0.0
  0
VERTEX
  5
B0E
  8
0
  6
CONTINUOUS
 62
     7
 10
-265.7225636965
 20
55.9113581295
 30
0.0
  0
VERTEX
  5
B0F
  8
0
  6
CONTINUOUS
 62
     7
 10
-265.6543461806
 20
55.1852245445
 30
0.0
  0
VERTEX
  5
B10
  8
0
  6
CONTINUOUS
 62
     7
 10
-265.5909864432
 20
54.4645745869
 30
0.0
  0
VERTEX
  5
B11
  8
0
  6
CONTINUOUS
 62
     7
 10
-265.5544785983
 20
54.0272255058
 30
0.0
  0
VERTEX
  5
B12
  8
0
  6
CONTINUOUS
 62
     7
 10
-265.5202059275
 20
53.6013503189
 30
0.0
  0
VERTEX
  5
B13
  8
0
  6
CONTINUOUS
 62
     7
 10
-265.488079024
 20
53.1880368109
 30
0.0
  0
VERTEX
  5
B14
  8
0
  6
CONTINUOUS
 62
     7
 10
-265.4580084807
 20
52.7883131619
 30
0.0
  0
VERTEX
  5
B15
  8
0
  6
CONTINUOUS
 62
     7
 10
-265.4299048907
 20
52.4031628485
 30
0.0
  0
VERTEX
  5
B16
  8
0
  6
CONTINUOUS
 62
     7
 10
-265.4036490447
 20
52.0334948416
 30
0.0
  0
VERTEX
  5
B17
  8
0
  6
CONTINUOUS
 62
     7
 10
-265.3888670927
 20
51.820825469
 30
0.0
  0
VERTEX
  5
B18
  8
0
  6
CONTINUOUS
 62
     7
 10
-265.3716711527
 20
51.5699942226
 30
0.0
  0
VERTEX
  5
B19
  8
0
  6
CONTINUOUS
 62
     7
 10
-265.3454153067
 20
51.1782724972
 30
0.0
  0
VERTEX
  5
B1A
  8
0
  6
CONTINUOUS
 62
     7
 10
-265.3129903799
 20
50.6774891729
 30
0.0
  0
VERTEX
  5
B1B
  8
0
  6
CONTINUOUS
 62
     7
 10
-265.2747838026
 20
50.0625480528
 30
0.0
  0
VERTEX
  5
B1C
  8
0
  6
CONTINUOUS
 62
     7
 10
-265.2625052458
 20
49.85872997
 30
0.0
  0
VERTEX
  5
B1D
  8
0
  6
CONTINUOUS
 62
     7
 10
-265.2497796542
 20
49.6442873592
 30
0.0
  0
VERTEX
  5
B1E
  8
0
  6
CONTINUOUS
 62
     7
 10
-265.23663683
 20
49.419071209
 30
0.0
  0
VERTEX
  5
B1F
  8
0
  6
CONTINUOUS
 62
     7
 10
-265.2231065756
 20
49.1828729029
 30
0.0
  0
VERTEX
  5
B20
  8
0
  6
CONTINUOUS
 62
     7
 10
-265.2091590887
 20
48.9355136271
 30
0.0
  0
VERTEX
  5
B21
  8
0
  6
CONTINUOUS
 62
     7
 10
-265.194853974
 20
48.6767847652
 30
0.0
  0
VERTEX
  5
B22
  8
0
  6
CONTINUOUS
 62
     7
 10
-265.1801912314
 20
48.4064777012
 30
0.0
  0
VERTEX
  5
B23
  8
0
  6
CONTINUOUS
 62
     7
 10
-265.1652006632
 20
48.1243838186
 30
0.0
  0
VERTEX
  5
B24
  8
0
  6
CONTINUOUS
 62
     7
 10
-265.0931386477
 20
46.6801185722
 30
0.0
  0
VERTEX
  5
B25
  8
0
  6
CONTINUOUS
 62
     7
 10
-265.0262026316
 20
45.1844741221
 30
0.0
  0
VERTEX
  5
B26
  8
0
  6
CONTINUOUS
 62
     7
 10
-265.0062052733
 20
44.7040159817
 30
0.0
  0
VERTEX
  5
B27
  8
0
  6
CONTINUOUS
 62
     7
 10
-264.9867145544
 20
44.2186255569
 30
0.0
  0
VERTEX
  5
B28
  8
0
  6
CONTINUOUS
 62
     7
 10
-264.9677304751
 20
43.7283475513
 30
0.0
  0
VERTEX
  5
B29
  8
0
  6
CONTINUOUS
 62
     7
 10
-264.9493126399
 20
43.2365943308
 30
0.0
  0
VERTEX
  5
B2A
  8
0
  6
CONTINUOUS
 62
     7
 10
-264.9405507571
 20
42.9972518797
 30
0.0
  0
VERTEX
  5
B2B
  8
0
  6
CONTINUOUS
 62
     7
 10
-264.9298517233
 20
42.7015234346
 30
0.0
  0
VERTEX
  5
B2C
  8
0
  6
CONTINUOUS
 62
     7
 10
-264.9162022597
 20
42.3167307491
 30
0.0
  0
VERTEX
  5
B2D
  8
0
  6
CONTINUOUS
 62
     7
 10
-264.8998109824
 20
41.8410260792
 30
0.0
  0
VERTEX
  5
B2E
  8
0
  6
CONTINUOUS
 62
     7
 10
-264.8808865076
 20
41.2721444483
 30
0.0
  0
VERTEX
  5
B2F
  8
0
  6
CONTINUOUS
 62
     7
 10
-264.8597566611
 20
40.6075377579
 30
0.0
  0
VERTEX
  5
B30
  8
0
  6
CONTINUOUS
 62
     7
 10
-264.8434249884
 20
40.0714535828
 30
0.0
  0
VERTEX
  5
B31
  8
0
  6
CONTINUOUS
 62
     7
 10
-264.8210732466
 20
39.298560154
 30
0.0
  0
VERTEX
  5
B32
  8
0
  6
CONTINUOUS
 62
     7
 10
-264.8023573882
 20
38.6139114018
 30
0.0
  0
VERTEX
  5
B33
  8
0
  6
CONTINUOUS
 62
     7
 10
-264.7870091921
 20
38.0209941978
 30
0.0
  0
VERTEX
  5
B34
  8
0
  6
CONTINUOUS
 62
     7
 10
-264.7761611468
 20
37.583019268
 30
0.0
  0
VERTEX
  5
B35
  8
0
  6
CONTINUOUS
 62
     7
 10
-264.7634057528
 20
37.0497663136
 30
0.0
  0
VERTEX
  5
B36
  8
0
  6
CONTINUOUS
 62
     7
 10
-264.7512762076
 20
36.5214158411
 30
0.0
  0
VERTEX
  5
B37
  8
0
  6
CONTINUOUS
 62
     7
 10
-264.7397129065
 20
35.9981764669
 30
0.0
  0
VERTEX
  5
B38
  8
0
  6
CONTINUOUS
 62
     7
 10
-264.7287456519
 20
35.4802717085
 30
0.0
  0
VERTEX
  5
B39
  8
0
  6
CONTINUOUS
 62
     7
 10
-264.718314839
 20
34.967910182
 30
0.0
  0
VERTEX
  5
B3A
  8
0
  6
CONTINUOUS
 62
     7
 10
-264.6957246787
 20
33.7832976694
 30
0.0
  0
VERTEX
  5
B3B
  8
0
  6
CONTINUOUS
 62
     7
 10
-264.675786925
 20
32.6331068392
 30
0.0
  0
VERTEX
  5
B3C
  8
0
  6
CONTINUOUS
 62
     7
 10
-264.6582333571
 20
31.5196473713
 30
0.0
  0
VERTEX
  5
B3D
  8
0
  6
CONTINUOUS
 62
     7
 10
-264.6428553587
 20
30.4450352306
 30
0.0
  0
VERTEX
  5
B3E
  8
0
  6
CONTINUOUS
 62
     7
 10
-264.6400837428
 20
30.2386988516
 30
0.0
  0
VERTEX
  5
B3F
  8
0
  6
CONTINUOUS
 62
     7
 10
-264.6373717314
 20
30.0339419956
 30
0.0
  0
VERTEX
  5
B40
  8
0
  6
CONTINUOUS
 62
     7
 10
-264.634749127
 20
29.8307795639
 30
0.0
  0
VERTEX
  5
B41
  8
0
  6
CONTINUOUS
 62
     7
 10
-264.6321861273
 20
29.6292413588
 30
0.0
  0
VERTEX
  5
B42
  8
0
  6
CONTINUOUS
 62
     7
 10
-264.6296827322
 20
29.4293422813
 30
0.0
  0
VERTEX
  5
B43
  8
0
  6
CONTINUOUS
 62
     7
 10
-264.6272389418
 20
29.2310823317
 30
0.0
  0
VERTEX
  5
B44
  8
0
  6
CONTINUOUS
 62
     7
 10
-264.6248845583
 20
29.0344764109
 30
0.0
  0
VERTEX
  5
B45
  8
0
  6
CONTINUOUS
 62
     7
 10
-264.6225897795
 20
28.8395394201
 30
0.0
  0
VERTEX
  5
B46
  8
0
  6
CONTINUOUS
 62
     7
 10
-264.6093575484
 20
27.6193876381
 30
0.0
  0
VERTEX
  5
B47
  8
0
  6
CONTINUOUS
 62
     7
 10
-264.5989863402
 20
26.5172232504
 30
0.0
  0
VERTEX
  5
B48
  8
0
  6
CONTINUOUS
 62
     7
 10
-264.5909993178
 20
25.5368460531
 30
0.0
  0
VERTEX
  5
B49
  8
0
  6
CONTINUOUS
 62
     7
 10
-264.584919644
 20
24.6813256855
 30
0.0
  0
VERTEX
  5
B4A
  8
0
  6
CONTINUOUS
 62
     7
 10
-264.5811943537
 20
24.0983922596
 30
0.0
  0
VERTEX
  5
B4B
  8
0
  6
CONTINUOUS
 62
     7
 10
-264.5782141215
 20
23.5951651449
 30
0.0
  0
VERTEX
  5
B4C
  8
0
  6
CONTINUOUS
 62
     7
 10
-264.5758895403
 20
23.1724937077
 30
0.0
  0
VERTEX
  5
B4D
  8
0
  6
CONTINUOUS
 62
     7
 10
-264.5725218779
 20
22.5297917242
 30
0.0
  0
VERTEX
  5
B4E
  8
0
  6
CONTINUOUS
 62
     7
 10
-264.5692734248
 20
21.8444724197
 30
0.0
  0
VERTEX
  5
B4F
  8
0
  6
CONTINUOUS
 62
     7
 10
-264.5662931925
 20
21.1360861177
 30
0.0
  0
VERTEX
  5
B50
  8
0
  6
CONTINUOUS
 62
     7
 10
-264.5636109835
 20
20.404424202
 30
0.0
  0
VERTEX
  5
B51
  8
0
  6
CONTINUOUS
 62
     7
 10
-264.5613162047
 20
19.6493078585
 30
0.0
  0
VERTEX
  5
B52
  8
0
  6
CONTINUOUS
 62
     7
 10
-264.5594684607
 20
18.8705433722
 30
0.0
  0
VERTEX
  5
B53
  8
0
  6
CONTINUOUS
 62
     7
 10
-264.5580975539
 20
18.0679817314
 30
0.0
  0
VERTEX
  5
B54
  8
0
  6
CONTINUOUS
 62
     7
 10
-264.5572630888
 20
17.2414292212
 30
0.0
  0
VERTEX
  5
B55
  8
0
  6
CONTINUOUS
 62
     7
 10
-264.5574121005
 20
15.7746632214
 30
0.0
  0
VERTEX
  5
B56
  8
0
  6
CONTINUOUS
 62
     7
 10
-264.5593194491
 20
14.4227553721
 30
0.0
  0
VERTEX
  5
B57
  8
0
  6
CONTINUOUS
 62
     7
 10
-264.5625082976
 20
13.1881494637
 30
0.0
  0
VERTEX
  5
B58
  8
0
  6
CONTINUOUS
 62
     7
 10
-264.5664720065
 20
12.0728422518
 30
0.0
  0
VERTEX
  5
B59
  8
0
  6
CONTINUOUS
 62
     7
 10
-264.5708231455
 20
11.0784430618
 30
0.0
  0
VERTEX
  5
B5A
  8
0
  6
CONTINUOUS
 62
     7
 10
-264.5745186335
 20
10.3388537283
 30
0.0
  0
VERTEX
  5
B5B
  8
0
  6
CONTINUOUS
 62
     7
 10
-264.5793168074
 20
9.4839294071
 30
0.0
  0
VERTEX
  5
B5C
  8
0
  6
CONTINUOUS
 62
     7
 10
-264.5805983073
 20
9.2760880108
 30
0.0
  0
VERTEX
  5
B5D
  8
0
  6
CONTINUOUS
 62
     7
 10
-264.5819394118
 20
9.0623904581
 30
0.0
  0
VERTEX
  5
B5E
  8
0
  6
CONTINUOUS
 62
     7
 10
-264.5833401209
 20
8.8428218479
 30
0.0
  0
VERTEX
  5
B5F
  8
0
  6
CONTINUOUS
 62
     7
 10
-264.5848600394
 20
8.6173821802
 30
0.0
  0
VERTEX
  5
B60
  8
0
  6
CONTINUOUS
 62
     7
 10
-264.5864395625
 20
8.386071455
 30
0.0
  0
VERTEX
  5
B61
  8
0
  6
CONTINUOUS
 62
     7
 10
-264.5881382948
 20
8.1488747711
 30
0.0
  0
VERTEX
  5
B62
  8
0
  6
CONTINUOUS
 62
     7
 10
-264.5898966319
 20
7.9057623262
 30
0.0
  0
VERTEX
  5
B63
  8
0
  6
CONTINUOUS
 62
     7
 10
-264.597585631
 20
6.9415528889
 30
0.0
  0
VERTEX
  5
B64
  8
0
  6
CONTINUOUS
 62
     7
 10
-264.6047083861
 20
6.1458904858
 30
0.0
  0
VERTEX
  5
B65
  8
0
  6
CONTINUOUS
 62
     7
 10
-264.6109370715
 20
5.5197734947
 30
0.0
  0
VERTEX
  5
B66
  8
0
  6
CONTINUOUS
 62
     7
 10
-264.614781571
 20
5.1618923063
 30
0.0
  0
VERTEX
  5
B67
  8
0
  6
CONTINUOUS
 62
     7
 10
-264.6177916056
 20
4.9000043983
 30
0.0
  0
VERTEX
  5
B68
  8
0
  6
CONTINUOUS
 62
     7
 10
-264.6199373728
 20
4.7342438812
 30
0.0
  0
VERTEX
  5
B69
  8
0
  6
CONTINUOUS
 62
     7
 10
-264.6199373728
 20
4.691417944
 30
0.0
  0
VERTEX
  5
B6A
  8
0
  6
CONTINUOUS
 62
     7
 10
-264.6198479659
 20
4.679124486
 30
0.0
  0
VERTEX
  5
B6B
  8
0
  6
CONTINUOUS
 62
     7
 10
-264.6198479659
 20
4.6719719286
 30
0.0
  0
SEQEND
  5
BF2
  8
0
  6
CONTINUOUS
 62
     7
  0
LINE
  5
272
  8
0
  6
CONTINUOUS
 62
     7
 10
-37.8628878123
 20
-173.0153610368
 30
0.0
 11
-37.8628878123
 21
-189.0153617968
 31
0.0
  0
LINE
  5
273
  8
0
  6
CONTINUOUS
 62
     7
 10
-37.8628878123
 20
-189.0153617968
 30
0.0
 11
-241.2198690897
 21
-189.0153617968
 31
0.0
  0
LINE
  5
274
  8
0
  6
CONTINUOUS
 62
     7
 10
-37.8628878123
 20
-173.0153610368
 30
0.0
 11
-241.2198690897
 21
-173.0153610368
 31
0.0
  0
POLYLINE
  5
275
  8
0
  6
CONTINUOUS
 62
     7
 66
     1
 10
0.0
 20
0.0
 30
0.0
  0
VERTEX
  5
B6C
  8
0
  6
CONTINUOUS
 62
     7
 10
-315.8405630118
 20
28.9846320267
 30
0.0
  0
VERTEX
  5
B6D
  8
0
  6
CONTINUOUS
 62
     7
 10
-314.3344728476
 20
31.7242701168
 30
0.0
  0
VERTEX
  5
B6E
  8
0
  6
CONTINUOUS
 62
     7
 10
-312.7712814337
 20
34.3411077375
 30
0.0
  0
VERTEX
  5
B6F
  8
0
  6
CONTINUOUS
 62
     7
 10
-311.1565021998
 20
36.8355621214
 30
0.0
  0
VERTEX
  5
B70
  8
0
  6
CONTINUOUS
 62
     7
 10
-309.4957081801
 20
39.2080505009
 30
0.0
  0
VERTEX
  5
B71
  8
0
  6
CONTINUOUS
 62
     7
 10
-307.7944724089
 20
41.4589752073
 30
0.0
  0
VERTEX
  5
B72
  8
0
  6
CONTINUOUS
 62
     7
 10
-306.0583083159
 20
43.5887534733
 30
0.0
  0
VERTEX
  5
B73
  8
0
  6
CONTINUOUS
 62
     7
 10
-303.9722947604
 20
45.947398674
 30
0.0
  0
VERTEX
  5
B74
  8
0
  6
CONTINUOUS
 62
     7
 10
-301.8424121863
 20
48.1527854319
 30
0.0
  0
VERTEX
  5
B75
  8
0
  6
CONTINUOUS
 62
     7
 10
-299.674054814
 20
50.2075661535
 30
0.0
  0
VERTEX
  5
B76
  8
0
  6
CONTINUOUS
 62
     7
 10
-297.4726168639
 20
52.1144081469
 30
0.0
  0
VERTEX
  5
B77
  8
0
  6
CONTINUOUS
 62
     7
 10
-295.2434925562
 20
53.8759489174
 30
0.0
  0
VERTEX
  5
B78
  8
0
  6
CONTINUOUS
 62
     7
 10
-292.9260043627
 20
55.5400509949
 30
0.0
  0
VERTEX
  5
B79
  8
0
  6
CONTINUOUS
 62
     7
 10
-290.5823497302
 20
57.0608486052
 30
0.0
  0
VERTEX
  5
B7A
  8
0
  6
CONTINUOUS
 62
     7
 10
-288.2162539488
 20
58.4406961317
 30
0.0
  0
VERTEX
  5
B7B
  8
0
  6
CONTINUOUS
 62
     7
 10
-285.831442309
 20
59.681947958
 30
0.0
  0
VERTEX
  5
B7C
  8
0
  6
CONTINUOUS
 62
     7
 10
-283.4316102988
 20
60.7869435663
 30
0.0
  0
VERTEX
  5
B7D
  8
0
  6
CONTINUOUS
 62
     7
 10
-280.5887965685
 20
61.9175095673
 30
0.0
  0
VERTEX
  5
B7E
  8
0
  6
CONTINUOUS
 62
     7
 10
-277.7274457938
 20
62.8677864189
 30
0.0
  0
VERTEX
  5
B7F
  8
0
  6
CONTINUOUS
 62
     7
 10
-274.8518793112
 20
63.6398006792
 30
0.0
  0
VERTEX
  5
B80
  8
0
  6
CONTINUOUS
 62
     7
 10
-271.9664184576
 20
64.2355640049
 30
0.0
  0
VERTEX
  5
B81
  8
0
  6
CONTINUOUS
 62
     7
 10
-269.0754143721
 20
64.6570880528
 30
0.0
  0
VERTEX
  5
B82
  8
0
  6
CONTINUOUS
 62
     7
 10
-267.620822621
 20
64.803819787
 30
0.0
  0
SEQEND
  5
BF1
  8
0
  6
CONTINUOUS
 62
     7
  0
POLYLINE
  5
276
  8
0
  6
CONTINUOUS
 62
     7
 66
     1
 10
0.0
 20
0.0
 30
0.0
  0
VERTEX
  5
B83
  8
0
  6
CONTINUOUS
 62
     7
 10
-267.620822621
 20
-426.8345426207
 30
0.0
  0
VERTEX
  5
B84
  8
0
  6
CONTINUOUS
 62
     7
 10
-269.0754143721
 20
-426.6878108864
 30
0.0
  0
VERTEX
  5
B85
  8
0
  6
CONTINUOUS
 62
     7
 10
-272.4049894339
 20
-426.1869977598
 30
0.0
  0
VERTEX
  5
B86
  8
0
  6
CONTINUOUS
 62
     7
 10
-275.7248191363
 20
-425.4549484138
 30
0.0
  0
VERTEX
  5
B87
  8
0
  6
CONTINUOUS
 62
     7
 10
-279.0286151892
 20
-424.4890253429
 30
0.0
  0
VERTEX
  5
B88
  8
0
  6
CONTINUOUS
 62
     7
 10
-281.4943401343
 20
-423.608605135
 30
0.0
  0
VERTEX
  5
B89
  8
0
  6
CONTINUOUS
 62
     7
 10
-283.9479653365
 20
-422.5918840055
 30
0.0
  0
VERTEX
  5
B8A
  8
0
  6
CONTINUOUS
 62
     7
 10
-286.3861231333
 20
-421.4368950014
 30
0.0
  0
VERTEX
  5
B8B
  8
0
  6
CONTINUOUS
 62
     7
 10
-288.8055650717
 20
-420.141641367
 30
0.0
  0
VERTEX
  5
B8C
  8
0
  6
CONTINUOUS
 62
     7
 10
-291.3292555338
 20
-418.6238537912
 30
0.0
  0
VERTEX
  5
B8D
  8
0
  6
CONTINUOUS
 62
     7
 10
-293.8284186846
 20
-416.9424067621
 30
0.0
  0
VERTEX
  5
B8E
  8
0
  6
CONTINUOUS
 62
     7
 10
-296.2977199084
 20
-415.0940518265
 30
0.0
  0
VERTEX
  5
B8F
  8
0
  6
CONTINUOUS
 62
     7
 10
-298.7318245894
 20
-413.0754809265
 30
0.0
  0
VERTEX
  5
B90
  8
0
  6
CONTINUOUS
 62
     7
 10
-300.7186262137
 20
-411.2710695152
 30
0.0
  0
VERTEX
  5
B91
  8
0
  6
CONTINUOUS
 62
     7
 10
-302.677234841
 20
-409.342054594
 30
0.0
  0
VERTEX
  5
B92
  8
0
  6
CONTINUOUS
 62
     7
 10
-304.603180123
 20
-407.2864692097
 30
0.0
  0
VERTEX
  5
B93
  8
0
  6
CONTINUOUS
 62
     7
 10
-306.4920215136
 20
-405.1023464088
 30
0.0
  0
VERTEX
  5
B94
  8
0
  6
CONTINUOUS
 62
     7
 10
-308.3780316836
 20
-402.7370105867
 30
0.0
  0
VERTEX
  5
B95
  8
0
  6
CONTINUOUS
 62
     7
 10
-310.2192191607
 20
-400.2282063847
 30
0.0
  0
VERTEX
  5
B96
  8
0
  6
CONTINUOUS
 62
     7
 10
-312.0086698061
 20
-397.5750248318
 30
0.0
  0
VERTEX
  5
B97
  8
0
  6
CONTINUOUS
 62
     7
 10
-313.7395588881
 20
-394.7765271549
 30
0.0
  0
VERTEX
  5
B98
  8
0
  6
CONTINUOUS
 62
     7
 10
-314.8036210066
 20
-392.9262648706
 30
0.0
  0
VERTEX
  5
B99
  8
0
  6
CONTINUOUS
 62
     7
 10
-315.8405630118
 20
-391.0153548603
 30
0.0
  0
SEQEND
  5
BF0
  8
0
  6
CONTINUOUS
 62
     7
  0
POLYLINE
  5
277
  8
0
  6
CONTINUOUS
 62
     7
 66
     1
 10
0.0
 20
0.0
 30
0.0
  0
VERTEX
  5
B9A
  8
0
  6
CONTINUOUS
 62
     7
 10
-267.9017989165
 20
64.9846453781
 30
0.0
  0
VERTEX
  5
B9B
  8
0
  6
CONTINUOUS
 62
     7
 10
-267.7644102103
 20
64.9395991678
 30
0.0
  0
VERTEX
  5
B9C
  8
0
  6
CONTINUOUS
 62
     7
 10
-267.620822621
 20
64.803819787
 30
0.0
  0
SEQEND
  5
BEF
  8
0
  6
CONTINUOUS
 62
     7
  0
LINE
  5
278
  8
0
  6
CONTINUOUS
 62
     7
 10
-345.1827077395
 20
64.9846453781
 30
0.0
 11
-267.8647248274
 21
64.9846453781
 31
0.0
  0
POLYLINE
  5
279
  8
0
  6
CONTINUOUS
 62
     7
 66
     1
 10
0.0
 20
0.0
 30
0.0
  0
VERTEX
  5
B9D
  8
0
  6
CONTINUOUS
 62
     7
 10
-267.620822621
 20
-426.8345426207
 30
0.0
  0
VERTEX
  5
B9E
  8
0
  6
CONTINUOUS
 62
     7
 10
-267.7641419894
 20
-426.9701431875
 30
0.0
  0
VERTEX
  5
B9F
  8
0
  6
CONTINUOUS
 62
     7
 10
-267.9017989165
 20
-427.0153682117
 30
0.0
  0
SEQEND
  5
BEE
  8
0
  6
CONTINUOUS
 62
     7
  0
LINE
  5
27A
  8
0
  6
CONTINUOUS
 62
     7
 10
-267.9017989165
 20
-427.0153682117
 30
0.0
 11
-345.2117650038
 21
-427.0153682117
 31
0.0
  0
LINE
  5
27B
  8
0
  6
CONTINUOUS
 62
     7
 10
-767.2198621756
 20
-441.0153518801
 30
0.0
 11
-767.2198621756
 21
78.9846290464
 31
0.0
  0
LINE
  5
27C
  8
0
  6
CONTINUOUS
 62
     7
 10
-744.2198602683
 20
-441.0153518801
 30
0.0
 11
-744.2198602683
 21
78.9846290464
 31
0.0
  0
LINE
  5
27D
  8
0
  6
CONTINUOUS
 62
     7
 10
1.7801409387
 20
-441.0153518801
 30
0.0
 11
1.7801409387
 21
78.9846290464
 31
0.0
  0
LINE
  5
27E
  8
0
  6
CONTINUOUS
 62
     7
 10
24.7801414491
 20
-441.0153518801
 30
0.0
 11
24.7801414491
 21
78.9846290464
 31
0.0
  0
LINE
  5
27F
  8
0
  6
CONTINUOUS
 62
     7
 10
-186.9392005927
 20
-622.0153759603
 30
0.0
 11
-186.9392005927
 21
-520.0153480654
 31
0.0
  0
LINE
  5
280
  8
0
  6
CONTINUOUS
 62
     7
 10
-186.9392005927
 20
-622.0153759603
 30
0.0
 11
-221.0898457295
 21
-622.0153759603
 31
0.0
  0
LINE
  5
281
  8
0
  6
CONTINUOUS
 62
     7
 10
-221.0898457295
 20
-622.0153759603
 30
0.0
 11
-221.0898457295
 21
-520.0153480654
 31
0.0
  0
LINE
  5
282
  8
0
  6
CONTINUOUS
 62
     7
 10
-186.9392005927
 20
-520.0153480654
 30
0.0
 11
-221.0898457295
 21
-520.0153480654
 31
0.0
  0
LINE
  5
283
  8
0
  6
CONTINUOUS
 62
     7
 10
-141.9058798081
 20
-622.0153759603
 30
0.0
 11
-141.9058798081
 21
-520.0153480654
 31
0.0
  0
LINE
  5
284
  8
0
  6
CONTINUOUS
 62
     7
 10
-141.9058798081
 20
-622.0153759603
 30
0.0
 11
-186.9392005927
 21
-622.0153759603
 31
0.0
  0
LINE
  5
285
  8
0
  6
CONTINUOUS
 62
     7
 10
-141.9058798081
 20
-520.0153480654
 30
0.0
 11
-186.9392005927
 21
-520.0153480654
 31
0.0
  0
LINE
  5
286
  8
0
  6
CONTINUOUS
 62
     7
 10
-221.0898457295
 20
-622.0153759603
 30
0.0
 11
-323.089828921
 21
-622.0153759603
 31
0.0
  0
LINE
  5
287
  8
0
  6
CONTINUOUS
 62
     7
 10
-221.0898457295
 20
-520.0153480654
 30
0.0
 11
-323.089828921
 21
-520.0153480654
 31
0.0
  0
LINE
  5
288
  8
0
  6
CONTINUOUS
 62
     7
 10
28.7801416391
 20
-395.5153565292
 30
0.0
 11
28.7801416391
 21
33.4846336956
 31
0.0
  0
LINE
  5
289
  8
0
  6
CONTINUOUS
 62
     7
 10
-771.2198702818
 20
-395.5153565292
 30
0.0
 11
-771.2198702818
 21
33.4846336956
 31
0.0
  0
LINE
  5
28A
  8
0
  6
CONTINUOUS
 62
     7
 10
-129.405891729
 20
-622.0153759603
 30
0.0
 11
-141.9058798081
 21
-622.0153759603
 31
0.0
  0
LINE
  5
28B
  8
0
  6
CONTINUOUS
 62
     7
 10
-129.405891729
 20
-520.0153480654
 30
0.0
 11
-141.9058798081
 21
-520.0153480654
 31
0.0
  0
LINE
  5
28C
  8
0
  6
CONTINUOUS
 62
     7
 10
1.7801409387
 20
-189.0153617968
 30
0.0
 11
-37.8628878123
 21
-189.0153617968
 31
0.0
  0
LINE
  5
28D
  8
0
  6
CONTINUOUS
 62
     7
 10
1.7801409387
 20
-173.0153610368
 30
0.0
 11
-37.8628878123
 21
-173.0153610368
 31
0.0
  0
LINE
  5
28E
  8
0
  6
CONTINUOUS
 62
     7
 10
-313.2198659903
 20
76.9846249933
 30
0.0
 11
-351.6276387698
 21
76.9846249933
 31
0.0
  0
LINE
  5
28F
  8
0
  6
CONTINUOUS
 62
     7
 10
-313.2198659903
 20
-439.015347827
 30
0.0
 11
-351.6276387698
 21
-439.015347827
 31
0.0
  0
ARC
  5
290
  8
0
  6
CONTINUOUS
 62
     7
 10
-639.0580958413
 20
-570.2062565234
 30
0.0
 40
204.5635411012957
 50
95.0935942346
 51
104.3337074957
  0
ARC
  5
291
  8
0
  6
CONTINUOUS
 62
     7
 10
-639.1782140179
 20
207.4608433723
 30
0.0
 40
203.8413874649769
 50
255.6439980454
 51
264.9222093873
  0
LINE
  5
292
  8
0
  6
CONTINUOUS
 62
     7
 10
-323.089828921
 20
-622.0153759603
 30
0.0
 11
-326.4391927248
 21
-622.0153759603
 31
0.0
  0
LINE
  5
293
  8
0
  6
CONTINUOUS
 62
     7
 10
-323.089828921
 20
-520.0153480654
 30
0.0
 11
-326.4391927248
 21
-520.0153480654
 31
0.0
  0
LINE
  5
294
  8
0
  6
CONTINUOUS
 62
     7
 10
-657.2198478705
 20
27.9846449013
 30
0.0
 11
-689.7198764807
 21
27.9846449013
 31
0.0
  0
LINE
  5
295
  8
0
  6
CONTINUOUS
 62
     7
 10
-657.2198478705
 20
-390.0153677349
 30
0.0
 11
-689.7198764807
 21
-390.0153677349
 31
0.0
  0
LINE
  5
296
  8
0
  6
CONTINUOUS
 62
     7
 10
-285.2198688513
 20
76.9846249933
 30
0.0
 11
-313.2198659903
 21
76.9846249933
 31
0.0
  0
LINE
  5
297
  8
0
  6
CONTINUOUS
 62
     7
 10
-285.2198688513
 20
-439.015347827
 30
0.0
 11
-313.2198659903
 21
-439.015347827
 31
0.0
  0
LINE
  5
298
  8
0
  6
CONTINUOUS
 62
     7
 10
-315.8405630118
 20
28.9846320267
 30
0.0
 11
-337.7712277895
 21
28.9846320267
 31
0.0
  0
LINE
  5
299
  8
0
  6
CONTINUOUS
 62
     7
 10
-337.7712277895
 20
-391.0153548603
 30
0.0
 11
-315.8405630118
 21
-391.0153548603
 31
0.0
  0
LINE
  5
29A
  8
0
  6
CONTINUOUS
 62
     7
 10
-549.62690754
 20
-585.5153690462
 30
0.0
 11
-550.3149239546
 21
-585.5153690462
 31
0.0
  0
LINE
  5
29B
  8
0
  6
CONTINUOUS
 62
     7
 10
-550.3149239546
 20
-556.5153549795
 30
0.0
 11
-549.62690754
 21
-556.5153549795
 31
0.0
  0
POLYLINE
  5
29C
  8
0
  6
CONTINUOUS
 62
     7
 66
     1
 10
0.0
 20
0.0
 30
0.0
  0
VERTEX
  5
BA0
  8
0
  6
CONTINUOUS
 62
     7
 10
-345.1543657309
 20
64.9203021641
 30
0.0
  0
VERTEX
  5
BA1
  8
0
  6
CONTINUOUS
 62
     7
 10
-344.4428948885
 20
64.8616809959
 30
0.0
  0
VERTEX
  5
BA2
  8
0
  6
CONTINUOUS
 62
     7
 10
-343.1610970026
 20
64.7081841345
 30
0.0
  0
VERTEX
  5
BA3
  8
0
  6
CONTINUOUS
 62
     7
 10
-341.8859152323
 20
64.4936521168
 30
0.0
  0
VERTEX
  5
BA4
  8
0
  6
CONTINUOUS
 62
     7
 10
-340.6194953448
 20
64.2184425707
 30
0.0
  0
VERTEX
  5
BA5
  8
0
  6
CONTINUOUS
 62
     7
 10
-339.3639831072
 20
63.8830472345
 30
0.0
  0
VERTEX
  5
BA6
  8
0
  6
CONTINUOUS
 62
     7
 10
-338.1215540892
 20
63.4880323525
 30
0.0
  0
VERTEX
  5
BA7
  8
0
  6
CONTINUOUS
 62
     7
 10
-336.8943242556
 20
63.0340535755
 30
0.0
  0
VERTEX
  5
BA8
  8
0
  6
CONTINUOUS
 62
     7
 10
-335.6844095713
 20
62.5219155664
 30
0.0
  0
VERTEX
  5
BA9
  8
0
  6
CONTINUOUS
 62
     7
 10
-334.4938365942
 20
61.9524825926
 30
0.0
  0
VERTEX
  5
BAA
  8
0
  6
CONTINUOUS
 62
     7
 10
-333.3246616847
 20
61.3267083283
 30
0.0
  0
VERTEX
  5
BAB
  8
0
  6
CONTINUOUS
 62
     7
 10
-332.1788815981
 20
60.6456954594
 30
0.0
  0
VERTEX
  5
BAC
  8
0
  6
CONTINUOUS
 62
     7
 10
-331.058463288
 20
59.9105764742
 30
0.0
  0
VERTEX
  5
BAD
  8
0
  6
CONTINUOUS
 62
     7
 10
-329.9653141028
 20
59.1226328726
 30
0.0
  0
VERTEX
  5
BAE
  8
0
  6
CONTINUOUS
 62
     7
 10
-328.9012817866
 20
58.2831908579
 30
0.0
  0
VERTEX
  5
BAF
  8
0
  6
CONTINUOUS
 62
     7
 10
-327.8682140833
 20
57.3936958427
 30
0.0
  0
VERTEX
  5
BB0
  8
0
  6
CONTINUOUS
 62
     7
 10
-326.8678395277
 20
56.4556677456
 30
0.0
  0
VERTEX
  5
BB1
  8
0
  6
CONTINUOUS
 62
     7
 10
-325.9019164568
 20
55.4707009907
 30
0.0
  0
VERTEX
  5
BB2
  8
0
  6
CONTINUOUS
 62
     7
 10
-324.972054196
 20
54.4404794092
 30
0.0
  0
VERTEX
  5
BB3
  8
0
  6
CONTINUOUS
 62
     7
 10
-324.0798620707
 20
53.3667762394
 30
0.0
  0
VERTEX
  5
BB4
  8
0
  6
CONTINUOUS
 62
     7
 10
-323.2268599993
 20
52.2514094229
 30
0.0
  0
VERTEX
  5
BB5
  8
0
  6
CONTINUOUS
 62
     7
 10
-322.4145082957
 20
51.0963012095
 30
0.0
  0
VERTEX
  5
BB6
  8
0
  6
CONTINUOUS
 62
     7
 10
-321.6441778666
 20
49.9034036512
 30
0.0
  0
VERTEX
  5
BB7
  8
0
  6
CONTINUOUS
 62
     7
 10
-320.9172098166
 20
48.6747731085
 30
0.0
  0
VERTEX
  5
BB8
  8
0
  6
CONTINUOUS
 62
     7
 10
-320.2348260409
 20
47.4124957438
 30
0.0
  0
VERTEX
  5
BB9
  8
0
  6
CONTINUOUS
 62
     7
 10
-319.59818883
 20
46.1187471266
 30
0.0
  0
VERTEX
  5
BBA
  8
0
  6
CONTINUOUS
 62
     7
 10
-319.00840087
 20
44.7957177277
 30
0.0
  0
VERTEX
  5
BBB
  8
0
  6
CONTINUOUS
 62
     7
 10
-318.4664754397
 20
43.4456725235
 30
0.0
  0
VERTEX
  5
BBC
  8
0
  6
CONTINUOUS
 62
     7
 10
-317.9733364111
 20
42.0709211941
 30
0.0
  0
VERTEX
  5
BBD
  8
0
  6
CONTINUOUS
 62
     7
 10
-317.529788447
 20
40.6738181229
 30
0.0
  0
VERTEX
  5
BBE
  8
0
  6
CONTINUOUS
 62
     7
 10
-317.1366660124
 20
39.2567474957
 30
0.0
  0
VERTEX
  5
BBF
  8
0
  6
CONTINUOUS
 62
     7
 10
-316.7945651537
 20
37.8221233006
 30
0.0
  0
VERTEX
  5
BC0
  8
0
  6
CONTINUOUS
 62
     7
 10
-316.5040819174
 20
36.372389328
 30
0.0
  0
VERTEX
  5
BC1
  8
0
  6
CONTINUOUS
 62
     7
 10
-316.2657527453
 20
34.9100489731
 30
0.0
  0
VERTEX
  5
BC2
  8
0
  6
CONTINUOUS
 62
     7
 10
-316.0799650675
 20
33.4375758286
 30
0.0
  0
VERTEX
  5
BC3
  8
0
  6
CONTINUOUS
 62
     7
 10
-315.9470467097
 20
31.9574881907
 30
0.0
  0
VERTEX
  5
BC4
  8
0
  6
CONTINUOUS
 62
     7
 10
-315.8671764857
 20
30.4723341579
 30
0.0
  0
VERTEX
  5
BC5
  8
0
  6
CONTINUOUS
 62
     7
 10
-315.8405630118
 20
28.9846320267
 30
0.0
  0
SEQEND
  5
BED
  8
0
  6
CONTINUOUS
 62
     7
  0
POLYLINE
  5
29D
  8
0
  6
CONTINUOUS
 62
     7
 66
     1
 10
0.0
 20
0.0
 30
0.0
  0
VERTEX
  5
BC6
  8
0
  6
CONTINUOUS
 62
     7
 10
-315.8405630118
 20
-391.0153548603
 30
0.0
  0
VERTEX
  5
BC7
  8
0
  6
CONTINUOUS
 62
     7
 10
-315.8671764857
 20
-392.5030569916
 30
0.0
  0
VERTEX
  5
BC8
  8
0
  6
CONTINUOUS
 62
     7
 10
-315.9470467097
 20
-393.9882110243
 30
0.0
  0
VERTEX
  5
BC9
  8
0
  6
CONTINUOUS
 62
     7
 10
-316.0799650675
 20
-395.4682986622
 30
0.0
  0
VERTEX
  5
BCA
  8
0
  6
CONTINUOUS
 62
     7
 10
-316.2657527453
 20
-396.9407718067
 30
0.0
  0
VERTEX
  5
BCB
  8
0
  6
CONTINUOUS
 62
     7
 10
-316.5040819174
 20
-398.4031121616
 30
0.0
  0
VERTEX
  5
BCC
  8
0
  6
CONTINUOUS
 62
     7
 10
-316.7945651537
 20
-399.8528461342
 30
0.0
  0
VERTEX
  5
BCD
  8
0
  6
CONTINUOUS
 62
     7
 10
-317.1366660124
 20
-401.2874703293
 30
0.0
  0
VERTEX
  5
BCE
  8
0
  6
CONTINUOUS
 62
     7
 10
-317.529788447
 20
-402.7045409565
 30
0.0
  0
VERTEX
  5
BCF
  8
0
  6
CONTINUOUS
 62
     7
 10
-317.9733364111
 20
-404.1016440277
 30
0.0
  0
VERTEX
  5
BD0
  8
0
  6
CONTINUOUS
 62
     7
 10
-318.4664754397
 20
-405.4763953571
 30
0.0
  0
VERTEX
  5
BD1
  8
0
  6
CONTINUOUS
 62
     7
 10
-319.00840087
 20
-406.8264405613
 30
0.0
  0
VERTEX
  5
BD2
  8
0
  6
CONTINUOUS
 62
     7
 10
-319.59818883
 20
-408.1494699602
 30
0.0
  0
VERTEX
  5
BD3
  8
0
  6
CONTINUOUS
 62
     7
 10
-320.2348260409
 20
-409.4432185774
 30
0.0
  0
VERTEX
  5
BD4
  8
0
  6
CONTINUOUS
 62
     7
 10
-320.9172098166
 20
-410.7054959421
 30
0.0
  0
VERTEX
  5
BD5
  8
0
  6
CONTINUOUS
 62
     7
 10
-321.6441778666
 20
-411.9341264849
 30
0.0
  0
VERTEX
  5
BD6
  8
0
  6
CONTINUOUS
 62
     7
 10
-322.4145082957
 20
-413.1270240431
 30
0.0
  0
VERTEX
  5
BD7
  8
0
  6
CONTINUOUS
 62
     7
 10
-323.2268599993
 20
-414.2821322565
 30
0.0
  0
VERTEX
  5
BD8
  8
0
  6
CONTINUOUS
 62
     7
 10
-324.0798620707
 20
-415.397499073
 30
0.0
  0
VERTEX
  5
BD9
  8
0
  6
CONTINUOUS
 62
     7
 10
-324.972054196
 20
-416.4712022428
 30
0.0
  0
VERTEX
  5
BDA
  8
0
  6
CONTINUOUS
 62
     7
 10
-325.9019164568
 20
-417.5014238243
 30
0.0
  0
VERTEX
  5
BDB
  8
0
  6
CONTINUOUS
 62
     7
 10
-326.8678395277
 20
-418.4863905792
 30
0.0
  0
VERTEX
  5
BDC
  8
0
  6
CONTINUOUS
 62
     7
 10
-327.8682140833
 20
-419.4244186764
 30
0.0
  0
VERTEX
  5
BDD
  8
0
  6
CONTINUOUS
 62
     7
 10
-328.9012817866
 20
-420.3139136915
 30
0.0
  0
VERTEX
  5
BDE
  8
0
  6
CONTINUOUS
 62
     7
 10
-329.9653141028
 20
-421.1533557062
 30
0.0
  0
VERTEX
  5
BDF
  8
0
  6
CONTINUOUS
 62
     7
 10
-331.058463288
 20
-421.9412993078
 30
0.0
  0
VERTEX
  5
BE0
  8
0
  6
CONTINUOUS
 62
     7
 10
-332.1788815981
 20
-422.676418293
 30
0.0
  0
VERTEX
  5
BE1
  8
0
  6
CONTINUOUS
 62
     7
 10
-333.3246616847
 20
-423.3574311619
 30
0.0
  0
VERTEX
  5
BE2
  8
0
  6
CONTINUOUS
 62
     7
 10
-334.4938365942
 20
-423.9832054262
 30
0.0
  0
VERTEX
  5
BE3
  8
0
  6
CONTINUOUS
 62
     7
 10
-335.6844095713
 20
-424.5526384001
 30
0.0
  0
VERTEX
  5
BE4
  8
0
  6
CONTINUOUS
 62
     7
 10
-336.8943242556
 20
-425.0647764091
 30
0.0
  0
VERTEX
  5
BE5
  8
0
  6
CONTINUOUS
 62
     7
 10
-338.1215540892
 20
-425.5187551861
 30
0.0
  0
VERTEX
  5
BE6
  8
0
  6
CONTINUOUS
 62
     7
 10
-339.3639831072
 20
-425.9137700682
 30
0.0
  0
VERTEX
  5
BE7
  8
0
  6
CONTINUOUS
 62
     7
 10
-340.6194953448
 20
-426.2491654043
 30
0.0
  0
VERTEX
  5
BE8
  8
0
  6
CONTINUOUS
 62
     7
 10
-341.8859152323
 20
-426.5243749504
 30
0.0
  0
VERTEX
  5
BE9
  8
0
  6
CONTINUOUS
 62
     7
 10
-343.1610970026
 20
-426.7389069681
 30
0.0
  0
VERTEX
  5
BEA
  8
0
  6
CONTINUOUS
 62
     7
 10
-344.4428948885
 20
-426.8924038296
 30
0.0
  0
VERTEX
  5
BEB
  8
0
  6
CONTINUOUS
 62
     7
 10
-345.1543657309
 20
-426.9510249977
 30
0.0
  0
SEQEND
  5
BEC
  8
0
  6
CONTINUOUS
 62
     7
  0
LINE
  5
29E
  8
0
  6
CONTINUOUS
 62
     7
 10
-594.1269604689
 20
-613.4153495913
 30
0.0
 11
-570.1269118315
 21
-613.4153495913
 31
0.0
  0
LINE
  5
29F
  8
0
  6
CONTINUOUS
 62
     7
 10
-590.1269523627
 20
-598.4153638964
 30
0.0
 11
-574.1269199377
 21
-598.4153638964
 31
0.0
  0
LINE
  5
2A0
  8
0
  6
CONTINUOUS
 62
     7
 10
-323.089828921
 20
-622.0153759603
 30
0.0
 11
-323.089828921
 21
-583.5153649931
 31
0.0
  0
LINE
  5
2A1
  8
0
  6
CONTINUOUS
 62
     7
 10
-323.089828921
 20
-558.5153590326
 30
0.0
 11
-323.089828921
 21
-520.0153480654
 31
0.0
  0
LINE
  5
2A2
  8
FORMAT
  6
CENTERX2
 10
55.3746487776
 20
-181.0153614168
 30
0.0
 11
-800.9892019266
 21
-181.0153614168
 31
0.0
  0
ENDSEC
  0
EOF
