ISO-10303-21;
HEADER;
FILE_DESCRIPTION (( 'STEP AP203' ),
    '1' );
FILE_NAME ('0509053000 outline drawing.STEP',
    '2014-06-27T07:37:39',
    ( '' ),
    ( '' ),
    'SwSTEP 2.0',
    'SolidWorks 2012',
    '' );
FILE_SCHEMA (( 'CONFIG_CONTROL_DESIGN' ));
ENDSEC;

DATA;
#1 = PERSON ( 'UNSPECIFIED', 'UNSPECIFIED', 'UNSPECIFIED', ('UNSPECIFIED'), ('UNSPECIFIED'), ('UNSPECIFIED') ) ;
#2 = PRODUCT ( '0509053000 outline drawing', '0509053000 outline drawing', '', ( #77 ) ) ;
#3 = MANIFOLD_SOLID_BREP ( 'Split Line1', #236 ) ;
#4 =( BOUNDED_CURVE ( )  B_SPLINE_CURVE ( 3, ( #53, #131, #136, #64 ),
 .UNSPECIFIED., .F., .T. ) 
 B_SPLINE_CURVE_WITH_KNOTS ( ( 4, 4 ),
 ( 4.846120569794631900, 5.054896019536318600 ),
 .UNSPECIFIED. ) 
 CURVE ( )  GEOMETRIC_REPRESENTATION_ITEM ( )  RATIONAL_B_SPLINE_CURVE ( ( 1.000000000000000000, 0.9963710314394830200, 0.9963710314394830200, 1.000000000000000000 ) ) 
 REPRESENTATION_ITEM ( '' )  );
#5 =( BOUNDED_CURVE ( )  B_SPLINE_CURVE ( 3, ( #12, #63, #124, #44 ),
 .UNSPECIFIED., .F., .T. ) 
 B_SPLINE_CURVE_WITH_KNOTS ( ( 4, 4 ),
 ( 5.039763494586117600, 5.041138138707508700 ),
 .UNSPECIFIED. ) 
 CURVE ( )  GEOMETRIC_REPRESENTATION_ITEM ( )  RATIONAL_B_SPLINE_CURVE ( ( 1.000000000000000000, 0.9999998425294678300, 0.9999998425294678300, 1.000000000000000000 ) ) 
 REPRESENTATION_ITEM ( '' )  );
#6 =( BOUNDED_CURVE ( )  B_SPLINE_CURVE ( 3, ( #128, #88, #83, #47 ),
 .UNSPECIFIED., .F., .T. ) 
 B_SPLINE_CURVE_WITH_KNOTS ( ( 4, 4 ),
 ( 5.039763494586117600, 5.041138138707508700 ),
 .UNSPECIFIED. ) 
 CURVE ( )  GEOMETRIC_REPRESENTATION_ITEM ( )  RATIONAL_B_SPLINE_CURVE ( ( 1.000000000000000000, 0.9999998425294678300, 0.9999998425294678300, 1.000000000000000000 ) ) 
 REPRESENTATION_ITEM ( '' )  );
#7 = UNCERTAINTY_MEASURE_WITH_UNIT (LENGTH_MEASURE( 1.000000000000000100E-005 ), #101, 'distance_accuracy_value', 'NONE');
#8 = ADVANCED_BREP_SHAPE_REPRESENTATION ( '0509053000 outline drawing', ( #3, #176 ), #151 ) ;
#9 =( BOUNDED_CURVE ( )  B_SPLINE_CURVE ( 3, ( #121, #93, #87, #34 ),
 .UNSPECIFIED., .F., .F. ) 
 B_SPLINE_CURVE_WITH_KNOTS ( ( 4, 4 ),
 ( 4.846120569794630100, 5.054896019536318600 ),
 .UNSPECIFIED. ) 
 CURVE ( )  GEOMETRIC_REPRESENTATION_ITEM ( )  RATIONAL_B_SPLINE_CURVE ( ( 1.000000000000000000, 0.9963710314394829100, 0.9963710314394829100, 1.000000000000000000 ) ) 
 REPRESENTATION_ITEM ( '' )  );
#10 = DIRECTION ( 'NONE',  ( -0.0000000000000000000, 1.000000000000000000, 0.0000000000000000000 ) ) ;
#11 = PERSON_AND_ORGANIZATION_ROLE ( 'creator' ) ;
#12 = CARTESIAN_POINT ( 'NONE',  ( -15.11323040242114100, 149.0000000000000000, -44.50382305828718900 ) ) ;
#13 = DIRECTION ( 'NONE',  ( -0.0000000000000000000, 1.000000000000000000, -0.0000000000000000000 ) ) ;
#14 = DIRECTION ( 'NONE',  ( 0.0000000000000000000, -1.000000000000000000, 0.0000000000000000000 ) ) ;
#15 = CARTESIAN_POINT ( 'NONE',  ( 0.0000000000000000000, 150.0000000000000000, 0.0000000000000000000 ) ) ;
#16 = CARTESIAN_POINT ( 'NONE',  ( 0.0000000000000000000, 70.88951107963046600, 0.0000000000000000000 ) ) ;
#17 = PERSON_AND_ORGANIZATION_ROLE ( 'classification_officer' ) ;
#18 = CARTESIAN_POINT ( 'NONE',  ( -15.11323040242114100, 149.0000000000000000, 47.00000000000001400 ) ) ;
#19 = DIRECTION ( 'NONE',  ( 0.0000000000000000000, 0.0000000000000000000, 1.000000000000000000 ) ) ;
#20 = DIRECTION ( 'NONE',  ( 0.0000000000000000000, -0.0000000000000000000, -1.000000000000000000 ) ) ;
#21 = CARTESIAN_POINT ( 'NONE',  ( 0.0000000000000000000, 148.0000000000000000, 44.00000000000000700 ) ) ;
#22 = PLANE ( 'NONE',  #150 ) ;
#23 = DIRECTION ( 'NONE',  ( 0.0000000000000000000, 0.0000000000000000000, 1.000000000000000000 ) ) ;
#24 = DIRECTION ( 'NONE',  ( 0.0000000000000000000, 0.0000000000000000000, -1.000000000000000000 ) ) ;
#25 = DIRECTION ( 'NONE',  ( 0.0000000000000000000, 0.0000000000000000000, 1.000000000000000000 ) ) ;
#26 = CARTESIAN_POINT ( 'NONE',  ( 15.17439302257162300, 149.9999999999999700, -44.48300570326302500 ) ) ;
#27 = SECURITY_CLASSIFICATION_LEVEL ( 'unclassified' ) ;
#28 = CARTESIAN_POINT ( 'NONE',  ( 0.0000000000000000000, 2.000000000000001800, 0.0000000000000000000 ) ) ;
#29 = DIRECTION ( 'NONE',  ( 0.0000000000000000000, 0.0000000000000000000, 1.000000000000000000 ) ) ;
#30 = DIRECTION ( 'NONE',  ( -0.0000000000000000000, 1.000000000000000000, -0.0000000000000000000 ) ) ;
#31 = DIRECTION ( 'NONE',  ( -0.0000000000000000000, 1.000000000000000000, 0.0000000000000000000 ) ) ;
#32 = CARTESIAN_POINT ( 'NONE',  ( 0.0000000000000000000, 149.0000000000000000, 47.00000000000001400 ) ) ;
#33 = DIRECTION ( 'NONE',  ( 0.0000000000000000000, 0.0000000000000000000, 1.000000000000000000 ) ) ;
#34 = CARTESIAN_POINT ( 'NONE',  ( -15.11323040242114000, 148.9999999999999700, -42.38620373191415800 ) ) ;
#35 = PERSON_AND_ORGANIZATION_ROLE ( 'design_owner' ) ;
#36 = CARTESIAN_POINT ( 'NONE',  ( 15.11323040242114900, 149.0000000000000000, 47.00000000000001400 ) ) ;
#37 = DIRECTION ( 'NONE',  ( 0.0000000000000000000, -1.000000000000000000, 0.0000000000000000000 ) ) ;
#38 = CARTESIAN_POINT ( 'NONE',  ( 0.0000000000000000000, 0.0000000000000000000, 44.99999999999999300 ) ) ;
#39 = CARTESIAN_POINT ( 'NONE',  ( 0.0000000000000000000, 0.0000000000000000000, 0.0000000000000000000 ) ) ;
#40 = PLANE ( 'NONE',  #167 ) ;
#41 = APPLICATION_CONTEXT ( 'configuration controlled 3d designs of mechanical parts and assemblies' ) ;
#42 = CARTESIAN_POINT ( 'NONE',  ( 0.0000000000000000000, 70.88951107963046600, 0.0000000000000000000 ) ) ;
#43 = DIRECTION ( 'NONE',  ( -0.0000000000000000000, 1.000000000000000000, -0.0000000000000000000 ) ) ;
#44 = CARTESIAN_POINT ( 'NONE',  ( -15.17439302257161600, 149.9999999999999700, -44.48300570326303200 ) ) ;
#45 = CARTESIAN_POINT ( 'NONE',  ( 0.0000000000000000000, 149.0000000000000000, 0.0000000000000000000 ) ) ;
#46 = DIRECTION ( 'NONE',  ( 0.0000000000000000000, 0.0000000000000000000, 1.000000000000000000 ) ) ;
#47 = CARTESIAN_POINT ( 'NONE',  ( 15.17439302257162300, 149.9999999999999700, -44.48300570326302500 ) ) ;
#48 = DIRECTION ( 'NONE',  ( -0.0000000000000000000, 1.000000000000000000, -0.0000000000000000000 ) ) ;
#49 = CARTESIAN_POINT ( 'NONE',  ( 6.000000000000020400, -6.938893903907228400E-015, -44.59820624195550900 ) ) ;
#50 = DIRECTION ( 'NONE',  ( 0.0000000000000000000, 0.0000000000000000000, 1.000000000000000000 ) ) ;
#51 = CARTESIAN_POINT ( 'NONE',  ( 0.0000000000000000000, 149.0000000000000000, 0.0000000000000000000 ) ) ;
#52 = DIRECTION ( 'NONE',  ( -0.0000000000000000000, 1.000000000000000000, -0.0000000000000000000 ) ) ;
#53 = CARTESIAN_POINT ( 'NONE',  ( 6.000000000000020400, -6.938893903907228400E-015, -44.59820624195550900 ) ) ;
#54 = CARTESIAN_POINT ( 'NONE',  ( 0.0000000000000000000, 149.0000000000000000, 47.00000000000001400 ) ) ;
#55 = CARTESIAN_POINT ( 'NONE',  ( -15.11323040242114000, 148.9999999999999700, -42.38620373191415800 ) ) ;
#56 = CARTESIAN_POINT ( 'NONE',  ( -15.11323040242114100, 149.0000000000000000, -44.50382305828718900 ) ) ;
#57 = CARTESIAN_POINT ( 'NONE',  ( 0.0000000000000000000, 150.0000000000000000, 44.00000000000000700 ) ) ;
#58 = DIRECTION ( 'NONE',  ( -0.0000000000000000000, 1.000000000000000000, -0.0000000000000000000 ) ) ;
#59 = CARTESIAN_POINT ( 'NONE',  ( 0.0000000000000000000, 0.0000000000000000000, 0.0000000000000000000 ) ) ;
#60 = CARTESIAN_POINT ( 'NONE',  ( 0.0000000000000000000, 2.000000000000001800, 43.99999999999999300 ) ) ;
#61 = DIRECTION ( 'NONE',  ( -0.0000000000000000000, 1.000000000000000000, -0.0000000000000000000 ) ) ;
#62 = DIRECTION ( 'NONE',  ( -0.0000000000000000000, 1.000000000000000000, -0.0000000000000000000 ) ) ;
#63 = CARTESIAN_POINT ( 'NONE',  ( -15.13362271027557100, 149.3334112862441400, -44.49689795329930300 ) ) ;
#64 = CARTESIAN_POINT ( 'NONE',  ( 15.11323040242114700, 148.9999999999999700, -42.38620373191415800 ) ) ;
#65 = CARTESIAN_POINT ( 'NONE',  ( 15.11323040242114700, 148.9999999999999700, -42.38620373191415800 ) ) ;
#66 = CARTESIAN_POINT ( 'NONE',  ( 0.0000000000000000000, 0.0000000000000000000, 0.0000000000000000000 ) ) ;
#67 = CARTESIAN_POINT ( 'NONE',  ( 0.0000000000000000000, 2.000000000000000000, 43.99999999999999300 ) ) ;
#68 = DIRECTION ( 'NONE',  ( -0.0000000000000000000, 1.000000000000000000, -0.0000000000000000000 ) ) ;
#69 = DIRECTION ( 'NONE',  ( 0.0000000000000000000, -0.0000000000000000000, -1.000000000000000000 ) ) ;
#70 = DIRECTION ( 'NONE',  ( -0.0000000000000000000, 1.000000000000000000, -0.0000000000000000000 ) ) ;
#71 = APPROVAL_STATUS ( 'not_yet_approved' ) ;
#72 = PLANE ( 'NONE',  #203 ) ;
#73 = DIRECTION ( 'NONE',  ( 0.0000000000000000000, 0.0000000000000000000, 1.000000000000000000 ) ) ;
#74 = CARTESIAN_POINT ( 'NONE',  ( 0.0000000000000000000, 149.0000000000000000, 0.0000000000000000000 ) ) ;
#75 = CARTESIAN_POINT ( 'NONE',  ( -15.17439302257161600, 149.9999999999999700, -44.48300570326303200 ) ) ;
#76 = DIRECTION ( 'NONE',  ( 0.0000000000000000000, -0.0000000000000000000, -1.000000000000000000 ) ) ;
#77 = MECHANICAL_CONTEXT ( 'NONE', #126, 'mechanical' ) ;
#78 = CARTESIAN_POINT ( 'NONE',  ( 0.0000000000000000000, 150.0000000000000000, 0.0000000000000000000 ) ) ;
#79 = DIRECTION ( 'NONE',  ( 0.0000000000000000000, -1.000000000000000000, 0.0000000000000000000 ) ) ;
#80 = CARTESIAN_POINT ( 'NONE',  ( 0.0000000000000000000, 150.0000000000000000, 0.0000000000000000000 ) ) ;
#81 = DIRECTION ( 'NONE',  ( 0.0000000000000000000, 0.0000000000000000000, 1.000000000000000000 ) ) ;
#82 = APPROVAL_ROLE ( '' ) ;
#83 = CARTESIAN_POINT ( 'NONE',  ( 15.15401025353616200, 149.6667446720673800, -44.48995883386521700 ) ) ;
#84 = CARTESIAN_POINT ( 'NONE',  ( 0.0000000000000000000, 148.0000000000000000, 44.00000000000000700 ) ) ;
#85 = CARTESIAN_POINT ( 'NONE',  ( 0.0000000000000000000, 70.88951107963046600, 0.0000000000000000000 ) ) ;
#86 = DIRECTION ( 'NONE',  ( 0.0000000000000000000, 0.0000000000000000000, -1.000000000000000000 ) ) ;
#87 = CARTESIAN_POINT ( 'NONE',  ( -12.15812770080662600, 100.6844979115656700, -43.43987554160939600 ) ) ;
#88 = CARTESIAN_POINT ( 'NONE',  ( 15.13362271027557100, 149.3334112862440300, -44.49689795329930300 ) ) ;
#89 = DIRECTION ( 'NONE',  ( 0.0000000000000000000, 0.0000000000000000000, 1.000000000000000000 ) ) ;
#90 = DIRECTION ( 'NONE',  ( 0.0000000000000000000, 0.0000000000000000000, 1.000000000000000000 ) ) ;
#91 = DIRECTION ( 'NONE',  ( 0.0000000000000000000, 0.0000000000000000000, 1.000000000000000000 ) ) ;
#92 = DIRECTION ( 'NONE',  ( -0.0000000000000000000, 1.000000000000000000, -0.0000000000000000000 ) ) ;
#93 = CARTESIAN_POINT ( 'NONE',  ( -9.109320206790046700, 50.83693600993954900, -44.17989521976939200 ) ) ;
#94 = PERSON_AND_ORGANIZATION_ROLE ( 'design_supplier' ) ;
#95 = DIRECTION ( 'NONE',  ( -0.0000000000000000000, 1.000000000000000000, -0.0000000000000000000 ) ) ;
#96 = DIRECTION ( 'NONE',  ( -0.0000000000000000000, 1.000000000000000000, -0.0000000000000000000 ) ) ;
#97 = DIRECTION ( 'NONE',  ( -0.0000000000000000000, 1.000000000000000000, -0.0000000000000000000 ) ) ;
#98 = CARTESIAN_POINT ( 'NONE',  ( 0.0000000000000000000, 70.88951107963046600, 0.0000000000000000000 ) ) ;
#99 = CARTESIAN_POINT ( 'NONE',  ( 0.0000000000000000000, 148.0000000000000000, 0.0000000000000000000 ) ) ;
#100 = CARTESIAN_POINT ( 'NONE',  ( 0.0000000000000000000, 149.0000000000000000, 0.0000000000000000000 ) ) ;
#101 =( LENGTH_UNIT ( ) NAMED_UNIT ( * ) SI_UNIT ( .MILLI., .METRE. ) );
#102 = DIRECTION ( 'NONE',  ( 0.0000000000000000000, 0.0000000000000000000, 1.000000000000000000 ) ) ;
#103 = CARTESIAN_POINT ( 'NONE',  ( 0.0000000000000000000, 0.0000000000000000000, 0.0000000000000000000 ) ) ;
#104 =( NAMED_UNIT ( * ) PLANE_ANGLE_UNIT ( ) SI_UNIT ( $, .RADIAN. ) );
#105 = PLANE ( 'NONE',  #175 ) ;
#106 = DIRECTION ( 'NONE',  ( 0.0000000000000000000, -0.0000000000000000000, -1.000000000000000000 ) ) ;
#107 = CARTESIAN_POINT ( 'NONE',  ( 15.11323040242114900, 149.0000000000000000, -44.50382305828718900 ) ) ;
#108 = DIRECTION ( 'NONE',  ( -0.0000000000000000000, 1.000000000000000000, -0.0000000000000000000 ) ) ;
#109 = DIRECTION ( 'NONE',  ( 0.0000000000000000000, 0.0000000000000000000, 1.000000000000000000 ) ) ;
#110 = CARTESIAN_POINT ( 'NONE',  ( 0.0000000000000000000, 70.88951107963046600, 0.0000000000000000000 ) ) ;
#111 = DATE_TIME_ROLE ( 'creation_date' ) ;
#112 = DIRECTION ( 'NONE',  ( -0.0000000000000000000, 1.000000000000000000, -0.0000000000000000000 ) ) ;
#113 = DIRECTION ( 'NONE',  ( 0.0000000000000000000, 0.0000000000000000000, 1.000000000000000000 ) ) ;
#114 = APPROVAL_ROLE ( '' ) ;
#115 = DIRECTION ( 'NONE',  ( 0.0000000000000000000, 0.0000000000000000000, 1.000000000000000000 ) ) ;
#116 = DIRECTION ( 'NONE',  ( -0.0000000000000000000, 1.000000000000000000, -0.0000000000000000000 ) ) ;
#117 = DIRECTION ( 'NONE',  ( 0.0000000000000000000, 0.0000000000000000000, 1.000000000000000000 ) ) ;
#118 = APPLICATION_PROTOCOL_DEFINITION ( 'international standard', 'config_control_design', 1994, #126 ) ;
#119 = APPROVAL_STATUS ( 'not_yet_approved' ) ;
#120 = DIRECTION ( 'NONE',  ( 1.000000000000000000, 0.0000000000000000000, 0.0000000000000000000 ) ) ;
#121 = CARTESIAN_POINT ( 'NONE',  ( -5.999999999999977800, -6.938893903907228400E-015, -44.59820624195550900 ) ) ;
#122 = CARTESIAN_POINT ( 'NONE',  ( -5.999999999999977800, -6.938893903907228400E-015, -44.59820624195550900 ) ) ;
#123 = DIRECTION ( 'NONE',  ( 0.0000000000000000000, 0.0000000000000000000, 1.000000000000000000 ) ) ;
#124 = CARTESIAN_POINT ( 'NONE',  ( -15.15401025353616200, 149.6667446720674900, -44.48995883386521700 ) ) ;
#125 = PLANE ( 'NONE',  #161 ) ;
#126 = APPLICATION_CONTEXT ( 'configuration controlled 3d designs of mechanical parts and assemblies' ) ;
#127 = DIRECTION ( 'NONE',  ( 0.0000000000000000000, 0.0000000000000000000, 1.000000000000000000 ) ) ;
#128 = CARTESIAN_POINT ( 'NONE',  ( 15.11323040242114900, 149.0000000000000000, -44.50382305828718900 ) ) ;
#129 = PLANE ( 'NONE',  #154 ) ;
#130 = DIRECTION ( 'NONE',  ( 0.0000000000000000000, -1.000000000000000000, 0.0000000000000000000 ) ) ;
#131 = CARTESIAN_POINT ( 'NONE',  ( 9.109320206790101800, 50.83693600993994000, -44.17989521976936400 ) ) ;
#132 = PERSON_AND_ORGANIZATION_ROLE ( 'creator' ) ;
#133 = CARTESIAN_POINT ( 'NONE',  ( 0.0000000000000000000, 0.0000000000000000000, 43.99999999999999300 ) ) ;
#134 = CARTESIAN_POINT ( 'NONE',  ( 0.0000000000000000000, 150.0000000000000000, 44.00000000000000700 ) ) ;
#135 = APPLICATION_PROTOCOL_DEFINITION ( 'international standard', 'config_control_design', 1994, #41 ) ;
#136 = CARTESIAN_POINT ( 'NONE',  ( 12.15812770080665200, 100.6844979115658300, -43.43987554160938200 ) ) ;
#137 = DIRECTION ( 'NONE',  ( 0.0000000000000000000, 0.0000000000000000000, 1.000000000000000000 ) ) ;
#138 = DIRECTION ( 'NONE',  ( 0.0000000000000000000, 0.0000000000000000000, 1.000000000000000000 ) ) ;
#139 = CARTESIAN_POINT ( 'NONE',  ( 0.0000000000000000000, 70.88951107963046600, 0.0000000000000000000 ) ) ;
#140 = DIRECTION ( 'NONE',  ( -0.0000000000000000000, 1.000000000000000000, -0.0000000000000000000 ) ) ;
#141 =( NAMED_UNIT ( * ) SI_UNIT ( $, .STERADIAN. ) SOLID_ANGLE_UNIT ( ) );
#142 = CC_DESIGN_APPROVAL ( #145, ( #197 ) ) ;
#143 = EDGE_CURVE ( 'NONE', #222, #261, #9, .T. ) ;
#144 = EDGE_CURVE ( 'NONE', #229, #347, #334, .T. ) ;
#145 = APPROVAL ( #119, 'UNSPECIFIED' ) ;
#146 = CC_DESIGN_APPROVAL ( #171, ( #184 ) ) ;
#147 = EDGE_CURVE ( 'NONE', #349, #349, #276, .T. ) ;
#148 = AXIS2_PLACEMENT_3D ( 'NONE', #100, #68, #73 ) ;
#149 = PRODUCT_DEFINITION ( 'UNKNOWN', '', #197, #219 ) ;
#150 = AXIS2_PLACEMENT_3D ( 'NONE', #21, #31, #33 ) ;
#151 =( GEOMETRIC_REPRESENTATION_CONTEXT ( 3 ) GLOBAL_UNCERTAINTY_ASSIGNED_CONTEXT ( ( #7 ) ) GLOBAL_UNIT_ASSIGNED_CONTEXT ( ( #101, #104, #141 ) ) REPRESENTATION_CONTEXT ( 'NONE', 'WORKASPACE' ) );
#152 = AXIS2_PLACEMENT_3D ( 'NONE', #16, #96, #46 ) ;
#153 = AXIS2_PLACEMENT_3D ( 'NONE', #103, #48, #91 ) ;
#154 = AXIS2_PLACEMENT_3D ( 'NONE', #67, #79, #76 ) ;
#155 = EDGE_CURVE ( 'NONE', #261, #223, #295, .T. ) ;
#156 = CC_DESIGN_PERSON_AND_ORGANIZATION_ASSIGNMENT ( #315, #11, ( #149 ) ) ;
#157 = EDGE_CURVE ( 'NONE', #223, #229, #253, .T. ) ;
#158 = CC_DESIGN_PERSON_AND_ORGANIZATION_ASSIGNMENT ( #242, #17, ( #184 ) ) ;
#159 = AXIS2_PLACEMENT_3D ( 'NONE', #45, #95, #90 ) ;
#160 = EDGE_CURVE ( 'NONE', #261, #347, #250, .T. ) ;
#161 = AXIS2_PLACEMENT_3D ( 'NONE', #54, #14, #106 ) ;
#162 = CC_DESIGN_SECURITY_CLASSIFICATION ( #184, ( #197 ) ) ;
#163 = AXIS2_PLACEMENT_3D ( 'NONE', #15, #108, #123 ) ;
#164 = CC_DESIGN_APPROVAL ( #165, ( #149 ) ) ;
#165 = APPROVAL ( #71, 'UNSPECIFIED' ) ;
#166 = CC_DESIGN_PERSON_AND_ORGANIZATION_ASSIGNMENT ( #346, #132, ( #197 ) ) ;
#167 = AXIS2_PLACEMENT_3D ( 'NONE', #38, #130, #20 ) ;
#168 = AXIS2_PLACEMENT_3D ( 'NONE', #85, #61, #81 ) ;
#169 = AXIS2_PLACEMENT_3D ( 'NONE', #110, #52, #117 ) ;
#170 = CC_DESIGN_PERSON_AND_ORGANIZATION_ASSIGNMENT ( #322, #35, ( #2 ) ) ;
#171 = APPROVAL ( #206, 'UNSPECIFIED' ) ;
#172 = EDGE_CURVE ( 'NONE', #329, #329, #294, .T. ) ;
#173 = CC_DESIGN_DATE_AND_TIME_ASSIGNMENT ( #350, #204, ( #184 ) ) ;
#174 = CC_DESIGN_PERSON_AND_ORGANIZATION_ASSIGNMENT ( #273, #94, ( #197 ) ) ;
#175 = AXIS2_PLACEMENT_3D ( 'NONE', #32, #37, #69 ) ;
#176 = AXIS2_PLACEMENT_3D ( 'NONE', #59, #50, #120 ) ;
#177 = EDGE_CURVE ( 'NONE', #260, #224, #231, .T. ) ;
#178 = EDGE_CURVE ( 'NONE', #307, #222, #356, .T. ) ;
#179 = AXIS2_PLACEMENT_3D ( 'NONE', #74, #92, #109 ) ;
#180 = EDGE_CURVE ( 'NONE', #332, #332, #265, .T. ) ;
#181 = AXIS2_PLACEMENT_3D ( 'NONE', #98, #112, #89 ) ;
#182 = AXIS2_PLACEMENT_3D ( 'NONE', #78, #97, #102 ) ;
#183 = AXIS2_PLACEMENT_3D ( 'NONE', #51, #43, #25 ) ;
#184 = SECURITY_CLASSIFICATION ( '', '', #27 ) ;
#185 = EDGE_CURVE ( 'NONE', #307, #223, #4, .T. ) ;
#186 = AXIS2_PLACEMENT_3D ( 'NONE', #99, #140, #23 ) ;
#187 = AXIS2_PLACEMENT_3D ( 'NONE', #28, #62, #19 ) ;
#188 = AXIS2_PLACEMENT_3D ( 'NONE', #66, #116, #115 ) ;
#189 = EDGE_CURVE ( 'NONE', #347, #260, #5, .T. ) ;
#190 = EDGE_CURVE ( 'NONE', #224, #260, #341, .T. ) ;
#191 = EDGE_CURVE ( 'NONE', #222, #307, #233, .T. ) ;
#192 = EDGE_CURVE ( 'NONE', #223, #261, #327, .T. ) ;
#193 = AXIS2_PLACEMENT_3D ( 'NONE', #139, #58, #127 ) ;
#194 = EDGE_CURVE ( 'NONE', #347, #229, #330, .T. ) ;
#195 = AXIS2_PLACEMENT_3D ( 'NONE', #42, #30, #29 ) ;
#196 = EDGE_CURVE ( 'NONE', #338, #338, #335, .T. ) ;
#197 = PRODUCT_DEFINITION_FORMATION_WITH_SPECIFIED_SOURCE ( 'ANY', '', #2, .NOT_KNOWN. ) ;
#198 = AXIS2_PLACEMENT_3D ( 'NONE', #80, #70, #138 ) ;
#199 = EDGE_CURVE ( 'NONE', #229, #224, #6, .T. ) ;
#200 = CC_DESIGN_DATE_AND_TIME_ASSIGNMENT ( #304, #111, ( #149 ) ) ;
#201 = PRODUCT_RELATED_PRODUCT_CATEGORY ( 'detail', '', ( #2 ) ) ;
#202 = AXIS2_PLACEMENT_3D ( 'NONE', #39, #13, #137 ) ;
#203 = AXIS2_PLACEMENT_3D ( 'NONE', #134, #10, #113 ) ;
#204 = DATE_TIME_ROLE ( 'classification_date' ) ;
#205 = APPROVAL_ROLE ( '' ) ;
#206 = APPROVAL_STATUS ( 'not_yet_approved' ) ;
#207 = ADVANCED_FACE ( 'NONE', ( #291 ), #277, .T. ) ;
#208 = ADVANCED_FACE ( 'NONE', ( #317 ), #237, .T. ) ;
#209 = ADVANCED_FACE ( 'NONE', ( #280 ), #129, .T. ) ;
#210 = ADVANCED_FACE ( 'NONE', ( #298, #269 ), #40, .T. ) ;
#211 = ADVANCED_FACE ( 'NONE', ( #234 ), #105, .T. ) ;
#212 = ADVANCED_FACE ( 'NONE', ( #262 ), #271, .T. ) ;
#213 = ADVANCED_FACE ( 'NONE', ( #284 ), #345, .T. ) ;
#214 = ADVANCED_FACE ( 'NONE', ( #292 ), #125, .T. ) ;
#215 = ADVANCED_FACE ( 'NONE', ( #238, #353 ), #72, .T. ) ;
#216 = ADVANCED_FACE ( 'NONE', ( #227, #333 ), #337, .F. ) ;
#217 = ADVANCED_FACE ( 'NONE', ( #351 ), #22, .T. ) ;
#218 = ADVANCED_FACE ( 'NONE', ( #355, #359 ), #352, .F. ) ;
#219 = DESIGN_CONTEXT ( 'detailed design', #41, 'design' ) ;
#220 = PRODUCT_DEFINITION_SHAPE ( 'NONE', 'NONE',  #149 ) ;
#221 = ORIENTED_EDGE ( 'NONE', *, *, #196, .T. ) ;
#222 = VERTEX_POINT ( 'NONE', #122 ) ;
#223 = VERTEX_POINT ( 'NONE', #65 ) ;
#224 = VERTEX_POINT ( 'NONE', #26 ) ;
#225 = EDGE_LOOP ( 'NONE', ( #325, #256, #263, #254 ) ) ;
#226 = EDGE_LOOP ( 'NONE', ( #281 ) ) ;
#227 = FACE_OUTER_BOUND ( 'NONE', #239, .T. ) ;
#228 = COORDINATED_UNIVERSAL_TIME_OFFSET ( 8, 0, .AHEAD. ) ;
#229 = VERTEX_POINT ( 'NONE', #107 ) ;
#230 = LOCAL_TIME ( 15, 37, 39.00000000000000000, #228 ) ;
#231 = CIRCLE ( 'NONE', #163, 47.00000000000001400 ) ;
#232 = EDGE_LOOP ( 'NONE', ( #278, #314, #342, #354 ) ) ;
#233 = CIRCLE ( 'NONE', #188, 44.99999999999999300 ) ;
#234 = FACE_OUTER_BOUND ( 'NONE', #235, .T. ) ;
#235 = EDGE_LOOP ( 'NONE', ( #249, #340, #358, #290 ) ) ;
#236 = CLOSED_SHELL ( 'NONE', ( #212, #211, #213, #207, #214, #208, #210, #216, #209, #217, #218, #215 ) ) ;
#237 = CYLINDRICAL_SURFACE ( 'NONE', #169, 45.00000000000000000 ) ;
#238 = FACE_OUTER_BOUND ( 'NONE', #279, .T. ) ;
#239 = EDGE_LOOP ( 'NONE', ( #344 ) ) ;
#240 = EDGE_LOOP ( 'NONE', ( #331 ) ) ;
#241 = ORIENTED_EDGE ( 'NONE', *, *, #177, .T. ) ;
#242 = PERSON_AND_ORGANIZATION ( #1, #321 ) ;
#243 = ORIENTED_EDGE ( 'NONE', *, *, #196, .F. ) ;
#244 = APPROVAL_DATE_TIME ( #357, #171 ) ;
#245 = EDGE_LOOP ( 'NONE', ( #319 ) ) ;
#246 = LOCAL_TIME ( 15, 37, 39.00000000000000000, #299 ) ;
#247 = ORIENTED_EDGE ( 'NONE', *, *, #199, .T. ) ;
#248 = EDGE_LOOP ( 'NONE', ( #328, #247, #316, #289 ) ) ;
#249 = ORIENTED_EDGE ( 'NONE', *, *, #155, .T. ) ;
#250 = LINE ( 'NONE', #18, #318 ) ;
#251 = CALENDAR_DATE ( 2014, 27, 6 ) ;
#252 = ORIENTED_EDGE ( 'NONE', *, *, #144, .T. ) ;
#253 = LINE ( 'NONE', #36, #270 ) ;
#254 = ORIENTED_EDGE ( 'NONE', *, *, #192, .F. ) ;
#255 = ORIENTED_EDGE ( 'NONE', *, *, #199, .F. ) ;
#256 = ORIENTED_EDGE ( 'NONE', *, *, #178, .T. ) ;
#257 = ORIENTED_EDGE ( 'NONE', *, *, #147, .F. ) ;
#258 = EDGE_LOOP ( 'NONE', ( #311, #272 ) ) ;
#259 = ORIENTED_EDGE ( 'NONE', *, *, #157, .F. ) ;
#260 = VERTEX_POINT ( 'NONE', #75 ) ;
#261 = VERTEX_POINT ( 'NONE', #55 ) ;
#262 = FACE_OUTER_BOUND ( 'NONE', #248, .T. ) ;
#263 = ORIENTED_EDGE ( 'NONE', *, *, #143, .T. ) ;
#264 = EDGE_LOOP ( 'NONE', ( #257 ) ) ;
#265 = CIRCLE ( 'NONE', #186, 44.00000000000000700 ) ;
#266 = APPROVAL_PERSON_ORGANIZATION ( #320, #171, #205 ) ;
#267 = EDGE_LOOP ( 'NONE', ( #221 ) ) ;
#268 = EDGE_LOOP ( 'NONE', ( #255, #252, #343, #312 ) ) ;
#269 = FACE_OUTER_BOUND ( 'NONE', #258, .T. ) ;
#270 = VECTOR ( 'NONE', #24, 1000.000000000000000 ) ;
#271 = CYLINDRICAL_SURFACE ( 'NONE', #168, 47.00000000000001400 ) ;
#272 = ORIENTED_EDGE ( 'NONE', *, *, #178, .F. ) ;
#273 = PERSON_AND_ORGANIZATION ( #1, #321 ) ;
#274 = ORIENTED_EDGE ( 'NONE', *, *, #144, .F. ) ;
#275 = APPROVAL_DATE_TIME ( #282, #145 ) ;
#276 = CIRCLE ( 'NONE', #182, 44.00000000000000700 ) ;
#277 = CYLINDRICAL_SURFACE ( 'NONE', #181, 47.00000000000001400 ) ;
#278 = ORIENTED_EDGE ( 'NONE', *, *, #191, .T. ) ;
#279 = EDGE_LOOP ( 'NONE', ( #241, #285 ) ) ;
#280 = FACE_OUTER_BOUND ( 'NONE', #245, .T. ) ;
#281 = ORIENTED_EDGE ( 'NONE', *, *, #180, .F. ) ;
#282 = DATE_AND_TIME ( #288, #246 ) ;
#283 = CALENDAR_DATE ( 2014, 27, 6 ) ;
#284 = FACE_OUTER_BOUND ( 'NONE', #232, .T. ) ;
#285 = ORIENTED_EDGE ( 'NONE', *, *, #190, .T. ) ;
#286 = COORDINATED_UNIVERSAL_TIME_OFFSET ( 8, 0, .AHEAD. ) ;
#287 = LOCAL_TIME ( 15, 37, 39.00000000000000000, #286 ) ;
#288 = CALENDAR_DATE ( 2014, 27, 6 ) ;
#289 = ORIENTED_EDGE ( 'NONE', *, *, #189, .F. ) ;
#290 = ORIENTED_EDGE ( 'NONE', *, *, #160, .F. ) ;
#291 = FACE_OUTER_BOUND ( 'NONE', #268, .T. ) ;
#292 = FACE_OUTER_BOUND ( 'NONE', #326, .T. ) ;
#293 = EDGE_LOOP ( 'NONE', ( #300 ) ) ;
#294 = CIRCLE ( 'NONE', #187, 43.99999999999999300 ) ;
#295 = CIRCLE ( 'NONE', #148, 45.00000000000001400 ) ;
#296 = APPROVAL_PERSON_ORGANIZATION ( #305, #145, #114 ) ;
#297 = ORIENTED_EDGE ( 'NONE', *, *, #160, .T. ) ;
#298 = FACE_BOUND ( 'NONE', #267, .T. ) ;
#299 = COORDINATED_UNIVERSAL_TIME_OFFSET ( 8, 0, .AHEAD. ) ;
#300 = ORIENTED_EDGE ( 'NONE', *, *, #147, .T. ) ;
#301 = COORDINATED_UNIVERSAL_TIME_OFFSET ( 8, 0, .AHEAD. ) ;
#302 = LOCAL_TIME ( 15, 37, 39.00000000000000000, #301 ) ;
#303 = CALENDAR_DATE ( 2014, 27, 6 ) ;
#304 = DATE_AND_TIME ( #303, #302 ) ;
#305 = PERSON_AND_ORGANIZATION ( #1, #321 ) ;
#306 = LOCAL_TIME ( 15, 37, 39.00000000000000000, #309 ) ;
#307 = VERTEX_POINT ( 'NONE', #49 ) ;
#308 = CALENDAR_DATE ( 2014, 27, 6 ) ;
#309 = COORDINATED_UNIVERSAL_TIME_OFFSET ( 8, 0, .AHEAD. ) ;
#310 = DATE_AND_TIME ( #308, #306 ) ;
#311 = ORIENTED_EDGE ( 'NONE', *, *, #191, .F. ) ;
#312 = ORIENTED_EDGE ( 'NONE', *, *, #190, .F. ) ;
#313 = APPROVAL_DATE_TIME ( #310, #165 ) ;
#314 = ORIENTED_EDGE ( 'NONE', *, *, #185, .T. ) ;
#315 = PERSON_AND_ORGANIZATION ( #1, #321 ) ;
#316 = ORIENTED_EDGE ( 'NONE', *, *, #177, .F. ) ;
#317 = FACE_OUTER_BOUND ( 'NONE', #225, .T. ) ;
#318 = VECTOR ( 'NONE', #86, 1000.000000000000000 ) ;
#319 = ORIENTED_EDGE ( 'NONE', *, *, #172, .F. ) ;
#320 = PERSON_AND_ORGANIZATION ( #1, #321 ) ;
#321 = ORGANIZATION ( 'UNSPECIFIED', 'UNSPECIFIED', '' ) ;
#322 = PERSON_AND_ORGANIZATION ( #1, #321 ) ;
#323 = PERSON_AND_ORGANIZATION ( #1, #321 ) ;
#324 = APPROVAL_PERSON_ORGANIZATION ( #323, #165, #82 ) ;
#325 = ORIENTED_EDGE ( 'NONE', *, *, #185, .F. ) ;
#326 = EDGE_LOOP ( 'NONE', ( #259, #339, #297, #274 ) ) ;
#327 = CIRCLE ( 'NONE', #159, 45.00000000000001400 ) ;
#328 = ORIENTED_EDGE ( 'NONE', *, *, #194, .T. ) ;
#329 = VERTEX_POINT ( 'NONE', #60 ) ;
#330 = CIRCLE ( 'NONE', #179, 47.00000000000001400 ) ;
#331 = ORIENTED_EDGE ( 'NONE', *, *, #180, .T. ) ;
#332 = VERTEX_POINT ( 'NONE', #84 ) ;
#333 = FACE_OUTER_BOUND ( 'NONE', #348, .T. ) ;
#334 = CIRCLE ( 'NONE', #183, 47.00000000000001400 ) ;
#335 = CIRCLE ( 'NONE', #202, 43.99999999999999300 ) ;
#336 = SHAPE_DEFINITION_REPRESENTATION ( #220, #8 ) ;
#337 = CYLINDRICAL_SURFACE ( 'NONE', #152, 43.99999999999999300 ) ;
#338 = VERTEX_POINT ( 'NONE', #133 ) ;
#339 = ORIENTED_EDGE ( 'NONE', *, *, #192, .T. ) ;
#340 = ORIENTED_EDGE ( 'NONE', *, *, #157, .T. ) ;
#341 = CIRCLE ( 'NONE', #198, 47.00000000000001400 ) ;
#342 = ORIENTED_EDGE ( 'NONE', *, *, #155, .F. ) ;
#343 = ORIENTED_EDGE ( 'NONE', *, *, #189, .T. ) ;
#344 = ORIENTED_EDGE ( 'NONE', *, *, #172, .T. ) ;
#345 = CYLINDRICAL_SURFACE ( 'NONE', #193, 45.00000000000000000 ) ;
#346 = PERSON_AND_ORGANIZATION ( #1, #321 ) ;
#347 = VERTEX_POINT ( 'NONE', #56 ) ;
#348 = EDGE_LOOP ( 'NONE', ( #243 ) ) ;
#349 = VERTEX_POINT ( 'NONE', #57 ) ;
#350 = DATE_AND_TIME ( #283, #287 ) ;
#351 = FACE_OUTER_BOUND ( 'NONE', #240, .T. ) ;
#352 = CYLINDRICAL_SURFACE ( 'NONE', #195, 44.00000000000000700 ) ;
#353 = FACE_BOUND ( 'NONE', #264, .T. ) ;
#354 = ORIENTED_EDGE ( 'NONE', *, *, #143, .F. ) ;
#355 = FACE_OUTER_BOUND ( 'NONE', #293, .T. ) ;
#356 = CIRCLE ( 'NONE', #153, 44.99999999999999300 ) ;
#357 = DATE_AND_TIME ( #251, #230 ) ;
#358 = ORIENTED_EDGE ( 'NONE', *, *, #194, .F. ) ;
#359 = FACE_OUTER_BOUND ( 'NONE', #226, .T. ) ;
ENDSEC;
END-ISO-10303-21;
