ISO-10303-21;
HEADER;
FILE_DESCRIPTION (( 'STEP AP203' ),
    '1' );
FILE_NAME ('0506354000 outline drawing.STEP',
    '2014-06-27T07:30:50',
    ( '' ),
    ( '' ),
    'SwSTEP 2.0',
    'SolidWorks 2012',
    '' );
FILE_SCHEMA (( 'CONFIG_CONTROL_DESIGN' ));
ENDSEC;

DATA;
#1 = PRODUCT ( '0506354000 outline drawing', '0506354000 outline drawing', '', ( #248 ) ) ;
#2 = PERSON ( 'UNSPECIFIED', 'UNSPECIFIED', 'UNSPECIFIED', ('UNSPECIFIED'), ('UNSPECIFIED'), ('UNSPECIFIED') ) ;
#3 = AXIS2_PLACEMENT_3D ( 'NONE', #229, #315, #295 ) ;
#4 = EDGE_CURVE ( 'NONE', #221, #114, #119, .T. ) ;
#5 = AXIS2_PLACEMENT_3D ( 'NONE', #332, #336, #273 ) ;
#6 = CC_DESIGN_PERSON_AND_ORGANIZATION_ASSIGNMENT ( #160, #350, ( #1 ) ) ;
#7 = AXIS2_PLACEMENT_3D ( 'NONE', #226, #287, #231 ) ;
#8 = EDGE_CURVE ( 'NONE', #114, #221, #182, .T. ) ;
#9 = EDGE_CURVE ( 'NONE', #205, #166, #216, .T. ) ;
#10 = EDGE_CURVE ( 'NONE', #222, #222, #197, .T. ) ;
#11 = APPROVAL ( #306, 'UNSPECIFIED' ) ;
#12 = AXIS2_PLACEMENT_3D ( 'NONE', #282, #293, #237 ) ;
#13 = EDGE_CURVE ( 'NONE', #148, #148, #140, .T. ) ;
#14 = AXIS2_PLACEMENT_3D ( 'NONE', #280, #259, #225 ) ;
#15 = CC_DESIGN_SECURITY_CLASSIFICATION ( #40, ( #56 ) ) ;
#16 = AXIS2_PLACEMENT_3D ( 'NONE', #255, #314, #240 ) ;
#17 = APPROVAL ( #290, 'UNSPECIFIED' ) ;
#18 = EDGE_CURVE ( 'NONE', #205, #111, #66, .T. ) ;
#19 = AXIS2_PLACEMENT_3D ( 'NONE', #343, #320, #238 ) ;
#20 = EDGE_CURVE ( 'NONE', #224, #224, #162, .T. ) ;
#21 = AXIS2_PLACEMENT_3D ( 'NONE', #270, #269, #267 ) ;
#22 = EDGE_CURVE ( 'NONE', #149, #149, #202, .T. ) ;
#23 = AXIS2_PLACEMENT_3D ( 'NONE', #277, #328, #309 ) ;
#24 =( GEOMETRIC_REPRESENTATION_CONTEXT ( 3 ) GLOBAL_UNCERTAINTY_ASSIGNED_CONTEXT ( ( #69 ) ) GLOBAL_UNIT_ASSIGNED_CONTEXT ( ( #244, #241, #359 ) ) REPRESENTATION_CONTEXT ( 'NONE', 'WORKASPACE' ) );
#25 = CC_DESIGN_PERSON_AND_ORGANIZATION_ASSIGNMENT ( #115, #250, ( #56 ) ) ;
#26 = AXIS2_PLACEMENT_3D ( 'NONE', #246, #337, #346 ) ;
#27 = AXIS2_PLACEMENT_3D ( 'NONE', #227, #264, #247 ) ;
#28 = AXIS2_PLACEMENT_3D ( 'NONE', #334, #353, #333 ) ;
#29 = CC_DESIGN_APPROVAL ( #41, ( #48 ) ) ;
#30 = AXIS2_PLACEMENT_3D ( 'NONE', #311, #319, #300 ) ;
#31 = AXIS2_PLACEMENT_3D ( 'NONE', #243, #242, #348 ) ;
#32 = CC_DESIGN_PERSON_AND_ORGANIZATION_ASSIGNMENT ( #153, #263, ( #56 ) ) ;
#33 = CC_DESIGN_APPROVAL ( #17, ( #56 ) ) ;
#34 = AXIS2_PLACEMENT_3D ( 'NONE', #281, #305, #304 ) ;
#35 = EDGE_CURVE ( 'NONE', #114, #223, #65, .T. ) ;
#36 = EDGE_CURVE ( 'NONE', #221, #95, #71, .T. ) ;
#37 = EDGE_CURVE ( 'NONE', #95, #166, #91, .T. ) ;
#38 = EDGE_CURVE ( 'NONE', #223, #205, #126, .T. ) ;
#39 = AXIS2_PLACEMENT_3D ( 'NONE', #276, #251, #236 ) ;
#40 = SECURITY_CLASSIFICATION ( '', '', #260 ) ;
#41 = APPROVAL ( #302, 'UNSPECIFIED' ) ;
#42 = AXIS2_PLACEMENT_3D ( 'NONE', #235, #327, #278 ) ;
#43 = CC_DESIGN_DATE_AND_TIME_ASSIGNMENT ( #204, #256, ( #40 ) ) ;
#44 = AXIS2_PLACEMENT_3D ( 'NONE', #245, #323, #258 ) ;
#45 = PRODUCT_RELATED_PRODUCT_CATEGORY ( 'detail', '', ( #1 ) ) ;
#46 = EDGE_CURVE ( 'NONE', #111, #131, #139, .T. ) ;
#47 = EDGE_CURVE ( 'NONE', #95, #223, #217, .T. ) ;
#48 = PRODUCT_DEFINITION ( 'UNKNOWN', '', #56, #84 ) ;
#49 = CC_DESIGN_APPROVAL ( #11, ( #40 ) ) ;
#50 = EDGE_CURVE ( 'NONE', #166, #205, #129, .T. ) ;
#51 = AXIS2_PLACEMENT_3D ( 'NONE', #298, #338, #352 ) ;
#52 = EDGE_CURVE ( 'NONE', #223, #95, #86, .T. ) ;
#53 = AXIS2_PLACEMENT_3D ( 'NONE', #351, #313, #339 ) ;
#54 = AXIS2_PLACEMENT_3D ( 'NONE', #286, #303, #289 ) ;
#55 = CC_DESIGN_PERSON_AND_ORGANIZATION_ASSIGNMENT ( #207, #279, ( #48 ) ) ;
#56 = PRODUCT_DEFINITION_FORMATION_WITH_SPECIFIED_SOURCE ( 'ANY', '', #1, .NOT_KNOWN. ) ;
#57 = AXIS2_PLACEMENT_3D ( 'NONE', #317, #321, #354 ) ;
#58 = AXIS2_PLACEMENT_3D ( 'NONE', #322, #355, #272 ) ;
#59 = EDGE_CURVE ( 'NONE', #166, #131, #68, .T. ) ;
#60 = CC_DESIGN_DATE_AND_TIME_ASSIGNMENT ( #155, #318, ( #48 ) ) ;
#61 = AXIS2_PLACEMENT_3D ( 'NONE', #228, #342, #257 ) ;
#62 = CC_DESIGN_PERSON_AND_ORGANIZATION_ASSIGNMENT ( #102, #307, ( #40 ) ) ;
#63 = EDGE_CURVE ( 'NONE', #131, #111, #175, .T. ) ;
#64 = AXIS2_PLACEMENT_3D ( 'NONE', #344, #292, #239 ) ;
#65 =( BOUNDED_CURVE ( )  B_SPLINE_CURVE ( 3, ( #253, #329, #262, #324 ),
 .UNSPECIFIED., .F., .T. ) 
 B_SPLINE_CURVE_WITH_KNOTS ( ( 4, 4 ),
 ( 4.904036175360105600, 5.213241392376672500 ),
 .UNSPECIFIED. ) 
 CURVE ( )  GEOMETRIC_REPRESENTATION_ITEM ( )  RATIONAL_B_SPLINE_CURVE ( ( 1.000000000000000000, 0.9920485347314569300, 0.9920485347314569300, 1.000000000000000000 ) ) 
 REPRESENTATION_ITEM ( '' )  );
#66 =( BOUNDED_CURVE ( )  B_SPLINE_CURVE ( 3, ( #294, #330, #288, #349 ),
 .UNSPECIFIED., .F., .T. ) 
 B_SPLINE_CURVE_WITH_KNOTS ( ( 4, 4 ),
 ( 5.193260894235152100, 5.194949374803671900 ),
 .UNSPECIFIED. ) 
 CURVE ( )  GEOMETRIC_REPRESENTATION_ITEM ( )  RATIONAL_B_SPLINE_CURVE ( ( 1.000000000000000000, 0.9999997624194616500, 0.9999997624194616500, 1.000000000000000000 ) ) 
 REPRESENTATION_ITEM ( '' )  );
#67 = MANIFOLD_SOLID_BREP ( 'Split Line1', #130 ) ;
#68 =( BOUNDED_CURVE ( )  B_SPLINE_CURVE ( 3, ( #233, #234, #331, #249 ),
 .UNSPECIFIED., .F., .T. ) 
 B_SPLINE_CURVE_WITH_KNOTS ( ( 4, 4 ),
 ( 5.193260894235151200, 5.194949374803671000 ),
 .UNSPECIFIED. ) 
 CURVE ( )  GEOMETRIC_REPRESENTATION_ITEM ( )  RATIONAL_B_SPLINE_CURVE ( ( 1.000000000000000000, 0.9999997624194616500, 0.9999997624194616500, 1.000000000000000000 ) ) 
 REPRESENTATION_ITEM ( '' )  );
#69 = UNCERTAINTY_MEASURE_WITH_UNIT (LENGTH_MEASURE( 1.000000000000000100E-005 ), #244, 'distance_accuracy_value', 'NONE');
#70 = ADVANCED_BREP_SHAPE_REPRESENTATION ( '0506354000 outline drawing', ( #67, #31 ), #24 ) ;
#71 =( BOUNDED_CURVE ( )  B_SPLINE_CURVE ( 3, ( #252, #232, #312, #356 ),
 .UNSPECIFIED., .F., .T. ) 
 B_SPLINE_CURVE_WITH_KNOTS ( ( 4, 4 ),
 ( 4.904036175360106500, 5.213241392376671600 ),
 .UNSPECIFIED. ) 
 CURVE ( )  GEOMETRIC_REPRESENTATION_ITEM ( )  RATIONAL_B_SPLINE_CURVE ( ( 1.000000000000000000, 0.9920485347314570400, 0.9920485347314570400, 1.000000000000000000 ) ) 
 REPRESENTATION_ITEM ( '' )  );
#72 = ADVANCED_FACE ( 'NONE', ( #120 ), #254, .T. ) ;
#73 = ADVANCED_FACE ( 'NONE', ( #125, #118 ), #326, .T. ) ;
#74 = ADVANCED_FACE ( 'NONE', ( #203 ), #116, .T. ) ;
#75 = ADVANCED_FACE ( 'NONE', ( #212 ), #265, .T. ) ;
#76 = ADVANCED_FACE ( 'NONE', ( #96 ), #92, .T. ) ;
#77 = ADVANCED_FACE ( 'NONE', ( #171 ), #157, .T. ) ;
#78 = ADVANCED_FACE ( 'NONE', ( #168 ), #347, .T. ) ;
#79 = ADVANCED_FACE ( 'NONE', ( #167, #134 ), #192, .F. ) ;
#80 = ADVANCED_FACE ( 'NONE', ( #193, #107 ), #308, .T. ) ;
#81 = ADVANCED_FACE ( 'NONE', ( #213 ), #184, .T. ) ;
#82 = ADVANCED_FACE ( 'NONE', ( #117 ), #261, .T. ) ;
#83 = ADVANCED_FACE ( 'NONE', ( #177, #109 ), #185, .F. ) ;
#84 = DESIGN_CONTEXT ( 'detailed design', #296, 'design' ) ;
#85 = PRODUCT_DEFINITION_SHAPE ( 'NONE', 'NONE',  #48 ) ;
#86 = CIRCLE ( 'NONE', #23, 31.50000000000002100 ) ;
#87 = LOCAL_TIME ( 15, 30, 50.00000000000000000, #151 ) ;
#88 = COORDINATED_UNIVERSAL_TIME_OFFSET ( 8, 0, .AHEAD. ) ;
#89 = ORIENTED_EDGE ( 'NONE', *, *, #50, .T. ) ;
#90 = EDGE_LOOP ( 'NONE', ( #169, #196, #135, #124 ) ) ;
#91 = LINE ( 'NONE', #335, #127 ) ;
#92 = CYLINDRICAL_SURFACE ( 'NONE', #53, 31.50000000000000000 ) ;
#93 = ORIENTED_EDGE ( 'NONE', *, *, #63, .T. ) ;
#94 = EDGE_LOOP ( 'NONE', ( #183, #191, #164, #200 ) ) ;
#95 = VERTEX_POINT ( 'NONE', #325 ) ;
#96 = FACE_OUTER_BOUND ( 'NONE', #90, .T. ) ;
#97 = CALENDAR_DATE ( 2014, 27, 6 ) ;
#98 = ORIENTED_EDGE ( 'NONE', *, *, #59, .F. ) ;
#99 = ORIENTED_EDGE ( 'NONE', *, *, #22, .T. ) ;
#100 = EDGE_LOOP ( 'NONE', ( #150 ) ) ;
#101 = ORIENTED_EDGE ( 'NONE', *, *, #37, .F. ) ;
#102 = PERSON_AND_ORGANIZATION ( #2, #103 ) ;
#103 = ORGANIZATION ( 'UNSPECIFIED', 'UNSPECIFIED', '' ) ;
#104 = ORIENTED_EDGE ( 'NONE', *, *, #38, .T. ) ;
#105 = EDGE_LOOP ( 'NONE', ( #137 ) ) ;
#106 = DATE_AND_TIME ( #156, #113 ) ;
#107 = FACE_BOUND ( 'NONE', #163, .T. ) ;
#108 = EDGE_LOOP ( 'NONE', ( #99 ) ) ;
#109 = FACE_OUTER_BOUND ( 'NONE', #195, .T. ) ;
#110 = APPROVAL_DATE_TIME ( #190, #41 ) ;
#111 = VERTEX_POINT ( 'NONE', #310 ) ;
#112 = SHAPE_DEFINITION_REPRESENTATION ( #85, #70 ) ;
#113 = LOCAL_TIME ( 15, 30, 50.00000000000000000, #158 ) ;
#114 = VERTEX_POINT ( 'NONE', #268 ) ;
#115 = PERSON_AND_ORGANIZATION ( #2, #103 ) ;
#116 = CYLINDRICAL_SURFACE ( 'NONE', #30, 32.70000000000002400 ) ;
#117 = FACE_OUTER_BOUND ( 'NONE', #188, .T. ) ;
#118 = FACE_OUTER_BOUND ( 'NONE', #179, .T. ) ;
#119 = CIRCLE ( 'NONE', #34, 31.49999999999998600 ) ;
#120 = FACE_OUTER_BOUND ( 'NONE', #187, .T. ) ;
#121 = CALENDAR_DATE ( 2014, 27, 6 ) ;
#122 = APPROVAL_DATE_TIME ( #106, #17 ) ;
#123 = EDGE_LOOP ( 'NONE', ( #173 ) ) ;
#124 = ORIENTED_EDGE ( 'NONE', *, *, #47, .F. ) ;
#125 = FACE_BOUND ( 'NONE', #198, .T. ) ;
#126 = LINE ( 'NONE', #299, #211 ) ;
#127 = VECTOR ( 'NONE', #275, 1000.000000000000000 ) ;
#128 = LOCAL_TIME ( 15, 30, 50.00000000000000000, #219 ) ;
#129 = CIRCLE ( 'NONE', #51, 32.70000000000002400 ) ;
#130 = CLOSED_SHELL ( 'NONE', ( #74, #82, #77, #83, #80, #81, #72, #76, #73, #79, #78, #75 ) ) ;
#131 = VERTEX_POINT ( 'NONE', #266 ) ;
#132 = LOCAL_TIME ( 15, 30, 50.00000000000000000, #141 ) ;
#133 = ORIENTED_EDGE ( 'NONE', *, *, #18, .T. ) ;
#134 = FACE_OUTER_BOUND ( 'NONE', #100, .T. ) ;
#135 = ORIENTED_EDGE ( 'NONE', *, *, #35, .T. ) ;
#136 = APPROVAL_DATE_TIME ( #194, #11 ) ;
#137 = ORIENTED_EDGE ( 'NONE', *, *, #13, .T. ) ;
#138 = PERSON_AND_ORGANIZATION ( #2, #103 ) ;
#139 = CIRCLE ( 'NONE', #58, 32.70000000000002400 ) ;
#140 = CIRCLE ( 'NONE', #19, 30.69999999999998900 ) ;
#141 = COORDINATED_UNIVERSAL_TIME_OFFSET ( 8, 0, .AHEAD. ) ;
#142 = ORIENTED_EDGE ( 'NONE', *, *, #36, .T. ) ;
#143 = EDGE_LOOP ( 'NONE', ( #206 ) ) ;
#144 = PERSON_AND_ORGANIZATION ( #2, #103 ) ;
#145 = ORIENTED_EDGE ( 'NONE', *, *, #63, .F. ) ;
#146 = ORIENTED_EDGE ( 'NONE', *, *, #52, .T. ) ;
#147 = ORIENTED_EDGE ( 'NONE', *, *, #46, .T. ) ;
#148 = VERTEX_POINT ( 'NONE', #283 ) ;
#149 = VERTEX_POINT ( 'NONE', #301 ) ;
#150 = ORIENTED_EDGE ( 'NONE', *, *, #20, .F. ) ;
#151 = COORDINATED_UNIVERSAL_TIME_OFFSET ( 8, 0, .AHEAD. ) ;
#152 = ORIENTED_EDGE ( 'NONE', *, *, #50, .F. ) ;
#153 = PERSON_AND_ORGANIZATION ( #2, #103 ) ;
#154 = ORIENTED_EDGE ( 'NONE', *, *, #8, .T. ) ;
#155 = DATE_AND_TIME ( #121, #132 ) ;
#156 = CALENDAR_DATE ( 2014, 27, 6 ) ;
#157 = CYLINDRICAL_SURFACE ( 'NONE', #26, 31.50000000000000000 ) ;
#158 = COORDINATED_UNIVERSAL_TIME_OFFSET ( 8, 0, .AHEAD. ) ;
#159 = ORIENTED_EDGE ( 'NONE', *, *, #4, .F. ) ;
#160 = PERSON_AND_ORGANIZATION ( #2, #103 ) ;
#161 = ORIENTED_EDGE ( 'NONE', *, *, #20, .T. ) ;
#162 = CIRCLE ( 'NONE', #5, 30.69999999999998900 ) ;
#163 = EDGE_LOOP ( 'NONE', ( #189 ) ) ;
#164 = ORIENTED_EDGE ( 'NONE', *, *, #46, .F. ) ;
#165 = ORIENTED_EDGE ( 'NONE', *, *, #35, .F. ) ;
#166 = VERTEX_POINT ( 'NONE', #345 ) ;
#167 = FACE_OUTER_BOUND ( 'NONE', #105, .T. ) ;
#168 = FACE_OUTER_BOUND ( 'NONE', #143, .T. ) ;
#169 = ORIENTED_EDGE ( 'NONE', *, *, #36, .F. ) ;
#170 = PERSON_AND_ORGANIZATION ( #2, #103 ) ;
#171 = FACE_OUTER_BOUND ( 'NONE', #209, .T. ) ;
#172 = ORIENTED_EDGE ( 'NONE', *, *, #52, .F. ) ;
#173 = ORIENTED_EDGE ( 'NONE', *, *, #10, .T. ) ;
#174 = APPROVAL_PERSON_ORGANIZATION ( #144, #41, #340 ) ;
#175 = CIRCLE ( 'NONE', #42, 32.70000000000002400 ) ;
#176 = CALENDAR_DATE ( 2014, 27, 6 ) ;
#177 = FACE_OUTER_BOUND ( 'NONE', #123, .T. ) ;
#178 = ORIENTED_EDGE ( 'NONE', *, *, #22, .F. ) ;
#179 = EDGE_LOOP ( 'NONE', ( #220, #159 ) ) ;
#180 = CALENDAR_DATE ( 2014, 27, 6 ) ;
#181 = LOCAL_TIME ( 15, 30, 50.00000000000000000, #88 ) ;
#182 = CIRCLE ( 'NONE', #3, 31.49999999999998600 ) ;
#183 = ORIENTED_EDGE ( 'NONE', *, *, #9, .T. ) ;
#184 = CYLINDRICAL_SURFACE ( 'NONE', #39, 32.70000000000002400 ) ;
#185 = CYLINDRICAL_SURFACE ( 'NONE', #64, 30.70000000000001700 ) ;
#186 = ORIENTED_EDGE ( 'NONE', *, *, #38, .F. ) ;
#187 = EDGE_LOOP ( 'NONE', ( #101, #218, #104, #152 ) ) ;
#188 = EDGE_LOOP ( 'NONE', ( #146, #201, #199, #186 ) ) ;
#189 = ORIENTED_EDGE ( 'NONE', *, *, #10, .F. ) ;
#190 = DATE_AND_TIME ( #97, #181 ) ;
#191 = ORIENTED_EDGE ( 'NONE', *, *, #59, .T. ) ;
#192 = CYLINDRICAL_SURFACE ( 'NONE', #44, 30.69999999999998900 ) ;
#193 = FACE_OUTER_BOUND ( 'NONE', #215, .T. ) ;
#194 = DATE_AND_TIME ( #176, #87 ) ;
#195 = EDGE_LOOP ( 'NONE', ( #178 ) ) ;
#196 = ORIENTED_EDGE ( 'NONE', *, *, #4, .T. ) ;
#197 = CIRCLE ( 'NONE', #57, 30.70000000000001700 ) ;
#198 = EDGE_LOOP ( 'NONE', ( #161 ) ) ;
#199 = ORIENTED_EDGE ( 'NONE', *, *, #9, .F. ) ;
#200 = ORIENTED_EDGE ( 'NONE', *, *, #18, .F. ) ;
#201 = ORIENTED_EDGE ( 'NONE', *, *, #37, .T. ) ;
#202 = CIRCLE ( 'NONE', #54, 30.70000000000001700 ) ;
#203 = FACE_OUTER_BOUND ( 'NONE', #94, .T. ) ;
#204 = DATE_AND_TIME ( #180, #128 ) ;
#205 = VERTEX_POINT ( 'NONE', #271 ) ;
#206 = ORIENTED_EDGE ( 'NONE', *, *, #13, .F. ) ;
#207 = PERSON_AND_ORGANIZATION ( #2, #103 ) ;
#208 = EDGE_LOOP ( 'NONE', ( #98, #89, #133, #145 ) ) ;
#209 = EDGE_LOOP ( 'NONE', ( #154, #142, #172, #165 ) ) ;
#210 = APPROVAL_PERSON_ORGANIZATION ( #170, #17, #274 ) ;
#211 = VECTOR ( 'NONE', #357, 1000.000000000000000 ) ;
#212 = FACE_OUTER_BOUND ( 'NONE', #108, .T. ) ;
#213 = FACE_OUTER_BOUND ( 'NONE', #208, .T. ) ;
#214 = APPROVAL_PERSON_ORGANIZATION ( #138, #11, #297 ) ;
#215 = EDGE_LOOP ( 'NONE', ( #147, #93 ) ) ;
#216 = CIRCLE ( 'NONE', #7, 32.70000000000002400 ) ;
#217 = CIRCLE ( 'NONE', #21, 31.50000000000002100 ) ;
#218 = ORIENTED_EDGE ( 'NONE', *, *, #47, .T. ) ;
#219 = COORDINATED_UNIVERSAL_TIME_OFFSET ( 8, 0, .AHEAD. ) ;
#220 = ORIENTED_EDGE ( 'NONE', *, *, #8, .F. ) ;
#221 = VERTEX_POINT ( 'NONE', #285 ) ;
#222 = VERTEX_POINT ( 'NONE', #316 ) ;
#223 = VERTEX_POINT ( 'NONE', #291 ) ;
#224 = VERTEX_POINT ( 'NONE', #284 ) ;
#225 = DIRECTION ( 'NONE',  ( 1.000000000000000000, -7.405347562100080100E-017, 0.0000000000000000000 ) ) ;
#226 = CARTESIAN_POINT ( 'NONE',  ( 1.815535371725967600E-014, 149.1999999999999900, 0.0000000000000000000 ) ) ;
#227 = CARTESIAN_POINT ( 'NONE',  ( -30.69999999999999900, 150.0000000000000000, 0.0000000000000000000 ) ) ;
#228 = CARTESIAN_POINT ( 'NONE',  ( -30.69999999999999900, 148.0000000000000000, 0.0000000000000000000 ) ) ;
#229 = CARTESIAN_POINT ( 'NONE',  ( 7.106575154606354900E-015, 0.0000000000000000000, 0.0000000000000000000 ) ) ;
#230 = APPLICATION_PROTOCOL_DEFINITION ( 'international standard', 'config_control_design', 1994, #296 ) ;
#231 = DIRECTION ( 'NONE',  ( -1.000000000000000000, 0.0000000000000000000, 0.0000000000000000000 ) ) ;
#232 = CARTESIAN_POINT ( 'NONE',  ( 9.199977316040282500, 52.31916664406145400, -30.30240539337413400 ) ) ;
#233 = CARTESIAN_POINT ( 'NONE',  ( 15.12546292645124200, 149.1999999999999900, -28.99155689611290000 ) ) ;
#234 = CARTESIAN_POINT ( 'NONE',  ( 15.14178015521296700, 149.4667843320245900, -28.98304387835458900 ) ) ;
#235 = CARTESIAN_POINT ( 'NONE',  ( 1.821459649775647400E-014, 150.0000000000000000, 0.0000000000000000000 ) ) ;
#236 = DIRECTION ( 'NONE',  ( -1.000000000000000000, 0.0000000000000000000, 0.0000000000000000000 ) ) ;
#237 = DIRECTION ( 'NONE',  ( 1.000000000000000000, -7.405347562100080100E-017, 0.0000000000000000000 ) ) ;
#238 = DIRECTION ( 'NONE',  ( -1.000000000000000000, 7.063206335410454600E-017, 0.0000000000000000000 ) ) ;
#239 = DIRECTION ( 'NONE',  ( -1.000000000000000000, 0.0000000000000000000, 0.0000000000000000000 ) ) ;
#240 = DIRECTION ( 'NONE',  ( 1.000000000000000000, -7.405347562100080100E-017, 0.0000000000000000000 ) ) ;
#241 =( NAMED_UNIT ( * ) PLANE_ANGLE_UNIT ( ) SI_UNIT ( $, .RADIAN. ) );
#242 = DIRECTION ( 'NONE',  ( 0.0000000000000000000, 0.0000000000000000000, 1.000000000000000000 ) ) ;
#243 = CARTESIAN_POINT ( 'NONE',  ( 0.0000000000000000000, 0.0000000000000000000, 0.0000000000000000000 ) ) ;
#244 =( LENGTH_UNIT ( ) NAMED_UNIT ( * ) SI_UNIT ( .MILLI., .METRE. ) );
#245 = CARTESIAN_POINT ( 'NONE',  ( 1.821459649775647400E-014, 150.0000000000000000, 0.0000000000000000000 ) ) ;
#246 = CARTESIAN_POINT ( 'NONE',  ( 1.821459649775647400E-014, 150.0000000000000000, 0.0000000000000000000 ) ) ;
#247 = DIRECTION ( 'NONE',  ( -1.000000000000000000, 7.405347562100080100E-017, 0.0000000000000000000 ) ) ;
#248 = MECHANICAL_CONTEXT ( 'NONE', #358, 'mechanical' ) ;
#249 = CARTESIAN_POINT ( 'NONE',  ( 15.17439302257163000, 149.9999999999999700, -28.96597653103606300 ) ) ;
#250 = PERSON_AND_ORGANIZATION_ROLE ( 'creator' ) ;
#251 = DIRECTION ( 'NONE',  ( 7.405347562100080100E-017, 1.000000000000000000, -0.0000000000000000000 ) ) ;
#252 = CARTESIAN_POINT ( 'NONE',  ( 6.000000000000023100, -2.221604268630029700E-016, -30.92329219213244700 ) ) ;
#253 = CARTESIAN_POINT ( 'NONE',  ( -5.999999999999974200, -6.716733477044226500E-015, -30.92329219213245400 ) ) ;
#254 = PLANE ( 'NONE',  #28 ) ;
#255 = CARTESIAN_POINT ( 'NONE',  ( -31.49999999999997900, 2.962139024840013700E-017, 0.0000000000000000000 ) ) ;
#256 = DATE_TIME_ROLE ( 'classification_date' ) ;
#257 = DIRECTION ( 'NONE',  ( -1.000000000000000000, 7.405347562100080100E-017, 0.0000000000000000000 ) ) ;
#258 = DIRECTION ( 'NONE',  ( -1.000000000000000000, 0.0000000000000000000, 0.0000000000000000000 ) ) ;
#259 = DIRECTION ( 'NONE',  ( -7.405347562100080100E-017, -1.000000000000000000, 0.0000000000000000000 ) ) ;
#260 = SECURITY_CLASSIFICATION_LEVEL ( 'unclassified' ) ;
#261 = PLANE ( 'NONE',  #14 ) ;
#262 = CARTESIAN_POINT ( 'NONE',  ( -12.26617908842344900, 102.4511224830930200, -29.19616765623131700 ) ) ;
#263 = PERSON_AND_ORGANIZATION_ROLE ( 'design_supplier' ) ;
#264 = DIRECTION ( 'NONE',  ( 7.405347562100080100E-017, 1.000000000000000000, -0.0000000000000000000 ) ) ;
#265 = PLANE ( 'NONE',  #61 ) ;
#266 = CARTESIAN_POINT ( 'NONE',  ( 15.17439302257163000, 149.9999999999999700, -28.96597653103606300 ) ) ;
#267 = DIRECTION ( 'NONE',  ( -1.000000000000000000, 0.0000000000000000000, 0.0000000000000000000 ) ) ;
#268 = CARTESIAN_POINT ( 'NONE',  ( -5.999999999999974200, -6.716733477044226500E-015, -30.92329219213245400 ) ) ;
#269 = DIRECTION ( 'NONE',  ( 7.405347562100080100E-017, 1.000000000000000000, -0.0000000000000000000 ) ) ;
#270 = CARTESIAN_POINT ( 'NONE',  ( 1.815535371725967600E-014, 149.1999999999999900, 0.0000000000000000000 ) ) ;
#271 = CARTESIAN_POINT ( 'NONE',  ( -15.12546292645123500, 149.1999999999999900, -28.99155689611288300 ) ) ;
#272 = DIRECTION ( 'NONE',  ( -1.000000000000000000, 0.0000000000000000000, 0.0000000000000000000 ) ) ;
#273 = DIRECTION ( 'NONE',  ( -1.000000000000000000, 7.405347562100078900E-017, 0.0000000000000000000 ) ) ;
#274 = APPROVAL_ROLE ( '' ) ;
#275 = DIRECTION ( 'NONE',  ( 0.0000000000000000000, 0.0000000000000000000, -1.000000000000000000 ) ) ;
#276 = CARTESIAN_POINT ( 'NONE',  ( 1.821459649775647400E-014, 150.0000000000000000, 0.0000000000000000000 ) ) ;
#277 = CARTESIAN_POINT ( 'NONE',  ( 1.815535371725967600E-014, 149.1999999999999900, 0.0000000000000000000 ) ) ;
#278 = DIRECTION ( 'NONE',  ( -1.000000000000000000, 0.0000000000000000000, 0.0000000000000000000 ) ) ;
#279 = PERSON_AND_ORGANIZATION_ROLE ( 'creator' ) ;
#280 = CARTESIAN_POINT ( 'NONE',  ( -32.70000000000001000, 149.1999999999999900, 0.0000000000000000000 ) ) ;
#281 = CARTESIAN_POINT ( 'NONE',  ( 7.106575154606354900E-015, 0.0000000000000000000, 0.0000000000000000000 ) ) ;
#282 = CARTESIAN_POINT ( 'NONE',  ( -30.69999999999998200, 2.000000000000001300, 0.0000000000000000000 ) ) ;
#283 = CARTESIAN_POINT ( 'NONE',  ( -30.69999999999998200, 2.000000000000004000, 0.0000000000000000000 ) ) ;
#284 = CARTESIAN_POINT ( 'NONE',  ( -30.69999999999998200, 2.273441701564723600E-015, 0.0000000000000000000 ) ) ;
#285 = CARTESIAN_POINT ( 'NONE',  ( 6.000000000000023100, -2.221604268630029700E-016, -30.92329219213244700 ) ) ;
#286 = CARTESIAN_POINT ( 'NONE',  ( 1.806648954651447000E-014, 148.0000000000000000, 0.0000000000000000000 ) ) ;
#287 = DIRECTION ( 'NONE',  ( 7.405347562100080100E-017, 1.000000000000000000, -0.0000000000000000000 ) ) ;
#288 = CARTESIAN_POINT ( 'NONE',  ( -15.15809019112802500, 149.7334510620460700, -28.97451708796982900 ) ) ;
#289 = DIRECTION ( 'NONE',  ( -1.000000000000000000, 0.0000000000000000000, 0.0000000000000000000 ) ) ;
#290 = APPROVAL_STATUS ( 'not_yet_approved' ) ;
#291 = CARTESIAN_POINT ( 'NONE',  ( -15.12546292645123500, 149.1999999999999900, -27.63096761354096400 ) ) ;
#292 = DIRECTION ( 'NONE',  ( 7.405347562100080100E-017, 1.000000000000000000, -0.0000000000000000000 ) ) ;
#293 = DIRECTION ( 'NONE',  ( -7.405347562100080100E-017, -1.000000000000000000, 0.0000000000000000000 ) ) ;
#294 = CARTESIAN_POINT ( 'NONE',  ( -15.12546292645123500, 149.1999999999999900, -28.99155689611288300 ) ) ;
#295 = DIRECTION ( 'NONE',  ( -1.000000000000000000, 7.405347562100080100E-017, 0.0000000000000000000 ) ) ;
#296 = APPLICATION_CONTEXT ( 'configuration controlled 3d designs of mechanical parts and assemblies' ) ;
#297 = APPROVAL_ROLE ( '' ) ;
#298 = CARTESIAN_POINT ( 'NONE',  ( 1.815535371725967600E-014, 149.1999999999999900, 0.0000000000000000000 ) ) ;
#299 = CARTESIAN_POINT ( 'NONE',  ( -15.12546292645123500, 149.1999999999999900, 0.0000000000000000000 ) ) ;
#300 = DIRECTION ( 'NONE',  ( -1.000000000000000000, 0.0000000000000000000, 0.0000000000000000000 ) ) ;
#301 = CARTESIAN_POINT ( 'NONE',  ( -30.69999999999999900, 148.0000000000000000, 0.0000000000000000000 ) ) ;
#302 = APPROVAL_STATUS ( 'not_yet_approved' ) ;
#303 = DIRECTION ( 'NONE',  ( 7.405347562100080100E-017, 1.000000000000000000, -0.0000000000000000000 ) ) ;
#304 = DIRECTION ( 'NONE',  ( -1.000000000000000000, 7.405347562100080100E-017, 0.0000000000000000000 ) ) ;
#305 = DIRECTION ( 'NONE',  ( 7.405347562100080100E-017, 1.000000000000000000, -0.0000000000000000000 ) ) ;
#306 = APPROVAL_STATUS ( 'not_yet_approved' ) ;
#307 = PERSON_AND_ORGANIZATION_ROLE ( 'classification_officer' ) ;
#308 = PLANE ( 'NONE',  #27 ) ;
#309 = DIRECTION ( 'NONE',  ( -1.000000000000000000, 0.0000000000000000000, 0.0000000000000000000 ) ) ;
#310 = CARTESIAN_POINT ( 'NONE',  ( -15.17439302257161600, 149.9999999999999700, -28.96597653103605200 ) ) ;
#311 = CARTESIAN_POINT ( 'NONE',  ( 1.821459649775647400E-014, 150.0000000000000000, 0.0000000000000000000 ) ) ;
#312 = CARTESIAN_POINT ( 'NONE',  ( 12.26617908842347400, 102.4511224830929600, -29.19616765623132400 ) ) ;
#313 = DIRECTION ( 'NONE',  ( 7.405347562100080100E-017, 1.000000000000000000, -0.0000000000000000000 ) ) ;
#314 = DIRECTION ( 'NONE',  ( -7.405347562100080100E-017, -1.000000000000000000, 0.0000000000000000000 ) ) ;
#315 = DIRECTION ( 'NONE',  ( 7.405347562100080100E-017, 1.000000000000000000, -0.0000000000000000000 ) ) ;
#316 = CARTESIAN_POINT ( 'NONE',  ( -30.69999999999999900, 150.0000000000000000, 0.0000000000000000000 ) ) ;
#317 = CARTESIAN_POINT ( 'NONE',  ( 1.821459649775647400E-014, 150.0000000000000000, 0.0000000000000000000 ) ) ;
#318 = DATE_TIME_ROLE ( 'creation_date' ) ;
#319 = DIRECTION ( 'NONE',  ( 7.405347562100080100E-017, 1.000000000000000000, -0.0000000000000000000 ) ) ;
#320 = DIRECTION ( 'NONE',  ( 7.405347562100080100E-017, 1.000000000000000000, -0.0000000000000000000 ) ) ;
#321 = DIRECTION ( 'NONE',  ( 7.405347562100080100E-017, 1.000000000000000000, -0.0000000000000000000 ) ) ;
#322 = CARTESIAN_POINT ( 'NONE',  ( 1.821459649775647400E-014, 150.0000000000000000, 0.0000000000000000000 ) ) ;
#323 = DIRECTION ( 'NONE',  ( 7.405347562100080100E-017, 1.000000000000000000, -0.0000000000000000000 ) ) ;
#324 = CARTESIAN_POINT ( 'NONE',  ( -15.12546292645123500, 149.1999999999999900, -27.63096761354096400 ) ) ;
#325 = CARTESIAN_POINT ( 'NONE',  ( 15.12546292645124700, 149.1999999999999900, -27.63096761354097800 ) ) ;
#326 = PLANE ( 'NONE',  #16 ) ;
#327 = DIRECTION ( 'NONE',  ( 7.405347562100080100E-017, 1.000000000000000000, -0.0000000000000000000 ) ) ;
#328 = DIRECTION ( 'NONE',  ( 7.405347562100080100E-017, 1.000000000000000000, -0.0000000000000000000 ) ) ;
#329 = CARTESIAN_POINT ( 'NONE',  ( -9.199977316040250500, 52.31916664406155300, -30.30240539337413400 ) ) ;
#330 = CARTESIAN_POINT ( 'NONE',  ( -15.14178015521295400, 149.4667843320246400, -28.98304387835457200 ) ) ;
#331 = CARTESIAN_POINT ( 'NONE',  ( 15.15809019112803900, 149.7334510620460400, -28.97451708796984300 ) ) ;
#332 = CARTESIAN_POINT ( 'NONE',  ( 7.106575154606354900E-015, 0.0000000000000000000, 0.0000000000000000000 ) ) ;
#333 = DIRECTION ( 'NONE',  ( 1.000000000000000000, -7.405347562100080100E-017, 0.0000000000000000000 ) ) ;
#334 = CARTESIAN_POINT ( 'NONE',  ( -32.70000000000001000, 149.1999999999999900, 0.0000000000000000000 ) ) ;
#335 = CARTESIAN_POINT ( 'NONE',  ( 15.12546292645124200, 149.1999999999999900, 0.0000000000000000000 ) ) ;
#336 = DIRECTION ( 'NONE',  ( 7.405347562100080100E-017, 1.000000000000000000, -0.0000000000000000000 ) ) ;
#337 = DIRECTION ( 'NONE',  ( 7.405347562100080100E-017, 1.000000000000000000, -0.0000000000000000000 ) ) ;
#338 = DIRECTION ( 'NONE',  ( 7.405347562100080100E-017, 1.000000000000000000, -0.0000000000000000000 ) ) ;
#339 = DIRECTION ( 'NONE',  ( -1.000000000000000000, 0.0000000000000000000, 0.0000000000000000000 ) ) ;
#340 = APPROVAL_ROLE ( '' ) ;
#341 = APPLICATION_PROTOCOL_DEFINITION ( 'international standard', 'config_control_design', 1994, #358 ) ;
#342 = DIRECTION ( 'NONE',  ( 7.405347562100080100E-017, 1.000000000000000000, -0.0000000000000000000 ) ) ;
#343 = CARTESIAN_POINT ( 'NONE',  ( 7.254682105848356200E-015, 2.000000000000001800, 0.0000000000000000000 ) ) ;
#344 = CARTESIAN_POINT ( 'NONE',  ( 1.821459649775647400E-014, 150.0000000000000000, 0.0000000000000000000 ) ) ;
#345 = CARTESIAN_POINT ( 'NONE',  ( 15.12546292645124200, 149.1999999999999900, -28.99155689611290000 ) ) ;
#346 = DIRECTION ( 'NONE',  ( -1.000000000000000000, 0.0000000000000000000, 0.0000000000000000000 ) ) ;
#347 = PLANE ( 'NONE',  #12 ) ;
#348 = DIRECTION ( 'NONE',  ( 1.000000000000000000, 0.0000000000000000000, 0.0000000000000000000 ) ) ;
#349 = CARTESIAN_POINT ( 'NONE',  ( -15.17439302257161600, 149.9999999999999700, -28.96597653103605200 ) ) ;
#350 = PERSON_AND_ORGANIZATION_ROLE ( 'design_owner' ) ;
#351 = CARTESIAN_POINT ( 'NONE',  ( 1.821459649775647400E-014, 150.0000000000000000, 0.0000000000000000000 ) ) ;
#352 = DIRECTION ( 'NONE',  ( -1.000000000000000000, 0.0000000000000000000, 0.0000000000000000000 ) ) ;
#353 = DIRECTION ( 'NONE',  ( -7.405347562100080100E-017, -1.000000000000000000, 0.0000000000000000000 ) ) ;
#354 = DIRECTION ( 'NONE',  ( -1.000000000000000000, 0.0000000000000000000, 0.0000000000000000000 ) ) ;
#355 = DIRECTION ( 'NONE',  ( 7.405347562100080100E-017, 1.000000000000000000, -0.0000000000000000000 ) ) ;
#356 = CARTESIAN_POINT ( 'NONE',  ( 15.12546292645124700, 149.1999999999999900, -27.63096761354097800 ) ) ;
#357 = DIRECTION ( 'NONE',  ( 0.0000000000000000000, 0.0000000000000000000, -1.000000000000000000 ) ) ;
#358 = APPLICATION_CONTEXT ( 'configuration controlled 3d designs of mechanical parts and assemblies' ) ;
#359 =( NAMED_UNIT ( * ) SI_UNIT ( $, .STERADIAN. ) SOLID_ANGLE_UNIT ( ) );
ENDSEC;
END-ISO-10303-21;
