  0
SECTION
  2
HEADER
  9
$ACADVER
  1
AC1009
  9
$DWGCODEPAGE
  3
ansi_1252
  9
$INSBASE
 10
0.0
 20
0.0
 30
0.0
  9
$EXTMIN
 10
0.0
 20
0.0
 30
0.0
  9
$EXTMAX
 10
594.0
 20
420.0
 30
0.0
  9
$LIMMIN
 10
0.0
 20
0.0
  9
$LIMMAX
 10
594.0
 20
420.0
  9
$ORTHOMODE
 70
     0
  9
$REGENMODE
 70
     1
  9
$FILLMODE
 70
     1
  9
$QTEXTMODE
 70
     0
  9
$MIRRTEXT
 70
     1
  9
$DRAGMODE
 70
     2
  9
$LTSCALE
 40
1.0
  9
$OSMODE
 70
    37
  9
$ATTMODE
 70
     1
  9
$TEXTSIZE
 40
2.5
  9
$TRACEWID
 40
1.0
  9
$TEXTSTYLE
  7
STANDARD
  9
$CLAYER
  8
0
  9
$CELTYPE
  6
BYLAYER
  9
$CECOLOR
 62
   256
  9
$DIMSCALE
 40
1.0
  9
$DIMASZ
 40
2.5
  9
$DIMEXO
 40
1.0
  9
$DIMDLI
 40
3.75
  9
$DIMRND
 40
0.0
  9
$DIMDLE
 40
0.0
  9
$DIMEXE
 40
1.0
  9
$DIMTP
 40
0.0
  9
$DIMTM
 40
0.0
  9
$DIMTXT
 40
2.5
  9
$DIMCEN
 40
2.5
  9
$DIMTSZ
 40
0.0
  9
$DIMTOL
 70
     0
  9
$DIMLIM
 70
     0
  9
$DIMTIH
 70
     1
  9
$DIMTOH
 70
     1
  9
$DIMSE1
 70
     0
  9
$DIMSE2
 70
     0
  9
$DIMTAD
 70
     1
  9
$DIMZIN
 70
     0
  9
$DIMBLK
  1

  9
$DIMASO
 70
     1
  9
$DIMSHO
 70
     1
  9
$DIMPOST
  1

  9
$DIMAPOST
  1

  9
$DIMALT
 70
     0
  9
$DIMALTD
 70
     3
  9
$DIMALTF
 40
0.0393700787
  9
$DIMLFAC
 40
1.0
  9
$DIMTOFL
 70
     1
  9
$DIMTVP
 40
0.0
  9
$DIMTIX
 70
     0
  9
$DIMSOXD
 70
     0
  9
$DIMSAH
 70
     0
  9
$DIMBLK1
  1

  9
$DIMBLK2
  1

  9
$DIMSTYLE
  2
ISO-25
  9
$DIMCLRD
 70
     0
  9
$DIMCLRE
 70
     0
  9
$DIMCLRT
 70
     0
  9
$DIMTFAC
 40
1.0
  9
$DIMGAP
 40
1.524
  9
$LUNITS
 70
     2
  9
$LUPREC
 70
     2
  9
$SKETCHINC
 40
1.0
  9
$FILLETRAD
 40
10.0
  9
$AUNITS
 70
     0
  9
$AUPREC
 70
     2
  9
$MENU
  1
.
  9
$ELEVATION
 40
0.0
  9
$PELEVATION
 40
0.0
  9
$THICKNESS
 40
0.0
  9
$LIMCHECK
 70
     0
  9
$CHAMFERA
 40
10.0
  9
$CHAMFERB
 40
10.0
  9
$SKPOLY
 70
     0
  9
$TDCREATE
 40
2458222.317760984
  9
$TDUPDATE
 40
2458222.317761528
  9
$TDINDWG
 40
0.0000000116
  9
$TDUSRTIMER
 40
0.0000000116
  9
$USRTIMER
 70
     1
  9
$ANGBASE
 50
0.0
  9
$ANGDIR
 70
     0
  9
$PDMODE
 70
     0
  9
$PDSIZE
 40
-1.0
  9
$PLINEWID
 40
0.0
  9
$COORDS
 70
     1
  9
$SPLFRAME
 70
     0
  9
$SPLINETYPE
 70
     6
  9
$SPLINESEGS
 70
     8
  9
$ATTDIA
 70
     0
  9
$ATTREQ
 70
     1
  9
$HANDLING
 70
     1
  9
$HANDSEED
  5
C0D
  9
$SURFTAB1
 70
     6
  9
$SURFTAB2
 70
     6
  9
$SURFTYPE
 70
     6
  9
$SURFU
 70
     6
  9
$SURFV
 70
     6
  9
$UCSNAME
  2

  9
$UCSORG
 10
0.0
 20
0.0
 30
0.0
  9
$UCSXDIR
 10
1.0
 20
0.0
 30
0.0
  9
$UCSYDIR
 10
0.0
 20
1.0
 30
0.0
  9
$PUCSNAME
  2

  9
$PUCSORG
 10
0.0
 20
0.0
 30
0.0
  9
$PUCSXDIR
 10
1.0
 20
0.0
 30
0.0
  9
$PUCSYDIR
 10
0.0
 20
1.0
 30
0.0
  9
$USERI1
 70
     0
  9
$USERI2
 70
     0
  9
$USERI3
 70
     0
  9
$USERI4
 70
     0
  9
$USERI5
 70
     0
  9
$USERR1
 40
0.0
  9
$USERR2
 40
0.0
  9
$USERR3
 40
0.0
  9
$USERR4
 40
0.0
  9
$USERR5
 40
0.0
  9
$WORLDVIEW
 70
     1
  9
$SHADEDGE
 70
     3
  9
$SHADEDIF
 70
    70
  9
$TILEMODE
 70
     1
  9
$MAXACTVP
 70
    64
  9
$PLIMCHECK
 70
     0
  9
$PEXTMIN
 10
1.0000000000E+20
 20
1.0000000000E+20
 30
1.0000000000E+20
  9
$PEXTMAX
 10
-1.0000000000E+20
 20
-1.0000000000E+20
 30
-1.0000000000E+20
  9
$PLIMMIN
 10
0.0
 20
0.0
  9
$PLIMMAX
 10
420.0
 20
297.0
  9
$UNITMODE
 70
     0
  9
$VISRETAIN
 70
     1
  9
$PLINEGEN
 70
     0
  9
$PSLTSCALE
 70
     1
  0
ENDSEC
  0
SECTION
  2
TABLES
  0
TABLE
  2
VPORT
 70
     1
  0
VPORT
  2
*ACTIVE
 70
     0
 10
0.0
 20
0.0
 11
1.0
 21
1.0
 12
297.0
 22
210.0
 13
0.0
 23
0.0
 14
10.0
 24
10.0
 15
10.0
 25
10.0
 16
0.0
 26
0.0
 36
1.0
 17
0.0
 27
0.0
 37
0.0
 40
420.0
 41
1.4142857143
 42
50.0
 43
0.0
 44
0.0
 50
0.0
 51
0.0
 71
     0
 72
  2000
 73
     1
 74
     3
 75
     0
 76
     0
 77
     0
 78
     0
  0
ENDTAB
  0
TABLE
  2
LTYPE
 70
     6
  0
LTYPE
  2
CONTINUOUS
 70
     0
  3
Solid line
 72
    65
 73
     0
 40
0.0
  0
LTYPE
  2
HIDDEN
 70
     0
  3
Hidden __ __ __ __ __ __ __ __ __ __ __ __ __ __
 72
    65
 73
     2
 40
1.905
 49
1.27
 49
-0.635
  0
LTYPE
  2
PHANTOM
 70
     0
  3
Phantom ______  __  __  ______  __  __  ______
 72
    65
 73
     6
 40
12.7
 49
6.35
 49
-1.27
 49
1.27
 49
-1.27
 49
1.27
 49
-1.27
  0
LTYPE
  2
CENTER
 70
     0
  3
Center ____ _ ____ _ ____ _ ____ _ ____ _ ____
 72
    65
 73
     4
 40
10.16
 49
6.35
 49
-1.27
 49
1.27
 49
-1.27
  0
LTYPE
  2
CENTERX2
 70
     0
  3
Center (2x) ________  __  ________  __  _____
 72
    65
 73
     4
 40
20.32
 49
12.7
 49
-2.54
 49
2.54
 49
-2.54
  0
LTYPE
  2
DOT2
 70
     0
  3
Dot (.5x) ........................................
 72
    65
 73
     2
 40
0.635
 49
0.0
 49
-0.635
  0
ENDTAB
  0
TABLE
  2
LAYER
 70
     3
  0
LAYER
  2
0
 70
     0
 62
     7
  6
CONTINUOUS
  0
LAYER
  2
FORMAT
 70
     0
 62
     7
  6
CONTINUOUS
  0
LAYER
  2
PROTOTYPE
 70
     0
 62
     7
  6
CONTINUOUS
  0
ENDTAB
  0
TABLE
  2
STYLE
 70
     1
  0
STYLE
  2
STANDARD
 70
     0
 40
0.0
 41
1.0
 50
0.0
 71
     0
 42
2.5
  3
txt
  4

  0
ENDTAB
  0
TABLE
  2
VIEW
 70
     0
  0
ENDTAB
  0
TABLE
  2
UCS
 70
     0
  0
ENDTAB
  0
TABLE
  2
APPID
 70
     1
  0
APPID
  2
ACAD
 70
     0
  0
ENDTAB
  0
TABLE
  2
DIMSTYLE
 70
     1
  0
DIMSTYLE
  2
ISO-25
 70
     0
  3

  4

  5

  6

  7

 40
1.0
 41
2.5
 42
0.625
 43
3.75
 44
1.25
 45
0.0
 46
0.0
 47
0.0
 48
0.0
140
2.5
141
2.5
142
0.0
143
0.0393700787
144
1.0
145
0.0
146
1.0
147
0.625
 71
     0
 72
     0
 73
     0
 74
     0
 75
     0
 76
     0
 77
     1
 78
     8
170
     0
171
     3
172
     1
173
     0
174
     0
175
     0
176
     0
177
     0
178
     0
  0
ENDTAB
  0
ENDSEC
  0
SECTION
  2
BLOCKS
  0
BLOCK
  8
0
  2
$MODEL_SPACE
 70
     0
 10
0.0
 20
0.0
 30
0.0
  3
$MODEL_SPACE
  1

  0
ENDBLK
  5
21
  8
0
  0
BLOCK
 67
     1
  8
0
  2
$PAPER_SPACE
 70
     0
 10
0.0
 20
0.0
 30
0.0
  3
$PAPER_SPACE
  1

  0
ENDBLK
  5
1D
 67
     1
  8
0
  0
BLOCK
  8
0
  2
SW_CENTERMARKSYMBOL_0
 70
     0
 10
0.0
 20
0.0
 30
0.0
  3
SW_CENTERMARKSYMBOL_0
  1

  0
LINE
  5
18F
  8
FORMAT
 62
     0
 10
0.0
 20
0.0
 30
0.0
 11
0.0
 21
2.5
 31
0.0
  0
LINE
  5
190
  8
FORMAT
 62
     0
 10
0.0
 20
0.0
 30
0.0
 11
-2.5
 21
0.0
 31
0.0
  0
LINE
  5
191
  8
FORMAT
 62
     0
 10
0.0
 20
0.0
 30
0.0
 11
0.0
 21
-2.5
 31
0.0
  0
LINE
  5
192
  8
FORMAT
 62
     0
 10
0.0
 20
0.0
 30
0.0
 11
2.5
 21
0.0
 31
0.0
  0
LINE
  5
193
  8
FORMAT
 62
     0
 10
0.0
 20
5.0
 30
0.0
 11
0.0
 21
557.9807192863
 31
0.0
  0
LINE
  5
194
  8
FORMAT
 62
     0
 10
-5.0
 20
0.0
 30
0.0
 11
-384.8700685125
 21
0.0
 31
0.0
  0
LINE
  5
195
  8
FORMAT
 62
     0
 10
0.0
 20
-5.0
 30
0.0
 11
0.0
 21
-389.5938515406
 31
0.0
  0
LINE
  5
196
  8
FORMAT
 62
     0
 10
5.0
 20
0.0
 30
0.0
 11
381.7606144178
 21
0.0
 31
0.0
  0
ENDBLK
  5
18E
  8
0
  0
ENDSEC
  0
SECTION
  2
ENTITIES
  0
LINE
  5
46
  8
0
  6
CONTINUOUS
 62
     7
 10
-733.3645392522
 20
287.8505651075
 30
0.0
 11
-545.358853446
 21
287.8505651075
 31
0.0
  0
LINE
  5
47
  8
0
  6
CONTINUOUS
 62
     7
 10
-545.358853446
 20
287.8505651075
 30
0.0
 11
-439.9927724466
 21
287.8505651075
 31
0.0
  0
POLYLINE
  5
48
  8
0
  6
CONTINUOUS
 62
     7
 66
     1
 10
0.0
 20
0.0
 30
0.0
  0
VERTEX
  5
2B9
  8
0
  6
CONTINUOUS
 62
     7
 10
-439.9925638303
 20
287.8505949098
 30
0.0
  0
VERTEX
  5
2BA
  8
0
  6
CONTINUOUS
 62
     7
 10
-363.8646472559
 20
303.6634389478
 30
0.0
  0
VERTEX
  5
2BB
  8
0
  6
CONTINUOUS
 62
     7
 10
-290.6808723077
 20
318.8647095281
 30
0.0
  0
SEQEND
  5
C0C
  8
0
  6
CONTINUOUS
 62
     7
  0
LINE
  5
49
  8
0
  6
CONTINUOUS
 62
     7
 10
19.6411395132
 20
988.3505467492
 30
0.0
 11
-7.3588621184
 21
988.3505467492
 31
0.0
  0
LINE
  5
4A
  8
0
  6
CONTINUOUS
 62
     7
 10
7.6411384776
 20
273.3505729753
 30
0.0
 11
19.6411395132
 21
273.3505729753
 31
0.0
  0
LINE
  5
4B
  8
0
  6
CONTINUOUS
 62
     7
 10
-1071.3588167295
 20
273.3505729753
 30
0.0
 11
-1058.3588052854
 21
273.3505729753
 31
0.0
  0
LINE
  5
4C
  8
0
  6
CONTINUOUS
 62
     7
 10
-1043.3588195905
 20
988.3505467492
 30
0.0
 11
-1071.3588167295
 21
988.3505467492
 31
0.0
  0
POLYLINE
  5
4D
  8
0
  6
CONTINUOUS
 62
     7
 66
     1
 10
0.0
 20
0.0
 30
0.0
  0
VERTEX
  5
2BC
  8
0
  6
CONTINUOUS
 62
     7
 10
-290.6809319124
 20
318.864977749
 30
0.0
  0
VERTEX
  5
2BD
  8
0
  6
CONTINUOUS
 62
     7
 10
-186.151729928
 20
340.5774299222
 30
0.0
  0
VERTEX
  5
2BE
  8
0
  6
CONTINUOUS
 62
     7
 10
-102.9901821479
 20
357.8509751874
 30
0.0
  0
SEQEND
  5
C0B
  8
0
  6
CONTINUOUS
 62
     7
  0
LINE
  5
4E
  8
0
  6
CONTINUOUS
 62
     7
 10
-1075.3588844404
 20
339.8505512792
 30
0.0
 11
-1071.3588167295
 21
339.8505512792
 31
0.0
  0
LINE
  5
4F
  8
0
  6
CONTINUOUS
 62
     7
 10
-1071.3588167295
 20
921.8505684453
 30
0.0
 11
-1075.3588844404
 21
921.8505684453
 31
0.0
  0
LINE
  5
50
  8
0
  6
CONTINUOUS
 62
     7
 10
24.6411394015
 20
921.8505684453
 30
0.0
 11
19.6411395132
 21
921.8505684453
 31
0.0
  0
LINE
  5
51
  8
0
  6
CONTINUOUS
 62
     7
 10
19.6411395132
 20
339.8505512792
 30
0.0
 11
24.6411394015
 21
339.8505512792
 31
0.0
  0
LINE
  5
52
  8
0
  6
CONTINUOUS
 62
     7
 10
-102.9921938047
 20
357.8505579549
 30
0.0
 11
-7.3588621184
 21
357.8505579549
 31
0.0
  0
LINE
  5
53
  8
0
  6
CONTINUOUS
 62
     7
 10
-1043.3588195905
 20
357.8505579549
 30
0.0
 11
-745.7017470464
 21
357.8505579549
 31
0.0
  0
LINE
  5
54
  8
0
  6
CONTINUOUS
 62
     7
 10
-890.5438948736
 20
903.8505617696
 30
0.0
 11
-1043.3588195905
 21
903.8505617696
 31
0.0
  0
LINE
  5
55
  8
0
  6
CONTINUOUS
 62
     7
 10
-841.9763017759
 20
903.8505617696
 30
0.0
 11
-853.8037110433
 21
903.8505617696
 31
0.0
  0
LINE
  5
56
  8
0
  6
CONTINUOUS
 62
     7
 10
-628.7627388105
 20
1137.2458402234
 30
0.0
 11
-628.7695933446
 21
1137.2461978513
 31
0.0
  0
LINE
  5
57
  8
0
  6
CONTINUOUS
 62
     7
 10
-811.8650485143
 20
1144.8579494077
 30
0.0
 11
-811.8650485143
 21
1148.9778820592
 31
0.0
  0
LINE
  5
58
  8
0
  6
CONTINUOUS
 62
     7
 10
-856.8650652036
 20
1148.9778820592
 30
0.0
 11
-856.8650652036
 21
1142.7759591657
 31
0.0
  0
LINE
  5
59
  8
0
  6
CONTINUOUS
 62
     7
 10
-635.5102826223
 20
1137.5817123968
 30
0.0
 11
-635.5171371564
 21
1137.5820700246
 31
0.0
  0
LINE
  5
5A
  8
0
  6
CONTINUOUS
 62
     7
 10
-844.1966940031
 20
1051.1074427682
 30
0.0
 11
-843.5861636266
 21
1052.0479146558
 31
0.0
  0
LINE
  5
5B
  8
0
  6
CONTINUOUS
 62
     7
 10
-843.5861636266
 20
1052.0479146558
 30
0.0
 11
-826.5094328985
 21
1051.1561695653
 31
0.0
  0
LINE
  5
5C
  8
0
  6
CONTINUOUS
 62
     7
 10
-826.0002304182
 20
1050.1572255212
 30
0.0
 11
-826.5094328985
 21
1051.1561695653
 31
0.0
  0
LINE
  5
5D
  8
0
  6
CONTINUOUS
 62
     7
 10
-826.0002304182
 20
1050.1572255212
 30
0.0
 11
-844.1966940031
 21
1051.1074427682
 31
0.0
  0
LINE
  5
5E
  8
0
  6
CONTINUOUS
 62
     7
 10
-826.5094328985
 20
1051.1561695653
 30
0.0
 11
-817.1988297567
 21
1065.4991928655
 31
0.0
  0
LINE
  5
5F
  8
0
  6
CONTINUOUS
 62
     7
 10
-816.0790968999
 20
1065.440720709
 30
0.0
 11
-817.1988297567
 21
1065.4991928655
 31
0.0
  0
LINE
  5
60
  8
0
  6
CONTINUOUS
 62
     7
 10
-816.0790968999
 20
1065.440720709
 30
0.0
 11
-826.0002304182
 21
1050.1572255212
 31
0.0
  0
LINE
  5
61
  8
0
  6
CONTINUOUS
 62
     7
 10
-817.1988297567
 20
1065.4991928655
 30
0.0
 11
-824.9648977384
 21
1080.7339314538
 31
0.0
  0
LINE
  5
62
  8
0
  6
CONTINUOUS
 62
     7
 10
-824.3544269666
 20
1081.6744033414
 30
0.0
 11
-824.9648977384
 21
1080.7339314538
 31
0.0
  0
LINE
  5
63
  8
0
  6
CONTINUOUS
 62
     7
 10
-824.3544269666
 20
1081.6744033414
 30
0.0
 11
-816.0790968999
 21
1065.440720709
 31
0.0
  0
LINE
  5
64
  8
0
  6
CONTINUOUS
 62
     7
 10
-824.9648977384
 20
1080.7339314538
 30
0.0
 11
-842.0416284666
 21
1081.6256765443
 31
0.0
  0
LINE
  5
65
  8
0
  6
CONTINUOUS
 62
     7
 10
-842.5508905515
 20
1082.6246205884
 30
0.0
 11
-842.0416284666
 21
1081.6256765443
 31
0.0
  0
LINE
  5
66
  8
0
  6
CONTINUOUS
 62
     7
 10
-842.5508905515
 20
1082.6246205884
 30
0.0
 11
-824.3544269666
 21
1081.6744033414
 31
0.0
  0
LINE
  5
67
  8
0
  6
CONTINUOUS
 62
     7
 10
-842.0416284666
 20
1081.6256765443
 30
0.0
 11
-851.352291213
 21
1067.2826532442
 31
0.0
  0
LINE
  5
68
  8
0
  6
CONTINUOUS
 62
     7
 10
-852.4720240697
 20
1067.3411254007
 30
0.0
 11
-851.352291213
 21
1067.2826532442
 31
0.0
  0
LINE
  5
69
  8
0
  6
CONTINUOUS
 62
     7
 10
-852.4720240697
 20
1067.3411254007
 30
0.0
 11
-842.5508905515
 21
1082.6246205884
 31
0.0
  0
LINE
  5
6A
  8
0
  6
CONTINUOUS
 62
     7
 10
-851.352291213
 20
1067.2826532442
 30
0.0
 11
-843.5861636266
 21
1052.0479146558
 31
0.0
  0
LINE
  5
6B
  8
0
  6
CONTINUOUS
 62
     7
 10
-844.1966940031
 20
1051.1074427682
 30
0.0
 11
-852.4720240697
 21
1067.3411254007
 31
0.0
  0
LINE
  5
6C
  8
0
  6
CONTINUOUS
 62
     7
 10
-133.8476110563
 20
894.976860674
 30
0.0
 11
-181.3904960022
 21
916.0404268819
 31
0.0
  0
ARC
  5
6D
  8
0
  6
CONTINUOUS
 62
     7
 10
-143.9743269061
 20
872.1196985286
 30
0.0
 40
25.00000000000009
 50
336.104560704
 51
66.104560704
  0
LINE
  5
6E
  8
0
  6
CONTINUOUS
 62
     7
 10
-203.751208292
 20
675.4785914141
 30
0.0
 11
-121.1171765193
 21
861.9929764587
 31
0.0
  0
ARC
  5
6F
  8
0
  6
CONTINUOUS
 62
     7
 10
-226.6083644562
 20
685.6053134582
 30
0.0
 40
24.99999999999999
 50
246.104560704
 51
336.104560704
  0
LINE
  5
70
  8
0
  6
CONTINUOUS
 62
     7
 10
-284.277962552
 20
683.8117379862
 30
0.0
 11
-236.7350925073
 21
662.7481568772
 31
0.0
  0
ARC
  5
71
  8
0
  6
CONTINUOUS
 62
     7
 10
-274.1512469251
 20
706.6688916573
 30
0.0
 40
25.00000000000002
 50
156.104560704
 51
246.104560704
  0
LINE
  5
72
  8
0
  6
CONTINUOUS
 62
     7
 10
-214.3743653163
 20
903.3100072462
 30
0.0
 11
-297.0084119901
 21
716.795614751
 31
0.0
  0
ARC
  5
73
  8
0
  6
CONTINUOUS
 62
     7
 10
-191.517209375
 20
893.1832767276
 30
0.0
 40
25.00000000000011
 50
66.104560704
 51
156.104560704
  0
LINE
  5
74
  8
0
  6
CONTINUOUS
 62
     7
 10
-227.1047998533
 20
936.2938765603
 30
0.0
 11
-274.647669898
 21
957.3574427682
 31
0.0
  0
ARC
  5
75
  8
0
  6
CONTINUOUS
 62
     7
 10
-319.8655569914
 20
726.9223322333
 30
0.0
 40
25.00000000000522
 50
246.104560704
 51
336.104560704
  0
LINE
  5
76
  8
0
  6
CONTINUOUS
 62
     7
 10
-377.535151349
 20
725.1287538725
 30
0.0
 11
-329.9922813043
 21
704.0651802141
 31
0.0
  0
ARC
  5
77
  8
0
  6
CONTINUOUS
 62
     7
 10
-367.4084394603
 20
747.9859104323
 30
0.0
 40
25.00000000000599
 50
156.104560704
 51
246.104560704
  0
LINE
  5
78
  8
0
  6
CONTINUOUS
 62
     7
 10
-390.2656007871
 20
758.1126306373
 30
0.0
 11
-307.6315690145
 21
944.6270231325
 31
0.0
  0
ARC
  5
79
  8
0
  6
CONTINUOUS
 62
     7
 10
-284.7744019102
 20
934.5002955027
 30
0.0
 40
25.00000000000606
 50
66.104560704
 51
156.104560704
  0
ARC
  5
7A
  8
0
  6
CONTINUOUS
 62
     7
 10
-237.2315194413
 20
913.4367173036
 30
0.0
 40
25.00000000000523
 50
336.104560704
 51
66.104560704
  0
ARC
  5
7B
  8
0
  6
CONTINUOUS
 62
     7
 10
-330.4887119765
 20
954.7537360787
 30
0.0
 40
25.00000000000009
 50
336.104560704
 51
66.104560704
  0
ARC
  5
7C
  8
0
  6
CONTINUOUS
 62
     7
 10
-460.6656319955
 20
789.3029292074
 30
0.0
 40
25.00000000000002
 50
156.104560704
 51
246.104560704
  0
LINE
  5
7D
  8
0
  6
CONTINUOUS
 62
     7
 10
-400.8887578115
 20
985.9440390188
 30
0.0
 11
-483.5227895841
 21
799.4296465236
 31
0.0
  0
ARC
  5
7E
  8
0
  6
CONTINUOUS
 62
     7
 10
-378.0315944454
 20
975.8173142777
 30
0.0
 40
25.00000000000008
 50
66.104560704
 51
156.104560704
  0
LINE
  5
7F
  8
0
  6
CONTINUOUS
 62
     7
 10
-320.3619886503
 20
977.6108924467
 30
0.0
 11
-367.9048884973
 21
998.6744586545
 31
0.0
  0
LINE
  5
80
  8
0
  6
CONTINUOUS
 62
     7
 10
-470.792340146
 20
766.4457772094
 30
0.0
 11
-423.2494701013
 21
745.3821961004
 31
0.0
  0
ARC
  5
81
  8
0
  6
CONTINUOUS
 62
     7
 10
-413.1227495266
 20
768.2393510083
 30
0.0
 40
25.00000000000004
 50
246.104560704
 51
336.104560704
  0
CIRCLE
  5
82
  8
0
  6
CONTINUOUS
 62
     7
 10
-834.2755581065
 20
1066.3909224142
 30
0.0
 40
34.99999999999987
  0
LINE
  5
83
  8
0
  6
CONTINUOUS
 62
     7
 10
-135.830478774
 20
729.6054352242
 30
0.0
 11
-115.5770290956
 21
775.3197465259
 31
0.0
  0
LINE
  5
84
  8
0
  6
CONTINUOUS
 62
     7
 10
-115.5770290956
 20
775.3197465259
 30
0.0
 11
-152.3074675664
 21
791.5929470378
 31
0.0
  0
LINE
  5
85
  8
0
  6
CONTINUOUS
 62
     7
 10
-172.5609172449
 20
745.8786282855
 30
0.0
 11
-135.830478774
 21
729.6054352242
 31
0.0
  0
LINE
  5
86
  8
0
  6
CONTINUOUS
 62
     7
 10
-432.0790339574
 20
915.5440095979
 30
0.0
 11
-801.753478156
 21
1079.325950535
 31
0.0
  0
LINE
  5
87
  8
0
  6
CONTINUOUS
 62
     7
 10
-822.0069576368
 20
1033.611661585
 30
0.0
 11
-452.3324836359
 21
869.8296908456
 31
0.0
  0
LINE
  5
88
  8
0
  6
CONTINUOUS
 62
     7
 10
-569.5896912679
 20
1067.9415825921
 30
0.0
 11
-588.5897446737
 21
1100.8505586702
 31
0.0
  0
POLYLINE
  5
89
  8
0
  6
CONTINUOUS
 62
     7
 66
     1
 10
0.0
 20
0.0
 30
0.0
  0
VERTEX
  5
2BF
  8
0
  6
CONTINUOUS
 62
     7
 10
-588.5897446737
 20
1100.8505586702
 30
0.0
  0
VERTEX
  5
2C0
  8
0
  6
CONTINUOUS
 62
     7
 10
-586.2355996236
 20
1102.2096935827
 30
0.0
  0
VERTEX
  5
2C1
  8
0
  6
CONTINUOUS
 62
     7
 10
-583.8836599454
 20
1103.5676065999
 30
0.0
  0
VERTEX
  5
2C2
  8
0
  6
CONTINUOUS
 62
     7
 10
-581.5360118017
 20
1104.9230162221
 30
0.0
  0
VERTEX
  5
2C3
  8
0
  6
CONTINUOUS
 62
     7
 10
-579.1948009595
 20
1106.274700554
 30
0.0
  0
VERTEX
  5
2C4
  8
0
  6
CONTINUOUS
 62
     7
 10
-576.8621731863
 20
1107.6214675027
 30
0.0
  0
VERTEX
  5
2C5
  8
0
  6
CONTINUOUS
 62
     7
 10
-574.5402146444
 20
1108.9620355684
 30
0.0
  0
VERTEX
  5
2C6
  8
0
  6
CONTINUOUS
 62
     7
 10
-572.2311307058
 20
1110.2952126581
 30
0.0
  0
VERTEX
  5
2C7
  8
0
  6
CONTINUOUS
 62
     7
 10
-569.9368883237
 20
1111.6197768766
 30
0.0
  0
VERTEX
  5
2C8
  8
0
  6
CONTINUOUS
 62
     7
 10
-567.6597524747
 20
1112.9345063287
 30
0.0
  0
VERTEX
  5
2C9
  8
0
  6
CONTINUOUS
 62
     7
 10
-565.4016305074
 20
1114.2382089216
 30
0.0
  0
VERTEX
  5
2CA
  8
0
  6
CONTINUOUS
 62
     7
 10
-563.1647277936
 20
1115.5296925622
 30
0.0
  0
VERTEX
  5
2CB
  8
0
  6
CONTINUOUS
 62
     7
 10
-560.9510112867
 20
1116.8077651578
 30
0.0
  0
VERTEX
  5
2CC
  8
0
  6
CONTINUOUS
 62
     7
 10
-558.7625075445
 20
1118.0713240224
 30
0.0
  0
VERTEX
  5
2CD
  8
0
  6
CONTINUOUS
 62
     7
 10
-556.6011835203
 20
1119.3191472608
 30
0.0
  0
VERTEX
  5
2CE
  8
0
  6
CONTINUOUS
 62
     7
 10
-554.4691253767
 20
1120.5501023847
 30
0.0
  0
VERTEX
  5
2CF
  8
0
  6
CONTINUOUS
 62
     7
 10
-552.368121253
 20
1121.7631165105
 30
0.0
  0
VERTEX
  5
2D0
  8
0
  6
CONTINUOUS
 62
     7
 10
-550.3001977071
 20
1122.9570273477
 30
0.0
  0
VERTEX
  5
2D1
  8
0
  6
CONTINUOUS
 62
     7
 10
-548.2672024831
 20
1124.1307620126
 30
0.0
  0
VERTEX
  5
2D2
  8
0
  6
CONTINUOUS
 62
     7
 10
-546.2710429296
 20
1125.283277424
 30
0.0
  0
VERTEX
  5
2D3
  8
0
  6
CONTINUOUS
 62
     7
 10
-544.3134475812
 20
1126.4134708959
 30
0.0
  0
VERTEX
  5
2D4
  8
0
  6
CONTINUOUS
 62
     7
 10
-542.396264182
 20
1127.5203589517
 30
0.0
  0
VERTEX
  5
2D5
  8
0
  6
CONTINUOUS
 62
     7
 10
-540.5212212667
 20
1128.6028985101
 30
0.0
  0
VERTEX
  5
2D6
  8
0
  6
CONTINUOUS
 62
     7
 10
-538.6900473699
 20
1129.6601358968
 30
0.0
  0
VERTEX
  5
2D7
  8
0
  6
CONTINUOUS
 62
     7
 10
-536.9044114217
 20
1130.6910876352
 30
0.0
  0
VERTEX
  5
2D8
  8
0
  6
CONTINUOUS
 62
     7
 10
-535.1659227476
 20
1131.6948000509
 30
0.0
  0
VERTEX
  5
2D9
  8
0
  6
CONTINUOUS
 62
     7
 10
-533.4761906728
 20
1132.6703492719
 30
0.0
  0
VERTEX
  5
2DA
  8
0
  6
CONTINUOUS
 62
     7
 10
-531.8367649183
 20
1133.6169306356
 30
0.0
  0
VERTEX
  5
2DB
  8
0
  6
CONTINUOUS
 62
     7
 10
-530.2490759954
 20
1134.5335308629
 30
0.0
  0
VERTEX
  5
2DC
  8
0
  6
CONTINUOUS
 62
     7
 10
-528.7146140203
 20
1135.4194346982
 30
0.0
  0
VERTEX
  5
2DD
  8
0
  6
CONTINUOUS
 62
     7
 10
-527.2348095045
 20
1136.2738076764
 30
0.0
  0
VERTEX
  5
2DE
  8
0
  6
CONTINUOUS
 62
     7
 10
-525.8110333547
 20
1137.0958749372
 30
0.0
  0
VERTEX
  5
2DF
  8
0
  6
CONTINUOUS
 62
     7
 10
-524.4444776639
 20
1137.8848616201
 30
0.0
  0
VERTEX
  5
2E0
  8
0
  6
CONTINUOUS
 62
     7
 10
-523.1364537344
 20
1138.6399928647
 30
0.0
  0
VERTEX
  5
2E1
  8
0
  6
CONTINUOUS
 62
     7
 10
-521.8881536588
 20
1139.3607322294
 30
0.0
  0
VERTEX
  5
2E2
  8
0
  6
CONTINUOUS
 62
     7
 10
-520.7007099256
 20
1140.0463048536
 30
0.0
  0
VERTEX
  5
2E3
  8
0
  6
CONTINUOUS
 62
     7
 10
-519.575255023
 20
1140.6960550863
 30
0.0
  0
VERTEX
  5
2E4
  8
0
  6
CONTINUOUS
 62
     7
 10
-518.5127426252
 20
1141.3095060903
 30
0.0
  0
VERTEX
  5
2E5
  8
0
  6
CONTINUOUS
 62
     7
 10
-517.5141860113
 20
1141.8860618192
 30
0.0
  0
VERTEX
  5
2E6
  8
0
  6
CONTINUOUS
 62
     7
 10
-516.5804196462
 20
1142.4251262266
 30
0.0
  0
VERTEX
  5
2E7
  8
0
  6
CONTINUOUS
 62
     7
 10
-515.7123972044
 20
1142.9262820798
 30
0.0
  0
VERTEX
  5
2E8
  8
0
  6
CONTINUOUS
 62
     7
 10
-514.9108935461
 20
1143.3890525419
 30
0.0
  0
VERTEX
  5
2E9
  8
0
  6
CONTINUOUS
 62
     7
 10
-514.1765643224
 20
1143.8130203802
 30
0.0
  0
VERTEX
  5
2EA
  8
0
  6
CONTINUOUS
 62
     7
 10
-513.5101843938
 20
1144.1977683622
 30
0.0
  0
VERTEX
  5
2EB
  8
0
  6
CONTINUOUS
 62
     7
 10
-512.9122902021
 20
1144.5429388601
 30
0.0
  0
VERTEX
  5
2EC
  8
0
  6
CONTINUOUS
 62
     7
 10
-512.383418189
 20
1144.8482934553
 30
0.0
  0
VERTEX
  5
2ED
  8
0
  6
CONTINUOUS
 62
     7
 10
-511.9241047964
 20
1145.1134745199
 30
0.0
  0
VERTEX
  5
2EE
  8
0
  6
CONTINUOUS
 62
     7
 10
-511.5347672567
 20
1145.3382436353
 30
0.0
  0
VERTEX
  5
2EF
  8
0
  6
CONTINUOUS
 62
     7
 10
-511.2157035932
 20
1145.5224815923
 30
0.0
  0
VERTEX
  5
2F0
  8
0
  6
CONTINUOUS
 62
     7
 10
-510.9672714338
 20
1145.6658903676
 30
0.0
  0
VERTEX
  5
2F1
  8
0
  6
CONTINUOUS
 62
     7
 10
-510.7896495924
 20
1145.7684699613
 30
0.0
  0
VERTEX
  5
2F2
  8
0
  6
CONTINUOUS
 62
     7
 10
-510.6830168829
 20
1145.8300415594
 30
0.0
  0
VERTEX
  5
2F3
  8
0
  6
CONTINUOUS
 62
     7
 10
-510.6474329099
 20
1145.8505455572
 30
0.0
  0
SEQEND
  5
C0A
  8
0
  6
CONTINUOUS
 62
     7
  0
LINE
  5
8A
  8
0
  6
CONTINUOUS
 62
     7
 10
-510.6474329099
 20
1145.8505455572
 30
0.0
 11
-491.6474391088
 21
1112.9415992814
 31
0.0
  0
POLYLINE
  5
8B
  8
0
  6
CONTINUOUS
 62
     7
 66
     1
 10
0.0
 20
0.0
 30
0.0
  0
VERTEX
  5
2F4
  8
0
  6
CONTINUOUS
 62
     7
 10
-491.6474391088
 20
1112.9415992814
 30
0.0
  0
VERTEX
  5
2F5
  8
0
  6
CONTINUOUS
 62
     7
 10
-491.6829634771
 20
1112.9210654813
 30
0.0
  0
VERTEX
  5
2F6
  8
0
  6
CONTINUOUS
 62
     7
 10
-491.7896557912
 20
1112.8594938833
 30
0.0
  0
VERTEX
  5
2F7
  8
0
  6
CONTINUOUS
 62
     7
 10
-491.9672776327
 20
1112.7569440919
 30
0.0
  0
VERTEX
  5
2F8
  8
0
  6
CONTINUOUS
 62
     7
 10
-492.2157097921
 20
1112.6135055143
 30
0.0
  0
VERTEX
  5
2F9
  8
0
  6
CONTINUOUS
 62
     7
 10
-492.5347734556
 20
1112.4292973596
 30
0.0
  0
VERTEX
  5
2FA
  8
0
  6
CONTINUOUS
 62
     7
 10
-492.9241109952
 20
1112.2044984418
 30
0.0
  0
VERTEX
  5
2FB
  8
0
  6
CONTINUOUS
 62
     7
 10
-493.3834243879
 20
1111.9393173772
 30
0.0
  0
VERTEX
  5
2FC
  8
0
  6
CONTINUOUS
 62
     7
 10
-493.912296401
 20
1111.633962782
 30
0.0
  0
VERTEX
  5
2FD
  8
0
  6
CONTINUOUS
 62
     7
 10
-494.5101905927
 20
1111.2887922841
 30
0.0
  0
VERTEX
  5
2FE
  8
0
  6
CONTINUOUS
 62
     7
 10
-495.1765705213
 20
1110.9040443021
 30
0.0
  0
VERTEX
  5
2FF
  8
0
  6
CONTINUOUS
 62
     7
 10
-495.9108997449
 20
1110.4800764638
 30
0.0
  0
VERTEX
  5
300
  8
0
  6
CONTINUOUS
 62
     7
 10
-496.7124034032
 20
1110.0173358041
 30
0.0
  0
VERTEX
  5
301
  8
0
  6
CONTINUOUS
 62
     7
 10
-497.5804258451
 20
1109.5161799508
 30
0.0
  0
VERTEX
  5
302
  8
0
  6
CONTINUOUS
 62
     7
 10
-498.5141326055
 20
1108.9770857412
 30
0.0
  0
VERTEX
  5
303
  8
0
  6
CONTINUOUS
 62
     7
 10
-499.5127488241
 20
1108.4005598146
 30
0.0
  0
VERTEX
  5
304
  8
0
  6
CONTINUOUS
 62
     7
 10
-500.5752612218
 20
1107.7871088106
 30
0.0
  0
VERTEX
  5
305
  8
0
  6
CONTINUOUS
 62
     7
 10
-501.7007161245
 20
1107.1373287755
 30
0.0
  0
VERTEX
  5
306
  8
0
  6
CONTINUOUS
 62
     7
 10
-502.8881598577
 20
1106.4517561513
 30
0.0
  0
VERTEX
  5
307
  8
0
  6
CONTINUOUS
 62
     7
 10
-504.1364599332
 20
1105.731046589
 30
0.0
  0
VERTEX
  5
308
  8
0
  6
CONTINUOUS
 62
     7
 10
-505.4444838628
 20
1104.9758557397
 30
0.0
  0
VERTEX
  5
309
  8
0
  6
CONTINUOUS
 62
     7
 10
-506.8110395536
 20
1104.1868988592
 30
0.0
  0
VERTEX
  5
30A
  8
0
  6
CONTINUOUS
 62
     7
 10
-508.2348157033
 20
1103.3648614007
 30
0.0
  0
VERTEX
  5
30B
  8
0
  6
CONTINUOUS
 62
     7
 10
-509.7146202192
 20
1102.5104884225
 30
0.0
  0
VERTEX
  5
30C
  8
0
  6
CONTINUOUS
 62
     7
 10
-511.2490821943
 20
1101.6245845872
 30
0.0
  0
VERTEX
  5
30D
  8
0
  6
CONTINUOUS
 62
     7
 10
-512.8367711172
 20
1100.7079247552
 30
0.0
  0
VERTEX
  5
30E
  8
0
  6
CONTINUOUS
 62
     7
 10
-514.4761968717
 20
1099.7614029962
 30
0.0
  0
VERTEX
  5
30F
  8
0
  6
CONTINUOUS
 62
     7
 10
-516.1659289464
 20
1098.7858239728
 30
0.0
  0
VERTEX
  5
310
  8
0
  6
CONTINUOUS
 62
     7
 10
-517.9044176206
 20
1097.7821115571
 30
0.0
  0
VERTEX
  5
311
  8
0
  6
CONTINUOUS
 62
     7
 10
-519.6900535688
 20
1096.7511598188
 30
0.0
  0
VERTEX
  5
312
  8
0
  6
CONTINUOUS
 62
     7
 10
-521.5212274656
 20
1095.6939522344
 30
0.0
  0
VERTEX
  5
313
  8
0
  6
CONTINUOUS
 62
     7
 10
-523.3962703809
 20
1094.6113828737
 30
0.0
  0
VERTEX
  5
314
  8
0
  6
CONTINUOUS
 62
     7
 10
-525.3134537801
 20
1093.5044948179
 30
0.0
  0
VERTEX
  5
315
  8
0
  6
CONTINUOUS
 62
     7
 10
-527.2710491285
 20
1092.374301346
 30
0.0
  0
VERTEX
  5
316
  8
0
  6
CONTINUOUS
 62
     7
 10
-529.267208682
 20
1091.2217859346
 30
0.0
  0
VERTEX
  5
317
  8
0
  6
CONTINUOUS
 62
     7
 10
-531.300203906
 20
1090.0480512697
 30
0.0
  0
VERTEX
  5
318
  8
0
  6
CONTINUOUS
 62
     7
 10
-533.3681274519
 20
1088.8541404325
 30
0.0
  0
VERTEX
  5
319
  8
0
  6
CONTINUOUS
 62
     7
 10
-535.4690719709
 20
1087.641156109
 30
0.0
  0
VERTEX
  5
31A
  8
0
  6
CONTINUOUS
 62
     7
 10
-537.6011897192
 20
1086.4101711828
 30
0.0
  0
VERTEX
  5
31B
  8
0
  6
CONTINUOUS
 62
     7
 10
-539.7625137434
 20
1085.1623479444
 30
0.0
  0
VERTEX
  5
31C
  8
0
  6
CONTINUOUS
 62
     7
 10
-541.9510174856
 20
1083.8988188821
 30
0.0
  0
VERTEX
  5
31D
  8
0
  6
CONTINUOUS
 62
     7
 10
-544.1647339925
 20
1082.6207164842
 30
0.0
  0
VERTEX
  5
31E
  8
0
  6
CONTINUOUS
 62
     7
 10
-546.4016367063
 20
1081.3292328435
 30
0.0
  0
VERTEX
  5
31F
  8
0
  6
CONTINUOUS
 62
     7
 10
-548.659699069
 20
1080.0255302507
 30
0.0
  0
VERTEX
  5
320
  8
0
  6
CONTINUOUS
 62
     7
 10
-550.9368945226
 20
1078.7108007985
 30
0.0
  0
VERTEX
  5
321
  8
0
  6
CONTINUOUS
 62
     7
 10
-553.2310773
 20
1077.38623658
 30
0.0
  0
VERTEX
  5
322
  8
0
  6
CONTINUOUS
 62
     7
 10
-555.5402208433
 20
1076.0530594903
 30
0.0
  0
VERTEX
  5
323
  8
0
  6
CONTINUOUS
 62
     7
 10
-557.8621793851
 20
1074.7124914247
 30
0.0
  0
VERTEX
  5
324
  8
0
  6
CONTINUOUS
 62
     7
 10
-560.1948071584
 20
1073.3657542783
 30
0.0
  0
VERTEX
  5
325
  8
0
  6
CONTINUOUS
 62
     7
 10
-562.5360180006
 20
1072.0140401441
 30
0.0
  0
VERTEX
  5
326
  8
0
  6
CONTINUOUS
 62
     7
 10
-564.8836661443
 20
1070.6586305219
 30
0.0
  0
VERTEX
  5
327
  8
0
  6
CONTINUOUS
 62
     7
 10
-567.2356058225
 20
1069.3007175046
 30
0.0
  0
VERTEX
  5
328
  8
0
  6
CONTINUOUS
 62
     7
 10
-569.5896912679
 20
1067.9415825921
 30
0.0
  0
SEQEND
  5
C09
  8
0
  6
CONTINUOUS
 62
     7
  0
LINE
  5
8C
  8
0
  6
CONTINUOUS
 62
     7
 10
-822.4165607557
 20
965.8505682069
 30
0.0
 11
-803.4165669546
 21
932.9415921289
 31
0.0
  0
LINE
  5
8D
  8
0
  6
CONTINUOUS
 62
     7
 10
-881.3588787183
 20
887.9416052419
 30
0.0
 11
-900.3588725194
 21
920.8505515176
 31
0.0
  0
POLYLINE
  5
8E
  8
0
  6
CONTINUOUS
 62
     7
 66
     1
 10
0.0
 20
0.0
 30
0.0
  0
VERTEX
  5
329
  8
0
  6
CONTINUOUS
 62
     7
 10
-803.4165669546
 20
932.9415921289
 30
0.0
  0
VERTEX
  5
32A
  8
0
  6
CONTINUOUS
 62
     7
 10
-805.7706524
 20
931.5824572164
 30
0.0
  0
VERTEX
  5
32B
  8
0
  6
CONTINUOUS
 62
     7
 10
-808.1225920782
 20
930.2245740014
 30
0.0
  0
VERTEX
  5
32C
  8
0
  6
CONTINUOUS
 62
     7
 10
-810.4702402219
 20
928.8691345769
 30
0.0
  0
VERTEX
  5
32D
  8
0
  6
CONTINUOUS
 62
     7
 10
-812.8114510641
 20
927.517450245
 30
0.0
  0
VERTEX
  5
32E
  8
0
  6
CONTINUOUS
 62
     7
 10
-815.144138442
 20
926.1706832963
 30
0.0
  0
VERTEX
  5
32F
  8
0
  6
CONTINUOUS
 62
     7
 10
-817.4660373792
 20
924.8301152307
 30
0.0
  0
VERTEX
  5
330
  8
0
  6
CONTINUOUS
 62
     7
 10
-819.7751809225
 20
923.496938141
 30
0.0
  0
VERTEX
  5
331
  8
0
  6
CONTINUOUS
 62
     7
 10
-822.0693636999
 20
922.1724037248
 30
0.0
  0
VERTEX
  5
332
  8
0
  6
CONTINUOUS
 62
     7
 10
-824.3465591535
 20
920.8576742727
 30
0.0
  0
VERTEX
  5
333
  8
0
  6
CONTINUOUS
 62
     7
 10
-826.6046215162
 20
919.5539716798
 30
0.0
  0
VERTEX
  5
334
  8
0
  6
CONTINUOUS
 62
     7
 10
-828.8415838346
 20
918.2624582368
 30
0.0
  0
VERTEX
  5
335
  8
0
  6
CONTINUOUS
 62
     7
 10
-831.0553003416
 20
916.9843856412
 30
0.0
  0
VERTEX
  5
336
  8
0
  6
CONTINUOUS
 62
     7
 10
-833.2438040838
 20
915.7208267766
 30
0.0
  0
VERTEX
  5
337
  8
0
  6
CONTINUOUS
 62
     7
 10
-835.4050685033
 20
914.4730035383
 30
0.0
  0
VERTEX
  5
338
  8
0
  6
CONTINUOUS
 62
     7
 10
-837.5371862516
 20
913.2420484144
 30
0.0
  0
VERTEX
  5
339
  8
0
  6
CONTINUOUS
 62
     7
 10
-839.6381903753
 20
912.0290640909
 30
0.0
  0
VERTEX
  5
33A
  8
0
  6
CONTINUOUS
 62
     7
 10
-841.7060543165
 20
910.8351234514
 30
0.0
  0
VERTEX
  5
33B
  8
0
  6
CONTINUOUS
 62
     7
 10
-843.7390495405
 20
909.6613887864
 30
0.0
  0
VERTEX
  5
33C
  8
0
  6
CONTINUOUS
 62
     7
 10
-845.7352686986
 20
908.5089031774
 30
0.0
  0
VERTEX
  5
33D
  8
0
  6
CONTINUOUS
 62
     7
 10
-847.692864047
 20
907.3786799032
 30
0.0
  0
VERTEX
  5
33E
  8
0
  6
CONTINUOUS
 62
     7
 10
-849.6100474462
 20
906.2717918474
 30
0.0
  0
VERTEX
  5
33F
  8
0
  6
CONTINUOUS
 62
     7
 10
-851.4850307569
 20
905.189252289
 30
0.0
  0
VERTEX
  5
340
  8
0
  6
CONTINUOUS
 62
     7
 10
-853.3162046537
 20
904.1320149022
 30
0.0
  0
VERTEX
  5
341
  8
0
  6
CONTINUOUS
 62
     7
 10
-855.1018406019
 20
903.1010631639
 30
0.0
  0
VERTEX
  5
342
  8
0
  6
CONTINUOUS
 62
     7
 10
-856.840329276
 20
902.0973507482
 30
0.0
  0
VERTEX
  5
343
  8
0
  6
CONTINUOUS
 62
     7
 10
-858.5301209554
 20
901.1218015272
 30
0.0
  0
VERTEX
  5
344
  8
0
  6
CONTINUOUS
 62
     7
 10
-860.16954671
 20
900.1752499658
 30
0.0
  0
VERTEX
  5
345
  8
0
  6
CONTINUOUS
 62
     7
 10
-861.7572356329
 20
899.2586199361
 30
0.0
  0
VERTEX
  5
346
  8
0
  6
CONTINUOUS
 62
     7
 10
-863.2916380033
 20
898.3727161008
 30
0.0
  0
VERTEX
  5
347
  8
0
  6
CONTINUOUS
 62
     7
 10
-864.7714425191
 20
897.5183431226
 30
0.0
  0
VERTEX
  5
348
  8
0
  6
CONTINUOUS
 62
     7
 10
-866.1952782735
 20
896.6963056642
 30
0.0
  0
VERTEX
  5
349
  8
0
  6
CONTINUOUS
 62
     7
 10
-867.5618339643
 20
895.9073189813
 30
0.0
  0
VERTEX
  5
34A
  8
0
  6
CONTINUOUS
 62
     7
 10
-868.8698578939
 20
895.152128132
 30
0.0
  0
VERTEX
  5
34B
  8
0
  6
CONTINUOUS
 62
     7
 10
-870.1180983648
 20
894.431448372
 30
0.0
  0
VERTEX
  5
34C
  8
0
  6
CONTINUOUS
 62
     7
 10
-871.305542098
 20
893.7458757478
 30
0.0
  0
VERTEX
  5
34D
  8
0
  6
CONTINUOUS
 62
     7
 10
-872.4310566053
 20
893.0960659105
 30
0.0
  0
VERTEX
  5
34E
  8
0
  6
CONTINUOUS
 62
     7
 10
-873.4935690031
 20
892.4826149064
 30
0.0
  0
VERTEX
  5
34F
  8
0
  6
CONTINUOUS
 62
     7
 10
-874.492125617
 20
891.9060889799
 30
0.0
  0
VERTEX
  5
350
  8
0
  6
CONTINUOUS
 62
     7
 10
-875.4258323774
 20
891.3670245725
 30
0.0
  0
VERTEX
  5
351
  8
0
  6
CONTINUOUS
 62
     7
 10
-876.2938548193
 20
890.8658687192
 30
0.0
  0
VERTEX
  5
352
  8
0
  6
CONTINUOUS
 62
     7
 10
-877.0954180822
 20
890.4030982572
 30
0.0
  0
VERTEX
  5
353
  8
0
  6
CONTINUOUS
 62
     7
 10
-877.8296877012
 20
889.9791602212
 30
0.0
  0
VERTEX
  5
354
  8
0
  6
CONTINUOUS
 62
     7
 10
-878.4961272344
 20
889.5944122392
 30
0.0
  0
VERTEX
  5
355
  8
0
  6
CONTINUOUS
 62
     7
 10
-879.0940214262
 20
889.249211939
 30
0.0
  0
VERTEX
  5
356
  8
0
  6
CONTINUOUS
 62
     7
 10
-879.6228338346
 20
888.9438871461
 30
0.0
  0
VERTEX
  5
357
  8
0
  6
CONTINUOUS
 62
     7
 10
-880.0821472272
 20
888.6787060815
 30
0.0
  0
VERTEX
  5
358
  8
0
  6
CONTINUOUS
 62
     7
 10
-880.4715443716
 20
888.4539071638
 30
0.0
  0
VERTEX
  5
359
  8
0
  6
CONTINUOUS
 62
     7
 10
-880.7905484304
 20
888.2696990091
 30
0.0
  0
VERTEX
  5
35A
  8
0
  6
CONTINUOUS
 62
     7
 10
-881.0390401945
 20
888.1262604314
 30
0.0
  0
VERTEX
  5
35B
  8
0
  6
CONTINUOUS
 62
     7
 10
-881.2166620359
 20
888.0236808378
 30
0.0
  0
VERTEX
  5
35C
  8
0
  6
CONTINUOUS
 62
     7
 10
-881.3232947454
 20
887.962139042
 30
0.0
  0
VERTEX
  5
35D
  8
0
  6
CONTINUOUS
 62
     7
 10
-881.3588787183
 20
887.9416052419
 30
0.0
  0
SEQEND
  5
C08
  8
0
  6
CONTINUOUS
 62
     7
  0
LINE
  5
8F
  8
0
  6
CONTINUOUS
 62
     7
 10
-839.0060831174
 20
990.9136358816
 30
0.0
 11
-824.0060974226
 21
964.9328652936
 31
0.0
  0
POLYLINE
  5
90
  8
0
  6
CONTINUOUS
 62
     7
 66
     1
 10
0.0
 20
0.0
 30
0.0
  0
VERTEX
  5
35E
  8
0
  6
CONTINUOUS
 62
     7
 10
-824.0060974226
 20
964.9328652936
 30
0.0
  0
VERTEX
  5
35F
  8
0
  6
CONTINUOUS
 62
     7
 10
-826.360182868
 20
963.5737303811
 30
0.0
  0
VERTEX
  5
360
  8
0
  6
CONTINUOUS
 62
     7
 10
-828.7121225461
 20
962.2158173639
 30
0.0
  0
VERTEX
  5
361
  8
0
  6
CONTINUOUS
 62
     7
 10
-831.0597706899
 20
960.8604077417
 30
0.0
  0
VERTEX
  5
362
  8
0
  6
CONTINUOUS
 62
     7
 10
-833.4009815321
 20
959.5087234098
 30
0.0
  0
VERTEX
  5
363
  8
0
  6
CONTINUOUS
 62
     7
 10
-835.7336093053
 20
958.1619564611
 30
0.0
  0
VERTEX
  5
364
  8
0
  6
CONTINUOUS
 62
     7
 10
-838.0555678472
 20
956.8213883954
 30
0.0
  0
VERTEX
  5
365
  8
0
  6
CONTINUOUS
 62
     7
 10
-840.3647113904
 20
955.4882113058
 30
0.0
  0
VERTEX
  5
366
  8
0
  6
CONTINUOUS
 62
     7
 10
-842.6588941679
 20
954.1636470872
 30
0.0
  0
VERTEX
  5
367
  8
0
  6
CONTINUOUS
 62
     7
 10
-844.9360300169
 20
952.8489176351
 30
0.0
  0
VERTEX
  5
368
  8
0
  6
CONTINUOUS
 62
     7
 10
-847.1941519842
 20
951.5452150422
 30
0.0
  0
VERTEX
  5
369
  8
0
  6
CONTINUOUS
 62
     7
 10
-849.4310546979
 20
950.2537314016
 30
0.0
  0
VERTEX
  5
36A
  8
0
  6
CONTINUOUS
 62
     7
 10
-851.6447712049
 20
948.975658806
 30
0.0
  0
VERTEX
  5
36B
  8
0
  6
CONTINUOUS
 62
     7
 10
-853.8332749471
 20
947.7120999414
 30
0.0
  0
VERTEX
  5
36C
  8
0
  6
CONTINUOUS
 62
     7
 10
-855.9945989713
 20
946.464276703
 30
0.0
  0
VERTEX
  5
36D
  8
0
  6
CONTINUOUS
 62
     7
 10
-858.1266571149
 20
945.2333215791
 30
0.0
  0
VERTEX
  5
36E
  8
0
  6
CONTINUOUS
 62
     7
 10
-860.2276612386
 20
944.0203074533
 30
0.0
  0
VERTEX
  5
36F
  8
0
  6
CONTINUOUS
 62
     7
 10
-862.2955847845
 20
942.8263966161
 30
0.0
  0
VERTEX
  5
370
  8
0
  6
CONTINUOUS
 62
     7
 10
-864.3285800085
 20
941.6526619512
 30
0.0
  0
VERTEX
  5
371
  8
0
  6
CONTINUOUS
 62
     7
 10
-866.324739562
 20
940.5001465398
 30
0.0
  0
VERTEX
  5
372
  8
0
  6
CONTINUOUS
 62
     7
 10
-868.2823349103
 20
939.3699530679
 30
0.0
  0
VERTEX
  5
373
  8
0
  6
CONTINUOUS
 62
     7
 10
-870.1995183095
 20
938.2630650121
 30
0.0
  0
VERTEX
  5
374
  8
0
  6
CONTINUOUS
 62
     7
 10
-872.0745612249
 20
937.1805254537
 30
0.0
  0
VERTEX
  5
375
  8
0
  6
CONTINUOUS
 62
     7
 10
-873.9057351217
 20
936.123288067
 30
0.0
  0
VERTEX
  5
376
  8
0
  6
CONTINUOUS
 62
     7
 10
-875.6913710699
 20
935.0923363286
 30
0.0
  0
VERTEX
  5
377
  8
0
  6
CONTINUOUS
 62
     7
 10
-877.429859744
 20
934.0886239129
 30
0.0
  0
VERTEX
  5
378
  8
0
  6
CONTINUOUS
 62
     7
 10
-879.1195918188
 20
933.1130448896
 30
0.0
  0
VERTEX
  5
379
  8
0
  6
CONTINUOUS
 62
     7
 10
-880.7590175733
 20
932.1665231306
 30
0.0
  0
VERTEX
  5
37A
  8
0
  6
CONTINUOUS
 62
     7
 10
-882.3467064962
 20
931.2498931009
 30
0.0
  0
VERTEX
  5
37B
  8
0
  6
CONTINUOUS
 62
     7
 10
-883.8811684713
 20
930.3639594633
 30
0.0
  0
VERTEX
  5
37C
  8
0
  6
CONTINUOUS
 62
     7
 10
-885.3609729871
 20
929.5096162874
 30
0.0
  0
VERTEX
  5
37D
  8
0
  6
CONTINUOUS
 62
     7
 10
-886.7847491369
 20
928.6875490266
 30
0.0
  0
VERTEX
  5
37E
  8
0
  6
CONTINUOUS
 62
     7
 10
-888.1513048276
 20
927.8985921461
 30
0.0
  0
VERTEX
  5
37F
  8
0
  6
CONTINUOUS
 62
     7
 10
-889.4593287572
 20
927.1434012967
 30
0.0
  0
VERTEX
  5
380
  8
0
  6
CONTINUOUS
 62
     7
 10
-890.7076288328
 20
926.4227215368
 30
0.0
  0
VERTEX
  5
381
  8
0
  6
CONTINUOUS
 62
     7
 10
-891.895072566
 20
925.7371489126
 30
0.0
  0
VERTEX
  5
382
  8
0
  6
CONTINUOUS
 62
     7
 10
-893.0205274686
 20
925.0873390752
 30
0.0
  0
VERTEX
  5
383
  8
0
  6
CONTINUOUS
 62
     7
 10
-894.0830398664
 20
924.4738880712
 30
0.0
  0
VERTEX
  5
384
  8
0
  6
CONTINUOUS
 62
     7
 10
-895.081656085
 20
923.8973621446
 30
0.0
  0
VERTEX
  5
385
  8
0
  6
CONTINUOUS
 62
     7
 10
-896.0153628454
 20
923.3582977373
 30
0.0
  0
VERTEX
  5
386
  8
0
  6
CONTINUOUS
 62
     7
 10
-896.8833852872
 20
922.857141884
 30
0.0
  0
VERTEX
  5
387
  8
0
  6
CONTINUOUS
 62
     7
 10
-897.6848889455
 20
922.3943714219
 30
0.0
  0
VERTEX
  5
388
  8
0
  6
CONTINUOUS
 62
     7
 10
-898.4192181692
 20
921.970433386
 30
0.0
  0
VERTEX
  5
389
  8
0
  6
CONTINUOUS
 62
     7
 10
-899.0855980978
 20
921.585685404
 30
0.0
  0
VERTEX
  5
38A
  8
0
  6
CONTINUOUS
 62
     7
 10
-899.6834922895
 20
921.2404851037
 30
0.0
  0
VERTEX
  5
38B
  8
0
  6
CONTINUOUS
 62
     7
 10
-900.2123643026
 20
920.9351603109
 30
0.0
  0
VERTEX
  5
38C
  8
0
  6
CONTINUOUS
 62
     7
 10
-900.6716776952
 20
920.6699792463
 30
0.0
  0
VERTEX
  5
38D
  8
0
  6
CONTINUOUS
 62
     7
 10
-901.0610152349
 20
920.4451803285
 30
0.0
  0
VERTEX
  5
38E
  8
0
  6
CONTINUOUS
 62
     7
 10
-901.3800788984
 20
920.2609721738
 30
0.0
  0
VERTEX
  5
38F
  8
0
  6
CONTINUOUS
 62
     7
 10
-901.6285110578
 20
920.1175335962
 30
0.0
  0
VERTEX
  5
390
  8
0
  6
CONTINUOUS
 62
     7
 10
-901.8061328992
 20
920.0149540025
 30
0.0
  0
VERTEX
  5
391
  8
0
  6
CONTINUOUS
 62
     7
 10
-901.9128252134
 20
919.9533824045
 30
0.0
  0
VERTEX
  5
392
  8
0
  6
CONTINUOUS
 62
     7
 10
-901.9483495817
 20
919.9328784067
 30
0.0
  0
SEQEND
  5
C07
  8
0
  6
CONTINUOUS
 62
     7
  0
LINE
  5
91
  8
0
  6
CONTINUOUS
 62
     7
 10
-901.9483495817
 20
919.9328784067
 30
0.0
 11
-916.9483352766
 21
945.9136191923
 31
0.0
  0
POLYLINE
  5
92
  8
0
  6
CONTINUOUS
 62
     7
 66
     1
 10
0.0
 20
0.0
 30
0.0
  0
VERTEX
  5
393
  8
0
  6
CONTINUOUS
 62
     7
 10
-916.9483352766
 20
945.9136191923
 30
0.0
  0
VERTEX
  5
394
  8
0
  6
CONTINUOUS
 62
     7
 10
-916.9128109083
 20
945.9341529924
 30
0.0
  0
VERTEX
  5
395
  8
0
  6
CONTINUOUS
 62
     7
 10
-916.8061781988
 20
945.9957245904
 30
0.0
  0
VERTEX
  5
396
  8
0
  6
CONTINUOUS
 62
     7
 10
-916.6284967527
 20
946.0982743818
 30
0.0
  0
VERTEX
  5
397
  8
0
  6
CONTINUOUS
 62
     7
 10
-916.3800645933
 20
946.2417129594
 30
0.0
  0
VERTEX
  5
398
  8
0
  6
CONTINUOUS
 62
     7
 10
-916.0610009298
 20
946.4259211141
 30
0.0
  0
VERTEX
  5
399
  8
0
  6
CONTINUOUS
 62
     7
 10
-915.6716633901
 20
946.6507200319
 30
0.0
  0
VERTEX
  5
39A
  8
0
  6
CONTINUOUS
 62
     7
 10
-915.2123499975
 20
946.9159010965
 30
0.0
  0
VERTEX
  5
39B
  8
0
  6
CONTINUOUS
 62
     7
 10
-914.6834779844
 20
947.2212556917
 30
0.0
  0
VERTEX
  5
39C
  8
0
  6
CONTINUOUS
 62
     7
 10
-914.0855837926
 20
947.5664261896
 30
0.0
  0
VERTEX
  5
39D
  8
0
  6
CONTINUOUS
 62
     7
 10
-913.4192038641
 20
947.9511741716
 30
0.0
  0
VERTEX
  5
39E
  8
0
  6
CONTINUOUS
 62
     7
 10
-912.6848746404
 20
948.3751420099
 30
0.0
  0
VERTEX
  5
39F
  8
0
  6
CONTINUOUS
 62
     7
 10
-911.8833709821
 20
948.8378826696
 30
0.0
  0
VERTEX
  5
3A0
  8
0
  6
CONTINUOUS
 62
     7
 10
-911.0153485403
 20
949.3390385229
 30
0.0
  0
VERTEX
  5
3A1
  8
0
  6
CONTINUOUS
 62
     7
 10
-910.0816417799
 20
949.8781327325
 30
0.0
  0
VERTEX
  5
3A2
  8
0
  6
CONTINUOUS
 62
     7
 10
-909.0830255613
 20
950.4546586591
 30
0.0
  0
VERTEX
  5
3A3
  8
0
  6
CONTINUOUS
 62
     7
 10
-908.0205131635
 20
951.0681096631
 30
0.0
  0
VERTEX
  5
3A4
  8
0
  6
CONTINUOUS
 62
     7
 10
-906.8950582609
 20
951.7179195005
 30
0.0
  0
VERTEX
  5
3A5
  8
0
  6
CONTINUOUS
 62
     7
 10
-905.7076145277
 20
952.4034623224
 30
0.0
  0
VERTEX
  5
3A6
  8
0
  6
CONTINUOUS
 62
     7
 10
-904.4593144521
 20
953.1241718847
 30
0.0
  0
VERTEX
  5
3A7
  8
0
  6
CONTINUOUS
 62
     7
 10
-903.1512905225
 20
953.879362734
 30
0.0
  0
VERTEX
  5
3A8
  8
0
  6
CONTINUOUS
 62
     7
 10
-901.7847944364
 20
954.6683196145
 30
0.0
  0
VERTEX
  5
3A9
  8
0
  6
CONTINUOUS
 62
     7
 10
-900.360958682
 20
955.490357073
 30
0.0
  0
VERTEX
  5
3AA
  8
0
  6
CONTINUOUS
 62
     7
 10
-898.8811541662
 20
956.3447300512
 30
0.0
  0
VERTEX
  5
3AB
  8
0
  6
CONTINUOUS
 62
     7
 10
-897.3466921911
 20
957.2306338865
 30
0.0
  0
VERTEX
  5
3AC
  8
0
  6
CONTINUOUS
 62
     7
 10
-895.7590628728
 20
958.1472937185
 30
0.0
  0
VERTEX
  5
3AD
  8
0
  6
CONTINUOUS
 62
     7
 10
-894.1195775136
 20
959.0938154775
 30
0.0
  0
VERTEX
  5
3AE
  8
0
  6
CONTINUOUS
 62
     7
 10
-892.4298454389
 20
960.0693945009
 30
0.0
  0
VERTEX
  5
3AF
  8
0
  6
CONTINUOUS
 62
     7
 10
-890.6913567647
 20
961.0731069166
 30
0.0
  0
VERTEX
  5
3B0
  8
0
  6
CONTINUOUS
 62
     7
 10
-888.9057208166
 20
962.1040586549
 30
0.0
  0
VERTEX
  5
3B1
  8
0
  6
CONTINUOUS
 62
     7
 10
-887.0745469198
 20
963.1612662393
 30
0.0
  0
VERTEX
  5
3B2
  8
0
  6
CONTINUOUS
 62
     7
 10
-885.1995040044
 20
964.2438356
 30
0.0
  0
VERTEX
  5
3B3
  8
0
  6
CONTINUOUS
 62
     7
 10
-883.2823206052
 20
965.3507236558
 30
0.0
  0
VERTEX
  5
3B4
  8
0
  6
CONTINUOUS
 62
     7
 10
-881.3247252569
 20
966.4809171277
 30
0.0
  0
VERTEX
  5
3B5
  8
0
  6
CONTINUOUS
 62
     7
 10
-879.3285657033
 20
967.6334325391
 30
0.0
  0
VERTEX
  5
3B6
  8
0
  6
CONTINUOUS
 62
     7
 10
-877.2955704793
 20
968.807167204
 30
0.0
  0
VERTEX
  5
3B7
  8
0
  6
CONTINUOUS
 62
     7
 10
-875.2276469335
 20
970.0010780412
 30
0.0
  0
VERTEX
  5
3B8
  8
0
  6
CONTINUOUS
 62
     7
 10
-873.1267024145
 20
971.214092167
 30
0.0
  0
VERTEX
  5
3B9
  8
0
  6
CONTINUOUS
 62
     7
 10
-870.9945846662
 20
972.4450472909
 30
0.0
  0
VERTEX
  5
3BA
  8
0
  6
CONTINUOUS
 62
     7
 10
-868.8333202467
 20
973.6928705293
 30
0.0
  0
VERTEX
  5
3BB
  8
0
  6
CONTINUOUS
 62
     7
 10
-866.6447568998
 20
974.9563995916
 30
0.0
  0
VERTEX
  5
3BC
  8
0
  6
CONTINUOUS
 62
     7
 10
-864.4310403928
 20
976.2345019895
 30
0.0
  0
VERTEX
  5
3BD
  8
0
  6
CONTINUOUS
 62
     7
 10
-862.1941376791
 20
977.5259856302
 30
0.0
  0
VERTEX
  5
3BE
  8
0
  6
CONTINUOUS
 62
     7
 10
-859.9360753164
 20
978.829688223
 30
0.0
  0
VERTEX
  5
3BF
  8
0
  6
CONTINUOUS
 62
     7
 10
-857.6588798627
 20
980.1444176752
 30
0.0
  0
VERTEX
  5
3C0
  8
0
  6
CONTINUOUS
 62
     7
 10
-855.3646970853
 20
981.4689818937
 30
0.0
  0
VERTEX
  5
3C1
  8
0
  6
CONTINUOUS
 62
     7
 10
-853.0555535421
 20
982.8021589834
 30
0.0
  0
VERTEX
  5
3C2
  8
0
  6
CONTINUOUS
 62
     7
 10
-850.7335950002
 20
984.142727049
 30
0.0
  0
VERTEX
  5
3C3
  8
0
  6
CONTINUOUS
 62
     7
 10
-848.4009672269
 20
985.4894641954
 30
0.0
  0
VERTEX
  5
3C4
  8
0
  6
CONTINUOUS
 62
     7
 10
-846.0597563848
 20
986.8411783296
 30
0.0
  0
VERTEX
  5
3C5
  8
0
  6
CONTINUOUS
 62
     7
 10
-843.712108241
 20
988.1965879518
 30
0.0
  0
VERTEX
  5
3C6
  8
0
  6
CONTINUOUS
 62
     7
 10
-841.3601685628
 20
989.5545009691
 30
0.0
  0
VERTEX
  5
3C7
  8
0
  6
CONTINUOUS
 62
     7
 10
-839.0060831174
 20
990.9136358816
 30
0.0
  0
SEQEND
  5
C06
  8
0
  6
CONTINUOUS
 62
     7
  0
LINE
  5
93
  8
0
  6
CONTINUOUS
 62
     7
 10
-527.236895667
 20
1170.9136430341
 30
0.0
 11
-512.2369099721
 21
1144.9328724462
 31
0.0
  0
LINE
  5
94
  8
0
  6
CONTINUOUS
 62
     7
 10
-590.1792217359
 20
1099.9328557569
 30
0.0
 11
-605.1792074308
 21
1125.9136263448
 31
0.0
  0
POLYLINE
  5
95
  8
0
  6
CONTINUOUS
 62
     7
 66
     1
 10
0.0
 20
0.0
 30
0.0
  0
VERTEX
  5
3C8
  8
0
  6
CONTINUOUS
 62
     7
 10
-605.1792074308
 20
1125.9136263448
 30
0.0
  0
VERTEX
  5
3C9
  8
0
  6
CONTINUOUS
 62
     7
 10
-602.8251219854
 20
1127.2727612573
 30
0.0
  0
VERTEX
  5
3CA
  8
0
  6
CONTINUOUS
 62
     7
 10
-600.4731823072
 20
1128.6306444723
 30
0.0
  0
VERTEX
  5
3CB
  8
0
  6
CONTINUOUS
 62
     7
 10
-598.1255341634
 20
1129.9860838968
 30
0.0
  0
VERTEX
  5
3CC
  8
0
  6
CONTINUOUS
 62
     7
 10
-595.7843233213
 20
1131.3377682287
 30
0.0
  0
VERTEX
  5
3CD
  8
0
  6
CONTINUOUS
 62
     7
 10
-593.4516359434
 20
1132.6845351774
 30
0.0
  0
VERTEX
  5
3CE
  8
0
  6
CONTINUOUS
 62
     7
 10
-591.1297370061
 20
1134.025103243
 30
0.0
  0
VERTEX
  5
3CF
  8
0
  6
CONTINUOUS
 62
     7
 10
-588.8205934629
 20
1135.3582803327
 30
0.0
  0
VERTEX
  5
3D0
  8
0
  6
CONTINUOUS
 62
     7
 10
-586.5264106855
 20
1136.6828147489
 30
0.0
  0
VERTEX
  5
3D1
  8
0
  6
CONTINUOUS
 62
     7
 10
-584.2492152318
 20
1137.9975740034
 30
0.0
  0
VERTEX
  5
3D2
  8
0
  6
CONTINUOUS
 62
     7
 10
-581.9911528692
 20
1139.3012467939
 30
0.0
  0
VERTEX
  5
3D3
  8
0
  6
CONTINUOUS
 62
     7
 10
-579.7541905508
 20
1140.5927602369
 30
0.0
  0
VERTEX
  5
3D4
  8
0
  6
CONTINUOUS
 62
     7
 10
-577.5404740438
 20
1141.8708626348
 30
0.0
  0
VERTEX
  5
3D5
  8
0
  6
CONTINUOUS
 62
     7
 10
-575.3519703016
 20
1143.1343618947
 30
0.0
  0
VERTEX
  5
3D6
  8
0
  6
CONTINUOUS
 62
     7
 10
-573.190705882
 20
1144.3821851331
 30
0.0
  0
VERTEX
  5
3D7
  8
0
  6
CONTINUOUS
 62
     7
 10
-571.0585881338
 20
1145.6131998617
 30
0.0
  0
VERTEX
  5
3D8
  8
0
  6
CONTINUOUS
 62
     7
 10
-568.9576436147
 20
1146.8261543828
 30
0.0
  0
VERTEX
  5
3D9
  8
0
  6
CONTINUOUS
 62
     7
 10
-566.8897200689
 20
1148.0200950223
 30
0.0
  0
VERTEX
  5
3DA
  8
0
  6
CONTINUOUS
 62
     7
 10
-564.8567248449
 20
1149.1938296873
 30
0.0
  0
VERTEX
  5
3DB
  8
0
  6
CONTINUOUS
 62
     7
 10
-562.8605056867
 20
1150.3463450986
 30
0.0
  0
VERTEX
  5
3DC
  8
0
  6
CONTINUOUS
 62
     7
 10
-560.902969943
 20
1151.4765683729
 30
0.0
  0
VERTEX
  5
3DD
  8
0
  6
CONTINUOUS
 62
     7
 10
-558.9857865438
 20
1152.5834266263
 30
0.0
  0
VERTEX
  5
3DE
  8
0
  6
CONTINUOUS
 62
     7
 10
-557.1107436285
 20
1153.6659661847
 30
0.0
  0
VERTEX
  5
3DF
  8
0
  6
CONTINUOUS
 62
     7
 10
-555.2795697317
 20
1154.7232333738
 30
0.0
  0
VERTEX
  5
3E0
  8
0
  6
CONTINUOUS
 62
     7
 10
-553.4939337835
 20
1155.7541553098
 30
0.0
  0
VERTEX
  5
3E1
  8
0
  6
CONTINUOUS
 62
     7
 10
-551.7554451093
 20
1156.7578379232
 30
0.0
  0
VERTEX
  5
3E2
  8
0
  6
CONTINUOUS
 62
     7
 10
-550.0657130346
 20
1157.7334467489
 30
0.0
  0
VERTEX
  5
3E3
  8
0
  6
CONTINUOUS
 62
     7
 10
-548.4262276754
 20
1158.6799685079
 30
0.0
  0
VERTEX
  5
3E4
  8
0
  6
CONTINUOUS
 62
     7
 10
-546.8385983572
 20
1159.5966283399
 30
0.0
  0
VERTEX
  5
3E5
  8
0
  6
CONTINUOUS
 62
     7
 10
-545.3041363821
 20
1160.4825321752
 30
0.0
  0
VERTEX
  5
3E6
  8
0
  6
CONTINUOUS
 62
     7
 10
-543.8243318662
 20
1161.3369051534
 30
0.0
  0
VERTEX
  5
3E7
  8
0
  6
CONTINUOUS
 62
     7
 10
-542.4004961118
 20
1162.1589128095
 30
0.0
  0
VERTEX
  5
3E8
  8
0
  6
CONTINUOUS
 62
     7
 10
-541.0339404211
 20
1162.9478994924
 30
0.0
  0
VERTEX
  5
3E9
  8
0
  6
CONTINUOUS
 62
     7
 10
-539.7259760961
 20
1163.7030903417
 30
0.0
  0
VERTEX
  5
3EA
  8
0
  6
CONTINUOUS
 62
     7
 10
-538.4776760206
 20
1164.4237701017
 30
0.0
  0
VERTEX
  5
3EB
  8
0
  6
CONTINUOUS
 62
     7
 10
-537.2902322874
 20
1165.1093427259
 30
0.0
  0
VERTEX
  5
3EC
  8
0
  6
CONTINUOUS
 62
     7
 10
-536.1647177801
 20
1165.7591525632
 30
0.0
  0
VERTEX
  5
3ED
  8
0
  6
CONTINUOUS
 62
     7
 10
-535.1022053823
 20
1166.3726035673
 30
0.0
  0
VERTEX
  5
3EE
  8
0
  6
CONTINUOUS
 62
     7
 10
-534.1036487684
 20
1166.9490996915
 30
0.0
  0
VERTEX
  5
3EF
  8
0
  6
CONTINUOUS
 62
     7
 10
-533.169942008
 20
1167.4882237035
 30
0.0
  0
VERTEX
  5
3F0
  8
0
  6
CONTINUOUS
 62
     7
 10
-532.3019195661
 20
1167.9893795568
 30
0.0
  0
VERTEX
  5
3F1
  8
0
  6
CONTINUOUS
 62
     7
 10
-531.5003563032
 20
1168.4520904142
 30
0.0
  0
VERTEX
  5
3F2
  8
0
  6
CONTINUOUS
 62
     7
 10
-530.7660866842
 20
1168.8760582525
 30
0.0
  0
VERTEX
  5
3F3
  8
0
  6
CONTINUOUS
 62
     7
 10
-530.0997067556
 20
1169.2608062345
 30
0.0
  0
VERTEX
  5
3F4
  8
0
  6
CONTINUOUS
 62
     7
 10
-529.5018125638
 20
1169.606036337
 30
0.0
  0
VERTEX
  5
3F5
  8
0
  6
CONTINUOUS
 62
     7
 10
-528.9729405508
 20
1169.9113313276
 30
0.0
  0
VERTEX
  5
3F6
  8
0
  6
CONTINUOUS
 62
     7
 10
-528.5136271581
 20
1170.1765123922
 30
0.0
  0
VERTEX
  5
3F7
  8
0
  6
CONTINUOUS
 62
     7
 10
-528.1242896184
 20
1170.4013411123
 30
0.0
  0
VERTEX
  5
3F8
  8
0
  6
CONTINUOUS
 62
     7
 10
-527.805225955
 20
1170.5855194646
 30
0.0
  0
VERTEX
  5
3F9
  8
0
  6
CONTINUOUS
 62
     7
 10
-527.5567341909
 20
1170.7289878446
 30
0.0
  0
VERTEX
  5
3FA
  8
0
  6
CONTINUOUS
 62
     7
 10
-527.3791123495
 20
1170.8315078336
 30
0.0
  0
VERTEX
  5
3FB
  8
0
  6
CONTINUOUS
 62
     7
 10
-527.27247964
 20
1170.8930794317
 30
0.0
  0
VERTEX
  5
3FC
  8
0
  6
CONTINUOUS
 62
     7
 10
-527.236895667
 20
1170.9136430341
 30
0.0
  0
SEQEND
  5
C05
  8
0
  6
CONTINUOUS
 62
     7
  0
LINE
  5
96
  8
0
  6
CONTINUOUS
 62
     7
 10
-839.0060831174
 20
990.9136358816
 30
0.0
 11
-789.7805739507
 21
1019.3339649755
 31
0.0
  0
LINE
  5
97
  8
0
  6
CONTINUOUS
 62
     7
 10
-736.1861039266
 20
1050.276732834
 30
0.0
 11
-605.1792074308
 21
1125.9136263448
 31
0.0
  0
LINE
  5
98
  8
0
  6
CONTINUOUS
 62
     7
 10
-824.0060974226
 20
964.9328652936
 30
0.0
 11
-822.4165607557
 21
965.8505682069
 31
0.0
  0
LINE
  5
99
  8
0
  6
CONTINUOUS
 62
     7
 10
-588.5897446737
 20
1100.8505586702
 30
0.0
 11
-590.1792217359
 21
1099.9328557569
 31
0.0
  0
LINE
  5
9A
  8
0
  6
CONTINUOUS
 62
     7
 10
-803.4165669546
 20
932.9415921289
 30
0.0
 11
-712.83026229
 21
985.2416280824
 31
0.0
  0
LINE
  5
9B
  8
0
  6
CONTINUOUS
 62
     7
 10
-659.2357922658
 20
1016.1843959409
 30
0.0
 11
-569.5896912679
 21
1067.9415825921
 31
0.0
  0
LINE
  5
9C
  8
0
  6
CONTINUOUS
 62
     7
 10
-545.358853446
 20
630.8505598623
 30
0.0
 11
-793.8389946088
 21
630.8505598623
 31
0.0
  0
POLYLINE
  5
9D
  8
0
  6
CONTINUOUS
 62
     7
 66
     1
 10
0.0
 20
0.0
 30
0.0
  0
VERTEX
  5
3FD
  8
0
  6
CONTINUOUS
 62
     7
 10
-793.8389946088
 20
630.8505598623
 30
0.0
  0
VERTEX
  5
3FE
  8
0
  6
CONTINUOUS
 62
     7
 10
-792.1466995344
 20
621.2529892269
 30
0.0
  0
VERTEX
  5
3FF
  8
0
  6
CONTINUOUS
 62
     7
 10
-790.455060111
 20
611.6590619254
 30
0.0
  0
VERTEX
  5
400
  8
0
  6
CONTINUOUS
 62
     7
 10
-788.7659240827
 20
602.0797014403
 30
0.0
  0
VERTEX
  5
401
  8
0
  6
CONTINUOUS
 62
     7
 10
-787.0813180074
 20
592.5258349794
 30
0.0
  0
VERTEX
  5
402
  8
0
  6
CONTINUOUS
 62
     7
 10
-785.4018379316
 20
583.0010872501
 30
0.0
  0
VERTEX
  5
403
  8
0
  6
CONTINUOUS
 62
     7
 10
-783.7281991109
 20
573.5091258007
 30
0.0
  0
VERTEX
  5
404
  8
0
  6
CONTINUOUS
 62
     7
 10
-782.0621896848
 20
564.060791226
 30
0.0
  0
VERTEX
  5
405
  8
0
  6
CONTINUOUS
 62
     7
 10
-780.4057766065
 20
554.6669203955
 30
0.0
  0
VERTEX
  5
406
  8
0
  6
CONTINUOUS
 62
     7
 10
-778.675572978
 20
544.8544088918
 30
0.0
  0
VERTEX
  5
407
  8
0
  6
CONTINUOUS
 62
     7
 10
-776.9574094877
 20
535.1102490145
 30
0.0
  0
VERTEX
  5
408
  8
0
  6
CONTINUOUS
 62
     7
 10
-775.2534915075
 20
525.4467938262
 30
0.0
  0
VERTEX
  5
409
  8
0
  6
CONTINUOUS
 62
     7
 10
-773.5659648046
 20
515.876388939
 30
0.0
  0
VERTEX
  5
40A
  8
0
  6
CONTINUOUS
 62
     7
 10
-771.9766069517
 20
506.8626094777
 30
0.0
  0
VERTEX
  5
40B
  8
0
  6
CONTINUOUS
 62
     7
 10
-770.4033423528
 20
497.9402933437
 30
0.0
  0
VERTEX
  5
40C
  8
0
  6
CONTINUOUS
 62
     7
 10
-768.8480783567
 20
489.1197595912
 30
0.0
  0
VERTEX
  5
40D
  8
0
  6
CONTINUOUS
 62
     7
 10
-767.312543498
 20
480.4113421756
 30
0.0
  0
VERTEX
  5
40E
  8
0
  6
CONTINUOUS
 62
     7
 10
-765.7973934278
 20
471.8185279685
 30
0.0
  0
VERTEX
  5
40F
  8
0
  6
CONTINUOUS
 62
     7
 10
-764.3032241926
 20
463.3447889406
 30
0.0
  0
VERTEX
  5
410
  8
0
  6
CONTINUOUS
 62
     7
 10
-762.8318239316
 20
455.000049265
 30
0.0
  0
VERTEX
  5
411
  8
0
  6
CONTINUOUS
 62
     7
 10
-761.3849211797
 20
446.7942778188
 30
0.0
  0
VERTEX
  5
412
  8
0
  6
CONTINUOUS
 62
     7
 10
-759.8897386655
 20
438.3144889194
 30
0.0
  0
VERTEX
  5
413
  8
0
  6
CONTINUOUS
 62
     7
 10
-758.4229875669
 20
429.9961690027
 30
0.0
  0
VERTEX
  5
414
  8
0
  6
CONTINUOUS
 62
     7
 10
-756.9866348371
 20
421.850255521
 30
0.0
  0
VERTEX
  5
415
  8
0
  6
CONTINUOUS
 62
     7
 10
-755.5825878248
 20
413.8877157289
 30
0.0
  0
VERTEX
  5
416
  8
0
  6
CONTINUOUS
 62
     7
 10
-754.2895842657
 20
406.554630788
 30
0.0
  0
VERTEX
  5
417
  8
0
  6
CONTINUOUS
 62
     7
 10
-753.0263830289
 20
399.3907038289
 30
0.0
  0
VERTEX
  5
418
  8
0
  6
CONTINUOUS
 62
     7
 10
-751.7945338354
 20
392.404368909
 30
0.0
  0
VERTEX
  5
419
  8
0
  6
CONTINUOUS
 62
     7
 10
-750.5954075918
 20
385.6040004808
 30
0.0
  0
VERTEX
  5
41A
  8
0
  6
CONTINUOUS
 62
     7
 10
-749.4296599493
 20
378.99262348
 30
0.0
  0
VERTEX
  5
41B
  8
0
  6
CONTINUOUS
 62
     7
 10
-748.2977081403
 20
372.5730542261
 30
0.0
  0
VERTEX
  5
41C
  8
0
  6
CONTINUOUS
 62
     7
 10
-747.2009826765
 20
366.3530115205
 30
0.0
  0
VERTEX
  5
41D
  8
0
  6
CONTINUOUS
 62
     7
 10
-746.1407948598
 20
360.3403631765
 30
0.0
  0
VERTEX
  5
41E
  8
0
  6
CONTINUOUS
 62
     7
 10
-745.0646329984
 20
354.237354191
 30
0.0
  0
VERTEX
  5
41F
  8
0
  6
CONTINUOUS
 62
     7
 10
-744.0300751791
 20
348.3701411802
 30
0.0
  0
VERTEX
  5
420
  8
0
  6
CONTINUOUS
 62
     7
 10
-743.0384923086
 20
342.7466217595
 30
0.0
  0
VERTEX
  5
421
  8
0
  6
CONTINUOUS
 62
     7
 10
-742.0913148984
 20
337.3746637422
 30
0.0
  0
VERTEX
  5
422
  8
0
  6
CONTINUOUS
 62
     7
 10
-741.2454653844
 20
332.5777713376
 30
0.0
  0
VERTEX
  5
423
  8
0
  6
CONTINUOUS
 62
     7
 10
-740.4392529592
 20
328.0055884439
 30
0.0
  0
VERTEX
  5
424
  8
0
  6
CONTINUOUS
 62
     7
 10
-739.6736909017
 20
323.6635688859
 30
0.0
  0
VERTEX
  5
425
  8
0
  6
CONTINUOUS
 62
     7
 10
-738.9495540723
 20
319.5571068841
 30
0.0
  0
VERTEX
  5
426
  8
0
  6
CONTINUOUS
 62
     7
 10
-738.2673789129
 20
315.6882886011
 30
0.0
  0
VERTEX
  5
427
  8
0
  6
CONTINUOUS
 62
     7
 10
-737.6274038419
 20
312.0586041528
 30
0.0
  0
VERTEX
  5
428
  8
0
  6
CONTINUOUS
 62
     7
 10
-737.0302845106
 20
308.6723748762
 30
0.0
  0
VERTEX
  5
429
  8
0
  6
CONTINUOUS
 62
     7
 10
-736.4769149885
 20
305.5339519102
 30
0.0
  0
VERTEX
  5
42A
  8
0
  6
CONTINUOUS
 62
     7
 10
-735.941903697
 20
302.4997774679
 30
0.0
  0
VERTEX
  5
42B
  8
0
  6
CONTINUOUS
 62
     7
 10
-735.4558874235
 20
299.7434500772
 30
0.0
  0
VERTEX
  5
42C
  8
0
  6
CONTINUOUS
 62
     7
 10
-735.0195218191
 20
297.2686652261
 30
0.0
  0
VERTEX
  5
42D
  8
0
  6
CONTINUOUS
 62
     7
 10
-734.6334625349
 20
295.0790289956
 30
0.0
  0
VERTEX
  5
42E
  8
0
  6
CONTINUOUS
 62
     7
 10
-734.3174387083
 20
293.2868961412
 30
0.0
  0
VERTEX
  5
42F
  8
0
  6
CONTINUOUS
 62
     7
 10
-734.0459395513
 20
291.7472187597
 30
0.0
  0
VERTEX
  5
430
  8
0
  6
CONTINUOUS
 62
     7
 10
-733.8192630872
 20
290.4616955835
 30
0.0
  0
VERTEX
  5
431
  8
0
  6
CONTINUOUS
 62
     7
 10
-733.6377073392
 20
289.4320849496
 30
0.0
  0
VERTEX
  5
432
  8
0
  6
CONTINUOUS
 62
     7
 10
-733.5014511213
 20
288.6592213231
 30
0.0
  0
VERTEX
  5
433
  8
0
  6
CONTINUOUS
 62
     7
 10
-733.4104348287
 20
288.1429854947
 30
0.0
  0
VERTEX
  5
434
  8
0
  6
CONTINUOUS
 62
     7
 10
-733.3647180662
 20
287.8837648946
 30
0.0
  0
VERTEX
  5
435
  8
0
  6
CONTINUOUS
 62
     7
 10
-733.3645392522
 20
287.8828112203
 30
0.0
  0
SEQEND
  5
C04
  8
0
  6
CONTINUOUS
 62
     7
  0
LINE
  5
9E
  8
0
  6
CONTINUOUS
 62
     7
 10
-545.358853446
 20
630.8505598623
 30
0.0
 11
-439.9953652486
 21
630.8505598623
 31
0.0
  0
POLYLINE
  5
9F
  8
0
  6
CONTINUOUS
 62
     7
 66
     1
 10
0.0
 20
0.0
 30
0.0
  0
VERTEX
  5
436
  8
0
  6
CONTINUOUS
 62
     7
 10
-439.9953652486
 20
630.8505598623
 30
0.0
  0
VERTEX
  5
437
  8
0
  6
CONTINUOUS
 62
     7
 10
-439.9967063531
 20
621.3735135439
 30
0.0
  0
VERTEX
  5
438
  8
0
  6
CONTINUOUS
 62
     7
 10
-439.9996567831
 20
611.9000826198
 30
0.0
  0
VERTEX
  5
439
  8
0
  6
CONTINUOUS
 62
     7
 10
-440.0024880037
 20
602.4411104787
 30
0.0
  0
VERTEX
  5
43A
  8
0
  6
CONTINUOUS
 62
     7
 10
-440.0035906896
 20
593.0074330586
 30
0.0
  0
VERTEX
  5
43B
  8
0
  6
CONTINUOUS
 62
     7
 10
-440.0020409688
 20
583.6026769298
 30
0.0
  0
VERTEX
  5
43C
  8
0
  6
CONTINUOUS
 62
     7
 10
-439.9991501436
 20
574.2304388601
 30
0.0
  0
VERTEX
  5
43D
  8
0
  6
CONTINUOUS
 62
     7
 10
-439.996318923
 20
564.9014253336
 30
0.0
  0
VERTEX
  5
43E
  8
0
  6
CONTINUOUS
 62
     7
 10
-439.9950076208
 20
555.6263540107
 30
0.0
  0
VERTEX
  5
43F
  8
0
  6
CONTINUOUS
 62
     7
 10
-439.9950672254
 20
545.9364865142
 30
0.0
  0
VERTEX
  5
440
  8
0
  6
CONTINUOUS
 62
     7
 10
-439.9950374231
 20
536.314262839
 30
0.0
  0
VERTEX
  5
441
  8
0
  6
CONTINUOUS
 62
     7
 10
-439.9942625627
 20
526.7717901784
 30
0.0
  0
VERTEX
  5
442
  8
0
  6
CONTINUOUS
 62
     7
 10
-439.9922360048
 20
517.3211757261
 30
0.0
  0
VERTEX
  5
443
  8
0
  6
CONTINUOUS
 62
     7
 10
-439.9899114236
 20
508.4218967873
 30
0.0
  0
VERTEX
  5
444
  8
0
  6
CONTINUOUS
 62
     7
 10
-439.9886001215
 20
499.6126953679
 30
0.0
  0
VERTEX
  5
445
  8
0
  6
CONTINUOUS
 62
     7
 10
-439.9887491331
 20
490.9036223012
 30
0.0
  0
VERTEX
  5
446
  8
0
  6
CONTINUOUS
 62
     7
 10
-439.990686284
 20
482.3046688157
 30
0.0
  0
VERTEX
  5
447
  8
0
  6
CONTINUOUS
 62
     7
 10
-439.9932194814
 20
473.8192770797
 30
0.0
  0
VERTEX
  5
448
  8
0
  6
CONTINUOUS
 62
     7
 10
-439.9947990045
 20
465.450576337
 30
0.0
  0
VERTEX
  5
449
  8
0
  6
CONTINUOUS
 62
     7
 10
-439.995395051
 20
457.2080586273
 30
0.0
  0
VERTEX
  5
44A
  8
0
  6
CONTINUOUS
 62
     7
 10
-439.9948586092
 20
449.1012755948
 30
0.0
  0
VERTEX
  5
44B
  8
0
  6
CONTINUOUS
 62
     7
 10
-439.9947095975
 20
440.7278362829
 30
0.0
  0
VERTEX
  5
44C
  8
0
  6
CONTINUOUS
 62
     7
 10
-439.9958718881
 20
432.5114552099
 30
0.0
  0
VERTEX
  5
44D
  8
0
  6
CONTINUOUS
 62
     7
 10
-439.9974514112
 20
424.4624439794
 30
0.0
  0
VERTEX
  5
44E
  8
0
  6
CONTINUOUS
 62
     7
 10
-439.9984646902
 20
416.591114195
 30
0.0
  0
VERTEX
  5
44F
  8
0
  6
CONTINUOUS
 62
     7
 10
-439.9975110158
 20
409.2722002584
 30
0.0
  0
VERTEX
  5
450
  8
0
  6
CONTINUOUS
 62
     7
 10
-439.9947990045
 20
402.1198067981
 30
0.0
  0
VERTEX
  5
451
  8
0
  6
CONTINUOUS
 62
     7
 10
-439.9917591676
 20
395.1419506389
 30
0.0
  0
VERTEX
  5
452
  8
0
  6
CONTINUOUS
 62
     7
 10
-439.9898816213
 20
388.3466635066
 30
0.0
  0
VERTEX
  5
453
  8
0
  6
CONTINUOUS
 62
     7
 10
-439.990775691
 20
381.7367319185
 30
0.0
  0
VERTEX
  5
454
  8
0
  6
CONTINUOUS
 62
     7
 10
-439.9939347372
 20
375.3144506532
 30
0.0
  0
VERTEX
  5
455
  8
0
  6
CONTINUOUS
 62
     7
 10
-439.9975110158
 20
369.0871957857
 30
0.0
  0
VERTEX
  5
456
  8
0
  6
CONTINUOUS
 62
     7
 10
-439.9995971784
 20
363.0622390825
 30
0.0
  0
VERTEX
  5
457
  8
0
  6
CONTINUOUS
 62
     7
 10
-439.9991501436
 20
356.9485906679
 30
0.0
  0
VERTEX
  5
458
  8
0
  6
CONTINUOUS
 62
     7
 10
-439.997153388
 20
351.0637942869
 30
0.0
  0
VERTEX
  5
459
  8
0
  6
CONTINUOUS
 62
     7
 10
-439.9951268301
 20
345.4151515085
 30
0.0
  0
VERTEX
  5
45A
  8
0
  6
CONTINUOUS
 62
     7
 10
-439.9945307836
 20
340.0099639017
 30
0.0
  0
VERTEX
  5
45B
  8
0
  6
CONTINUOUS
 62
     7
 10
-439.9950672254
 20
335.0974384862
 30
0.0
  0
VERTEX
  5
45C
  8
0
  6
CONTINUOUS
 62
     7
 10
-439.9951566324
 20
330.4089967328
 30
0.0
  0
VERTEX
  5
45D
  8
0
  6
CONTINUOUS
 62
     7
 10
-439.9944413766
 20
325.9498242456
 30
0.0
  0
VERTEX
  5
45E
  8
0
  6
CONTINUOUS
 62
     7
 10
-439.9925936327
 20
321.7251364309
 30
0.0
  0
VERTEX
  5
45F
  8
0
  6
CONTINUOUS
 62
     7
 10
-439.9905074701
 20
317.7368406373
 30
0.0
  0
VERTEX
  5
460
  8
0
  6
CONTINUOUS
 62
     7
 10
-439.9895835981
 20
313.9860991556
 30
0.0
  0
VERTEX
  5
461
  8
0
  6
CONTINUOUS
 62
     7
 10
-439.9901200399
 20
310.4770843107
 30
0.0
  0
VERTEX
  5
462
  8
0
  6
CONTINUOUS
 62
     7
 10
-439.9923254118
 20
307.2139684278
 30
0.0
  0
VERTEX
  5
463
  8
0
  6
CONTINUOUS
 62
     7
 10
-439.9950374231
 20
304.0500644761
 30
0.0
  0
VERTEX
  5
464
  8
0
  6
CONTINUOUS
 62
     7
 10
-439.9965871439
 20
301.1606995183
 30
0.0
  0
VERTEX
  5
465
  8
0
  6
CONTINUOUS
 62
     7
 10
-439.9971831903
 20
298.5494796354
 30
0.0
  0
VERTEX
  5
466
  8
0
  6
CONTINUOUS
 62
     7
 10
-439.9969149694
 20
296.2198618966
 30
0.0
  0
VERTEX
  5
467
  8
0
  6
CONTINUOUS
 62
     7
 10
-439.9973322019
 20
294.2663792688
 30
0.0
  0
VERTEX
  5
468
  8
0
  6
CONTINUOUS
 62
     7
 10
-439.9990905389
 20
292.5694648343
 30
0.0
  0
VERTEX
  5
469
  8
0
  6
CONTINUOUS
 62
     7
 10
-440.0009978876
 20
291.1309067327
 30
0.0
  0
VERTEX
  5
46A
  8
0
  6
CONTINUOUS
 62
     7
 10
-440.0018621549
 20
289.9525527078
 30
0.0
  0
VERTEX
  5
46B
  8
0
  6
CONTINUOUS
 62
     7
 10
-440.0004316434
 20
289.0351776201
 30
0.0
  0
VERTEX
  5
46C
  8
0
  6
CONTINUOUS
 62
     7
 10
-439.9973322019
 20
288.3787218648
 30
0.0
  0
VERTEX
  5
46D
  8
0
  6
CONTINUOUS
 62
     7
 10
-439.9942029581
 20
287.9836920816
 30
0.0
  0
VERTEX
  5
46E
  8
0
  6
CONTINUOUS
 62
     7
 10
-439.9927426443
 20
287.8505651075
 30
0.0
  0
VERTEX
  5
46F
  8
0
  6
CONTINUOUS
 62
     7
 10
-439.9927724466
 20
287.8516081888
 30
0.0
  0
SEQEND
  5
C03
  8
0
  6
CONTINUOUS
 62
     7
  0
LINE
  5
A0
  8
0
  6
CONTINUOUS
 62
     7
 10
-439.9953652486
 20
752.8013575989
 30
0.0
 11
-439.9953652486
 21
630.8505598623
 31
0.0
  0
POLYLINE
  5
A1
  8
0
  6
CONTINUOUS
 62
     7
 66
     1
 10
0.0
 20
0.0
 30
0.0
  0
VERTEX
  5
470
  8
0
  6
CONTINUOUS
 62
     7
 10
-433.9664746389
 20
1024.0664545614
 30
0.0
  0
VERTEX
  5
471
  8
0
  6
CONTINUOUS
 62
     7
 10
-433.9473117456
 20
1022.3848287183
 30
0.0
  0
VERTEX
  5
472
  8
0
  6
CONTINUOUS
 62
     7
 10
-433.9047242269
 20
1020.5423895437
 30
0.0
  0
VERTEX
  5
473
  8
0
  6
CONTINUOUS
 62
     7
 10
-433.8617790803
 20
1018.5499850828
 30
0.0
  0
VERTEX
  5
474
  8
0
  6
CONTINUOUS
 62
     7
 10
-433.8416923151
 20
1016.4185527879
 30
0.0
  0
VERTEX
  5
475
  8
0
  6
CONTINUOUS
 62
     7
 10
-433.8537920579
 20
1013.2931534368
 30
0.0
  0
VERTEX
  5
476
  8
0
  6
CONTINUOUS
 62
     7
 10
-433.8935781583
 20
1009.9123183805
 30
0.0
  0
VERTEX
  5
477
  8
0
  6
CONTINUOUS
 62
     7
 10
-433.9621831045
 20
1006.2882367689
 30
0.0
  0
VERTEX
  5
478
  8
0
  6
CONTINUOUS
 62
     7
 10
-434.0432454214
 20
1003.0662778932
 30
0.0
  0
VERTEX
  5
479
  8
0
  6
CONTINUOUS
 62
     7
 10
-434.1464806661
 20
999.6804956514
 30
0.0
  0
VERTEX
  5
47A
  8
0
  6
CONTINUOUS
 62
     7
 10
-434.2717696294
 20
996.1394433099
 30
0.0
  0
VERTEX
  5
47B
  8
0
  6
CONTINUOUS
 62
     7
 10
-434.418993102
 20
992.4517635423
 30
0.0
  0
VERTEX
  5
47C
  8
0
  6
CONTINUOUS
 62
     7
 10
-434.5926512346
 20
988.5079030115
 30
0.0
  0
VERTEX
  5
47D
  8
0
  6
CONTINUOUS
 62
     7
 10
-434.78764783
 20
984.4148818571
 30
0.0
  0
VERTEX
  5
47E
  8
0
  6
CONTINUOUS
 62
     7
 10
-435.0030888185
 20
980.1837269384
 30
0.0
  0
VERTEX
  5
47F
  8
0
  6
CONTINUOUS
 62
     7
 10
-435.2379907236
 20
975.8254055101
 30
0.0
  0
VERTEX
  5
480
  8
0
  6
CONTINUOUS
 62
     7
 10
-435.5219472513
 20
970.8213869649
 30
0.0
  0
VERTEX
  5
481
  8
0
  6
CONTINUOUS
 62
     7
 10
-435.8290899858
 20
965.6722311098
 30
0.0
  0
VERTEX
  5
482
  8
0
  6
CONTINUOUS
 62
     7
 10
-436.1594487295
 20
960.3954915124
 30
0.0
  0
VERTEX
  5
483
  8
0
  6
CONTINUOUS
 62
     7
 10
-436.521129714
 20
954.8808697778
 30
0.0
  0
VERTEX
  5
484
  8
0
  6
CONTINUOUS
 62
     7
 10
-436.9074572191
 20
949.2519859392
 30
0.0
  0
VERTEX
  5
485
  8
0
  6
CONTINUOUS
 62
     7
 10
-437.3186398611
 20
943.5293439943
 30
0.0
  0
SEQEND
  5
C02
  8
0
  6
CONTINUOUS
 62
     7
  0
POLYLINE
  5
A2
  8
0
  6
CONTINUOUS
 62
     7
 66
     1
 10
0.0
 20
0.0
 30
0.0
  0
VERTEX
  5
486
  8
0
  6
CONTINUOUS
 62
     7
 10
-434.0861309633
 20
1072.3214212972
 30
0.0
  0
VERTEX
  5
487
  8
0
  6
CONTINUOUS
 62
     7
 10
-434.0878893003
 20
1071.9572071153
 30
0.0
  0
VERTEX
  5
488
  8
0
  6
CONTINUOUS
 62
     7
 10
-434.0794552431
 20
1071.2730053979
 30
0.0
  0
VERTEX
  5
489
  8
0
  6
CONTINUOUS
 62
     7
 10
-434.0675939188
 20
1070.2718261796
 30
0.0
  0
VERTEX
  5
48A
  8
0
  6
CONTINUOUS
 62
     7
 10
-434.0591002569
 20
1068.9565602857
 30
0.0
  0
VERTEX
  5
48B
  8
0
  6
CONTINUOUS
 62
     7
 10
-434.056805478
 20
1067.3282805997
 30
0.0
  0
VERTEX
  5
48C
  8
0
  6
CONTINUOUS
 62
     7
 10
-434.0549875364
 20
1065.3855566102
 30
0.0
  0
VERTEX
  5
48D
  8
0
  6
CONTINUOUS
 62
     7
 10
-434.0479541883
 20
1063.1277326661
 30
0.0
  0
VERTEX
  5
48E
  8
0
  6
CONTINUOUS
 62
     7
 10
-434.0299535856
 20
1060.5541531164
 30
0.0
  0
VERTEX
  5
48F
  8
0
  6
CONTINUOUS
 62
     7
 10
-434.0148438081
 20
1058.2035247404
 30
0.0
  0
VERTEX
  5
490
  8
0
  6
CONTINUOUS
 62
     7
 10
-434.0083469018
 20
1055.6453231889
 30
0.0
  0
VERTEX
  5
491
  8
0
  6
CONTINUOUS
 62
     7
 10
-434.0058733091
 20
1052.8791908342
 30
0.0
  0
VERTEX
  5
492
  8
0
  6
CONTINUOUS
 62
     7
 10
-434.0029228792
 20
1049.9047104436
 30
0.0
  0
VERTEX
  5
493
  8
0
  6
CONTINUOUS
 62
     7
 10
-433.9949060545
 20
1046.7215243894
 30
0.0
  0
VERTEX
  5
494
  8
0
  6
CONTINUOUS
 62
     7
 10
-433.9846242532
 20
1043.4309903699
 30
0.0
  0
VERTEX
  5
495
  8
0
  6
CONTINUOUS
 62
     7
 10
-433.9771736726
 20
1039.9471882898
 30
0.0
  0
VERTEX
  5
496
  8
0
  6
CONTINUOUS
 62
     7
 10
-433.9724649057
 20
1036.2714592534
 30
0.0
  0
VERTEX
  5
497
  8
0
  6
CONTINUOUS
 62
     7
 10
-433.9692462549
 20
1032.3943857271
 30
0.0
  0
VERTEX
  5
498
  8
0
  6
CONTINUOUS
 62
     7
 10
-433.9669514761
 20
1028.3253852445
 30
0.0
  0
VERTEX
  5
499
  8
0
  6
CONTINUOUS
 62
     7
 10
-433.9664746389
 20
1024.0664545614
 30
0.0
  0
SEQEND
  5
C01
  8
0
  6
CONTINUOUS
 62
     7
  0
POLYLINE
  5
A3
  8
0
  6
CONTINUOUS
 62
     7
 66
     1
 10
0.0
 20
0.0
 30
0.0
  0
VERTEX
  5
49A
  8
0
  6
CONTINUOUS
 62
     7
 10
-434.0861309633
 20
1072.3214212972
 30
0.0
  0
VERTEX
  5
49B
  8
0
  6
CONTINUOUS
 62
     7
 10
-381.4311195478
 20
1050.4083398897
 30
0.0
  0
VERTEX
  5
49C
  8
0
  6
CONTINUOUS
 62
     7
 10
-331.7621220216
 20
1029.7392968255
 30
0.0
  0
VERTEX
  5
49D
  8
0
  6
CONTINUOUS
 62
     7
 10
-285.1803470716
 20
1010.3585783559
 30
0.0
  0
SEQEND
  5
C00
  8
0
  6
CONTINUOUS
 62
     7
  0
POLYLINE
  5
A4
  8
0
  6
CONTINUOUS
 62
     7
 66
     1
 10
0.0
 20
0.0
 30
0.0
  0
VERTEX
  5
49E
  8
0
  6
CONTINUOUS
 62
     7
 10
-285.1803470716
 20
1010.3585783559
 30
0.0
  0
VERTEX
  5
49F
  8
0
  6
CONTINUOUS
 62
     7
 10
-285.1721216306
 20
1010.1383093912
 30
0.0
  0
VERTEX
  5
4A0
  8
0
  6
CONTINUOUS
 62
     7
 10
-285.1562965974
 20
1009.7695652563
 30
0.0
  0
VERTEX
  5
4A1
  8
0
  6
CONTINUOUS
 62
     7
 10
-285.133795844
 20
1009.2530910093
 30
0.0
  0
VERTEX
  5
4A2
  8
0
  6
CONTINUOUS
 62
     7
 10
-285.0932348833
 20
1008.2866612989
 30
0.0
  0
VERTEX
  5
4A3
  8
0
  6
CONTINUOUS
 62
     7
 10
-285.0392628774
 20
1007.0329968053
 30
0.0
  0
VERTEX
  5
4A4
  8
0
  6
CONTINUOUS
 62
     7
 10
-284.9705685243
 20
1005.4901305753
 30
0.0
  0
VERTEX
  5
4A5
  8
0
  6
CONTINUOUS
 62
     7
 10
-284.8896254167
 20
1003.6608342248
 30
0.0
  0
VERTEX
  5
4A6
  8
0
  6
CONTINUOUS
 62
     7
 10
-284.7967315778
 20
1001.5462998468
 30
0.0
  0
VERTEX
  5
4A7
  8
0
  6
CONTINUOUS
 62
     7
 10
-284.6922446355
 20
999.1477195341
 30
0.0
  0
VERTEX
  5
4A8
  8
0
  6
CONTINUOUS
 62
     7
 10
-284.5752705202
 20
996.4462284166
 30
0.0
  0
VERTEX
  5
4A9
  8
0
  6
CONTINUOUS
 62
     7
 10
-284.4472397432
 20
993.4580687601
 30
0.0
  0
VERTEX
  5
4AA
  8
0
  6
CONTINUOUS
 62
     7
 10
-284.3095828161
 20
990.1854459363
 30
0.0
  0
VERTEX
  5
4AB
  8
0
  6
CONTINUOUS
 62
     7
 10
-284.1638494596
 20
986.6304163057
 30
0.0
  0
VERTEX
  5
4AC
  8
0
  6
CONTINUOUS
 62
     7
 10
-284.0834129915
 20
984.9873248655
 30
0.0
  0
VERTEX
  5
4AD
  8
0
  6
CONTINUOUS
 62
     7
 10
-283.9787472353
 20
983.1926290113
 30
0.0
  0
VERTEX
  5
4AE
  8
0
  6
CONTINUOUS
 62
     7
 10
-283.8640678987
 20
981.2302652913
 30
0.0
  0
VERTEX
  5
4AF
  8
0
  6
CONTINUOUS
 62
     7
 10
-283.7537098989
 20
979.0841404516
 30
0.0
  0
VERTEX
  5
4B0
  8
0
  6
CONTINUOUS
 62
     7
 10
-283.6618591413
 20
976.7381016332
 30
0.0
  0
VERTEX
  5
4B1
  8
0
  6
CONTINUOUS
 62
     7
 10
-283.589260684
 20
974.1184774953
 30
0.0
  0
VERTEX
  5
4B2
  8
0
  6
CONTINUOUS
 62
     7
 10
-283.5316825971
 20
971.3014725763
 30
0.0
  0
VERTEX
  5
4B3
  8
0
  6
CONTINUOUS
 62
     7
 10
-283.4894825086
 20
968.2929281312
 30
0.0
  0
VERTEX
  5
4B4
  8
0
  6
CONTINUOUS
 62
     7
 10
-283.463077651
 20
965.0987152177
 30
0.0
  0
VERTEX
  5
4B5
  8
0
  6
CONTINUOUS
 62
     7
 10
-283.4528554544
 20
961.7246452886
 30
0.0
  0
VERTEX
  5
4B6
  8
0
  6
CONTINUOUS
 62
     7
 10
-283.4560145006
 20
959.4396714288
 30
0.0
  0
SEQEND
  5
BFF
  8
0
  6
CONTINUOUS
 62
     7
  0
POLYLINE
  5
A5
  8
0
  6
CONTINUOUS
 62
     7
 66
     1
 10
0.0
 20
0.0
 30
0.0
  0
VERTEX
  5
4B7
  8
0
  6
CONTINUOUS
 62
     7
 10
-290.5679215059
 20
687.8430869597
 30
0.0
  0
VERTEX
  5
4B8
  8
0
  6
CONTINUOUS
 62
     7
 10
-290.5801106557
 20
683.8846456427
 30
0.0
  0
VERTEX
  5
4B9
  8
0
  6
CONTINUOUS
 62
     7
 10
-290.6050253973
 20
675.1544688064
 30
0.0
  0
VERTEX
  5
4BA
  8
0
  6
CONTINUOUS
 62
     7
 10
-290.626721488
 20
666.7196478862
 30
0.0
  0
VERTEX
  5
4BB
  8
0
  6
CONTINUOUS
 62
     7
 10
-290.6394470796
 20
661.2094648349
 30
0.0
  0
VERTEX
  5
4BC
  8
0
  6
CONTINUOUS
 62
     7
 10
-290.6508911714
 20
655.8330495078
 30
0.0
  0
VERTEX
  5
4BD
  8
0
  6
CONTINUOUS
 62
     7
 10
-290.6611729726
 20
650.5873210895
 30
0.0
  0
VERTEX
  5
4BE
  8
0
  6
CONTINUOUS
 62
     7
 10
-290.6703222856
 20
645.4691996965
 30
0.0
  0
VERTEX
  5
4BF
  8
0
  6
CONTINUOUS
 62
     7
 10
-290.6775642499
 20
640.4756752941
 30
0.0
  0
VERTEX
  5
4C0
  8
0
  6
CONTINUOUS
 62
     7
 10
-290.6816769704
 20
635.603778826
 30
0.0
  0
VERTEX
  5
4C1
  8
0
  6
CONTINUOUS
 62
     7
 10
-290.6812597379
 20
630.8505598623
 30
0.0
  0
SEQEND
  5
BFE
  8
0
  6
CONTINUOUS
 62
     7
  0
LINE
  5
A6
  8
0
  6
CONTINUOUS
 62
     7
 10
19.6411395132
 20
630.8505598623
 30
0.0
 11
19.6411395132
 21
988.3505467492
 31
0.0
  0
LINE
  5
A7
  8
0
  6
CONTINUOUS
 62
     7
 10
19.6411395132
 20
273.3505729753
 30
0.0
 11
19.6411395132
 21
630.8505598623
 31
0.0
  0
LINE
  5
A8
  8
0
  6
CONTINUOUS
 62
     7
 10
7.6411384776
 20
295.9158782083
 30
0.0
 11
-7.3588621184
 21
295.9158782083
 31
0.0
  0
LINE
  5
A9
  8
0
  6
CONTINUOUS
 62
     7
 10
-7.3588621184
 20
295.9158782083
 30
0.0
 11
-7.3588621184
 21
988.3505467492
 31
0.0
  0
LINE
  5
AA
  8
0
  6
CONTINUOUS
 62
     7
 10
-1071.3588167295
 20
630.8505598623
 30
0.0
 11
-1071.3588167295
 21
988.3505467492
 31
0.0
  0
LINE
  5
AB
  8
0
  6
CONTINUOUS
 62
     7
 10
-1071.3588167295
 20
273.3505729753
 30
0.0
 11
-1071.3588167295
 21
630.8505598623
 31
0.0
  0
LINE
  5
AC
  8
0
  6
CONTINUOUS
 62
     7
 10
-1043.3588195905
 20
295.9158782083
 30
0.0
 11
-1043.3588195905
 21
988.3505467492
 31
0.0
  0
LINE
  5
AD
  8
0
  6
CONTINUOUS
 62
     7
 10
-1058.3588052854
 20
295.9158782083
 30
0.0
 11
-1043.3588195905
 21
295.9158782083
 31
0.0
  0
LINE
  5
AE
  8
0
  6
CONTINUOUS
 62
     7
 10
-814.2913151845
 20
1105.8755580503
 30
0.0
 11
-858.4781457052
 21
1103.4401122648
 31
0.0
  0
LINE
  5
AF
  8
0
  6
CONTINUOUS
 62
     7
 10
-794.990198718
 20
1076.3295356351
 30
0.0
 11
-814.2913151845
 21
1105.8755580503
 31
0.0
  0
LINE
  5
B0
  8
0
  6
CONTINUOUS
 62
     7
 10
-878.4623910055
 20
1063.9554921705
 30
0.0
 11
-854.2598057851
 21
1026.9062880594
 31
0.0
  0
LINE
  5
B1
  8
0
  6
CONTINUOUS
 62
     7
 10
-858.4781457052
 20
1103.4401122648
 30
0.0
 11
-878.4623910055
 21
1063.9554921705
 31
0.0
  0
LINE
  5
B2
  8
0
  6
CONTINUOUS
 62
     7
 10
-854.2598057851
 20
1026.9062880594
 30
0.0
 11
-812.1151496038
 21
1029.2291704732
 31
0.0
  0
POLYLINE
  5
B3
  8
0
  6
CONTINUOUS
 62
     7
 66
     1
 10
0.0
 20
0.0
 30
0.0
  0
VERTEX
  5
4C2
  8
0
  6
CONTINUOUS
 62
     7
 10
-496.9474245176
 20
1046.8093816358
 30
0.0
  0
VERTEX
  5
4C3
  8
0
  6
CONTINUOUS
 62
     7
 10
-486.2805772886
 20
1043.2009164411
 30
0.0
  0
VERTEX
  5
4C4
  8
0
  6
CONTINUOUS
 62
     7
 10
-475.7901598081
 20
1039.5549897272
 30
0.0
  0
VERTEX
  5
4C5
  8
0
  6
CONTINUOUS
 62
     7
 10
-465.3102923498
 20
1035.8198646623
 30
0.0
  0
VERTEX
  5
4C6
  8
0
  6
CONTINUOUS
 62
     7
 10
-454.8451174364
 20
1031.9919351655
 30
0.0
  0
VERTEX
  5
4C7
  8
0
  6
CONTINUOUS
 62
     7
 10
-444.3904329404
 20
1028.0734066087
 30
0.0
  0
VERTEX
  5
4C8
  8
0
  6
CONTINUOUS
 62
     7
 10
-433.9664746389
 20
1024.0664545614
 30
0.0
  0
SEQEND
  5
BFD
  8
0
  6
CONTINUOUS
 62
     7
  0
POLYLINE
  5
B4
  8
0
  6
CONTINUOUS
 62
     7
 66
     1
 10
0.0
 20
0.0
 30
0.0
  0
VERTEX
  5
4C9
  8
0
  6
CONTINUOUS
 62
     7
 10
-439.2980505094
 20
918.7423352319
 30
0.0
  0
VERTEX
  5
4CA
  8
0
  6
CONTINUOUS
 62
     7
 10
-439.1490686998
 20
920.4832080919
 30
0.0
  0
VERTEX
  5
4CB
  8
0
  6
CONTINUOUS
 62
     7
 10
-438.9219452009
 20
923.173851164
 30
0.0
  0
VERTEX
  5
4CC
  8
0
  6
CONTINUOUS
 62
     7
 10
-438.6837054357
 20
926.031059416
 30
0.0
  0
VERTEX
  5
4CD
  8
0
  6
CONTINUOUS
 62
     7
 10
-438.4712446794
 20
928.6159638482
 30
0.0
  0
VERTEX
  5
4CE
  8
0
  6
CONTINUOUS
 62
     7
 10
-438.2773805723
 20
931.0250345785
 30
0.0
  0
VERTEX
  5
4CF
  8
0
  6
CONTINUOUS
 62
     7
 10
-438.0735326871
 20
933.6041573602
 30
0.0
  0
VERTEX
  5
4D0
  8
0
  6
CONTINUOUS
 62
     7
 10
-437.8653932676
 20
936.2795416433
 30
0.0
  0
VERTEX
  5
4D1
  8
0
  6
CONTINUOUS
 62
     7
 10
-437.671022521
 20
938.8148550111
 30
0.0
  0
VERTEX
  5
4D2
  8
0
  6
CONTINUOUS
 62
     7
 10
-437.4886621103
 20
941.2313167173
 30
0.0
  0
VERTEX
  5
4D3
  8
0
  6
CONTINUOUS
 62
     7
 10
-437.3183716402
 20
943.5288671571
 30
0.0
  0
SEQEND
  5
BFC
  8
0
  6
CONTINUOUS
 62
     7
  0
LINE
  5
B5
  8
0
  6
CONTINUOUS
 62
     7
 10
-437.3183716402
 20
943.5288671571
 30
0.0
 11
-524.2585111722
 21
1094.1135946828
 31
0.0
  0
LINE
  5
B6
  8
0
  6
CONTINUOUS
 62
     7
 10
-843.0690933332
 20
910.0481931287
 30
0.0
 11
-793.8389946088
 21
630.8505598623
 31
0.0
  0
LINE
  5
B7
  8
0
  6
CONTINUOUS
 62
     7
 10
-877.6663113698
 20
1037.8751520234
 30
0.0
 11
-847.6663399801
 21
985.9136406499
 31
0.0
  0
ARC
  5
B8
  8
0
  6
CONTINUOUS
 62
     7
 10
-834.3650529163
 20
1062.8751509466
 30
0.0
 40
50.00000000000009
 50
30.0
 51
210.0
  0
LINE
  5
B9
  8
0
  6
CONTINUOUS
 62
     7
 10
-780.7572651968
 20
1070.0236920434
 30
0.0
 11
-791.0638023481
 21
1087.8751639444
 31
0.0
  0
ARC
  5
BA
  8
0
  6
CONTINUOUS
 62
     7
 10
-834.3650529163
 20
1062.8751509466
 30
0.0
 40
60.0
 50
30.0
 51
210.0
  0
LINE
  5
BB
  8
0
  6
CONTINUOUS
 62
     7
 10
-765.2414013013
 20
1063.1495181638
 30
0.0
 11
-782.4035454855
 21
1092.875159176
 31
0.0
  0
LINE
  5
BC
  8
0
  6
CONTINUOUS
 62
     7
 10
-886.3265682325
 20
1032.8751567918
 30
0.0
 11
-856.3265968427
 21
980.913615616
 31
0.0
  0
POLYLINE
  5
BD
  8
0
  6
CONTINUOUS
 62
     7
 66
     1
 10
0.0
 20
0.0
 30
0.0
  0
VERTEX
  5
4D4
  8
0
  6
CONTINUOUS
 62
     7
 10
-99.2311332688
 20
903.6673370916
 30
0.0
  0
VERTEX
  5
4D5
  8
0
  6
CONTINUOUS
 62
     7
 10
-99.2264915571
 20
903.2602969724
 30
0.0
  0
VERTEX
  5
4D6
  8
0
  6
CONTINUOUS
 62
     7
 10
-99.2187727556
 20
902.6218716222
 30
0.0
  0
VERTEX
  5
4D7
  8
0
  6
CONTINUOUS
 62
     7
 10
-99.2085580096
 20
901.7531339246
 30
0.0
  0
VERTEX
  5
4D8
  8
0
  6
CONTINUOUS
 62
     7
 10
-99.1964135632
 20
900.6552163679
 30
0.0
  0
VERTEX
  5
4D9
  8
0
  6
CONTINUOUS
 62
     7
 10
-99.1829280123
 20
899.3291918355
 30
0.0
  0
VERTEX
  5
4DA
  8
0
  6
CONTINUOUS
 62
     7
 10
-99.1673861012
 20
897.7381352502
 30
0.0
  0
VERTEX
  5
4DB
  8
0
  6
CONTINUOUS
 62
     7
 10
-99.1492662892
 20
895.9094647485
 30
0.0
  0
VERTEX
  5
4DC
  8
0
  6
CONTINUOUS
 62
     7
 10
-99.1285089716
 20
893.8459221441
 30
0.0
  0
VERTEX
  5
4DD
  8
0
  6
CONTINUOUS
 62
     7
 10
-99.1050470933
 20
891.5502492505
 30
0.0
  0
VERTEX
  5
4DE
  8
0
  6
CONTINUOUS
 62
     7
 10
-99.0788135991
 20
889.0252176839
 30
0.0
  0
VERTEX
  5
4DF
  8
0
  6
CONTINUOUS
 62
     7
 10
-99.0467910037
 20
885.9334353525
 30
0.0
  0
VERTEX
  5
4E0
  8
0
  6
CONTINUOUS
 62
     7
 10
-99.0120936498
 20
882.5568918306
 30
0.0
  0
VERTEX
  5
4E1
  8
0
  6
CONTINUOUS
 62
     7
 10
-98.9741701946
 20
878.9016220886
 30
0.0
  0
VERTEX
  5
4E2
  8
0
  6
CONTINUOUS
 62
     7
 10
-98.9324841961
 20
874.973690899
 30
0.0
  0
VERTEX
  5
4E3
  8
0
  6
CONTINUOUS
 62
     7
 10
-98.8865066633
 20
870.7791779357
 30
0.0
  0
VERTEX
  5
4E4
  8
0
  6
CONTINUOUS
 62
     7
 10
-98.8351200089
 20
866.1850456315
 30
0.0
  0
VERTEX
  5
4E5
  8
0
  6
CONTINUOUS
 62
     7
 10
-98.7800229654
 20
861.3111738283
 30
0.0
  0
VERTEX
  5
4E6
  8
0
  6
CONTINUOUS
 62
     7
 10
-98.7206641898
 20
856.1665926296
 30
0.0
  0
VERTEX
  5
4E7
  8
0
  6
CONTINUOUS
 62
     7
 10
-98.6564923391
 20
850.760317238
 30
0.0
  0
VERTEX
  5
4E8
  8
0
  6
CONTINUOUS
 62
     7
 10
-98.586963521
 20
845.1013777572
 30
0.0
  0
VERTEX
  5
4E9
  8
0
  6
CONTINUOUS
 62
     7
 10
-98.5511560306
 20
842.2030870038
 30
0.0
  0
SEQEND
  5
BFB
  8
0
  6
CONTINUOUS
 62
     7
  0
POLYLINE
  5
BE
  8
0
  6
CONTINUOUS
 62
     7
 66
     1
 10
0.0
 20
0.0
 30
0.0
  0
VERTEX
  5
4EA
  8
0
  6
CONTINUOUS
 62
     7
 10
-98.5511560306
 20
842.2030870038
 30
0.0
  0
VERTEX
  5
4EB
  8
0
  6
CONTINUOUS
 62
     7
 10
-98.4905455575
 20
836.3407764751
 30
0.0
  0
VERTEX
  5
4EC
  8
0
  6
CONTINUOUS
 62
     7
 10
-98.4453056321
 20
830.2478108722
 30
0.0
  0
VERTEX
  5
4ED
  8
0
  6
CONTINUOUS
 62
     7
 10
-98.4165314898
 20
823.9345017988
 30
0.0
  0
VERTEX
  5
4EE
  8
0
  6
CONTINUOUS
 62
     7
 10
-98.4053481683
 20
817.4111459571
 30
0.0
  0
VERTEX
  5
4EF
  8
0
  6
CONTINUOUS
 62
     7
 10
-98.4130967721
 20
810.555687936
 30
0.0
  0
VERTEX
  5
4F0
  8
0
  6
CONTINUOUS
 62
     7
 10
-98.4419603214
 20
803.4901384431
 30
0.0
  0
VERTEX
  5
4F1
  8
0
  6
CONTINUOUS
 62
     7
 10
-98.4941441879
 20
796.2268654424
 30
0.0
  0
VERTEX
  5
4F2
  8
0
  6
CONTINUOUS
 62
     7
 10
-98.5718835458
 20
788.7783114034
 30
0.0
  0
VERTEX
  5
4F3
  8
0
  6
CONTINUOUS
 62
     7
 10
-98.6753125057
 20
781.2821481544
 30
0.0
  0
VERTEX
  5
4F4
  8
0
  6
CONTINUOUS
 62
     7
 10
-98.8081116542
 20
773.615485819
 30
0.0
  0
VERTEX
  5
4F5
  8
0
  6
CONTINUOUS
 62
     7
 10
-98.9730898604
 20
765.7913778144
 30
0.0
  0
VERTEX
  5
4F6
  8
0
  6
CONTINUOUS
 62
     7
 10
-99.1730410919
 20
757.822892459
 30
0.0
  0
VERTEX
  5
4F7
  8
0
  6
CONTINUOUS
 62
     7
 10
-99.4173456296
 20
749.562739225
 30
0.0
  0
VERTEX
  5
4F8
  8
0
  6
CONTINUOUS
 62
     7
 10
-99.7057799563
 20
741.1625672299
 30
0.0
  0
VERTEX
  5
4F9
  8
0
  6
CONTINUOUS
 62
     7
 10
-100.0389028654
 20
732.6373074371
 30
0.0
  0
VERTEX
  5
4FA
  8
0
  6
CONTINUOUS
 62
     7
 10
-100.4172433481
 20
724.0018908101
 30
0.0
  0
SEQEND
  5
BFA
  8
0
  6
CONTINUOUS
 62
     7
  0
POLYLINE
  5
BF
  8
0
  6
CONTINUOUS
 62
     7
 66
     1
 10
0.0
 20
0.0
 30
0.0
  0
VERTEX
  5
4FB
  8
0
  6
CONTINUOUS
 62
     7
 10
-100.4172433481
 20
724.0018908101
 30
0.0
  0
VERTEX
  5
4FC
  8
0
  6
CONTINUOUS
 62
     7
 10
-100.767778264
 20
716.5504012424
 30
0.0
  0
VERTEX
  5
4FD
  8
0
  6
CONTINUOUS
 62
     7
 10
-101.1261064872
 20
709.0261716563
 30
0.0
  0
VERTEX
  5
4FE
  8
0
  6
CONTINUOUS
 62
     7
 10
-101.479219304
 20
701.4380682427
 30
0.0
  0
VERTEX
  5
4FF
  8
0
  6
CONTINUOUS
 62
     7
 10
-101.817281948
 20
693.7317464668
 30
0.0
  0
VERTEX
  5
500
  8
0
  6
CONTINUOUS
 62
     7
 10
-102.1252889499
 20
685.9693031925
 30
0.0
  0
VERTEX
  5
501
  8
0
  6
CONTINUOUS
 62
     7
 10
-102.3904402122
 20
678.1603496689
 30
0.0
  0
VERTEX
  5
502
  8
0
  6
CONTINUOUS
 62
     7
 10
-102.6026923522
 20
670.3697133976
 30
0.0
  0
VERTEX
  5
503
  8
0
  6
CONTINUOUS
 62
     7
 10
-102.7650107011
 20
662.5431765038
 30
0.0
  0
VERTEX
  5
504
  8
0
  6
CONTINUOUS
 62
     7
 10
-102.8785873518
 20
654.6910189259
 30
0.0
  0
VERTEX
  5
505
  8
0
  6
CONTINUOUS
 62
     7
 10
-102.9490102396
 20
646.7562232334
 30
0.0
  0
VERTEX
  5
506
  8
0
  6
CONTINUOUS
 62
     7
 10
-102.9851604566
 20
638.8059564102
 30
0.0
  0
VERTEX
  5
507
  8
0
  6
CONTINUOUS
 62
     7
 10
-102.995367752
 20
630.8505598622
 30
0.0
  0
SEQEND
  5
BF9
  8
0
  6
CONTINUOUS
 62
     7
  0
POLYLINE
  5
C0
  8
0
  6
CONTINUOUS
 62
     7
 66
     1
 10
0.0
 20
0.0
 30
0.0
  0
VERTEX
  5
508
  8
0
  6
CONTINUOUS
 62
     7
 10
-102.995367752
 20
630.8505598622
 30
0.0
  0
VERTEX
  5
509
  8
0
  6
CONTINUOUS
 62
     7
 10
-102.9960532054
 20
623.4870006497
 30
0.0
  0
VERTEX
  5
50A
  8
0
  6
CONTINUOUS
 62
     7
 10
-102.9974688158
 20
616.1261245775
 30
0.0
  0
VERTEX
  5
50B
  8
0
  6
CONTINUOUS
 62
     7
 10
-102.9986162052
 20
608.775957318
 30
0.0
  0
VERTEX
  5
50C
  8
0
  6
CONTINUOUS
 62
     7
 10
-102.9984820947
 20
601.4445226807
 30
0.0
  0
VERTEX
  5
50D
  8
0
  6
CONTINUOUS
 62
     7
 10
-102.9969472751
 20
594.0477799791
 30
0.0
  0
VERTEX
  5
50E
  8
0
  6
CONTINUOUS
 62
     7
 10
-102.9952634439
 20
586.6757173258
 30
0.0
  0
VERTEX
  5
50F
  8
0
  6
CONTINUOUS
 62
     7
 10
-102.9944289789
 20
579.3365452606
 30
0.0
  0
VERTEX
  5
510
  8
0
  6
CONTINUOUS
 62
     7
 10
-102.9955018625
 20
572.038485499
 30
0.0
  0
VERTEX
  5
511
  8
0
  6
CONTINUOUS
 62
     7
 10
-102.9973496065
 20
563.231251033
 30
0.0
  0
VERTEX
  5
512
  8
0
  6
CONTINUOUS
 62
     7
 10
-102.997677432
 20
554.4912655074
 30
0.0
  0
VERTEX
  5
513
  8
0
  6
CONTINUOUS
 62
     7
 10
-102.9972303972
 20
545.8327967841
 30
0.0
  0
VERTEX
  5
514
  8
0
  6
CONTINUOUS
 62
     7
 10
-102.99675356
 20
537.2701276261
 30
0.0
  0
VERTEX
  5
515
  8
0
  6
CONTINUOUS
 62
     7
 10
-102.9969919786
 20
528.8175109941
 30
0.0
  0
VERTEX
  5
516
  8
0
  6
CONTINUOUS
 62
     7
 10
-102.9980797634
 20
520.2383164483
 30
0.0
  0
VERTEX
  5
517
  8
0
  6
CONTINUOUS
 62
     7
 10
-102.9992718563
 20
511.7806706745
 30
0.0
  0
VERTEX
  5
518
  8
0
  6
CONTINUOUS
 62
     7
 10
-103.0001063213
 20
503.4591023046
 30
0.0
  0
VERTEX
  5
519
  8
0
  6
CONTINUOUS
 62
     7
 10
-103.0001361236
 20
495.2881250698
 30
0.0
  0
VERTEX
  5
51A
  8
0
  6
CONTINUOUS
 62
     7
 10
-102.9988546237
 20
487.2822527009
 30
0.0
  0
VERTEX
  5
51B
  8
0
  6
CONTINUOUS
 62
     7
 10
-102.9982883796
 20
479.6461228448
 30
0.0
  0
VERTEX
  5
51C
  8
0
  6
CONTINUOUS
 62
     7
 10
-102.9996741876
 20
472.1709851343
 30
0.0
  0
VERTEX
  5
51D
  8
0
  6
CONTINUOUS
 62
     7
 10
-103.0016113386
 20
464.8689095098
 30
0.0
  0
VERTEX
  5
51E
  8
0
  6
CONTINUOUS
 62
     7
 10
-103.0026842222
 20
457.7520106155
 30
0.0
  0
VERTEX
  5
51F
  8
0
  6
CONTINUOUS
 62
     7
 10
-103.0014772281
 20
450.8323434907
 30
0.0
  0
VERTEX
  5
520
  8
0
  6
CONTINUOUS
 62
     7
 10
-103.0000467166
 20
443.920350464
 30
0.0
  0
VERTEX
  5
521
  8
0
  6
CONTINUOUS
 62
     7
 10
-103.0007023677
 20
437.2213397342
 30
0.0
  0
VERTEX
  5
522
  8
0
  6
CONTINUOUS
 62
     7
 10
-103.0021775827
 20
430.7466808874
 30
0.0
  0
VERTEX
  5
523
  8
0
  6
CONTINUOUS
 62
     7
 10
-103.003220664
 20
424.5076988059
 30
0.0
  0
VERTEX
  5
524
  8
0
  6
CONTINUOUS
 62
     7
 10
-103.002579914
 20
418.5157332736
 30
0.0
  0
VERTEX
  5
525
  8
0
  6
CONTINUOUS
 62
     7
 10
-103.0012090072
 20
412.9317913371
 30
0.0
  0
VERTEX
  5
526
  8
0
  6
CONTINUOUS
 62
     7
 10
-103.0006576643
 20
407.58434573
 30
0.0
  0
VERTEX
  5
527
  8
0
  6
CONTINUOUS
 62
     7
 10
-103.0007023677
 20
402.4818454105
 30
0.0
  0
VERTEX
  5
528
  8
0
  6
CONTINUOUS
 62
     7
 10
-103.0011196002
 20
397.6327393371
 30
0.0
  0
VERTEX
  5
529
  8
0
  6
CONTINUOUS
 62
     7
 10
-103.0016560421
 20
393.0454764682
 30
0.0
  0
VERTEX
  5
52A
  8
0
  6
CONTINUOUS
 62
     7
 10
-103.001283513
 20
388.6005047876
 30
0.0
  0
VERTEX
  5
52B
  8
0
  6
CONTINUOUS
 62
     7
 10
-102.9997635946
 20
384.4355110246
 30
0.0
  0
VERTEX
  5
52C
  8
0
  6
CONTINUOUS
 62
     7
 10
-102.9981244668
 20
380.5572752077
 30
0.0
  0
VERTEX
  5
52D
  8
0
  6
CONTINUOUS
 62
     7
 10
-102.9973645076
 20
376.9725922662
 30
0.0
  0
VERTEX
  5
52E
  8
0
  6
CONTINUOUS
 62
     7
 10
-102.9985267982
 20
373.6882869321
 30
0.0
  0
VERTEX
  5
52F
  8
0
  6
CONTINUOUS
 62
     7
 10
-102.9992122516
 20
370.7660202104
 30
0.0
  0
VERTEX
  5
530
  8
0
  6
CONTINUOUS
 62
     7
 10
-102.9975135192
 20
368.1332830507
 30
0.0
  0
VERTEX
  5
531
  8
0
  6
CONTINUOUS
 62
     7
 10
-102.9950548276
 20
365.7940093595
 30
0.0
  0
VERTEX
  5
532
  8
0
  6
CONTINUOUS
 62
     7
 10
-102.9934455022
 20
363.7521032411
 30
0.0
  0
VERTEX
  5
533
  8
0
  6
CONTINUOUS
 62
     7
 10
-102.9943097696
 20
362.0115284044
 30
0.0
  0
VERTEX
  5
534
  8
0
  6
CONTINUOUS
 62
     7
 10
-102.9957253799
 20
360.7595626432
 30
0.0
  0
VERTEX
  5
535
  8
0
  6
CONTINUOUS
 62
     7
 10
-102.9957700834
 20
359.729922207
 30
0.0
  0
VERTEX
  5
536
  8
0
  6
CONTINUOUS
 62
     7
 10
-102.9949505195
 20
358.9234117586
 30
0.0
  0
VERTEX
  5
537
  8
0
  6
CONTINUOUS
 62
     7
 10
-102.9937286243
 20
358.3408955652
 30
0.0
  0
VERTEX
  5
538
  8
0
  6
CONTINUOUS
 62
     7
 10
-102.9926408395
 20
357.9832676965
 30
0.0
  0
VERTEX
  5
539
  8
0
  6
CONTINUOUS
 62
     7
 10
-102.9921491012
 20
357.8513328153
 30
0.0
  0
VERTEX
  5
53A
  8
0
  6
CONTINUOUS
 62
     7
 10
-102.9921938047
 20
357.8606609422
 30
0.0
  0
SEQEND
  5
BF8
  8
0
  6
CONTINUOUS
 62
     7
  0
POLYLINE
  5
C1
  8
0
  6
CONTINUOUS
 62
     7
 66
     1
 10
0.0
 20
0.0
 30
0.0
  0
VERTEX
  5
53B
  8
0
  6
CONTINUOUS
 62
     7
 10
-285.1803470716
 20
1010.3585783559
 30
0.0
  0
VERTEX
  5
53C
  8
0
  6
CONTINUOUS
 62
     7
 10
-222.5626427993
 20
974.4378093797
 30
0.0
  0
VERTEX
  5
53D
  8
0
  6
CONTINUOUS
 62
     7
 10
-158.8147450552
 20
937.8614489156
 30
0.0
  0
VERTEX
  5
53E
  8
0
  6
CONTINUOUS
 62
     7
 10
-99.2311332688
 20
903.6673370916
 30
0.0
  0
SEQEND
  5
BF7
  8
0
  6
CONTINUOUS
 62
     7
  0
LINE
  5
C2
  8
0
  6
CONTINUOUS
 62
     7
 10
-671.1599994764
 20
1157.1016375142
 30
0.0
 11
-671.1599994764
 21
1087.8196124154
 31
0.0
  0
ARC
  5
C3
  8
0
  6
CONTINUOUS
 62
     7
 10
-631.1599721594
 20
1157.1016482547
 30
0.0
 40
40.00000000000011
 50
0.0
 51
180.0
  0
CIRCLE
  5
C4
  8
0
  6
CONTINUOUS
 62
     7
 10
-631.1599721594
 20
1157.1016482547
 30
0.0
 40
19.99999999999997
  0
LINE
  5
C5
  8
0
  6
CONTINUOUS
 62
     7
 10
-591.159956561
 20
1134.0076390821
 30
0.0
 11
-591.159956561
 21
1157.1016375142
 31
0.0
  0
LINE
  5
C6
  8
0
  6
CONTINUOUS
 62
     7
 10
-1075.3588844404
 20
630.8505598623
 30
0.0
 11
-1075.3588844404
 21
921.8505684453
 31
0.0
  0
LINE
  5
C7
  8
0
  6
CONTINUOUS
 62
     7
 10
-1075.3588844404
 20
339.8505512792
 30
0.0
 11
-1075.3588844404
 21
630.8505598623
 31
0.0
  0
LINE
  5
C8
  8
0
  6
CONTINUOUS
 62
     7
 10
24.6411394015
 20
921.8505684453
 30
0.0
 11
24.6411394015
 21
339.8505512792
 31
0.0
  0
CIRCLE
  5
C9
  8
0
  6
CONTINUOUS
 62
     7
 10
-890.3588605985
 20
630.8505598623
 30
0.0
 40
57.00000000000011
  0
LINE
  5
CA
  8
0
  6
CONTINUOUS
 62
     7
 10
-7.3588621184
 20
903.6673370916
 30
0.0
 11
-99.2311332688
 21
903.6673370916
 31
0.0
  0
POLYLINE
  5
CB
  8
0
  6
CONTINUOUS
 62
     7
 66
     1
 10
0.0
 20
0.0
 30
0.0
  0
VERTEX
  5
53F
  8
0
  6
CONTINUOUS
 62
     7
 10
-516.0200763807
 20
1098.8700453359
 30
0.0
  0
VERTEX
  5
540
  8
0
  6
CONTINUOUS
 62
     7
 10
-497.1426893339
 20
1093.2050112802
 30
0.0
  0
VERTEX
  5
541
  8
0
  6
CONTINUOUS
 62
     7
 10
-483.3728839025
 20
1088.9047745782
 30
0.0
  0
VERTEX
  5
542
  8
0
  6
CONTINUOUS
 62
     7
 10
-469.6434904203
 20
1084.4731394369
 30
0.0
  0
VERTEX
  5
543
  8
0
  6
CONTINUOUS
 62
     7
 10
-451.8287647829
 20
1078.5072509366
 30
0.0
  0
VERTEX
  5
544
  8
0
  6
CONTINUOUS
 62
     7
 10
-434.0861309633
 20
1072.3214212972
 30
0.0
  0
SEQEND
  5
BF6
  8
0
  6
CONTINUOUS
 62
     7
  0
ARC
  5
CC
  8
0
  6
CONTINUOUS
 62
     7
 10
-834.3650529163
 20
1062.8751509466
 30
0.0
 40
82.99999999999999
 50
87.1504348072
 51
210.0
  0
LINE
  5
CD
  8
0
  6
CONTINUOUS
 62
     7
 10
-769.4393564329
 20
1142.746216448
 30
0.0
 11
-830.2388359174
 21
1145.7725230771
 31
0.0
  0
LINE
  5
CE
  8
0
  6
CONTINUOUS
 62
     7
 10
-769.4393564329
 20
1142.746216448
 30
0.0
 11
-721.0856248006
 21
1058.9950446206
 31
0.0
  0
LINE
  5
CF
  8
0
  6
CONTINUOUS
 62
     7
 10
-906.2451888189
 20
1021.3751558381
 30
0.0
 11
-876.2451578245
 21
969.4136146623
 31
0.0
  0
LINE
  5
D0
  8
0
  6
CONTINUOUS
 62
     7
 10
-671.1599994764
 20
1137.854344042
 30
0.0
 11
-769.4393564329
 21
1142.746216448
 31
0.0
  0
LINE
  5
D1
  8
0
  6
CONTINUOUS
 62
     7
 10
-1058.3588052854
 20
265.8505503255
 30
0.0
 11
-1043.3588195905
 21
265.8505503255
 31
0.0
  0
LINE
  5
D2
  8
0
  6
CONTINUOUS
 62
     7
 10
-1058.3588052854
 20
295.9158782083
 30
0.0
 11
-1058.3588052854
 21
265.8505503255
 31
0.0
  0
LINE
  5
D3
  8
0
  6
CONTINUOUS
 62
     7
 10
-1043.3588195905
 20
295.9158782083
 30
0.0
 11
-1043.3588195905
 21
265.8505503255
 31
0.0
  0
LINE
  5
D4
  8
0
  6
CONTINUOUS
 62
     7
 10
7.6411384776
 20
265.8505503255
 30
0.0
 11
7.6411384776
 21
295.9158782083
 31
0.0
  0
LINE
  5
D5
  8
0
  6
CONTINUOUS
 62
     7
 10
7.6411384776
 20
265.8505503255
 30
0.0
 11
-7.3588621184
 21
265.8505503255
 31
0.0
  0
LINE
  5
D6
  8
0
  6
CONTINUOUS
 62
     7
 10
-7.3588621184
 20
265.8505503255
 30
0.0
 11
-7.3588621184
 21
295.9158782083
 31
0.0
  0
LINE
  5
D7
  8
0
  6
CONTINUOUS
 62
     7
 10
-740.4444981679
 20
1143.3054272252
 30
0.0
 11
-709.9762130842
 21
1141.7889062482
 31
0.0
  0
LINE
  5
D8
  8
0
  6
CONTINUOUS
 62
     7
 10
-709.9762130842
 20
1141.7889062482
 30
0.0
 11
-710.0756932363
 21
1139.7913757879
 31
0.0
  0
LINE
  5
D9
  8
0
  6
CONTINUOUS
 62
     7
 10
-752.3344923124
 20
1143.8973013479
 30
0.0
 11
-752.4339128599
 21
1141.8997708875
 31
0.0
  0
LINE
  5
DA
  8
0
  6
CONTINUOUS
 62
     7
 10
-740.4444981679
 20
1143.3054272252
 30
0.0
 11
-740.5439187154
 21
1141.3079563695
 31
0.0
  0
LINE
  5
DB
  8
0
  6
CONTINUOUS
 62
     7
 10
-752.3344923124
 20
1143.8973013479
 30
0.0
 11
-740.4444981679
 21
1143.3054272252
 31
0.0
  0
LINE
  5
DC
  8
0
  6
CONTINUOUS
 62
     7
 10
-769.426422225
 20
1144.7480384427
 30
0.0
 11
-769.5259023771
 21
1142.7505079824
 31
0.0
  0
LINE
  5
DD
  8
0
  6
CONTINUOUS
 62
     7
 10
-757.0905257329
 20
1144.1339913923
 30
0.0
 11
-757.1899462804
 21
1142.1364609319
 31
0.0
  0
LINE
  5
DE
  8
0
  6
CONTINUOUS
 62
     7
 10
-769.426422225
 20
1144.7480384427
 30
0.0
 11
-757.0905257329
 21
1144.1339913923
 31
0.0
  0
LINE
  5
DF
  8
0
  6
CONTINUOUS
 62
     7
 10
-757.0905257329
 20
1144.1339913923
 30
0.0
 11
-752.3344923124
 21
1143.8973013479
 31
0.0
  0
LINE
  5
E0
  8
0
  6
CONTINUOUS
 62
     7
 10
-811.8650485143
 20
1148.9778820592
 30
0.0
 11
-856.8650652036
 21
1148.9778820592
 31
0.0
  0
ARC
  5
E1
  8
0
  6
CONTINUOUS
 62
     7
 10
-944.2904386769
 20
-362.6098565977
 30
0.0
 40
1548.0
 50
58.5406450429
 51
73.1278973934
  0
LINE
  5
E2
  8
0
  6
CONTINUOUS
 62
     7
 10
-7.3588621184
 20
957.8505519945
 30
0.0
 11
-136.399181591
 21
957.8505519945
 31
0.0
  0
LINE
  5
E3
  8
0
  6
CONTINUOUS
 62
     7
 10
-822.4165607557
 20
965.8505682069
 30
0.0
 11
-755.8319140539
 21
1004.2932097036
 31
0.0
  0
LINE
  5
E4
  8
0
  6
CONTINUOUS
 62
     7
 10
-702.2374440298
 20
1035.2360073644
 30
0.0
 11
-590.1792217359
 21
1099.9328557569
 31
0.0
  0
LINE
  5
E5
  8
0
  6
CONTINUOUS
 62
     7
 10
-545.358853446
 20
630.8505598623
 30
0.0
 11
-545.358853446
 21
287.8505651075
 31
0.0
  0
POLYLINE
  5
E6
  8
0
  6
CONTINUOUS
 62
     7
 66
     1
 10
0.0
 20
0.0
 30
0.0
  0
VERTEX
  5
545
  8
0
  6
CONTINUOUS
 62
     7
 10
-290.6812597379
 20
630.8505598606
 30
0.0
  0
VERTEX
  5
546
  8
0
  6
CONTINUOUS
 62
     7
 10
-290.681170331
 20
621.7208735812
 30
0.0
  0
VERTEX
  5
547
  8
0
  6
CONTINUOUS
 62
     7
 10
-290.6809617147
 20
612.6220774073
 30
0.0
  0
VERTEX
  5
548
  8
0
  6
CONTINUOUS
 62
     7
 10
-290.6806338892
 20
603.5607408899
 30
0.0
  0
VERTEX
  5
549
  8
0
  6
CONTINUOUS
 62
     7
 10
-290.6802166566
 20
594.543400051
 30
0.0
  0
VERTEX
  5
54A
  8
0
  6
CONTINUOUS
 62
     7
 10
-290.6797398195
 20
585.5765592474
 30
0.0
  0
VERTEX
  5
54B
  8
0
  6
CONTINUOUS
 62
     7
 10
-290.6791735754
 20
576.6667004842
 30
0.0
  0
VERTEX
  5
54C
  8
0
  6
CONTINUOUS
 62
     7
 10
-290.6785477266
 20
567.8202945906
 30
0.0
  0
VERTEX
  5
54D
  8
0
  6
CONTINUOUS
 62
     7
 10
-290.6778920755
 20
559.0450231153
 30
0.0
  0
VERTEX
  5
54E
  8
0
  6
CONTINUOUS
 62
     7
 10
-290.6772066221
 20
550.3481168467
 30
0.0
  0
VERTEX
  5
54F
  8
0
  6
CONTINUOUS
 62
     7
 10
-290.6765807733
 20
541.7353350836
 30
0.0
  0
VERTEX
  5
550
  8
0
  6
CONTINUOUS
 62
     7
 10
-290.6759549245
 20
533.212399872
 30
0.0
  0
VERTEX
  5
551
  8
0
  6
CONTINUOUS
 62
     7
 10
-290.6753588781
 20
524.7850481588
 30
0.0
  0
VERTEX
  5
552
  8
0
  6
CONTINUOUS
 62
     7
 10
-290.6747628316
 20
516.4589647371
 30
0.0
  0
VERTEX
  5
553
  8
0
  6
CONTINUOUS
 62
     7
 10
-290.6741965875
 20
508.2398716527
 30
0.0
  0
VERTEX
  5
554
  8
0
  6
CONTINUOUS
 62
     7
 10
-290.6735707387
 20
499.1698775607
 30
0.0
  0
VERTEX
  5
555
  8
0
  6
CONTINUOUS
 62
     7
 10
-290.6730342969
 20
490.2512196618
 30
0.0
  0
VERTEX
  5
556
  8
0
  6
CONTINUOUS
 62
     7
 10
-290.6725872621
 20
481.4907673913
 30
0.0
  0
VERTEX
  5
557
  8
0
  6
CONTINUOUS
 62
     7
 10
-290.6721998319
 20
472.8954497892
 30
0.0
  0
VERTEX
  5
558
  8
0
  6
CONTINUOUS
 62
     7
 10
-290.6719018087
 20
464.4721213895
 30
0.0
  0
VERTEX
  5
559
  8
0
  6
CONTINUOUS
 62
     7
 10
-290.6716335878
 20
456.2277261335
 30
0.0
  0
VERTEX
  5
55A
  8
0
  6
CONTINUOUS
 62
     7
 10
-290.6713653669
 20
448.1698189098
 30
0.0
  0
VERTEX
  5
55B
  8
0
  6
CONTINUOUS
 62
     7
 10
-290.6712461576
 20
440.9541104156
 30
0.0
  0
VERTEX
  5
55C
  8
0
  6
CONTINUOUS
 62
     7
 10
-290.671186553
 20
433.9062635023
 30
0.0
  0
VERTEX
  5
55D
  8
0
  6
CONTINUOUS
 62
     7
 10
-290.6712163553
 20
427.0306591112
 30
0.0
  0
VERTEX
  5
55E
  8
0
  6
CONTINUOUS
 62
     7
 10
-290.6713057622
 20
420.3316632825
 30
0.0
  0
VERTEX
  5
55F
  8
0
  6
CONTINUOUS
 62
     7
 10
-290.6714249715
 20
413.8137016612
 30
0.0
  0
VERTEX
  5
560
  8
0
  6
CONTINUOUS
 62
     7
 10
-290.6715739831
 20
407.4811700899
 30
0.0
  0
VERTEX
  5
561
  8
0
  6
CONTINUOUS
 62
     7
 10
-290.6717527971
 20
400.7905785161
 30
0.0
  0
VERTEX
  5
562
  8
0
  6
CONTINUOUS
 62
     7
 10
-290.672021018
 20
394.3326685745
 30
0.0
  0
VERTEX
  5
563
  8
0
  6
CONTINUOUS
 62
     7
 10
-290.6723488435
 20
388.1118659097
 30
0.0
  0
VERTEX
  5
564
  8
0
  6
CONTINUOUS
 62
     7
 10
-290.672766076
 20
382.1326110679
 30
0.0
  0
VERTEX
  5
565
  8
0
  6
CONTINUOUS
 62
     7
 10
-290.6732131109
 20
376.3994041997
 30
0.0
  0
VERTEX
  5
566
  8
0
  6
CONTINUOUS
 62
     7
 10
-290.6736303434
 20
370.9167305547
 30
0.0
  0
VERTEX
  5
567
  8
0
  6
CONTINUOUS
 62
     7
 10
-290.6740475759
 20
365.6895522195
 30
0.0
  0
VERTEX
  5
568
  8
0
  6
CONTINUOUS
 62
     7
 10
-290.6744648084
 20
361.1265782434
 30
0.0
  0
VERTEX
  5
569
  8
0
  6
CONTINUOUS
 62
     7
 10
-290.6749416456
 20
356.784797104
 30
0.0
  0
VERTEX
  5
56A
  8
0
  6
CONTINUOUS
 62
     7
 10
-290.6754184827
 20
352.6666823942
 30
0.0
  0
VERTEX
  5
56B
  8
0
  6
CONTINUOUS
 62
     7
 10
-290.6759251222
 20
348.7746779043
 30
0.0
  0
VERTEX
  5
56C
  8
0
  6
CONTINUOUS
 62
     7
 10
-290.6764019594
 20
345.1112870294
 30
0.0
  0
VERTEX
  5
56D
  8
0
  6
CONTINUOUS
 62
     7
 10
-290.6768489942
 20
341.679042967
 30
0.0
  0
VERTEX
  5
56E
  8
0
  6
CONTINUOUS
 62
     7
 10
-290.6773258314
 20
338.2017675954
 30
0.0
  0
VERTEX
  5
56F
  8
0
  6
CONTINUOUS
 62
     7
 10
-290.6778026685
 20
335.0056473333
 30
0.0
  0
VERTEX
  5
570
  8
0
  6
CONTINUOUS
 62
     7
 10
-290.6782795057
 20
332.0925597268
 30
0.0
  0
VERTEX
  5
571
  8
0
  6
CONTINUOUS
 62
     7
 10
-290.6787265405
 20
329.4644121248
 30
0.0
  0
VERTEX
  5
572
  8
0
  6
CONTINUOUS
 62
     7
 10
-290.6791735754
 20
327.1231714803
 30
0.0
  0
VERTEX
  5
573
  8
0
  6
CONTINUOUS
 62
     7
 10
-290.6795610055
 20
325.0707749444
 30
0.0
  0
VERTEX
  5
574
  8
0
  6
CONTINUOUS
 62
     7
 10
-290.6799186334
 20
323.3093980867
 30
0.0
  0
VERTEX
  5
575
  8
0
  6
CONTINUOUS
 62
     7
 10
-290.6801868543
 20
321.9516638833
 30
0.0
  0
VERTEX
  5
576
  8
0
  6
CONTINUOUS
 62
     7
 10
-290.6804252729
 20
320.8400670606
 30
0.0
  0
VERTEX
  5
577
  8
0
  6
CONTINUOUS
 62
     7
 10
-290.6806636915
 20
319.9751142579
 30
0.0
  0
VERTEX
  5
578
  8
0
  6
CONTINUOUS
 62
     7
 10
-290.6808723077
 20
319.3572525102
 30
0.0
  0
VERTEX
  5
579
  8
0
  6
CONTINUOUS
 62
     7
 10
-290.6810511217
 20
318.9869884569
 30
0.0
  0
VERTEX
  5
57A
  8
0
  6
CONTINUOUS
 62
     7
 10
-290.681170331
 20
318.8660506326
 30
0.0
  0
SEQEND
  5
BF5
  8
0
  6
CONTINUOUS
 62
     7
  0
LINE
  5
E7
  8
FORMAT
  6
CENTERX2
 10
57.13204831
 20
630.8505598623
 30
0.0
 11
-1110.5621280248
 21
630.8505598623
 31
0.0
  0
LINE
  5
E8
  8
0
  6
CONTINUOUS
 62
     7
 10
774.1121681693
 20
1145.8751622754
 30
0.0
 11
553.5765843752
 21
1145.8751622754
 31
0.0
  0
LINE
  5
E9
  8
0
  6
CONTINUOUS
 62
     7
 10
1039.5765858057
 20
1145.8751622754
 30
0.0
 11
819.0629942629
 21
1145.8751622754
 31
0.0
  0
LINE
  5
EA
  8
0
  6
CONTINUOUS
 62
     7
 10
553.5765843752
 20
1122.8751603681
 30
0.0
 11
469.5765929583
 21
1122.8751603681
 31
0.0
  0
LINE
  5
EB
  8
0
  6
CONTINUOUS
 62
     7
 10
1123.5765772227
 20
1122.8751603681
 30
0.0
 11
1039.5765858057
 21
1122.8751603681
 31
0.0
  0
LINE
  5
EC
  8
0
  6
CONTINUOUS
 62
     7
 10
469.5765929583
 20
1112.8751401025
 30
0.0
 11
463.5765807989
 21
1112.8751401025
 31
0.0
  0
LINE
  5
ED
  8
0
  6
CONTINUOUS
 62
     7
 10
1129.576589382
 20
1112.8751401025
 30
0.0
 11
1123.5765772227
 21
1112.8751401025
 31
0.0
  0
LINE
  5
EE
  8
0
  6
CONTINUOUS
 62
     7
 10
1239.5324366453
 20
1031.3909117299
 30
0.0
 11
1289.5324485663
 21
1031.3909117299
 31
0.0
  0
LINE
  5
EF
  8
0
  6
CONTINUOUS
 62
     7
 10
1289.5324485663
 20
1101.3909343797
 30
0.0
 11
1239.5324366453
 21
1101.3909343797
 31
0.0
  0
LINE
  5
F0
  8
0
  6
CONTINUOUS
 62
     7
 10
819.0765859845
 20
1145.8714667875
 30
0.0
 11
819.0765859845
 21
1148.9778820592
 31
0.0
  0
LINE
  5
F1
  8
0
  6
CONTINUOUS
 62
     7
 10
774.0765841964
 20
1148.9778820592
 30
0.0
 11
774.0765841964
 21
1145.865506323
 31
0.0
  0
LINE
  5
F2
  8
0
  6
CONTINUOUS
 62
     7
 10
1149.5765703085
 20
1046.3909272272
 30
0.0
 11
1239.5324366453
 21
1046.3909272272
 31
0.0
  0
LINE
  5
F3
  8
0
  6
CONTINUOUS
 62
     7
 10
1239.5324366453
 20
1086.3909188825
 30
0.0
 11
1149.5765703085
 21
1086.3909188825
 31
0.0
  0
LINE
  5
F4
  8
0
  6
CONTINUOUS
 62
     7
 10
506.5765934351
 20
1197.1016589719
 30
0.0
 11
486.5765827063
 21
1197.1016589719
 31
0.0
  0
LINE
  5
F5
  8
0
  6
CONTINUOUS
 62
     7
 10
1106.5765874747
 20
1197.1016589719
 30
0.0
 11
1086.5765767458
 21
1197.1016589719
 31
0.0
  0
LINE
  5
F6
  8
0
  6
CONTINUOUS
 62
     7
 10
1213.5324435595
 20
743.239349516
 30
0.0
 11
1315.5324118498
 21
743.239349516
 31
0.0
  0
LINE
  5
F7
  8
0
  6
CONTINUOUS
 62
     7
 10
1315.5324118498
 20
1000.8173052389
 30
0.0
 11
1277.0324306849
 21
1000.8173052389
 31
0.0
  0
LINE
  5
F8
  8
0
  6
CONTINUOUS
 62
     7
 10
1252.0324545267
 20
1000.8173052389
 30
0.0
 11
1213.5324435595
 21
1000.8173052389
 31
0.0
  0
LINE
  5
F9
  8
0
  6
CONTINUOUS
 62
     7
 10
1213.5324435595
 20
701.9223336297
 30
0.0
 11
1315.5324118498
 21
701.9223336297
 31
0.0
  0
LINE
  5
FA
  8
0
  6
CONTINUOUS
 62
     7
 10
1213.5324435595
 20
660.6053140181
 30
0.0
 11
1315.5324118498
 21
660.6053140181
 31
0.0
  0
CIRCLE
  5
FB
  8
0
  6
CONTINUOUS
 62
     7
 10
796.5765850905
 20
630.8505598623
 30
0.0
 40
249.9999999999999
  0
CIRCLE
  5
FC
  8
0
  6
CONTINUOUS
 62
     7
 10
796.5765850905
 20
630.8505598623
 30
0.0
 40
290.9999999999999
  0
CIRCLE
  5
FD
  8
0
  6
CONTINUOUS
 62
     7
 10
845.0712692529
 20
324.6671742778
 30
0.0
 40
14.0
  0
CIRCLE
  5
FE
  8
0
  6
CONTINUOUS
 62
     7
 10
937.3136400097
 20
354.6385373639
 30
0.0
 40
13.99999999999995
  0
CIRCLE
  5
FF
  8
0
  6
CONTINUOUS
 62
     7
 10
1015.7796872583
 20
411.6474576944
 30
0.0
 40
13.99999999999999
  0
CIRCLE
  5
100
  8
0
  6
CONTINUOUS
 62
     7
 10
1072.7886075889
 20
490.113504943
 30
0.0
 40
14.0
  0
CIRCLE
  5
101
  8
0
  6
CONTINUOUS
 62
     7
 10
1102.759970675
 20
582.3558756998
 30
0.0
 40
14.00000000000004
  0
CIRCLE
  5
102
  8
0
  6
CONTINUOUS
 62
     7
 10
1102.759970675
 20
679.3452440247
 30
0.0
 40
14.0
  0
CIRCLE
  5
103
  8
0
  6
CONTINUOUS
 62
     7
 10
1072.7886075889
 20
771.5876147815
 30
0.0
 40
13.99999999999997
  0
CIRCLE
  5
104
  8
0
  6
CONTINUOUS
 62
     7
 10
1015.7796872583
 20
850.0536620301
 30
0.0
 40
13.99999999999989
  0
CIRCLE
  5
105
  8
0
  6
CONTINUOUS
 62
     7
 10
937.3136400097
 20
907.0625823607
 30
0.0
 40
14.00000000000005
  0
CIRCLE
  5
106
  8
0
  6
CONTINUOUS
 62
     7
 10
845.0712692529
 20
937.0339454468
 30
0.0
 40
14.00000000000001
  0
CIRCLE
  5
107
  8
0
  6
CONTINUOUS
 62
     7
 10
748.081900928
 20
937.0339454468
 30
0.0
 40
13.99999999999989
  0
CIRCLE
  5
108
  8
0
  6
CONTINUOUS
 62
     7
 10
655.8395301712
 20
907.0625823607
 30
0.0
 40
14.00000000000004
  0
CIRCLE
  5
109
  8
0
  6
CONTINUOUS
 62
     7
 10
577.3734829226
 20
850.0536620301
 30
0.0
 40
13.99999999999993
  0
CIRCLE
  5
10A
  8
0
  6
CONTINUOUS
 62
     7
 10
520.3645625921
 20
771.5876147815
 30
0.0
 40
13.99999999999998
  0
CIRCLE
  5
10B
  8
0
  6
CONTINUOUS
 62
     7
 10
490.393199506
 20
679.3452440247
 30
0.0
 40
14.00000000000003
  0
CIRCLE
  5
10C
  8
0
  6
CONTINUOUS
 62
     7
 10
490.393199506
 20
582.3558756998
 30
0.0
 40
14.0
  0
CIRCLE
  5
10D
  8
0
  6
CONTINUOUS
 62
     7
 10
520.3645625921
 20
490.113504943
 30
0.0
 40
14.00000000000008
  0
CIRCLE
  5
10E
  8
0
  6
CONTINUOUS
 62
     7
 10
577.3734829226
 20
411.6474576944
 30
0.0
 40
14.0
  0
CIRCLE
  5
10F
  8
0
  6
CONTINUOUS
 62
     7
 10
655.8395301712
 20
354.6385373639
 30
0.0
 40
14.00000000000007
  0
CIRCLE
  5
110
  8
0
  6
CONTINUOUS
 62
     7
 10
748.081900928
 20
324.6671742778
 30
0.0
 40
13.99999999999999
  0
CIRCLE
  5
111
  8
0
  6
CONTINUOUS
 62
     7
 10
796.5765850905
 20
630.8505598623
 30
0.0
 40
357.4999999999999
  0
LINE
  5
112
  8
0
  6
CONTINUOUS
 62
     7
 10
921.5765850905
 20
265.8505503255
 30
0.0
 11
671.5765850905
 21
265.8505503255
 31
0.0
  0
LINE
  5
113
  8
0
  6
CONTINUOUS
 62
     7
 10
671.5765850905
 20
265.8505503255
 30
0.0
 11
671.5765850905
 21
295.9158782083
 31
0.0
  0
LINE
  5
114
  8
0
  6
CONTINUOUS
 62
     7
 10
921.5765850905
 20
295.9158782083
 30
0.0
 11
921.5765850905
 21
265.8505503255
 31
0.0
  0
LINE
  5
115
  8
0
  6
CONTINUOUS
 62
     7
 10
1039.5765858057
 20
1145.8751622754
 30
0.0
 11
1039.5765858057
 21
1021.3751558381
 31
0.0
  0
LINE
  5
116
  8
0
  6
CONTINUOUS
 62
     7
 10
1039.5765858057
 20
1021.3751558381
 30
0.0
 11
553.5765843752
 21
1021.3751558381
 31
0.0
  0
POLYLINE
  5
117
  8
0
  6
CONTINUOUS
 62
     7
 66
     1
 10
0.0
 20
0.0
 30
0.0
  0
VERTEX
  5
57B
  8
0
  6
CONTINUOUS
 62
     7
 10
819.0629942629
 20
1145.8714667875
 30
0.0
  0
VERTEX
  5
57C
  8
0
  6
CONTINUOUS
 62
     7
 10
819.068263686
 20
1145.8728972989
 30
0.0
  0
VERTEX
  5
57D
  8
0
  6
CONTINUOUS
 62
     7
 10
818.967328808
 20
1145.8455983716
 30
0.0
  0
VERTEX
  5
57E
  8
0
  6
CONTINUOUS
 62
     7
 10
818.7169799867
 20
1145.7783643323
 30
0.0
  0
VERTEX
  5
57F
  8
0
  6
CONTINUOUS
 62
     7
 10
818.3242636088
 20
1145.6743542272
 30
0.0
  0
VERTEX
  5
580
  8
0
  6
CONTINUOUS
 62
     7
 10
817.7746100637
 20
1145.5316607076
 30
0.0
  0
VERTEX
  5
581
  8
0
  6
CONTINUOUS
 62
     7
 10
817.0820860478
 20
1145.3568402845
 30
0.0
  0
VERTEX
  5
582
  8
0
  6
CONTINUOUS
 62
     7
 10
816.2669776294
 20
1145.1579395849
 30
0.0
  0
VERTEX
  5
583
  8
0
  6
CONTINUOUS
 62
     7
 10
815.3247678939
 20
1144.9375812131
 30
0.0
  0
VERTEX
  5
584
  8
0
  6
CONTINUOUS
 62
     7
 10
814.2307749304
 20
1144.6945730764
 30
0.0
  0
VERTEX
  5
585
  8
0
  6
CONTINUOUS
 62
     7
 10
813.0167624268
 20
1144.4412533361
 30
0.0
  0
VERTEX
  5
586
  8
0
  6
CONTINUOUS
 62
     7
 10
811.68506614
 20
1144.1833440381
 30
0.0
  0
VERTEX
  5
587
  8
0
  6
CONTINUOUS
 62
     7
 10
810.2489248204
 20
1143.9287129957
 30
0.0
  0
VERTEX
  5
588
  8
0
  6
CONTINUOUS
 62
     7
 10
808.6718669447
 20
1143.6777178365
 30
0.0
  0
VERTEX
  5
589
  8
0
  6
CONTINUOUS
 62
     7
 10
807.004472642
 20
1143.4449616987
 30
0.0
  0
VERTEX
  5
58A
  8
0
  6
CONTINUOUS
 62
     7
 10
805.2980140138
 20
1143.2419482786
 30
0.0
  0
VERTEX
  5
58B
  8
0
  6
CONTINUOUS
 62
     7
 10
803.5275725934
 20
1143.0690948087
 30
0.0
  0
VERTEX
  5
58C
  8
0
  6
CONTINUOUS
 62
     7
 10
801.6481375608
 20
1142.9281894285
 30
0.0
  0
VERTEX
  5
58D
  8
0
  6
CONTINUOUS
 62
     7
 10
799.7281469225
 20
1142.8294245321
 30
0.0
  0
VERTEX
  5
58E
  8
0
  6
CONTINUOUS
 62
     7
 10
797.8993841035
 20
1142.7782837469
 30
0.0
  0
VERTEX
  5
58F
  8
0
  6
CONTINUOUS
 62
     7
 10
796.0611352401
 20
1142.7689258176
 30
0.0
  0
VERTEX
  5
590
  8
0
  6
CONTINUOUS
 62
     7
 10
794.171212875
 20
1142.8035561162
 30
0.0
  0
VERTEX
  5
591
  8
0
  6
CONTINUOUS
 62
     7
 10
792.2995522904
 20
1142.8816978055
 30
0.0
  0
VERTEX
  5
592
  8
0
  6
CONTINUOUS
 62
     7
 10
790.5472344074
 20
1142.9945293981
 30
0.0
  0
VERTEX
  5
593
  8
0
  6
CONTINUOUS
 62
     7
 10
788.8357280108
 20
1143.1413952428
 30
0.0
  0
VERTEX
  5
594
  8
0
  6
CONTINUOUS
 62
     7
 10
787.1308796394
 20
1143.3237854558
 30
0.0
  0
VERTEX
  5
595
  8
0
  6
CONTINUOUS
 62
     7
 10
785.4918506283
 20
1143.5325805265
 30
0.0
  0
VERTEX
  5
596
  8
0
  6
CONTINUOUS
 62
     7
 10
783.9364646289
 20
1143.7610451299
 30
0.0
  0
VERTEX
  5
597
  8
0
  6
CONTINUOUS
 62
     7
 10
782.4660841662
 20
1144.0038148481
 30
0.0
  0
VERTEX
  5
598
  8
0
  6
CONTINUOUS
 62
     7
 10
781.0536114785
 20
1144.2613665182
 30
0.0
  0
VERTEX
  5
599
  8
0
  6
CONTINUOUS
 62
     7
 10
779.7492569599
 20
1144.5201698858
 30
0.0
  0
VERTEX
  5
59A
  8
0
  6
CONTINUOUS
 62
     7
 10
778.5599803838
 20
1144.7735492307
 30
0.0
  0
VERTEX
  5
59B
  8
0
  6
CONTINUOUS
 62
     7
 10
777.495683572
 20
1145.0142327863
 30
0.0
  0
VERTEX
  5
59C
  8
0
  6
CONTINUOUS
 62
     7
 10
776.538883737
 20
1145.2417437154
 30
0.0
  0
VERTEX
  5
59D
  8
0
  6
CONTINUOUS
 62
     7
 10
775.7299294981
 20
1145.4423133451
 30
0.0
  0
VERTEX
  5
59E
  8
0
  6
CONTINUOUS
 62
     7
 10
775.0973454031
 20
1145.6042591649
 30
0.0
  0
VERTEX
  5
59F
  8
0
  6
CONTINUOUS
 62
     7
 10
774.6132029507
 20
1145.731276663
 30
0.0
  0
VERTEX
  5
5A0
  8
0
  6
CONTINUOUS
 62
     7
 10
774.2743728969
 20
1145.8216969091
 30
0.0
  0
VERTEX
  5
5A1
  8
0
  6
CONTINUOUS
 62
     7
 10
774.1007594678
 20
1145.8686057645
 30
0.0
  0
VERTEX
  5
5A2
  8
0
  6
CONTINUOUS
 62
     7
 10
774.1121681693
 20
1145.865506323
 30
0.0
  0
SEQEND
  5
BF4
  8
0
  6
CONTINUOUS
 62
     7
  0
LINE
  5
118
  8
0
  6
CONTINUOUS
 62
     7
 10
553.5765843752
 20
1145.8751622754
 30
0.0
 11
553.5765843752
 21
1021.3751558381
 31
0.0
  0
POLYLINE
  5
119
  8
0
  6
CONTINUOUS
 62
     7
 66
     1
 10
0.0
 20
0.0
 30
0.0
  0
VERTEX
  5
5A3
  8
0
  6
CONTINUOUS
 62
     7
 10
1096.5765970114
 20
945.9136191923
 30
0.0
  0
VERTEX
  5
5A4
  8
0
  6
CONTINUOUS
 62
     7
 10
1099.2948668364
 20
945.9341529924
 30
0.0
  0
VERTEX
  5
5A5
  8
0
  6
CONTINUOUS
 62
     7
 10
1102.0106630686
 20
945.9957245904
 30
0.0
  0
VERTEX
  5
5A6
  8
0
  6
CONTINUOUS
 62
     7
 10
1104.721482313
 20
946.0982743818
 30
0.0
  0
VERTEX
  5
5A7
  8
0
  6
CONTINUOUS
 62
     7
 10
1107.4248807791
 20
946.2417129594
 30
0.0
  0
VERTEX
  5
5A8
  8
0
  6
CONTINUOUS
 62
     7
 10
1110.1183848742
 20
946.4259211141
 30
0.0
  0
VERTEX
  5
5A9
  8
0
  6
CONTINUOUS
 62
     7
 10
1112.7995508078
 20
946.6507200319
 30
0.0
  0
VERTEX
  5
5AA
  8
0
  6
CONTINUOUS
 62
     7
 10
1115.4658751848
 20
946.9159010965
 30
0.0
  0
VERTEX
  5
5AB
  8
0
  6
CONTINUOUS
 62
     7
 10
1118.1150036219
 20
947.2212556917
 30
0.0
  0
VERTEX
  5
5AC
  8
0
  6
CONTINUOUS
 62
     7
 10
1120.7444625262
 20
947.5664261896
 30
0.0
  0
VERTEX
  5
5AD
  8
0
  6
CONTINUOUS
 62
     7
 10
1123.3518677119
 20
947.9511741716
 30
0.0
  0
VERTEX
  5
5AE
  8
0
  6
CONTINUOUS
 62
     7
 10
1125.9348349932
 20
948.3751420099
 30
0.0
  0
VERTEX
  5
5AF
  8
0
  6
CONTINUOUS
 62
     7
 10
1128.491039789
 20
948.8378826696
 30
0.0
  0
VERTEX
  5
5B0
  8
0
  6
CONTINUOUS
 62
     7
 10
1131.0180979136
 20
949.3390385229
 30
0.0
  0
VERTEX
  5
5B1
  8
0
  6
CONTINUOUS
 62
     7
 10
1133.5137443903
 20
949.8781327325
 30
0.0
  0
VERTEX
  5
5B2
  8
0
  6
CONTINUOUS
 62
     7
 10
1135.9756844404
 20
950.4546586591
 30
0.0
  0
VERTEX
  5
5B3
  8
0
  6
CONTINUOUS
 62
     7
 10
1138.4016828898
 20
951.0681096631
 30
0.0
  0
VERTEX
  5
5B4
  8
0
  6
CONTINUOUS
 62
     7
 10
1140.7895045641
 20
951.7179195005
 30
0.0
  0
VERTEX
  5
5B5
  8
0
  6
CONTINUOUS
 62
     7
 10
1143.136973894
 20
952.4034623224
 30
0.0
  0
VERTEX
  5
5B6
  8
0
  6
CONTINUOUS
 62
     7
 10
1145.4420047167
 20
953.1241718847
 30
0.0
  0
VERTEX
  5
5B7
  8
0
  6
CONTINUOUS
 62
     7
 10
1147.7024214628
 20
953.879362734
 30
0.0
  0
VERTEX
  5
5B8
  8
0
  6
CONTINUOUS
 62
     7
 10
1149.9161677721
 20
954.6683196145
 30
0.0
  0
VERTEX
  5
5B9
  8
0
  6
CONTINUOUS
 62
     7
 10
1152.0812766913
 20
955.490357073
 30
0.0
  0
VERTEX
  5
5BA
  8
0
  6
CONTINUOUS
 62
     7
 10
1154.1957514647
 20
956.3447300512
 30
0.0
  0
VERTEX
  5
5BB
  8
0
  6
CONTINUOUS
 62
     7
 10
1156.2576251391
 20
957.2306338865
 30
0.0
  0
VERTEX
  5
5BC
  8
0
  6
CONTINUOUS
 62
     7
 10
1158.2650499705
 20
958.1472937185
 30
0.0
  0
VERTEX
  5
5BD
  8
0
  6
CONTINUOUS
 62
     7
 10
1160.2162080172
 20
959.0938154775
 30
0.0
  0
VERTEX
  5
5BE
  8
0
  6
CONTINUOUS
 62
     7
 10
1162.1092813376
 20
960.0693945009
 30
0.0
  0
VERTEX
  5
5BF
  8
0
  6
CONTINUOUS
 62
     7
 10
1163.9425413969
 20
961.0731069166
 30
0.0
  0
VERTEX
  5
5C0
  8
0
  6
CONTINUOUS
 62
     7
 10
1165.7143788698
 20
962.1040586549
 30
0.0
  0
VERTEX
  5
5C1
  8
0
  6
CONTINUOUS
 62
     7
 10
1167.4230950239
 20
963.1612662393
 30
0.0
  0
VERTEX
  5
5C2
  8
0
  6
CONTINUOUS
 62
     7
 10
1169.0671997431
 20
964.2438356
 30
0.0
  0
VERTEX
  5
5C3
  8
0
  6
CONTINUOUS
 62
     7
 10
1170.6451433066
 20
965.3507236558
 30
0.0
  0
VERTEX
  5
5C4
  8
0
  6
CONTINUOUS
 62
     7
 10
1172.1554952028
 20
966.4809171277
 30
0.0
  0
VERTEX
  5
5C5
  8
0
  6
CONTINUOUS
 62
     7
 10
1173.5969143275
 20
967.6334325391
 30
0.0
  0
VERTEX
  5
5C6
  8
0
  6
CONTINUOUS
 62
     7
 10
1174.9680297735
 20
968.807167204
 30
0.0
  0
VERTEX
  5
5C7
  8
0
  6
CONTINUOUS
 62
     7
 10
1176.2676196459
 20
970.0010780412
 30
0.0
  0
VERTEX
  5
5C8
  8
0
  6
CONTINUOUS
 62
     7
 10
1177.494521654
 20
971.214092167
 30
0.0
  0
VERTEX
  5
5C9
  8
0
  6
CONTINUOUS
 62
     7
 10
1178.6475735071
 20
972.4450472909
 30
0.0
  0
VERTEX
  5
5CA
  8
0
  6
CONTINUOUS
 62
     7
 10
1179.7257321242
 20
973.6928705293
 30
0.0
  0
VERTEX
  5
5CB
  8
0
  6
CONTINUOUS
 62
     7
 10
1180.7280438307
 20
974.9563995916
 30
0.0
  0
VERTEX
  5
5CC
  8
0
  6
CONTINUOUS
 62
     7
 10
1181.6535549525
 20
976.2345019895
 30
0.0
  0
VERTEX
  5
5CD
  8
0
  6
CONTINUOUS
 62
     7
 10
1182.5014608267
 20
977.5259856302
 30
0.0
  0
VERTEX
  5
5CE
  8
0
  6
CONTINUOUS
 62
     7
 10
1183.2709567908
 20
978.829688223
 30
0.0
  0
VERTEX
  5
5CF
  8
0
  6
CONTINUOUS
 62
     7
 10
1183.9613573912
 20
980.1444176752
 30
0.0
  0
VERTEX
  5
5D0
  8
0
  6
CONTINUOUS
 62
     7
 10
1184.5720069769
 20
981.4689818937
 30
0.0
  0
VERTEX
  5
5D1
  8
0
  6
CONTINUOUS
 62
     7
 10
1185.1023691061
 20
982.8021589834
 30
0.0
  0
VERTEX
  5
5D2
  8
0
  6
CONTINUOUS
 62
     7
 10
1185.5519669417
 20
984.142727049
 30
0.0
  0
VERTEX
  5
5D3
  8
0
  6
CONTINUOUS
 62
     7
 10
1185.920383251
 20
985.4894641954
 30
0.0
  0
VERTEX
  5
5D4
  8
0
  6
CONTINUOUS
 62
     7
 10
1186.2072604063
 20
986.8411783296
 30
0.0
  0
VERTEX
  5
5D5
  8
0
  6
CONTINUOUS
 62
     7
 10
1186.4123897913
 20
988.1965879518
 30
0.0
  0
VERTEX
  5
5D6
  8
0
  6
CONTINUOUS
 62
     7
 10
1186.5355329874
 20
989.5545009691
 30
0.0
  0
VERTEX
  5
5D7
  8
0
  6
CONTINUOUS
 62
     7
 10
1186.5765707854
 20
990.9136358816
 30
0.0
  0
SEQEND
  5
BF3
  8
0
  6
CONTINUOUS
 62
     7
  0
LINE
  5
11A
  8
0
  6
CONTINUOUS
 62
     7
 10
496.5765731695
 20
945.9136191923
 30
0.0
 11
627.6342528227
 21
945.9136191923
 31
0.0
  0
LINE
  5
11B
  8
0
  6
CONTINUOUS
 62
     7
 10
737.2582586768
 20
945.9136191923
 30
0.0
 11
758.9055443469
 21
945.9136191923
 31
0.0
  0
LINE
  5
11C
  8
0
  6
CONTINUOUS
 62
     7
 10
834.2476258341
 20
945.9136191923
 30
0.0
 11
855.8949115041
 21
945.9136191923
 31
0.0
  0
LINE
  5
11D
  8
0
  6
CONTINUOUS
 62
     7
 10
965.5189173582
 20
945.9136191923
 30
0.0
 11
1096.5765970114
 21
945.9136191923
 31
0.0
  0
POLYLINE
  5
11E
  8
0
  6
CONTINUOUS
 62
     7
 66
     1
 10
0.0
 20
0.0
 30
0.0
  0
VERTEX
  5
5D8
  8
0
  6
CONTINUOUS
 62
     7
 10
406.5765993956
 20
990.9136358816
 30
0.0
  0
VERTEX
  5
5D9
  8
0
  6
CONTINUOUS
 62
     7
 10
406.6176371935
 20
989.5545009691
 30
0.0
  0
VERTEX
  5
5DA
  8
0
  6
CONTINUOUS
 62
     7
 10
406.7407803896
 20
988.1965879518
 30
0.0
  0
VERTEX
  5
5DB
  8
0
  6
CONTINUOUS
 62
     7
 10
406.9459097746
 20
986.8411783296
 30
0.0
  0
VERTEX
  5
5DC
  8
0
  6
CONTINUOUS
 62
     7
 10
407.2327869299
 20
985.4894641954
 30
0.0
  0
VERTEX
  5
5DD
  8
0
  6
CONTINUOUS
 62
     7
 10
407.6012032393
 20
984.142727049
 30
0.0
  0
VERTEX
  5
5DE
  8
0
  6
CONTINUOUS
 62
     7
 10
408.0508010748
 20
982.8021589834
 30
0.0
  0
VERTEX
  5
5DF
  8
0
  6
CONTINUOUS
 62
     7
 10
408.581163204
 20
981.4689818937
 30
0.0
  0
VERTEX
  5
5E0
  8
0
  6
CONTINUOUS
 62
     7
 10
409.1918127897
 20
980.1444176752
 30
0.0
  0
VERTEX
  5
5E1
  8
0
  6
CONTINUOUS
 62
     7
 10
409.8822133902
 20
978.829688223
 30
0.0
  0
VERTEX
  5
5E2
  8
0
  6
CONTINUOUS
 62
     7
 10
410.6517093542
 20
977.5259856302
 30
0.0
  0
VERTEX
  5
5E3
  8
0
  6
CONTINUOUS
 62
     7
 10
411.4996152285
 20
976.2345019895
 30
0.0
  0
VERTEX
  5
5E4
  8
0
  6
CONTINUOUS
 62
     7
 10
412.4251263502
 20
974.9563995916
 30
0.0
  0
VERTEX
  5
5E5
  8
0
  6
CONTINUOUS
 62
     7
 10
413.4274380568
 20
973.6928705293
 30
0.0
  0
VERTEX
  5
5E6
  8
0
  6
CONTINUOUS
 62
     7
 10
414.5055966738
 20
972.4450472909
 30
0.0
  0
VERTEX
  5
5E7
  8
0
  6
CONTINUOUS
 62
     7
 10
415.658648527
 20
971.214092167
 30
0.0
  0
VERTEX
  5
5E8
  8
0
  6
CONTINUOUS
 62
     7
 10
416.885550535
 20
970.0010780412
 30
0.0
  0
VERTEX
  5
5E9
  8
0
  6
CONTINUOUS
 62
     7
 10
418.1851404074
 20
968.807167204
 30
0.0
  0
VERTEX
  5
5EA
  8
0
  6
CONTINUOUS
 62
     7
 10
419.5562558535
 20
967.6334325391
 30
0.0
  0
VERTEX
  5
5EB
  8
0
  6
CONTINUOUS
 62
     7
 10
420.9976749781
 20
966.4809171277
 30
0.0
  0
VERTEX
  5
5EC
  8
0
  6
CONTINUOUS
 62
     7
 10
422.5080268744
 20
965.3507236558
 30
0.0
  0
VERTEX
  5
5ED
  8
0
  6
CONTINUOUS
 62
     7
 10
424.0859704378
 20
964.2438356
 30
0.0
  0
VERTEX
  5
5EE
  8
0
  6
CONTINUOUS
 62
     7
 10
425.730075157
 20
963.1612662393
 30
0.0
  0
VERTEX
  5
5EF
  8
0
  6
CONTINUOUS
 62
     7
 10
427.4387913111
 20
962.1040586549
 30
0.0
  0
VERTEX
  5
5F0
  8
0
  6
CONTINUOUS
 62
     7
 10
429.210628784
 20
961.0731069166
 30
0.0
  0
VERTEX
  5
5F1
  8
0
  6
CONTINUOUS
 62
     7
 10
431.0438888434
 20
960.0693945009
 30
0.0
  0
VERTEX
  5
5F2
  8
0
  6
CONTINUOUS
 62
     7
 10
432.9369621638
 20
959.0938154775
 30
0.0
  0
VERTEX
  5
5F3
  8
0
  6
CONTINUOUS
 62
     7
 10
434.8881202105
 20
958.1472937185
 30
0.0
  0
VERTEX
  5
5F4
  8
0
  6
CONTINUOUS
 62
     7
 10
436.8955450419
 20
957.2306338865
 30
0.0
  0
VERTEX
  5
5F5
  8
0
  6
CONTINUOUS
 62
     7
 10
438.9574187163
 20
956.3447300512
 30
0.0
  0
VERTEX
  5
5F6
  8
0
  6
CONTINUOUS
 62
     7
 10
441.0718934897
 20
955.490357073
 30
0.0
  0
VERTEX
  5
5F7
  8
0
  6
CONTINUOUS
 62
     7
 10
443.2370024088
 20
954.6683196145
 30
0.0
  0
VERTEX
  5
5F8
  8
0
  6
CONTINUOUS
 62
     7
 10
445.4507487181
 20
953.879362734
 30
0.0
  0
VERTEX
  5
5F9
  8
0
  6
CONTINUOUS
 62
     7
 10
447.7111654642
 20
953.1241718847
 30
0.0
  0
VERTEX
  5
5FA
  8
0
  6
CONTINUOUS
 62
     7
 10
450.016196287
 20
952.4034623224
 30
0.0
  0
VERTEX
  5
5FB
  8
0
  6
CONTINUOUS
 62
     7
 10
452.3636656168
 20
951.7179195005
 30
0.0
  0
VERTEX
  5
5FC
  8
0
  6
CONTINUOUS
 62
     7
 10
454.7514872912
 20
951.0681096631
 30
0.0
  0
VERTEX
  5
5FD
  8
0
  6
CONTINUOUS
 62
     7
 10
457.1774857405
 20
950.4546586591
 30
0.0
  0
VERTEX
  5
5FE
  8
0
  6
CONTINUOUS
 62
     7
 10
459.6394257906
 20
949.8781327325
 30
0.0
  0
VERTEX
  5
5FF
  8
0
  6
CONTINUOUS
 62
     7
 10
462.1350722674
 20
949.3390385229
 30
0.0
  0
VERTEX
  5
600
  8
0
  6
CONTINUOUS
 62
     7
 10
464.6621303919
 20
948.8378826696
 30
0.0
  0
VERTEX
  5
601
  8
0
  6
CONTINUOUS
 62
     7
 10
467.2183351877
 20
948.3751420099
 30
0.0
  0
VERTEX
  5
602
  8
0
  6
CONTINUOUS
 62
     7
 10
469.8013024691
 20
947.9511741716
 30
0.0
  0
VERTEX
  5
603
  8
0
  6
CONTINUOUS
 62
     7
 10
472.4087076548
 20
947.5664261896
 30
0.0
  0
VERTEX
  5
604
  8
0
  6
CONTINUOUS
 62
     7
 10
475.0381665591
 20
947.2212556917
 30
0.0
  0
VERTEX
  5
605
  8
0
  6
CONTINUOUS
 62
     7
 10
477.6872949961
 20
946.9159010965
 30
0.0
  0
VERTEX
  5
606
  8
0
  6
CONTINUOUS
 62
     7
 10
480.3536193732
 20
946.6507200319
 30
0.0
  0
VERTEX
  5
607
  8
0
  6
CONTINUOUS
 62
     7
 10
483.0347853068
 20
946.4259211141
 30
0.0
  0
VERTEX
  5
608
  8
0
  6
CONTINUOUS
 62
     7
 10
485.7282894018
 20
946.2417129594
 30
0.0
  0
VERTEX
  5
609
  8
0
  6
CONTINUOUS
 62
     7
 10
488.4316878679
 20
946.0982743818
 30
0.0
  0
VERTEX
  5
60A
  8
0
  6
CONTINUOUS
 62
     7
 10
491.1425071123
 20
945.9957245904
 30
0.0
  0
VERTEX
  5
60B
  8
0
  6
CONTINUOUS
 62
     7
 10
493.8583033446
 20
945.9341529924
 30
0.0
  0
VERTEX
  5
60C
  8
0
  6
CONTINUOUS
 62
     7
 10
496.5765731695
 20
945.9136191923
 30
0.0
  0
SEQEND
  5
BF2
  8
0
  6
CONTINUOUS
 62
     7
  0
LINE
  5
11F
  8
0
  6
CONTINUOUS
 62
     7
 10
406.5765993956
 20
1125.9136263448
 30
0.0
 11
406.5765993956
 21
990.9136358816
 31
0.0
  0
POLYLINE
  5
120
  8
0
  6
CONTINUOUS
 62
     7
 66
     1
 10
0.0
 20
0.0
 30
0.0
  0
VERTEX
  5
60D
  8
0
  6
CONTINUOUS
 62
     7
 10
486.5765827063
 20
1170.6349913198
 30
0.0
  0
VERTEX
  5
60E
  8
0
  6
CONTINUOUS
 62
     7
 10
485.7282894018
 20
1170.5855194646
 30
0.0
  0
VERTEX
  5
60F
  8
0
  6
CONTINUOUS
 62
     7
 10
483.0347853068
 20
1170.4013411123
 30
0.0
  0
VERTEX
  5
610
  8
0
  6
CONTINUOUS
 62
     7
 10
480.3536193732
 20
1170.1765123922
 30
0.0
  0
VERTEX
  5
611
  8
0
  6
CONTINUOUS
 62
     7
 10
477.6872949961
 20
1169.9113313276
 30
0.0
  0
VERTEX
  5
612
  8
0
  6
CONTINUOUS
 62
     7
 10
475.0381665591
 20
1169.606036337
 30
0.0
  0
VERTEX
  5
613
  8
0
  6
CONTINUOUS
 62
     7
 10
472.4087076548
 20
1169.2608062345
 30
0.0
  0
VERTEX
  5
614
  8
0
  6
CONTINUOUS
 62
     7
 10
469.8013024691
 20
1168.8760582525
 30
0.0
  0
VERTEX
  5
615
  8
0
  6
CONTINUOUS
 62
     7
 10
467.2183351877
 20
1168.4520904142
 30
0.0
  0
VERTEX
  5
616
  8
0
  6
CONTINUOUS
 62
     7
 10
464.6621303919
 20
1167.9893795568
 30
0.0
  0
VERTEX
  5
617
  8
0
  6
CONTINUOUS
 62
     7
 10
462.1350722674
 20
1167.4882237035
 30
0.0
  0
VERTEX
  5
618
  8
0
  6
CONTINUOUS
 62
     7
 10
459.6394257906
 20
1166.9490996915
 30
0.0
  0
VERTEX
  5
619
  8
0
  6
CONTINUOUS
 62
     7
 10
457.1774857405
 20
1166.3726035673
 30
0.0
  0
VERTEX
  5
61A
  8
0
  6
CONTINUOUS
 62
     7
 10
454.7514872912
 20
1165.7591525632
 30
0.0
  0
VERTEX
  5
61B
  8
0
  6
CONTINUOUS
 62
     7
 10
452.3636656168
 20
1165.1093427259
 30
0.0
  0
VERTEX
  5
61C
  8
0
  6
CONTINUOUS
 62
     7
 10
450.016196287
 20
1164.4237701017
 30
0.0
  0
VERTEX
  5
61D
  8
0
  6
CONTINUOUS
 62
     7
 10
447.7111654642
 20
1163.7030903417
 30
0.0
  0
VERTEX
  5
61E
  8
0
  6
CONTINUOUS
 62
     7
 10
445.4507487181
 20
1162.9478994924
 30
0.0
  0
VERTEX
  5
61F
  8
0
  6
CONTINUOUS
 62
     7
 10
443.2370024088
 20
1162.1589128095
 30
0.0
  0
VERTEX
  5
620
  8
0
  6
CONTINUOUS
 62
     7
 10
441.0718934897
 20
1161.3369051534
 30
0.0
  0
VERTEX
  5
621
  8
0
  6
CONTINUOUS
 62
     7
 10
438.9574187163
 20
1160.4825321752
 30
0.0
  0
VERTEX
  5
622
  8
0
  6
CONTINUOUS
 62
     7
 10
436.8955450419
 20
1159.5966283399
 30
0.0
  0
VERTEX
  5
623
  8
0
  6
CONTINUOUS
 62
     7
 10
434.8881202105
 20
1158.6799685079
 30
0.0
  0
VERTEX
  5
624
  8
0
  6
CONTINUOUS
 62
     7
 10
432.9369621638
 20
1157.7334467489
 30
0.0
  0
VERTEX
  5
625
  8
0
  6
CONTINUOUS
 62
     7
 10
431.0438888434
 20
1156.7578379232
 30
0.0
  0
VERTEX
  5
626
  8
0
  6
CONTINUOUS
 62
     7
 10
429.210628784
 20
1155.7541553098
 30
0.0
  0
VERTEX
  5
627
  8
0
  6
CONTINUOUS
 62
     7
 10
427.4387913111
 20
1154.7232333738
 30
0.0
  0
VERTEX
  5
628
  8
0
  6
CONTINUOUS
 62
     7
 10
425.730075157
 20
1153.6659661847
 30
0.0
  0
VERTEX
  5
629
  8
0
  6
CONTINUOUS
 62
     7
 10
424.0859704378
 20
1152.5834266263
 30
0.0
  0
VERTEX
  5
62A
  8
0
  6
CONTINUOUS
 62
     7
 10
422.5080268744
 20
1151.4765683729
 30
0.0
  0
VERTEX
  5
62B
  8
0
  6
CONTINUOUS
 62
     7
 10
420.9976749781
 20
1150.3463450986
 30
0.0
  0
VERTEX
  5
62C
  8
0
  6
CONTINUOUS
 62
     7
 10
419.5562558535
 20
1149.1938296873
 30
0.0
  0
VERTEX
  5
62D
  8
0
  6
CONTINUOUS
 62
     7
 10
418.1851404074
 20
1148.0200950223
 30
0.0
  0
VERTEX
  5
62E
  8
0
  6
CONTINUOUS
 62
     7
 10
416.885550535
 20
1146.8261543828
 30
0.0
  0
VERTEX
  5
62F
  8
0
  6
CONTINUOUS
 62
     7
 10
415.658648527
 20
1145.6131998617
 30
0.0
  0
VERTEX
  5
630
  8
0
  6
CONTINUOUS
 62
     7
 10
414.5055966738
 20
1144.3821851331
 30
0.0
  0
VERTEX
  5
631
  8
0
  6
CONTINUOUS
 62
     7
 10
413.4274380568
 20
1143.1343618947
 30
0.0
  0
VERTEX
  5
632
  8
0
  6
CONTINUOUS
 62
     7
 10
412.4251263502
 20
1141.8708626348
 30
0.0
  0
VERTEX
  5
633
  8
0
  6
CONTINUOUS
 62
     7
 10
411.4996152285
 20
1140.5927602369
 30
0.0
  0
VERTEX
  5
634
  8
0
  6
CONTINUOUS
 62
     7
 10
410.6517093542
 20
1139.3012467939
 30
0.0
  0
VERTEX
  5
635
  8
0
  6
CONTINUOUS
 62
     7
 10
409.8822133902
 20
1137.9975740034
 30
0.0
  0
VERTEX
  5
636
  8
0
  6
CONTINUOUS
 62
     7
 10
409.1918127897
 20
1136.6828147489
 30
0.0
  0
VERTEX
  5
637
  8
0
  6
CONTINUOUS
 62
     7
 10
408.581163204
 20
1135.3582803327
 30
0.0
  0
VERTEX
  5
638
  8
0
  6
CONTINUOUS
 62
     7
 10
408.0508010748
 20
1134.025103243
 30
0.0
  0
VERTEX
  5
639
  8
0
  6
CONTINUOUS
 62
     7
 10
407.6012032393
 20
1132.6845351774
 30
0.0
  0
VERTEX
  5
63A
  8
0
  6
CONTINUOUS
 62
     7
 10
407.2327869299
 20
1131.3377682287
 30
0.0
  0
VERTEX
  5
63B
  8
0
  6
CONTINUOUS
 62
     7
 10
406.9459097746
 20
1129.9860838968
 30
0.0
  0
VERTEX
  5
63C
  8
0
  6
CONTINUOUS
 62
     7
 10
406.7407803896
 20
1128.6306444723
 30
0.0
  0
VERTEX
  5
63D
  8
0
  6
CONTINUOUS
 62
     7
 10
406.6176371935
 20
1127.2727612573
 30
0.0
  0
VERTEX
  5
63E
  8
0
  6
CONTINUOUS
 62
     7
 10
406.5765993956
 20
1125.9136263448
 30
0.0
  0
SEQEND
  5
BF1
  8
0
  6
CONTINUOUS
 62
     7
  0
LINE
  5
121
  8
0
  6
CONTINUOUS
 62
     7
 10
1086.5765767458
 20
1170.9136430341
 30
0.0
 11
506.5765934351
 21
1170.9136430341
 31
0.0
  0
POLYLINE
  5
122
  8
0
  6
CONTINUOUS
 62
     7
 66
     1
 10
0.0
 20
0.0
 30
0.0
  0
VERTEX
  5
63F
  8
0
  6
CONTINUOUS
 62
     7
 10
1186.5765707854
 20
1125.9136263448
 30
0.0
  0
VERTEX
  5
640
  8
0
  6
CONTINUOUS
 62
     7
 10
1186.5355329874
 20
1127.2727612573
 30
0.0
  0
VERTEX
  5
641
  8
0
  6
CONTINUOUS
 62
     7
 10
1186.4123897913
 20
1128.6306444723
 30
0.0
  0
VERTEX
  5
642
  8
0
  6
CONTINUOUS
 62
     7
 10
1186.2072604063
 20
1129.9860838968
 30
0.0
  0
VERTEX
  5
643
  8
0
  6
CONTINUOUS
 62
     7
 10
1185.920383251
 20
1131.3377682287
 30
0.0
  0
VERTEX
  5
644
  8
0
  6
CONTINUOUS
 62
     7
 10
1185.5519669417
 20
1132.6845351774
 30
0.0
  0
VERTEX
  5
645
  8
0
  6
CONTINUOUS
 62
     7
 10
1185.1023691061
 20
1134.025103243
 30
0.0
  0
VERTEX
  5
646
  8
0
  6
CONTINUOUS
 62
     7
 10
1184.5720069769
 20
1135.3582803327
 30
0.0
  0
VERTEX
  5
647
  8
0
  6
CONTINUOUS
 62
     7
 10
1183.9613573912
 20
1136.6828147489
 30
0.0
  0
VERTEX
  5
648
  8
0
  6
CONTINUOUS
 62
     7
 10
1183.2709567908
 20
1137.9975740034
 30
0.0
  0
VERTEX
  5
649
  8
0
  6
CONTINUOUS
 62
     7
 10
1182.5014608267
 20
1139.3012467939
 30
0.0
  0
VERTEX
  5
64A
  8
0
  6
CONTINUOUS
 62
     7
 10
1181.6535549525
 20
1140.5927602369
 30
0.0
  0
VERTEX
  5
64B
  8
0
  6
CONTINUOUS
 62
     7
 10
1180.7280438307
 20
1141.8708626348
 30
0.0
  0
VERTEX
  5
64C
  8
0
  6
CONTINUOUS
 62
     7
 10
1179.7257321242
 20
1143.1343618947
 30
0.0
  0
VERTEX
  5
64D
  8
0
  6
CONTINUOUS
 62
     7
 10
1178.6475735071
 20
1144.3821851331
 30
0.0
  0
VERTEX
  5
64E
  8
0
  6
CONTINUOUS
 62
     7
 10
1177.494521654
 20
1145.6131998617
 30
0.0
  0
VERTEX
  5
64F
  8
0
  6
CONTINUOUS
 62
     7
 10
1176.2676196459
 20
1146.8261543828
 30
0.0
  0
VERTEX
  5
650
  8
0
  6
CONTINUOUS
 62
     7
 10
1174.9680297735
 20
1148.0200950223
 30
0.0
  0
VERTEX
  5
651
  8
0
  6
CONTINUOUS
 62
     7
 10
1173.5969143275
 20
1149.1938296873
 30
0.0
  0
VERTEX
  5
652
  8
0
  6
CONTINUOUS
 62
     7
 10
1172.1554952028
 20
1150.3463450986
 30
0.0
  0
VERTEX
  5
653
  8
0
  6
CONTINUOUS
 62
     7
 10
1170.6451433066
 20
1151.4765683729
 30
0.0
  0
VERTEX
  5
654
  8
0
  6
CONTINUOUS
 62
     7
 10
1169.0671997431
 20
1152.5834266263
 30
0.0
  0
VERTEX
  5
655
  8
0
  6
CONTINUOUS
 62
     7
 10
1167.4230950239
 20
1153.6659661847
 30
0.0
  0
VERTEX
  5
656
  8
0
  6
CONTINUOUS
 62
     7
 10
1165.7143788698
 20
1154.7232333738
 30
0.0
  0
VERTEX
  5
657
  8
0
  6
CONTINUOUS
 62
     7
 10
1163.9425413969
 20
1155.7541553098
 30
0.0
  0
VERTEX
  5
658
  8
0
  6
CONTINUOUS
 62
     7
 10
1162.1092813376
 20
1156.7578379232
 30
0.0
  0
VERTEX
  5
659
  8
0
  6
CONTINUOUS
 62
     7
 10
1160.2162080172
 20
1157.7334467489
 30
0.0
  0
VERTEX
  5
65A
  8
0
  6
CONTINUOUS
 62
     7
 10
1158.2650499705
 20
1158.6799685079
 30
0.0
  0
VERTEX
  5
65B
  8
0
  6
CONTINUOUS
 62
     7
 10
1156.2576251391
 20
1159.5966283399
 30
0.0
  0
VERTEX
  5
65C
  8
0
  6
CONTINUOUS
 62
     7
 10
1154.1957514647
 20
1160.4825321752
 30
0.0
  0
VERTEX
  5
65D
  8
0
  6
CONTINUOUS
 62
     7
 10
1152.0812766913
 20
1161.3369051534
 30
0.0
  0
VERTEX
  5
65E
  8
0
  6
CONTINUOUS
 62
     7
 10
1149.9161677721
 20
1162.1589128095
 30
0.0
  0
VERTEX
  5
65F
  8
0
  6
CONTINUOUS
 62
     7
 10
1147.7024214628
 20
1162.9478994924
 30
0.0
  0
VERTEX
  5
660
  8
0
  6
CONTINUOUS
 62
     7
 10
1145.4420047167
 20
1163.7030903417
 30
0.0
  0
VERTEX
  5
661
  8
0
  6
CONTINUOUS
 62
     7
 10
1143.136973894
 20
1164.4237701017
 30
0.0
  0
VERTEX
  5
662
  8
0
  6
CONTINUOUS
 62
     7
 10
1140.7895045641
 20
1165.1093427259
 30
0.0
  0
VERTEX
  5
663
  8
0
  6
CONTINUOUS
 62
     7
 10
1138.4016828898
 20
1165.7591525632
 30
0.0
  0
VERTEX
  5
664
  8
0
  6
CONTINUOUS
 62
     7
 10
1135.9756844404
 20
1166.3726035673
 30
0.0
  0
VERTEX
  5
665
  8
0
  6
CONTINUOUS
 62
     7
 10
1133.5137443903
 20
1166.9490996915
 30
0.0
  0
VERTEX
  5
666
  8
0
  6
CONTINUOUS
 62
     7
 10
1131.0180979136
 20
1167.4882237035
 30
0.0
  0
VERTEX
  5
667
  8
0
  6
CONTINUOUS
 62
     7
 10
1128.491039789
 20
1167.9893795568
 30
0.0
  0
VERTEX
  5
668
  8
0
  6
CONTINUOUS
 62
     7
 10
1125.9348349932
 20
1168.4520904142
 30
0.0
  0
VERTEX
  5
669
  8
0
  6
CONTINUOUS
 62
     7
 10
1123.3518677119
 20
1168.8760582525
 30
0.0
  0
VERTEX
  5
66A
  8
0
  6
CONTINUOUS
 62
     7
 10
1120.7444625262
 20
1169.2608062345
 30
0.0
  0
VERTEX
  5
66B
  8
0
  6
CONTINUOUS
 62
     7
 10
1118.1150036219
 20
1169.606036337
 30
0.0
  0
VERTEX
  5
66C
  8
0
  6
CONTINUOUS
 62
     7
 10
1115.4658751848
 20
1169.9113313276
 30
0.0
  0
VERTEX
  5
66D
  8
0
  6
CONTINUOUS
 62
     7
 10
1112.7995508078
 20
1170.1765123922
 30
0.0
  0
VERTEX
  5
66E
  8
0
  6
CONTINUOUS
 62
     7
 10
1110.1183848742
 20
1170.4013411123
 30
0.0
  0
VERTEX
  5
66F
  8
0
  6
CONTINUOUS
 62
     7
 10
1107.4248807791
 20
1170.5855194646
 30
0.0
  0
VERTEX
  5
670
  8
0
  6
CONTINUOUS
 62
     7
 10
1106.5765874747
 20
1170.6349913198
 30
0.0
  0
SEQEND
  5
BF0
  8
0
  6
CONTINUOUS
 62
     7
  0
LINE
  5
123
  8
0
  6
CONTINUOUS
 62
     7
 10
1186.5765707854
 20
990.9136358816
 30
0.0
 11
1186.5765707854
 21
1046.3909272272
 31
0.0
  0
LINE
  5
124
  8
0
  6
CONTINUOUS
 62
     7
 10
1186.5765707854
 20
1086.3909188825
 30
0.0
 11
1186.5765707854
 21
1125.9136263448
 31
0.0
  0
LINE
  5
125
  8
0
  6
CONTINUOUS
 62
     7
 10
463.5765807989
 20
985.9136406499
 30
0.0
 11
469.5765929583
 21
985.9136406499
 31
0.0
  0
LINE
  5
126
  8
0
  6
CONTINUOUS
 62
     7
 10
469.5765929583
 20
980.913615616
 30
0.0
 11
553.5765843752
 21
980.913615616
 31
0.0
  0
LINE
  5
127
  8
0
  6
CONTINUOUS
 62
     7
 10
553.5765843752
 20
969.4136146623
 30
0.0
 11
681.7667441729
 21
969.4136146623
 31
0.0
  0
LINE
  5
128
  8
0
  6
CONTINUOUS
 62
     7
 10
911.3864260081
 20
969.4136146623
 30
0.0
 11
1039.5765858057
 21
969.4136146623
 31
0.0
  0
LINE
  5
129
  8
0
  6
CONTINUOUS
 62
     7
 10
1123.5765772227
 20
980.913615616
 30
0.0
 11
1039.5765858057
 21
980.913615616
 31
0.0
  0
LINE
  5
12A
  8
0
  6
CONTINUOUS
 62
     7
 10
1129.576589382
 20
985.9136406499
 30
0.0
 11
1123.5765772227
 21
985.9136406499
 31
0.0
  0
LINE
  5
12B
  8
0
  6
CONTINUOUS
 62
     7
 10
496.5765731695
 20
945.9136191923
 30
0.0
 11
496.5765731695
 21
919.9328784067
 31
0.0
  0
POLYLINE
  5
12C
  8
0
  6
CONTINUOUS
 62
     7
 66
     1
 10
0.0
 20
0.0
 30
0.0
  0
VERTEX
  5
671
  8
0
  6
CONTINUOUS
 62
     7
 10
496.5765731695
 20
919.9328784067
 30
0.0
  0
VERTEX
  5
672
  8
0
  6
CONTINUOUS
 62
     7
 10
493.8583033446
 20
919.9533824045
 30
0.0
  0
VERTEX
  5
673
  8
0
  6
CONTINUOUS
 62
     7
 10
491.1425071123
 20
920.0149540025
 30
0.0
  0
VERTEX
  5
674
  8
0
  6
CONTINUOUS
 62
     7
 10
488.4316878679
 20
920.1175335962
 30
0.0
  0
VERTEX
  5
675
  8
0
  6
CONTINUOUS
 62
     7
 10
485.7282894018
 20
920.2609721738
 30
0.0
  0
VERTEX
  5
676
  8
0
  6
CONTINUOUS
 62
     7
 10
483.0347853068
 20
920.4451803285
 30
0.0
  0
VERTEX
  5
677
  8
0
  6
CONTINUOUS
 62
     7
 10
480.3536193732
 20
920.6699792463
 30
0.0
  0
VERTEX
  5
678
  8
0
  6
CONTINUOUS
 62
     7
 10
477.6872949961
 20
920.9351603109
 30
0.0
  0
VERTEX
  5
679
  8
0
  6
CONTINUOUS
 62
     7
 10
475.0381665591
 20
921.2404851037
 30
0.0
  0
VERTEX
  5
67A
  8
0
  6
CONTINUOUS
 62
     7
 10
472.4087076548
 20
921.585685404
 30
0.0
  0
VERTEX
  5
67B
  8
0
  6
CONTINUOUS
 62
     7
 10
469.8013024691
 20
921.970433386
 30
0.0
  0
VERTEX
  5
67C
  8
0
  6
CONTINUOUS
 62
     7
 10
467.2183351877
 20
922.3943714219
 30
0.0
  0
VERTEX
  5
67D
  8
0
  6
CONTINUOUS
 62
     7
 10
464.6621303919
 20
922.857141884
 30
0.0
  0
VERTEX
  5
67E
  8
0
  6
CONTINUOUS
 62
     7
 10
462.1350722674
 20
923.3582977373
 30
0.0
  0
VERTEX
  5
67F
  8
0
  6
CONTINUOUS
 62
     7
 10
459.6394257906
 20
923.8973621446
 30
0.0
  0
VERTEX
  5
680
  8
0
  6
CONTINUOUS
 62
     7
 10
457.1774857405
 20
924.4738880712
 30
0.0
  0
VERTEX
  5
681
  8
0
  6
CONTINUOUS
 62
     7
 10
454.7514872912
 20
925.0873390752
 30
0.0
  0
VERTEX
  5
682
  8
0
  6
CONTINUOUS
 62
     7
 10
452.3636656168
 20
925.7371489126
 30
0.0
  0
VERTEX
  5
683
  8
0
  6
CONTINUOUS
 62
     7
 10
450.016196287
 20
926.4227215368
 30
0.0
  0
VERTEX
  5
684
  8
0
  6
CONTINUOUS
 62
     7
 10
447.7111654642
 20
927.1434012967
 30
0.0
  0
VERTEX
  5
685
  8
0
  6
CONTINUOUS
 62
     7
 10
445.4507487181
 20
927.8985921461
 30
0.0
  0
VERTEX
  5
686
  8
0
  6
CONTINUOUS
 62
     7
 10
443.2370024088
 20
928.6875490266
 30
0.0
  0
VERTEX
  5
687
  8
0
  6
CONTINUOUS
 62
     7
 10
441.0718934897
 20
929.5096162874
 30
0.0
  0
VERTEX
  5
688
  8
0
  6
CONTINUOUS
 62
     7
 10
438.9574187163
 20
930.3639594633
 30
0.0
  0
VERTEX
  5
689
  8
0
  6
CONTINUOUS
 62
     7
 10
436.8955450419
 20
931.2498931009
 30
0.0
  0
VERTEX
  5
68A
  8
0
  6
CONTINUOUS
 62
     7
 10
434.8881202105
 20
932.1665231306
 30
0.0
  0
VERTEX
  5
68B
  8
0
  6
CONTINUOUS
 62
     7
 10
432.9369621638
 20
933.1130448896
 30
0.0
  0
VERTEX
  5
68C
  8
0
  6
CONTINUOUS
 62
     7
 10
431.0438888434
 20
934.0886239129
 30
0.0
  0
VERTEX
  5
68D
  8
0
  6
CONTINUOUS
 62
     7
 10
429.210628784
 20
935.0923363286
 30
0.0
  0
VERTEX
  5
68E
  8
0
  6
CONTINUOUS
 62
     7
 10
427.4387913111
 20
936.123288067
 30
0.0
  0
VERTEX
  5
68F
  8
0
  6
CONTINUOUS
 62
     7
 10
425.730075157
 20
937.1805254537
 30
0.0
  0
VERTEX
  5
690
  8
0
  6
CONTINUOUS
 62
     7
 10
424.0859704378
 20
938.2630650121
 30
0.0
  0
VERTEX
  5
691
  8
0
  6
CONTINUOUS
 62
     7
 10
422.5080268744
 20
939.3699530679
 30
0.0
  0
VERTEX
  5
692
  8
0
  6
CONTINUOUS
 62
     7
 10
420.9976749781
 20
940.5001465398
 30
0.0
  0
VERTEX
  5
693
  8
0
  6
CONTINUOUS
 62
     7
 10
419.5562558535
 20
941.6526619512
 30
0.0
  0
VERTEX
  5
694
  8
0
  6
CONTINUOUS
 62
     7
 10
418.1851404074
 20
942.8263966161
 30
0.0
  0
VERTEX
  5
695
  8
0
  6
CONTINUOUS
 62
     7
 10
416.885550535
 20
944.0203074533
 30
0.0
  0
VERTEX
  5
696
  8
0
  6
CONTINUOUS
 62
     7
 10
415.658648527
 20
945.2333215791
 30
0.0
  0
VERTEX
  5
697
  8
0
  6
CONTINUOUS
 62
     7
 10
414.5055966738
 20
946.464276703
 30
0.0
  0
VERTEX
  5
698
  8
0
  6
CONTINUOUS
 62
     7
 10
413.4274380568
 20
947.7120999414
 30
0.0
  0
VERTEX
  5
699
  8
0
  6
CONTINUOUS
 62
     7
 10
412.4251263502
 20
948.975658806
 30
0.0
  0
VERTEX
  5
69A
  8
0
  6
CONTINUOUS
 62
     7
 10
411.4996152285
 20
950.2537314016
 30
0.0
  0
VERTEX
  5
69B
  8
0
  6
CONTINUOUS
 62
     7
 10
410.6517093542
 20
951.5452150422
 30
0.0
  0
VERTEX
  5
69C
  8
0
  6
CONTINUOUS
 62
     7
 10
409.8822133902
 20
952.8489176351
 30
0.0
  0
VERTEX
  5
69D
  8
0
  6
CONTINUOUS
 62
     7
 10
409.1918127897
 20
954.1636470872
 30
0.0
  0
VERTEX
  5
69E
  8
0
  6
CONTINUOUS
 62
     7
 10
408.581163204
 20
955.4882113058
 30
0.0
  0
VERTEX
  5
69F
  8
0
  6
CONTINUOUS
 62
     7
 10
408.0508010748
 20
956.8213883954
 30
0.0
  0
VERTEX
  5
6A0
  8
0
  6
CONTINUOUS
 62
     7
 10
407.6012032393
 20
958.1619564611
 30
0.0
  0
VERTEX
  5
6A1
  8
0
  6
CONTINUOUS
 62
     7
 10
407.2327869299
 20
959.5087234098
 30
0.0
  0
VERTEX
  5
6A2
  8
0
  6
CONTINUOUS
 62
     7
 10
406.9459097746
 20
960.8604077417
 30
0.0
  0
VERTEX
  5
6A3
  8
0
  6
CONTINUOUS
 62
     7
 10
406.7407803896
 20
962.2158173639
 30
0.0
  0
VERTEX
  5
6A4
  8
0
  6
CONTINUOUS
 62
     7
 10
406.6176371935
 20
963.5737303811
 30
0.0
  0
VERTEX
  5
6A5
  8
0
  6
CONTINUOUS
 62
     7
 10
406.5765993956
 20
964.9328652936
 30
0.0
  0
SEQEND
  5
BEF
  8
0
  6
CONTINUOUS
 62
     7
  0
LINE
  5
12D
  8
0
  6
CONTINUOUS
 62
     7
 10
406.5765993956
 20
964.9328652936
 30
0.0
 11
406.5765993956
 21
990.9136358816
 31
0.0
  0
LINE
  5
12E
  8
0
  6
CONTINUOUS
 62
     7
 10
1096.5765970114
 20
919.9328784067
 30
0.0
 11
1096.5765970114
 21
945.9136191923
 31
0.0
  0
LINE
  5
12F
  8
0
  6
CONTINUOUS
 62
     7
 10
496.5765731695
 20
919.9328784067
 30
0.0
 11
586.2490492228
 21
919.9328784067
 31
0.0
  0
LINE
  5
130
  8
0
  6
CONTINUOUS
 62
     7
 10
650.3299134138
 20
919.9328784067
 30
0.0
 11
661.3491433027
 21
919.9328784067
 31
0.0
  0
LINE
  5
131
  8
0
  6
CONTINUOUS
 62
     7
 10
931.8040268782
 20
919.9328784067
 30
0.0
 11
942.8232567671
 21
919.9328784067
 31
0.0
  0
LINE
  5
132
  8
0
  6
CONTINUOUS
 62
     7
 10
1006.9041209582
 20
919.9328784067
 30
0.0
 11
1096.5765970114
 21
919.9328784067
 31
0.0
  0
LINE
  5
133
  8
0
  6
CONTINUOUS
 62
     7
 10
1186.5765707854
 20
990.9136358816
 30
0.0
 11
1186.5765707854
 21
964.9328652936
 31
0.0
  0
POLYLINE
  5
134
  8
0
  6
CONTINUOUS
 62
     7
 66
     1
 10
0.0
 20
0.0
 30
0.0
  0
VERTEX
  5
6A6
  8
0
  6
CONTINUOUS
 62
     7
 10
1186.5765707854
 20
964.9328652936
 30
0.0
  0
VERTEX
  5
6A7
  8
0
  6
CONTINUOUS
 62
     7
 10
1186.5355329874
 20
963.5737303811
 30
0.0
  0
VERTEX
  5
6A8
  8
0
  6
CONTINUOUS
 62
     7
 10
1186.4123897913
 20
962.2158173639
 30
0.0
  0
VERTEX
  5
6A9
  8
0
  6
CONTINUOUS
 62
     7
 10
1186.2072604063
 20
960.8604077417
 30
0.0
  0
VERTEX
  5
6AA
  8
0
  6
CONTINUOUS
 62
     7
 10
1185.920383251
 20
959.5087234098
 30
0.0
  0
VERTEX
  5
6AB
  8
0
  6
CONTINUOUS
 62
     7
 10
1185.5519669417
 20
958.1619564611
 30
0.0
  0
VERTEX
  5
6AC
  8
0
  6
CONTINUOUS
 62
     7
 10
1185.1023691061
 20
956.8213883954
 30
0.0
  0
VERTEX
  5
6AD
  8
0
  6
CONTINUOUS
 62
     7
 10
1184.5720069769
 20
955.4882113058
 30
0.0
  0
VERTEX
  5
6AE
  8
0
  6
CONTINUOUS
 62
     7
 10
1183.9613573912
 20
954.1636470872
 30
0.0
  0
VERTEX
  5
6AF
  8
0
  6
CONTINUOUS
 62
     7
 10
1183.2709567908
 20
952.8489176351
 30
0.0
  0
VERTEX
  5
6B0
  8
0
  6
CONTINUOUS
 62
     7
 10
1182.5014608267
 20
951.5452150422
 30
0.0
  0
VERTEX
  5
6B1
  8
0
  6
CONTINUOUS
 62
     7
 10
1181.6535549525
 20
950.2537314016
 30
0.0
  0
VERTEX
  5
6B2
  8
0
  6
CONTINUOUS
 62
     7
 10
1180.7280438307
 20
948.975658806
 30
0.0
  0
VERTEX
  5
6B3
  8
0
  6
CONTINUOUS
 62
     7
 10
1179.7257321242
 20
947.7120999414
 30
0.0
  0
VERTEX
  5
6B4
  8
0
  6
CONTINUOUS
 62
     7
 10
1178.6475735071
 20
946.464276703
 30
0.0
  0
VERTEX
  5
6B5
  8
0
  6
CONTINUOUS
 62
     7
 10
1177.494521654
 20
945.2333215791
 30
0.0
  0
VERTEX
  5
6B6
  8
0
  6
CONTINUOUS
 62
     7
 10
1176.2676196459
 20
944.0203074533
 30
0.0
  0
VERTEX
  5
6B7
  8
0
  6
CONTINUOUS
 62
     7
 10
1174.9680297735
 20
942.8263966161
 30
0.0
  0
VERTEX
  5
6B8
  8
0
  6
CONTINUOUS
 62
     7
 10
1173.5969143275
 20
941.6526619512
 30
0.0
  0
VERTEX
  5
6B9
  8
0
  6
CONTINUOUS
 62
     7
 10
1172.1554952028
 20
940.5001465398
 30
0.0
  0
VERTEX
  5
6BA
  8
0
  6
CONTINUOUS
 62
     7
 10
1170.6451433066
 20
939.3699530679
 30
0.0
  0
VERTEX
  5
6BB
  8
0
  6
CONTINUOUS
 62
     7
 10
1169.0671997431
 20
938.2630650121
 30
0.0
  0
VERTEX
  5
6BC
  8
0
  6
CONTINUOUS
 62
     7
 10
1167.4230950239
 20
937.1805254537
 30
0.0
  0
VERTEX
  5
6BD
  8
0
  6
CONTINUOUS
 62
     7
 10
1165.7143788698
 20
936.123288067
 30
0.0
  0
VERTEX
  5
6BE
  8
0
  6
CONTINUOUS
 62
     7
 10
1163.9425413969
 20
935.0923363286
 30
0.0
  0
VERTEX
  5
6BF
  8
0
  6
CONTINUOUS
 62
     7
 10
1162.1092813376
 20
934.0886239129
 30
0.0
  0
VERTEX
  5
6C0
  8
0
  6
CONTINUOUS
 62
     7
 10
1160.2162080172
 20
933.1130448896
 30
0.0
  0
VERTEX
  5
6C1
  8
0
  6
CONTINUOUS
 62
     7
 10
1158.2650499705
 20
932.1665231306
 30
0.0
  0
VERTEX
  5
6C2
  8
0
  6
CONTINUOUS
 62
     7
 10
1156.2576251391
 20
931.2498931009
 30
0.0
  0
VERTEX
  5
6C3
  8
0
  6
CONTINUOUS
 62
     7
 10
1154.1957514647
 20
930.3639594633
 30
0.0
  0
VERTEX
  5
6C4
  8
0
  6
CONTINUOUS
 62
     7
 10
1152.0812766913
 20
929.5096162874
 30
0.0
  0
VERTEX
  5
6C5
  8
0
  6
CONTINUOUS
 62
     7
 10
1149.9161677721
 20
928.6875490266
 30
0.0
  0
VERTEX
  5
6C6
  8
0
  6
CONTINUOUS
 62
     7
 10
1147.7024214628
 20
927.8985921461
 30
0.0
  0
VERTEX
  5
6C7
  8
0
  6
CONTINUOUS
 62
     7
 10
1145.4420047167
 20
927.1434012967
 30
0.0
  0
VERTEX
  5
6C8
  8
0
  6
CONTINUOUS
 62
     7
 10
1143.136973894
 20
926.4227215368
 30
0.0
  0
VERTEX
  5
6C9
  8
0
  6
CONTINUOUS
 62
     7
 10
1140.7895045641
 20
925.7371489126
 30
0.0
  0
VERTEX
  5
6CA
  8
0
  6
CONTINUOUS
 62
     7
 10
1138.4016828898
 20
925.0873390752
 30
0.0
  0
VERTEX
  5
6CB
  8
0
  6
CONTINUOUS
 62
     7
 10
1135.9756844404
 20
924.4738880712
 30
0.0
  0
VERTEX
  5
6CC
  8
0
  6
CONTINUOUS
 62
     7
 10
1133.5137443903
 20
923.8973621446
 30
0.0
  0
VERTEX
  5
6CD
  8
0
  6
CONTINUOUS
 62
     7
 10
1131.0180979136
 20
923.3582977373
 30
0.0
  0
VERTEX
  5
6CE
  8
0
  6
CONTINUOUS
 62
     7
 10
1128.491039789
 20
922.857141884
 30
0.0
  0
VERTEX
  5
6CF
  8
0
  6
CONTINUOUS
 62
     7
 10
1125.9348349932
 20
922.3943714219
 30
0.0
  0
VERTEX
  5
6D0
  8
0
  6
CONTINUOUS
 62
     7
 10
1123.3518677119
 20
921.970433386
 30
0.0
  0
VERTEX
  5
6D1
  8
0
  6
CONTINUOUS
 62
     7
 10
1120.7444625262
 20
921.585685404
 30
0.0
  0
VERTEX
  5
6D2
  8
0
  6
CONTINUOUS
 62
     7
 10
1118.1150036219
 20
921.2404851037
 30
0.0
  0
VERTEX
  5
6D3
  8
0
  6
CONTINUOUS
 62
     7
 10
1115.4658751848
 20
920.9351603109
 30
0.0
  0
VERTEX
  5
6D4
  8
0
  6
CONTINUOUS
 62
     7
 10
1112.7995508078
 20
920.6699792463
 30
0.0
  0
VERTEX
  5
6D5
  8
0
  6
CONTINUOUS
 62
     7
 10
1110.1183848742
 20
920.4451803285
 30
0.0
  0
VERTEX
  5
6D6
  8
0
  6
CONTINUOUS
 62
     7
 10
1107.4248807791
 20
920.2609721738
 30
0.0
  0
VERTEX
  5
6D7
  8
0
  6
CONTINUOUS
 62
     7
 10
1104.721482313
 20
920.1175335962
 30
0.0
  0
VERTEX
  5
6D8
  8
0
  6
CONTINUOUS
 62
     7
 10
1102.0106630686
 20
920.0149540025
 30
0.0
  0
VERTEX
  5
6D9
  8
0
  6
CONTINUOUS
 62
     7
 10
1099.2948668364
 20
919.9533824045
 30
0.0
  0
VERTEX
  5
6DA
  8
0
  6
CONTINUOUS
 62
     7
 10
1096.5765970114
 20
919.9328784067
 30
0.0
  0
SEQEND
  5
BEE
  8
0
  6
CONTINUOUS
 62
     7
  0
LINE
  5
135
  8
0
  6
CONTINUOUS
 62
     7
 10
1039.5765858057
 20
1021.3751558381
 30
0.0
 11
1039.5765858057
 21
969.4136146623
 31
0.0
  0
LINE
  5
136
  8
0
  6
CONTINUOUS
 62
     7
 10
553.5765843752
 20
1021.3751558381
 30
0.0
 11
553.5765843752
 21
969.4136146623
 31
0.0
  0
POLYLINE
  5
137
  8
0
  6
CONTINUOUS
 62
     7
 66
     1
 10
0.0
 20
0.0
 30
0.0
  0
VERTEX
  5
6DB
  8
0
  6
CONTINUOUS
 62
     7
 10
496.5765731695
 20
887.9416052419
 30
0.0
  0
VERTEX
  5
6DC
  8
0
  6
CONTINUOUS
 62
     7
 10
493.8583033446
 20
887.962139042
 30
0.0
  0
VERTEX
  5
6DD
  8
0
  6
CONTINUOUS
 62
     7
 10
491.1425071123
 20
888.0236808378
 30
0.0
  0
VERTEX
  5
6DE
  8
0
  6
CONTINUOUS
 62
     7
 10
488.4316878679
 20
888.1262604314
 30
0.0
  0
VERTEX
  5
6DF
  8
0
  6
CONTINUOUS
 62
     7
 10
485.7282894018
 20
888.2696990091
 30
0.0
  0
VERTEX
  5
6E0
  8
0
  6
CONTINUOUS
 62
     7
 10
483.0347853068
 20
888.4539071638
 30
0.0
  0
VERTEX
  5
6E1
  8
0
  6
CONTINUOUS
 62
     7
 10
480.3536193732
 20
888.6787060815
 30
0.0
  0
VERTEX
  5
6E2
  8
0
  6
CONTINUOUS
 62
     7
 10
477.6872949961
 20
888.9438871461
 30
0.0
  0
VERTEX
  5
6E3
  8
0
  6
CONTINUOUS
 62
     7
 10
475.0381665591
 20
889.249211939
 30
0.0
  0
VERTEX
  5
6E4
  8
0
  6
CONTINUOUS
 62
     7
 10
472.4087076548
 20
889.5944122392
 30
0.0
  0
VERTEX
  5
6E5
  8
0
  6
CONTINUOUS
 62
     7
 10
469.8013024691
 20
889.9791602212
 30
0.0
  0
VERTEX
  5
6E6
  8
0
  6
CONTINUOUS
 62
     7
 10
467.2183351877
 20
890.4030982572
 30
0.0
  0
VERTEX
  5
6E7
  8
0
  6
CONTINUOUS
 62
     7
 10
464.6621303919
 20
890.8658687192
 30
0.0
  0
VERTEX
  5
6E8
  8
0
  6
CONTINUOUS
 62
     7
 10
462.1350722674
 20
891.3670245725
 30
0.0
  0
VERTEX
  5
6E9
  8
0
  6
CONTINUOUS
 62
     7
 10
459.6394257906
 20
891.9060889799
 30
0.0
  0
VERTEX
  5
6EA
  8
0
  6
CONTINUOUS
 62
     7
 10
457.1774857405
 20
892.4826149064
 30
0.0
  0
VERTEX
  5
6EB
  8
0
  6
CONTINUOUS
 62
     7
 10
454.7514872912
 20
893.0960659105
 30
0.0
  0
VERTEX
  5
6EC
  8
0
  6
CONTINUOUS
 62
     7
 10
452.3636656168
 20
893.7458757478
 30
0.0
  0
VERTEX
  5
6ED
  8
0
  6
CONTINUOUS
 62
     7
 10
450.016196287
 20
894.431448372
 30
0.0
  0
VERTEX
  5
6EE
  8
0
  6
CONTINUOUS
 62
     7
 10
447.7111654642
 20
895.152128132
 30
0.0
  0
VERTEX
  5
6EF
  8
0
  6
CONTINUOUS
 62
     7
 10
445.4507487181
 20
895.9073189813
 30
0.0
  0
VERTEX
  5
6F0
  8
0
  6
CONTINUOUS
 62
     7
 10
443.2370024088
 20
896.6963056642
 30
0.0
  0
VERTEX
  5
6F1
  8
0
  6
CONTINUOUS
 62
     7
 10
441.0718934897
 20
897.5183431226
 30
0.0
  0
VERTEX
  5
6F2
  8
0
  6
CONTINUOUS
 62
     7
 10
438.9574187163
 20
898.3727161008
 30
0.0
  0
VERTEX
  5
6F3
  8
0
  6
CONTINUOUS
 62
     7
 10
436.8955450419
 20
899.2586199361
 30
0.0
  0
VERTEX
  5
6F4
  8
0
  6
CONTINUOUS
 62
     7
 10
434.8881202105
 20
900.1752499658
 30
0.0
  0
VERTEX
  5
6F5
  8
0
  6
CONTINUOUS
 62
     7
 10
432.9369621638
 20
901.1218015272
 30
0.0
  0
VERTEX
  5
6F6
  8
0
  6
CONTINUOUS
 62
     7
 10
431.0438888434
 20
902.0973507482
 30
0.0
  0
VERTEX
  5
6F7
  8
0
  6
CONTINUOUS
 62
     7
 10
429.210628784
 20
903.1010631639
 30
0.0
  0
VERTEX
  5
6F8
  8
0
  6
CONTINUOUS
 62
     7
 10
427.4387913111
 20
904.1320149022
 30
0.0
  0
VERTEX
  5
6F9
  8
0
  6
CONTINUOUS
 62
     7
 10
425.730075157
 20
905.189252289
 30
0.0
  0
VERTEX
  5
6FA
  8
0
  6
CONTINUOUS
 62
     7
 10
424.0859704378
 20
906.2717918474
 30
0.0
  0
VERTEX
  5
6FB
  8
0
  6
CONTINUOUS
 62
     7
 10
422.5080268744
 20
907.3786799032
 30
0.0
  0
VERTEX
  5
6FC
  8
0
  6
CONTINUOUS
 62
     7
 10
420.9976749781
 20
908.5089031774
 30
0.0
  0
VERTEX
  5
6FD
  8
0
  6
CONTINUOUS
 62
     7
 10
419.5562558535
 20
909.6613887864
 30
0.0
  0
VERTEX
  5
6FE
  8
0
  6
CONTINUOUS
 62
     7
 10
418.1851404074
 20
910.8351234514
 30
0.0
  0
VERTEX
  5
6FF
  8
0
  6
CONTINUOUS
 62
     7
 10
416.885550535
 20
912.0290640909
 30
0.0
  0
VERTEX
  5
700
  8
0
  6
CONTINUOUS
 62
     7
 10
415.658648527
 20
913.2420484144
 30
0.0
  0
VERTEX
  5
701
  8
0
  6
CONTINUOUS
 62
     7
 10
414.5055966738
 20
914.4730035383
 30
0.0
  0
VERTEX
  5
702
  8
0
  6
CONTINUOUS
 62
     7
 10
413.4274380568
 20
915.7208267766
 30
0.0
  0
VERTEX
  5
703
  8
0
  6
CONTINUOUS
 62
     7
 10
412.4251263502
 20
916.9843856412
 30
0.0
  0
VERTEX
  5
704
  8
0
  6
CONTINUOUS
 62
     7
 10
411.4996152285
 20
918.2624582368
 30
0.0
  0
VERTEX
  5
705
  8
0
  6
CONTINUOUS
 62
     7
 10
410.6517093542
 20
919.5539716798
 30
0.0
  0
VERTEX
  5
706
  8
0
  6
CONTINUOUS
 62
     7
 10
409.8822133902
 20
920.8576742727
 30
0.0
  0
VERTEX
  5
707
  8
0
  6
CONTINUOUS
 62
     7
 10
409.1918127897
 20
922.1724037248
 30
0.0
  0
VERTEX
  5
708
  8
0
  6
CONTINUOUS
 62
     7
 10
408.581163204
 20
923.496938141
 30
0.0
  0
VERTEX
  5
709
  8
0
  6
CONTINUOUS
 62
     7
 10
408.0508010748
 20
924.8301152307
 30
0.0
  0
VERTEX
  5
70A
  8
0
  6
CONTINUOUS
 62
     7
 10
407.6012032393
 20
926.1706832963
 30
0.0
  0
VERTEX
  5
70B
  8
0
  6
CONTINUOUS
 62
     7
 10
407.2327869299
 20
927.517450245
 30
0.0
  0
VERTEX
  5
70C
  8
0
  6
CONTINUOUS
 62
     7
 10
406.9459097746
 20
928.8691345769
 30
0.0
  0
VERTEX
  5
70D
  8
0
  6
CONTINUOUS
 62
     7
 10
406.7407803896
 20
930.2245740014
 30
0.0
  0
VERTEX
  5
70E
  8
0
  6
CONTINUOUS
 62
     7
 10
406.6176371935
 20
931.5824572164
 30
0.0
  0
VERTEX
  5
70F
  8
0
  6
CONTINUOUS
 62
     7
 10
406.5765993956
 20
932.9415921289
 30
0.0
  0
SEQEND
  5
BED
  8
0
  6
CONTINUOUS
 62
     7
  0
LINE
  5
138
  8
0
  6
CONTINUOUS
 62
     7
 10
406.5765993956
 20
932.9415921289
 30
0.0
 11
406.5765993956
 21
964.9328652936
 31
0.0
  0
LINE
  5
139
  8
0
  6
CONTINUOUS
 62
     7
 10
548.1606977347
 20
887.9416052419
 30
0.0
 11
496.5765731695
 21
887.9416052419
 31
0.0
  0
LINE
  5
13A
  8
0
  6
CONTINUOUS
 62
     7
 10
1096.5765970114
 20
887.9416052419
 30
0.0
 11
1044.9924724463
 21
887.9416052419
 31
0.0
  0
LINE
  5
13B
  8
0
  6
CONTINUOUS
 62
     7
 10
1186.5765707854
 20
964.9328652936
 30
0.0
 11
1186.5765707854
 21
932.9415921289
 31
0.0
  0
POLYLINE
  5
13C
  8
0
  6
CONTINUOUS
 62
     7
 66
     1
 10
0.0
 20
0.0
 30
0.0
  0
VERTEX
  5
710
  8
0
  6
CONTINUOUS
 62
     7
 10
1186.5765707854
 20
932.9415921289
 30
0.0
  0
VERTEX
  5
711
  8
0
  6
CONTINUOUS
 62
     7
 10
1186.5355329874
 20
931.5824572164
 30
0.0
  0
VERTEX
  5
712
  8
0
  6
CONTINUOUS
 62
     7
 10
1186.4123897913
 20
930.2245740014
 30
0.0
  0
VERTEX
  5
713
  8
0
  6
CONTINUOUS
 62
     7
 10
1186.2072604063
 20
928.8691345769
 30
0.0
  0
VERTEX
  5
714
  8
0
  6
CONTINUOUS
 62
     7
 10
1185.920383251
 20
927.517450245
 30
0.0
  0
VERTEX
  5
715
  8
0
  6
CONTINUOUS
 62
     7
 10
1185.5519669417
 20
926.1706832963
 30
0.0
  0
VERTEX
  5
716
  8
0
  6
CONTINUOUS
 62
     7
 10
1185.1023691061
 20
924.8301152307
 30
0.0
  0
VERTEX
  5
717
  8
0
  6
CONTINUOUS
 62
     7
 10
1184.5720069769
 20
923.496938141
 30
0.0
  0
VERTEX
  5
718
  8
0
  6
CONTINUOUS
 62
     7
 10
1183.9613573912
 20
922.1724037248
 30
0.0
  0
VERTEX
  5
719
  8
0
  6
CONTINUOUS
 62
     7
 10
1183.2709567908
 20
920.8576742727
 30
0.0
  0
VERTEX
  5
71A
  8
0
  6
CONTINUOUS
 62
     7
 10
1182.5014608267
 20
919.5539716798
 30
0.0
  0
VERTEX
  5
71B
  8
0
  6
CONTINUOUS
 62
     7
 10
1181.6535549525
 20
918.2624582368
 30
0.0
  0
VERTEX
  5
71C
  8
0
  6
CONTINUOUS
 62
     7
 10
1180.7280438307
 20
916.9843856412
 30
0.0
  0
VERTEX
  5
71D
  8
0
  6
CONTINUOUS
 62
     7
 10
1179.7257321242
 20
915.7208267766
 30
0.0
  0
VERTEX
  5
71E
  8
0
  6
CONTINUOUS
 62
     7
 10
1178.6475735071
 20
914.4730035383
 30
0.0
  0
VERTEX
  5
71F
  8
0
  6
CONTINUOUS
 62
     7
 10
1177.494521654
 20
913.2420484144
 30
0.0
  0
VERTEX
  5
720
  8
0
  6
CONTINUOUS
 62
     7
 10
1176.2676196459
 20
912.0290640909
 30
0.0
  0
VERTEX
  5
721
  8
0
  6
CONTINUOUS
 62
     7
 10
1174.9680297735
 20
910.8351234514
 30
0.0
  0
VERTEX
  5
722
  8
0
  6
CONTINUOUS
 62
     7
 10
1173.5969143275
 20
909.6613887864
 30
0.0
  0
VERTEX
  5
723
  8
0
  6
CONTINUOUS
 62
     7
 10
1172.1554952028
 20
908.5089031774
 30
0.0
  0
VERTEX
  5
724
  8
0
  6
CONTINUOUS
 62
     7
 10
1170.6451433066
 20
907.3786799032
 30
0.0
  0
VERTEX
  5
725
  8
0
  6
CONTINUOUS
 62
     7
 10
1169.0671997431
 20
906.2717918474
 30
0.0
  0
VERTEX
  5
726
  8
0
  6
CONTINUOUS
 62
     7
 10
1167.4230950239
 20
905.189252289
 30
0.0
  0
VERTEX
  5
727
  8
0
  6
CONTINUOUS
 62
     7
 10
1165.7143788698
 20
904.1320149022
 30
0.0
  0
VERTEX
  5
728
  8
0
  6
CONTINUOUS
 62
     7
 10
1163.9425413969
 20
903.1010631639
 30
0.0
  0
VERTEX
  5
729
  8
0
  6
CONTINUOUS
 62
     7
 10
1162.1092813376
 20
902.0973507482
 30
0.0
  0
VERTEX
  5
72A
  8
0
  6
CONTINUOUS
 62
     7
 10
1160.2162080172
 20
901.1218015272
 30
0.0
  0
VERTEX
  5
72B
  8
0
  6
CONTINUOUS
 62
     7
 10
1158.2650499705
 20
900.1752499658
 30
0.0
  0
VERTEX
  5
72C
  8
0
  6
CONTINUOUS
 62
     7
 10
1156.2576251391
 20
899.2586199361
 30
0.0
  0
VERTEX
  5
72D
  8
0
  6
CONTINUOUS
 62
     7
 10
1154.1957514647
 20
898.3727161008
 30
0.0
  0
VERTEX
  5
72E
  8
0
  6
CONTINUOUS
 62
     7
 10
1152.0812766913
 20
897.5183431226
 30
0.0
  0
VERTEX
  5
72F
  8
0
  6
CONTINUOUS
 62
     7
 10
1149.9161677721
 20
896.6963056642
 30
0.0
  0
VERTEX
  5
730
  8
0
  6
CONTINUOUS
 62
     7
 10
1147.7024214628
 20
895.9073189813
 30
0.0
  0
VERTEX
  5
731
  8
0
  6
CONTINUOUS
 62
     7
 10
1145.4420047167
 20
895.152128132
 30
0.0
  0
VERTEX
  5
732
  8
0
  6
CONTINUOUS
 62
     7
 10
1143.136973894
 20
894.431448372
 30
0.0
  0
VERTEX
  5
733
  8
0
  6
CONTINUOUS
 62
     7
 10
1140.7895045641
 20
893.7458757478
 30
0.0
  0
VERTEX
  5
734
  8
0
  6
CONTINUOUS
 62
     7
 10
1138.4016828898
 20
893.0960659105
 30
0.0
  0
VERTEX
  5
735
  8
0
  6
CONTINUOUS
 62
     7
 10
1135.9756844404
 20
892.4826149064
 30
0.0
  0
VERTEX
  5
736
  8
0
  6
CONTINUOUS
 62
     7
 10
1133.5137443903
 20
891.9060889799
 30
0.0
  0
VERTEX
  5
737
  8
0
  6
CONTINUOUS
 62
     7
 10
1131.0180979136
 20
891.3670245725
 30
0.0
  0
VERTEX
  5
738
  8
0
  6
CONTINUOUS
 62
     7
 10
1128.491039789
 20
890.8658687192
 30
0.0
  0
VERTEX
  5
739
  8
0
  6
CONTINUOUS
 62
     7
 10
1125.9348349932
 20
890.4030982572
 30
0.0
  0
VERTEX
  5
73A
  8
0
  6
CONTINUOUS
 62
     7
 10
1123.3518677119
 20
889.9791602212
 30
0.0
  0
VERTEX
  5
73B
  8
0
  6
CONTINUOUS
 62
     7
 10
1120.7444625262
 20
889.5944122392
 30
0.0
  0
VERTEX
  5
73C
  8
0
  6
CONTINUOUS
 62
     7
 10
1118.1150036219
 20
889.249211939
 30
0.0
  0
VERTEX
  5
73D
  8
0
  6
CONTINUOUS
 62
     7
 10
1115.4658751848
 20
888.9438871461
 30
0.0
  0
VERTEX
  5
73E
  8
0
  6
CONTINUOUS
 62
     7
 10
1112.7995508078
 20
888.6787060815
 30
0.0
  0
VERTEX
  5
73F
  8
0
  6
CONTINUOUS
 62
     7
 10
1110.1183848742
 20
888.4539071638
 30
0.0
  0
VERTEX
  5
740
  8
0
  6
CONTINUOUS
 62
     7
 10
1107.4248807791
 20
888.2696990091
 30
0.0
  0
VERTEX
  5
741
  8
0
  6
CONTINUOUS
 62
     7
 10
1104.721482313
 20
888.1262604314
 30
0.0
  0
VERTEX
  5
742
  8
0
  6
CONTINUOUS
 62
     7
 10
1102.0106630686
 20
888.0236808378
 30
0.0
  0
VERTEX
  5
743
  8
0
  6
CONTINUOUS
 62
     7
 10
1099.2948668364
 20
887.962139042
 30
0.0
  0
VERTEX
  5
744
  8
0
  6
CONTINUOUS
 62
     7
 10
1096.5765970114
 20
887.9416052419
 30
0.0
  0
SEQEND
  5
BEC
  8
0
  6
CONTINUOUS
 62
     7
  0
LINE
  5
13D
  8
0
  6
CONTINUOUS
 62
     7
 10
469.5765929583
 20
1032.8751567918
 30
0.0
 11
553.5765843752
 21
1032.8751567918
 31
0.0
  0
LINE
  5
13E
  8
0
  6
CONTINUOUS
 62
     7
 10
469.5765929583
 20
1122.8751603681
 30
0.0
 11
469.5765929583
 21
1032.8751567918
 31
0.0
  0
LINE
  5
13F
  8
0
  6
CONTINUOUS
 62
     7
 10
1123.5765772227
 20
1122.8751603681
 30
0.0
 11
1123.5765772227
 21
1032.8751567918
 31
0.0
  0
LINE
  5
140
  8
0
  6
CONTINUOUS
 62
     7
 10
1123.5765772227
 20
1032.8751567918
 30
0.0
 11
1039.5765858057
 21
1032.8751567918
 31
0.0
  0
LINE
  5
141
  8
0
  6
CONTINUOUS
 62
     7
 10
469.5765929583
 20
1032.8751567918
 30
0.0
 11
469.5765929583
 21
980.913615616
 31
0.0
  0
LINE
  5
142
  8
0
  6
CONTINUOUS
 62
     7
 10
1123.5765772227
 20
1032.8751567918
 30
0.0
 11
1123.5765772227
 21
980.913615616
 31
0.0
  0
LINE
  5
143
  8
0
  6
CONTINUOUS
 62
     7
 10
463.5765807989
 20
1037.8751520234
 30
0.0
 11
469.5765929583
 21
1037.8751520234
 31
0.0
  0
LINE
  5
144
  8
0
  6
CONTINUOUS
 62
     7
 10
463.5765807989
 20
1112.8751401025
 30
0.0
 11
463.5765807989
 21
1037.8751520234
 31
0.0
  0
LINE
  5
145
  8
0
  6
CONTINUOUS
 62
     7
 10
1129.576589382
 20
1112.8751401025
 30
0.0
 11
1129.576589382
 21
1037.8751520234
 31
0.0
  0
LINE
  5
146
  8
0
  6
CONTINUOUS
 62
     7
 10
1129.576589382
 20
1037.8751520234
 30
0.0
 11
1123.5765772227
 21
1037.8751520234
 31
0.0
  0
LINE
  5
147
  8
0
  6
CONTINUOUS
 62
     7
 10
1129.576589382
 20
1103.4401122648
 30
0.0
 11
1149.5765703085
 21
1103.4401122648
 31
0.0
  0
LINE
  5
148
  8
0
  6
CONTINUOUS
 62
     7
 10
1149.5765703085
 20
1103.4401122648
 30
0.0
 11
1149.5765703085
 21
1063.9554921705
 31
0.0
  0
LINE
  5
149
  8
0
  6
CONTINUOUS
 62
     7
 10
1129.576589382
 20
1063.9554921705
 30
0.0
 11
1149.5765703085
 21
1063.9554921705
 31
0.0
  0
LINE
  5
14A
  8
0
  6
CONTINUOUS
 62
     7
 10
1149.5765703085
 20
1063.9554921705
 30
0.0
 11
1149.5765703085
 21
1026.9062880594
 31
0.0
  0
LINE
  5
14B
  8
0
  6
CONTINUOUS
 62
     7
 10
1129.576589382
 20
1026.9062880594
 30
0.0
 11
1149.5765703085
 21
1026.9062880594
 31
0.0
  0
LINE
  5
14C
  8
0
  6
CONTINUOUS
 62
     7
 10
463.5765807989
 20
1037.8751520234
 30
0.0
 11
463.5765807989
 21
985.9136406499
 31
0.0
  0
LINE
  5
14D
  8
0
  6
CONTINUOUS
 62
     7
 10
1129.576589382
 20
1037.8751520234
 30
0.0
 11
1129.576589382
 21
985.9136406499
 31
0.0
  0
LINE
  5
14E
  8
0
  6
CONTINUOUS
 62
     7
 10
1289.5324485663
 20
1080.5683199483
 30
0.0
 11
1289.5324485663
 21
1031.3909117299
 31
0.0
  0
LINE
  5
14F
  8
0
  6
CONTINUOUS
 62
     7
 10
1289.5324485663
 20
1101.3909343797
 30
0.0
 11
1289.5324485663
 21
1080.5683199483
 31
0.0
  0
LINE
  5
150
  8
0
  6
CONTINUOUS
 62
     7
 10
1239.5324366453
 20
1080.5683199483
 30
0.0
 11
1239.5324366453
 21
1031.3909117299
 31
0.0
  0
LINE
  5
151
  8
0
  6
CONTINUOUS
 62
     7
 10
1239.5324366453
 20
1101.3909343797
 30
0.0
 11
1239.5324366453
 21
1080.5683199483
 31
0.0
  0
LINE
  5
152
  8
0
  6
CONTINUOUS
 62
     7
 10
1129.576589382
 20
1105.8755580503
 30
0.0
 11
1149.5765703085
 21
1105.8755580503
 31
0.0
  0
LINE
  5
153
  8
0
  6
CONTINUOUS
 62
     7
 10
1149.5765703085
 20
1105.8755580503
 30
0.0
 11
1149.5765703085
 21
1103.4401122648
 31
0.0
  0
LINE
  5
154
  8
0
  6
CONTINUOUS
 62
     7
 10
819.0765859845
 20
1148.9778820592
 30
0.0
 11
774.0765841964
 21
1148.9778820592
 31
0.0
  0
LINE
  5
155
  8
0
  6
CONTINUOUS
 62
     7
 10
1289.5324485663
 20
1082.6246205884
 30
0.0
 11
1319.0390127066
 21
1081.6256765443
 31
0.0
  0
LINE
  5
156
  8
0
  6
CONTINUOUS
 62
     7
 10
1319.0390127066
 20
1081.6256765443
 30
0.0
 11
1319.0390127066
 21
1067.2826532442
 31
0.0
  0
LINE
  5
157
  8
0
  6
CONTINUOUS
 62
     7
 10
1289.5324485663
 20
1067.3411254007
 30
0.0
 11
1319.0390127066
 21
1067.2826532442
 31
0.0
  0
LINE
  5
158
  8
0
  6
CONTINUOUS
 62
     7
 10
1289.5324485663
 20
1051.1074427682
 30
0.0
 11
1319.0390127066
 21
1052.0479146558
 31
0.0
  0
LINE
  5
159
  8
0
  6
CONTINUOUS
 62
     7
 10
1319.0390127066
 20
1067.2826532442
 30
0.0
 11
1319.0390127066
 21
1052.0479146558
 31
0.0
  0
LINE
  5
15A
  8
0
  6
CONTINUOUS
 62
     7
 10
1289.5324485663
 20
1050.1572255212
 30
0.0
 11
1319.0390127066
 21
1051.1561695653
 31
0.0
  0
LINE
  5
15B
  8
0
  6
CONTINUOUS
 62
     7
 10
1319.0390127066
 20
1052.0479146558
 30
0.0
 11
1319.0390127066
 21
1051.1561695653
 31
0.0
  0
LINE
  5
15C
  8
0
  6
CONTINUOUS
 62
     7
 10
1139.5765798453
 20
893.4099737722
 30
0.0
 11
1139.5765798453
 21
731.633744033
 31
0.0
  0
LINE
  5
15D
  8
0
  6
CONTINUOUS
 62
     7
 10
453.5765903357
 20
731.633744033
 30
0.0
 11
453.5765903357
 21
893.4099737722
 31
0.0
  0
LINE
  5
15E
  8
0
  6
CONTINUOUS
 62
     7
 10
1277.0324306849
 20
1031.3909117299
 30
0.0
 11
1277.0324306849
 21
869.8296908456
 31
0.0
  0
LINE
  5
15F
  8
0
  6
CONTINUOUS
 62
     7
 10
1277.0324306849
 20
869.8296908456
 30
0.0
 11
1252.0324545267
 21
869.8296908456
 31
0.0
  0
LINE
  5
160
  8
0
  6
CONTINUOUS
 62
     7
 10
1252.0324545267
 20
1031.3909117299
 30
0.0
 11
1252.0324545267
 21
869.8296908456
 31
0.0
  0
LINE
  5
161
  8
0
  6
CONTINUOUS
 62
     7
 10
486.5765827063
 20
1157.1016375142
 30
0.0
 11
506.5765934351
 21
1157.1016375142
 31
0.0
  0
LINE
  5
162
  8
0
  6
CONTINUOUS
 62
     7
 10
486.5765827063
 20
1197.1016589719
 30
0.0
 11
486.5765827063
 21
1157.1016375142
 31
0.0
  0
LINE
  5
163
  8
0
  6
CONTINUOUS
 62
     7
 10
506.5765934351
 20
1197.1016589719
 30
0.0
 11
506.5765934351
 21
1157.1016375142
 31
0.0
  0
LINE
  5
164
  8
0
  6
CONTINUOUS
 62
     7
 10
486.5765827063
 20
1157.1016375142
 30
0.0
 11
486.5765827063
 21
1122.8751603681
 31
0.0
  0
LINE
  5
165
  8
0
  6
CONTINUOUS
 62
     7
 10
506.5765934351
 20
1157.1016375142
 30
0.0
 11
506.5765934351
 21
1122.8751603681
 31
0.0
  0
LINE
  5
166
  8
0
  6
CONTINUOUS
 62
     7
 10
1106.5765874747
 20
1157.1016375142
 30
0.0
 11
1086.5765767458
 21
1157.1016375142
 31
0.0
  0
LINE
  5
167
  8
0
  6
CONTINUOUS
 62
     7
 10
1106.5765874747
 20
1157.1016375142
 30
0.0
 11
1106.5765874747
 21
1122.8751603681
 31
0.0
  0
LINE
  5
168
  8
0
  6
CONTINUOUS
 62
     7
 10
1086.5765767458
 20
1157.1016375142
 30
0.0
 11
1086.5765767458
 21
1122.8751603681
 31
0.0
  0
LINE
  5
169
  8
0
  6
CONTINUOUS
 62
     7
 10
1106.5765874747
 20
1197.1016589719
 30
0.0
 11
1106.5765874747
 21
1157.1016375142
 31
0.0
  0
LINE
  5
16A
  8
0
  6
CONTINUOUS
 62
     7
 10
1086.5765767458
 20
1197.1016589719
 30
0.0
 11
1086.5765767458
 21
1157.1016375142
 31
0.0
  0
LINE
  5
16B
  8
0
  6
CONTINUOUS
 62
     7
 10
1315.5324118498
 20
799.4296465236
 30
0.0
 11
1213.5324435595
 21
799.4296465236
 31
0.0
  0
LINE
  5
16C
  8
0
  6
CONTINUOUS
 62
     7
 10
1315.5324118498
 20
799.4296465236
 30
0.0
 11
1315.5324118498
 21
766.4457772094
 31
0.0
  0
LINE
  5
16D
  8
0
  6
CONTINUOUS
 62
     7
 10
1315.5324118498
 20
766.4457772094
 30
0.0
 11
1213.5324435595
 21
766.4457772094
 31
0.0
  0
LINE
  5
16E
  8
0
  6
CONTINUOUS
 62
     7
 10
1213.5324435595
 20
799.4296465236
 30
0.0
 11
1213.5324435595
 21
766.4457772094
 31
0.0
  0
LINE
  5
16F
  8
0
  6
CONTINUOUS
 62
     7
 10
1315.5324118498
 20
985.9440390188
 30
0.0
 11
1315.5324118498
 21
799.4296465236
 31
0.0
  0
LINE
  5
170
  8
0
  6
CONTINUOUS
 62
     7
 10
1213.5324435595
 20
985.9440390188
 30
0.0
 11
1213.5324435595
 21
799.4296465236
 31
0.0
  0
LINE
  5
171
  8
0
  6
CONTINUOUS
 62
     7
 10
1315.5324118498
 20
745.3821961004
 30
0.0
 11
1213.5324435595
 21
745.3821961004
 31
0.0
  0
LINE
  5
172
  8
0
  6
CONTINUOUS
 62
     7
 10
1315.5324118498
 20
766.4457772094
 30
0.0
 11
1315.5324118498
 21
745.3821961004
 31
0.0
  0
LINE
  5
173
  8
0
  6
CONTINUOUS
 62
     7
 10
1213.5324435595
 20
766.4457772094
 30
0.0
 11
1213.5324435595
 21
745.3821961004
 31
0.0
  0
LINE
  5
174
  8
0
  6
CONTINUOUS
 62
     7
 10
1315.5324118498
 20
745.3821961004
 30
0.0
 11
1315.5324118498
 21
743.239349516
 31
0.0
  0
LINE
  5
175
  8
0
  6
CONTINUOUS
 62
     7
 10
1213.5324435595
 20
745.3821961004
 30
0.0
 11
1213.5324435595
 21
743.239349516
 31
0.0
  0
LINE
  5
176
  8
0
  6
CONTINUOUS
 62
     7
 10
1315.5324118498
 20
1000.8173052389
 30
0.0
 11
1315.5324118498
 21
985.9440390188
 31
0.0
  0
LINE
  5
177
  8
0
  6
CONTINUOUS
 62
     7
 10
1213.5324435595
 20
1000.8173052389
 30
0.0
 11
1213.5324435595
 21
985.9440390188
 31
0.0
  0
LINE
  5
178
  8
0
  6
CONTINUOUS
 62
     7
 10
1315.5324118498
 20
743.239349516
 30
0.0
 11
1315.5324118498
 21
725.1287538725
 31
0.0
  0
LINE
  5
179
  8
0
  6
CONTINUOUS
 62
     7
 10
1315.5324118498
 20
725.1287538725
 30
0.0
 11
1213.5324435595
 21
725.1287538725
 31
0.0
  0
LINE
  5
17A
  8
0
  6
CONTINUOUS
 62
     7
 10
1213.5324435595
 20
743.239349516
 30
0.0
 11
1213.5324435595
 21
725.1287538725
 31
0.0
  0
LINE
  5
17B
  8
0
  6
CONTINUOUS
 62
     7
 10
1315.5324118498
 20
704.0651802141
 30
0.0
 11
1213.5324435595
 21
704.0651802141
 31
0.0
  0
LINE
  5
17C
  8
0
  6
CONTINUOUS
 62
     7
 10
1315.5324118498
 20
725.1287538725
 30
0.0
 11
1315.5324118498
 21
704.0651802141
 31
0.0
  0
LINE
  5
17D
  8
0
  6
CONTINUOUS
 62
     7
 10
1213.5324435595
 20
725.1287538725
 30
0.0
 11
1213.5324435595
 21
704.0651802141
 31
0.0
  0
LINE
  5
17E
  8
0
  6
CONTINUOUS
 62
     7
 10
1315.5324118498
 20
704.0651802141
 30
0.0
 11
1315.5324118498
 21
701.9223336297
 31
0.0
  0
LINE
  5
17F
  8
0
  6
CONTINUOUS
 62
     7
 10
1213.5324435595
 20
704.0651802141
 30
0.0
 11
1213.5324435595
 21
701.9223336297
 31
0.0
  0
LINE
  5
180
  8
0
  6
CONTINUOUS
 62
     7
 10
1315.5324118498
 20
701.9223336297
 30
0.0
 11
1315.5324118498
 21
683.8117379862
 31
0.0
  0
LINE
  5
181
  8
0
  6
CONTINUOUS
 62
     7
 10
1315.5324118498
 20
683.8117379862
 30
0.0
 11
1213.5324435595
 21
683.8117379862
 31
0.0
  0
LINE
  5
182
  8
0
  6
CONTINUOUS
 62
     7
 10
1213.5324435595
 20
701.9223336297
 30
0.0
 11
1213.5324435595
 21
683.8117379862
 31
0.0
  0
LINE
  5
183
  8
0
  6
CONTINUOUS
 62
     7
 10
1315.5324118498
 20
662.7481568772
 30
0.0
 11
1213.5324435595
 21
662.7481568772
 31
0.0
  0
LINE
  5
184
  8
0
  6
CONTINUOUS
 62
     7
 10
1315.5324118498
 20
683.8117379862
 30
0.0
 11
1315.5324118498
 21
662.7481568772
 31
0.0
  0
LINE
  5
185
  8
0
  6
CONTINUOUS
 62
     7
 10
1213.5324435595
 20
683.8117379862
 30
0.0
 11
1213.5324435595
 21
662.7481568772
 31
0.0
  0
LINE
  5
186
  8
0
  6
CONTINUOUS
 62
     7
 10
1315.5324118498
 20
662.7481568772
 30
0.0
 11
1315.5324118498
 21
660.6053140181
 31
0.0
  0
LINE
  5
187
  8
0
  6
CONTINUOUS
 62
     7
 10
1213.5324435595
 20
662.7481568772
 30
0.0
 11
1213.5324435595
 21
660.6053140181
 31
0.0
  0
LINE
  5
188
  8
0
  6
CONTINUOUS
 62
     7
 10
496.5765731695
 20
919.9328784067
 30
0.0
 11
496.5765731695
 21
887.9416052419
 31
0.0
  0
LINE
  5
189
  8
0
  6
CONTINUOUS
 62
     7
 10
1096.5765970114
 20
887.9416052419
 30
0.0
 11
1096.5765970114
 21
919.9328784067
 31
0.0
  0
LINE
  5
18A
  8
0
  6
CONTINUOUS
 62
     7
 10
1315.5324118498
 20
985.9440390188
 30
0.0
 11
1277.0324306849
 21
985.9440390188
 31
0.0
  0
LINE
  5
18B
  8
0
  6
CONTINUOUS
 62
     7
 10
1252.0324545267
 20
985.9440390188
 30
0.0
 11
1213.5324435595
 21
985.9440390188
 31
0.0
  0
INSERT
  5
197
  8
FORMAT
  2
SW_CENTERMARKSYMBOL_0
 10
796.5765850905
 20
630.8505598623
 30
0.0
  0
LINE
  5
198
  8
0
  6
CONTINUOUS
 62
     7
 10
-917.3650313482
 20
-111.6923662579
 30
0.0
 11
-917.3650313482
 21
-597.6923676884
 31
0.0
  0
LINE
  5
199
  8
0
  6
CONTINUOUS
 62
     7
 10
-894.3650294408
 20
-27.692374841
 30
0.0
 11
-894.3650294408
 21
-111.6923662579
 31
0.0
  0
LINE
  5
19A
  8
0
  6
CONTINUOUS
 62
     7
 10
-894.3650294408
 20
-597.6923676884
 30
0.0
 11
-894.3650294408
 21
-681.6923591054
 31
0.0
  0
LINE
  5
19B
  8
0
  6
CONTINUOUS
 62
     7
 10
-884.3650389776
 20
-21.6923626817
 30
0.0
 11
-884.3650389776
 21
-27.692374841
 31
0.0
  0
LINE
  5
19C
  8
0
  6
CONTINUOUS
 62
     7
 10
-884.3650389776
 20
-681.6923591054
 30
0.0
 11
-884.3650389776
 21
-687.6923712647
 31
0.0
  0
POLYLINE
  5
19D
  8
0
  6
CONTINUOUS
 62
     7
 66
     1
 10
0.0
 20
0.0
 30
0.0
  0
VERTEX
  5
745
  8
0
  6
CONTINUOUS
 62
     7
 10
-437.3183716402
 20
-697.1363099969
 30
0.0
  0
VERTEX
  5
746
  8
0
  6
CONTINUOUS
 62
     7
 10
-430.0864506826
 20
-695.6341239369
 30
0.0
  0
VERTEX
  5
747
  8
0
  6
CONTINUOUS
 62
     7
 10
-419.0494884119
 20
-693.3415802872
 30
0.0
  0
VERTEX
  5
748
  8
0
  6
CONTINUOUS
 62
     7
 10
-408.0124963388
 20
-691.0490366376
 30
0.0
  0
VERTEX
  5
749
  8
0
  6
CONTINUOUS
 62
     7
 10
-396.9755340681
 20
-688.7564929879
 30
0.0
  0
VERTEX
  5
74A
  8
0
  6
CONTINUOUS
 62
     7
 10
-385.9385717973
 20
-686.4639493382
 30
0.0
  0
VERTEX
  5
74B
  8
0
  6
CONTINUOUS
 62
     7
 10
-374.9015797243
 20
-684.1714056885
 30
0.0
  0
VERTEX
  5
74C
  8
0
  6
CONTINUOUS
 62
     7
 10
-363.8646174535
 20
-681.8788620389
 30
0.0
  0
VERTEX
  5
74D
  8
0
  6
CONTINUOUS
 62
     7
 10
-355.2116323576
 20
-680.081513778
 30
0.0
  0
VERTEX
  5
74E
  8
0
  6
CONTINUOUS
 62
     7
 10
-346.5586174593
 20
-678.2841357148
 30
0.0
  0
VERTEX
  5
74F
  8
0
  6
CONTINUOUS
 62
     7
 10
-337.9056323633
 20
-676.4867874539
 30
0.0
  0
VERTEX
  5
750
  8
0
  6
CONTINUOUS
 62
     7
 10
-329.2526472673
 20
-674.689439193
 30
0.0
  0
VERTEX
  5
751
  8
0
  6
CONTINUOUS
 62
     7
 10
-320.5996621713
 20
-672.8920611298
 30
0.0
  0
VERTEX
  5
752
  8
0
  6
CONTINUOUS
 62
     7
 10
-312.1012021169
 20
-671.1268099702
 30
0.0
  0
VERTEX
  5
753
  8
0
  6
CONTINUOUS
 62
     7
 10
-303.6027122602
 20
-669.3615588105
 30
0.0
  0
VERTEX
  5
754
  8
0
  6
CONTINUOUS
 62
     7
 10
-295.1042522058
 20
-667.5962778485
 30
0.0
  0
VERTEX
  5
755
  8
0
  6
CONTINUOUS
 62
     7
 10
-290.387021409
 20
-666.616437093
 30
0.0
  0
SEQEND
  5
BEB
  8
0
  6
CONTINUOUS
 62
     7
  0
POLYLINE
  5
19E
  8
0
  6
CONTINUOUS
 62
     7
 66
     1
 10
0.0
 20
0.0
 30
0.0
  0
VERTEX
  5
756
  8
0
  6
CONTINUOUS
 62
     7
 10
-290.2482915983
 20
-42.7970858968
 30
0.0
  0
VERTEX
  5
757
  8
0
  6
CONTINUOUS
 62
     7
 10
-363.8646174535
 20
-27.5058719075
 30
0.0
  0
VERTEX
  5
758
  8
0
  6
CONTINUOUS
 62
     7
 10
-437.3186100587
 20
-12.2483643449
 30
0.0
  0
SEQEND
  5
BEA
  8
0
  6
CONTINUOUS
 62
     7
  0
LINE
  5
19F
  8
0
  6
CONTINUOUS
 62
     7
 10
-869.2755867109
 20
-797.6482185281
 30
0.0
 11
-869.2755867109
 21
-847.648230449
 31
0.0
  0
LINE
  5
1A0
  8
0
  6
CONTINUOUS
 62
     7
 10
-799.2755342588
 20
-810.1482364095
 30
0.0
 11
-799.2755342588
 21
-797.6482185281
 31
0.0
  0
LINE
  5
1A1
  8
0
  6
CONTINUOUS
 62
     7
 10
-799.2755342588
 20
-847.648230449
 30
0.0
 11
-799.2755342588
 21
-835.1482125676
 31
0.0
  0
LINE
  5
1A2
  8
0
  6
CONTINUOUS
 62
     7
 10
-854.2755414114
 20
-707.6923521912
 30
0.0
 11
-854.2755414114
 21
-797.6482185281
 31
0.0
  0
LINE
  5
1A3
  8
0
  6
CONTINUOUS
 62
     7
 10
-814.2755795583
 20
-797.6482185281
 30
0.0
 11
-814.2755795583
 21
-707.6923521912
 31
0.0
  0
POLYLINE
  5
1A4
  8
0
  6
CONTINUOUS
 62
     7
 66
     1
 10
0.0
 20
0.0
 30
0.0
  0
VERTEX
  5
759
  8
0
  6
CONTINUOUS
 62
     7
 10
-102.988617526
 20
-81.6947194493
 30
0.0
  0
VERTEX
  5
75A
  8
0
  6
CONTINUOUS
 62
     7
 10
-110.1032961473
 20
-80.2182527936
 30
0.0
  0
VERTEX
  5
75B
  8
0
  6
CONTINUOUS
 62
     7
 10
-118.1302536592
 20
-78.5531672395
 30
0.0
  0
VERTEX
  5
75C
  8
0
  6
CONTINUOUS
 62
     7
 10
-125.9180475339
 20
-76.9382091916
 30
0.0
  0
VERTEX
  5
75D
  8
0
  6
CONTINUOUS
 62
     7
 10
-133.4666777715
 20
-75.3732594407
 30
0.0
  0
VERTEX
  5
75E
  8
0
  6
CONTINUOUS
 62
     7
 10
-140.7761741743
 20
-73.8581987775
 30
0.0
  0
VERTEX
  5
75F
  8
0
  6
CONTINUOUS
 62
     7
 10
-147.8465367422
 20
-72.3928781903
 30
0.0
  0
VERTEX
  5
760
  8
0
  6
CONTINUOUS
 62
     7
 10
-154.2938668594
 20
-71.056780473
 30
0.0
  0
VERTEX
  5
761
  8
0
  6
CONTINUOUS
 62
     7
 10
-160.528617011
 20
-69.7648199952
 30
0.0
  0
VERTEX
  5
762
  8
0
  6
CONTINUOUS
 62
     7
 10
-166.5508020982
 20
-68.5168775475
 30
0.0
  0
VERTEX
  5
763
  8
0
  6
CONTINUOUS
 62
     7
 10
-172.3604370222
 20
-67.3129233277
 30
0.0
  0
VERTEX
  5
764
  8
0
  6
CONTINUOUS
 62
     7
 10
-177.9575217828
 20
-66.1529871381
 30
0.0
  0
VERTEX
  5
765
  8
0
  6
CONTINUOUS
 62
     7
 10
-183.3420563802
 20
-65.0369795716
 30
0.0
  0
VERTEX
  5
766
  8
0
  6
CONTINUOUS
 62
     7
 10
-188.5140408144
 20
-63.9649006284
 30
0.0
  0
VERTEX
  5
767
  8
0
  6
CONTINUOUS
 62
     7
 10
-193.4734899864
 20
-62.9367801106
 30
0.0
  0
VERTEX
  5
768
  8
0
  6
CONTINUOUS
 62
     7
 10
-198.2204038963
 20
-61.9525584138
 30
0.0
  0
VERTEX
  5
769
  8
0
  6
CONTINUOUS
 62
     7
 10
-202.7547676429
 20
-61.0122653401
 30
0.0
  0
VERTEX
  5
76A
  8
0
  6
CONTINUOUS
 62
     7
 10
-207.00130056
 20
-60.1315471089
 30
0.0
  0
VERTEX
  5
76B
  8
0
  6
CONTINUOUS
 62
     7
 10
-211.0428084001
 20
-59.2932077801
 30
0.0
  0
VERTEX
  5
76C
  8
0
  6
CONTINUOUS
 62
     7
 10
-214.8793209657
 20
-58.4972473538
 30
0.0
  0
VERTEX
  5
76D
  8
0
  6
CONTINUOUS
 62
     7
 10
-218.5724843606
 20
-57.7309402383
 30
0.0
  0
VERTEX
  5
76E
  8
0
  6
CONTINUOUS
 62
     7
 10
-226.167963849
 20
-56.1545761979
 30
0.0
  0
VERTEX
  5
76F
  8
0
  6
CONTINUOUS
 62
     7
 10
-233.7281573877
 20
-54.5848878777
 30
0.0
  0
VERTEX
  5
770
  8
0
  6
CONTINUOUS
 62
     7
 10
-241.2530351743
 20
-53.0216666615
 30
0.0
  0
VERTEX
  5
771
  8
0
  6
CONTINUOUS
 62
     7
 10
-248.7425674066
 20
-51.4646443284
 30
0.0
  0
VERTEX
  5
772
  8
0
  6
CONTINUOUS
 62
     7
 10
-256.1574448213
 20
-49.921748296
 30
0.0
  0
VERTEX
  5
773
  8
0
  6
CONTINUOUS
 62
     7
 10
-262.0953489408
 20
-48.684951917
 30
0.0
  0
VERTEX
  5
774
  8
0
  6
CONTINUOUS
 62
     7
 10
-267.7819300756
 20
-47.4993261254
 30
0.0
  0
VERTEX
  5
775
  8
0
  6
CONTINUOUS
 62
     7
 10
-273.2171584234
 20
-46.3647815144
 30
0.0
  0
VERTEX
  5
776
  8
0
  6
CONTINUOUS
 62
     7
 10
-277.1665025816
 20
-45.5394658005
 30
0.0
  0
VERTEX
  5
777
  8
0
  6
CONTINUOUS
 62
     7
 10
-281.1253834829
 20
-44.7111996567
 30
0.0
  0
VERTEX
  5
778
  8
0
  6
CONTINUOUS
 62
     7
 10
-282.1177710161
 20
-44.5034178651
 30
0.0
  0
VERTEX
  5
779
  8
0
  6
CONTINUOUS
 62
     7
 10
-283.1112314329
 20
-44.2953380502
 30
0.0
  0
VERTEX
  5
77A
  8
0
  6
CONTINUOUS
 62
     7
 10
-284.1057647333
 20
-44.086960212
 30
0.0
  0
VERTEX
  5
77B
  8
0
  6
CONTINUOUS
 62
     7
 10
-285.0713599786
 20
-43.8845726407
 30
0.0
  0
VERTEX
  5
77C
  8
0
  6
CONTINUOUS
 62
     7
 10
-285.8738769159
 20
-43.7163087285
 30
0.0
  0
VERTEX
  5
77D
  8
0
  6
CONTINUOUS
 62
     7
 10
-286.497132884
 20
-43.5855957425
 30
0.0
  0
VERTEX
  5
77E
  8
0
  6
CONTINUOUS
 62
     7
 10
-286.9411278829
 20
-43.4924336827
 30
0.0
  0
VERTEX
  5
77F
  8
0
  6
CONTINUOUS
 62
     7
 10
-287.205891715
 20
-43.4368821538
 30
0.0
  0
VERTEX
  5
780
  8
0
  6
CONTINUOUS
 62
     7
 10
-287.3291243181
 20
-43.4110137379
 30
0.0
  0
VERTEX
  5
781
  8
0
  6
CONTINUOUS
 62
     7
 10
-287.4396015272
 20
-43.3878573334
 30
0.0
  0
VERTEX
  5
782
  8
0
  6
CONTINUOUS
 62
     7
 10
-287.654237853
 20
-43.3429154313
 30
0.0
  0
VERTEX
  5
783
  8
0
  6
CONTINUOUS
 62
     7
 10
-287.8604997262
 20
-43.2997318661
 30
0.0
  0
VERTEX
  5
784
  8
0
  6
CONTINUOUS
 62
     7
 10
-288.0583871469
 20
-43.2583662427
 30
0.0
  0
VERTEX
  5
785
  8
0
  6
CONTINUOUS
 62
     7
 10
-288.3091140852
 20
-43.2060035622
 30
0.0
  0
VERTEX
  5
786
  8
0
  6
CONTINUOUS
 62
     7
 10
-288.5448206529
 20
-43.1568297303
 30
0.0
  0
VERTEX
  5
787
  8
0
  6
CONTINUOUS
 62
     7
 10
-288.7654472456
 20
-43.1108149445
 30
0.0
  0
VERTEX
  5
788
  8
0
  6
CONTINUOUS
 62
     7
 10
-288.9709044561
 20
-43.0679592049
 30
0.0
  0
VERTEX
  5
789
  8
0
  6
CONTINUOUS
 62
     7
 10
-289.1611326799
 20
-43.0283221162
 30
0.0
  0
VERTEX
  5
78A
  8
0
  6
CONTINUOUS
 62
     7
 10
-289.335953103
 20
-42.9918738759
 30
0.0
  0
VERTEX
  5
78B
  8
0
  6
CONTINUOUS
 62
     7
 10
-289.4953061208
 20
-42.9586144841
 30
0.0
  0
VERTEX
  5
78C
  8
0
  6
CONTINUOUS
 62
     7
 10
-289.6390129194
 20
-42.9286333478
 30
0.0
  0
VERTEX
  5
78D
  8
0
  6
CONTINUOUS
 62
     7
 10
-289.767013894
 20
-42.9018708623
 30
0.0
  0
VERTEX
  5
78E
  8
0
  6
CONTINUOUS
 62
     7
 10
-289.8749281034
 20
-42.8793105042
 30
0.0
  0
VERTEX
  5
78F
  8
0
  6
CONTINUOUS
 62
     7
 10
-289.9680901632
 20
-42.8597899831
 30
0.0
  0
VERTEX
  5
790
  8
0
  6
CONTINUOUS
 62
     7
 10
-290.0463212595
 20
-42.8433987057
 30
0.0
  0
VERTEX
  5
791
  8
0
  6
CONTINUOUS
 62
     7
 10
-290.1094425783
 20
-42.8301366723
 30
0.0
  0
VERTEX
  5
792
  8
0
  6
CONTINUOUS
 62
     7
 10
-290.1573647127
 20
-42.820123092
 30
0.0
  0
VERTEX
  5
793
  8
0
  6
CONTINUOUS
 62
     7
 10
-290.1898492441
 20
-42.8133579648
 30
0.0
  0
VERTEX
  5
794
  8
0
  6
CONTINUOUS
 62
     7
 10
-290.2067769632
 20
-42.8099306977
 30
0.0
  0
VERTEX
  5
795
  8
0
  6
CONTINUOUS
 62
     7
 10
-290.2078200445
 20
-42.8098710931
 30
0.0
  0
SEQEND
  5
BE9
  8
0
  6
CONTINUOUS
 62
     7
  0
POLYLINE
  5
1A5
  8
0
  6
CONTINUOUS
 62
     7
 66
     1
 10
0.0
 20
0.0
 30
0.0
  0
VERTEX
  5
796
  8
0
  6
CONTINUOUS
 62
     7
 10
-290.1524473295
 20
-42.8233417428
 30
0.0
  0
VERTEX
  5
797
  8
0
  6
CONTINUOUS
 62
     7
 10
-290.1520897016
 20
-42.8234907544
 30
0.0
  0
VERTEX
  5
798
  8
0
  6
CONTINUOUS
 62
     7
 10
-290.1669014558
 20
-42.8201528943
 30
0.0
  0
VERTEX
  5
799
  8
0
  6
CONTINUOUS
 62
     7
 10
-290.2025748357
 20
-42.8116592324
 30
0.0
  0
VERTEX
  5
79A
  8
0
  6
CONTINUOUS
 62
     7
 10
-290.2593482599
 20
-42.7977415478
 30
0.0
  0
VERTEX
  5
79B
  8
0
  6
CONTINUOUS
 62
     7
 10
-290.2652193174
 20
-42.7962514317
 30
0.0
  0
SEQEND
  5
BE8
  8
0
  6
CONTINUOUS
 62
     7
  0
POLYLINE
  5
1A6
  8
0
  6
CONTINUOUS
 62
     7
 66
     1
 10
0.0
 20
0.0
 30
0.0
  0
VERTEX
  5
79C
  8
0
  6
CONTINUOUS
 62
     7
 10
-290.0581229791
 20
-666.5426763451
 30
0.0
  0
VERTEX
  5
79D
  8
0
  6
CONTINUOUS
 62
     7
 10
-290.0324035749
 20
-666.5372821248
 30
0.0
  0
VERTEX
  5
79E
  8
0
  6
CONTINUOUS
 62
     7
 10
-289.9745572671
 20
-666.5252717889
 30
0.0
  0
VERTEX
  5
79F
  8
0
  6
CONTINUOUS
 62
     7
 10
-289.9104524717
 20
-666.5119799531
 30
0.0
  0
VERTEX
  5
7A0
  8
0
  6
CONTINUOUS
 62
     7
 10
-289.8401785955
 20
-666.4974960244
 30
0.0
  0
VERTEX
  5
7A1
  8
0
  6
CONTINUOUS
 62
     7
 10
-289.7883821592
 20
-666.486826793
 30
0.0
  0
VERTEX
  5
7A2
  8
0
  6
CONTINUOUS
 62
     7
 10
-289.7337843046
 20
-666.4755913174
 30
0.0
  0
VERTEX
  5
7A3
  8
0
  6
CONTINUOUS
 62
     7
 10
-289.676414834
 20
-666.4637895978
 30
0.0
  0
VERTEX
  5
7A4
  8
0
  6
CONTINUOUS
 62
     7
 10
-289.616333352
 20
-666.4514514363
 30
0.0
  0
VERTEX
  5
7A5
  8
0
  6
CONTINUOUS
 62
     7
 10
-289.5535100564
 20
-666.438576833
 30
0.0
  0
VERTEX
  5
7A6
  8
0
  6
CONTINUOUS
 62
     7
 10
-289.4832957849
 20
-666.424152509
 30
0.0
  0
VERTEX
  5
7A7
  8
0
  6
CONTINUOUS
 62
     7
 10
-289.3327046499
 20
-666.3927408612
 30
0.0
  0
VERTEX
  5
7A8
  8
0
  6
CONTINUOUS
 62
     7
 10
-289.0771199331
 20
-666.3392158902
 30
0.0
  0
VERTEX
  5
7A9
  8
0
  6
CONTINUOUS
 62
     7
 10
-288.7730468378
 20
-666.2754687226
 30
0.0
  0
VERTEX
  5
7AA
  8
0
  6
CONTINUOUS
 62
     7
 10
-288.3913088903
 20
-666.1954196847
 30
0.0
  0
VERTEX
  5
7AB
  8
0
  6
CONTINUOUS
 62
     7
 10
-287.9319060907
 20
-666.099128381
 30
0.0
  0
VERTEX
  5
7AC
  8
0
  6
CONTINUOUS
 62
     7
 10
-287.3948682413
 20
-665.9865352071
 30
0.0
  0
VERTEX
  5
7AD
  8
0
  6
CONTINUOUS
 62
     7
 10
-286.780284749
 20
-665.8576997674
 30
0.0
  0
VERTEX
  5
7AE
  8
0
  6
CONTINUOUS
 62
     7
 10
-286.0881556139
 20
-665.7125624573
 30
0.0
  0
VERTEX
  5
7AF
  8
0
  6
CONTINUOUS
 62
     7
 10
-285.5095137224
 20
-665.5911775983
 30
0.0
  0
VERTEX
  5
7B0
  8
0
  6
CONTINUOUS
 62
     7
 10
-284.8422397241
 20
-665.45119609
 30
0.0
  0
VERTEX
  5
7B1
  8
0
  6
CONTINUOUS
 62
     7
 10
-283.9686144456
 20
-665.2679416096
 30
0.0
  0
VERTEX
  5
7B2
  8
0
  6
CONTINUOUS
 62
     7
 10
-282.882081376
 20
-665.040102855
 30
0.0
  0
VERTEX
  5
7B3
  8
0
  6
CONTINUOUS
 62
     7
 10
-281.5826703176
 20
-664.7677394307
 30
0.0
  0
VERTEX
  5
7B4
  8
0
  6
CONTINUOUS
 62
     7
 10
-280.0765801534
 20
-664.4522222436
 30
0.0
  0
VERTEX
  5
7B5
  8
0
  6
CONTINUOUS
 62
     7
 10
-272.6875413522
 20
-662.9063161767
 30
0.0
  0
VERTEX
  5
7B6
  8
0
  6
CONTINUOUS
 62
     7
 10
-266.0898734197
 20
-661.528495208
 30
0.0
  0
VERTEX
  5
7B7
  8
0
  6
CONTINUOUS
 62
     7
 10
-259.5986891851
 20
-660.1748141206
 30
0.0
  0
VERTEX
  5
7B8
  8
0
  6
CONTINUOUS
 62
     7
 10
-256.3619185552
 20
-659.5004173672
 30
0.0
  0
VERTEX
  5
7B9
  8
0
  6
CONTINUOUS
 62
     7
 10
-253.175871478
 20
-658.8369580662
 30
0.0
  0
VERTEX
  5
7BA
  8
0
  6
CONTINUOUS
 62
     7
 10
-250.0405181512
 20
-658.1843766129
 30
0.0
  0
VERTEX
  5
7BB
  8
0
  6
CONTINUOUS
 62
     7
 10
-246.9558883771
 20
-657.5425836003
 30
0.0
  0
VERTEX
  5
7BC
  8
0
  6
CONTINUOUS
 62
     7
 10
-243.9219821558
 20
-656.9115492261
 30
0.0
  0
VERTEX
  5
7BD
  8
0
  6
CONTINUOUS
 62
     7
 10
-240.9387696847
 20
-656.2912734902
 30
0.0
  0
VERTEX
  5
7BE
  8
0
  6
CONTINUOUS
 62
     7
 10
-237.8968466386
 20
-655.6588980115
 30
0.0
  0
VERTEX
  5
7BF
  8
0
  6
CONTINUOUS
 62
     7
 10
-235.2621127233
 20
-655.1112803376
 30
0.0
  0
VERTEX
  5
7C0
  8
0
  6
CONTINUOUS
 62
     7
 10
-232.3934305772
 20
-654.5151444829
 30
0.0
  0
VERTEX
  5
7C1
  8
0
  6
CONTINUOUS
 62
     7
 10
-229.2908002004
 20
-653.870550052
 30
0.0
  0
VERTEX
  5
7C2
  8
0
  6
CONTINUOUS
 62
     7
 10
-225.9542513952
 20
-653.1775268471
 30
0.0
  0
VERTEX
  5
7C3
  8
0
  6
CONTINUOUS
 62
     7
 10
-222.383739458
 20
-652.4360748685
 30
0.0
  0
VERTEX
  5
7C4
  8
0
  6
CONTINUOUS
 62
     7
 10
-218.5792792902
 20
-651.6462835229
 30
0.0
  0
VERTEX
  5
7C5
  8
0
  6
CONTINUOUS
 62
     7
 10
-214.5408857927
 20
-650.808123008
 30
0.0
  0
VERTEX
  5
7C6
  8
0
  6
CONTINUOUS
 62
     7
 10
-209.8284382686
 20
-649.8303684151
 30
0.0
  0
VERTEX
  5
7C7
  8
0
  6
CONTINUOUS
 62
     7
 10
-204.8328984842
 20
-648.794171468
 30
0.0
  0
VERTEX
  5
7C8
  8
0
  6
CONTINUOUS
 62
     7
 10
-199.5542813406
 20
-647.6995917714
 30
0.0
  0
VERTEX
  5
7C9
  8
0
  6
CONTINUOUS
 62
     7
 10
-193.9925719366
 20
-646.5465995229
 30
0.0
  0
VERTEX
  5
7CA
  8
0
  6
CONTINUOUS
 62
     7
 10
-188.147755371
 20
-645.3352543271
 30
0.0
  0
VERTEX
  5
7CB
  8
0
  6
CONTINUOUS
 62
     7
 10
-182.5886238679
 20
-644.1833647645
 30
0.0
  0
VERTEX
  5
7CC
  8
0
  6
CONTINUOUS
 62
     7
 10
-176.7954994306
 20
-642.9832252419
 30
0.0
  0
VERTEX
  5
7CD
  8
0
  6
CONTINUOUS
 62
     7
 10
-170.7683820591
 20
-641.7347761548
 30
0.0
  0
VERTEX
  5
7CE
  8
0
  6
CONTINUOUS
 62
     7
 10
-164.5072568521
 20
-640.438017503
 30
0.0
  0
VERTEX
  5
7CF
  8
0
  6
CONTINUOUS
 62
     7
 10
-158.0121238098
 20
-639.0928598798
 30
0.0
  0
VERTEX
  5
7D0
  8
0
  6
CONTINUOUS
 62
     7
 10
-151.2829531297
 20
-637.6992436803
 30
0.0
  0
VERTEX
  5
7D1
  8
0
  6
CONTINUOUS
 62
     7
 10
-144.3197299108
 20
-636.2571092999
 30
0.0
  0
VERTEX
  5
7D2
  8
0
  6
CONTINUOUS
 62
     7
 10
-136.3898385629
 20
-634.6145543015
 30
0.0
  0
VERTEX
  5
7D3
  8
0
  6
CONTINUOUS
 62
     7
 10
-128.1767059431
 20
-632.9129311002
 30
0.0
  0
VERTEX
  5
7D4
  8
0
  6
CONTINUOUS
 62
     7
 10
-119.6803022489
 20
-631.1520310796
 30
0.0
  0
VERTEX
  5
7D5
  8
0
  6
CONTINUOUS
 62
     7
 10
-110.9006125793
 20
-629.3315264142
 30
0.0
  0
VERTEX
  5
7D6
  8
0
  6
CONTINUOUS
 62
     7
 10
-102.9925663337
 20
-627.6907893574
 30
0.0
  0
SEQEND
  5
BE7
  8
0
  6
CONTINUOUS
 62
     7
  0
LINE
  5
1A7
  8
0
  6
CONTINUOUS
 62
     7
 10
19.6411395132
 20
2.8076199138
 30
0.0
 11
-7.3588621184
 21
2.8076199138
 31
0.0
  0
LINE
  5
1A8
  8
0
  6
CONTINUOUS
 62
     7
 10
-7.3588621184
 20
-712.1923538602
 30
0.0
 11
19.6411395132
 21
-712.1923538602
 31
0.0
  0
LINE
  5
1A9
  8
0
  6
CONTINUOUS
 62
     7
 10
-1071.3588167295
 20
-712.1923538602
 30
0.0
 11
-1043.3588195905
 21
-712.1923538602
 31
0.0
  0
LINE
  5
1AA
  8
0
  6
CONTINUOUS
 62
     7
 10
-1043.3588195905
 20
2.8076199138
 30
0.0
 11
-1071.3588167295
 21
2.8076199138
 31
0.0
  0
LINE
  5
1AB
  8
0
  6
CONTINUOUS
 62
     7
 10
-305.4887224302
 20
-873.6481937325
 30
0.0
 11
-305.4887224302
 21
-771.6482254422
 31
0.0
  0
LINE
  5
1AC
  8
0
  6
CONTINUOUS
 62
     7
 10
-212.231518732
 20
-873.6481937325
 30
0.0
 11
-212.231518732
 21
-771.6482254422
 31
0.0
  0
LINE
  5
1AD
  8
0
  6
CONTINUOUS
 62
     7
 10
-1075.3588844404
 20
-645.6923755563
 30
0.0
 11
-1071.3588167295
 21
-645.6923755563
 31
0.0
  0
LINE
  5
1AE
  8
0
  6
CONTINUOUS
 62
     7
 10
-1071.3588167295
 20
-63.6923583901
 30
0.0
 11
-1075.3588844404
 21
-63.6923583901
 31
0.0
  0
LINE
  5
1AF
  8
0
  6
CONTINUOUS
 62
     7
 10
24.6411394015
 20
-63.6923583901
 30
0.0
 11
19.6411395132
 21
-63.6923583901
 31
0.0
  0
LINE
  5
1B0
  8
0
  6
CONTINUOUS
 62
     7
 10
19.6411395132
 20
-645.6923755563
 30
0.0
 11
24.6411394015
 21
-645.6923755563
 31
0.0
  0
LINE
  5
1B1
  8
0
  6
CONTINUOUS
 62
     7
 10
-1043.3588195905
 20
-627.6923688805
 30
0.0
 11
-947.3404456243
 21
-627.6923688805
 31
0.0
  0
LINE
  5
1B2
  8
0
  6
CONTINUOUS
 62
     7
 10
-947.3588634595
 20
-81.6923650658
 30
0.0
 11
-1043.3588195905
 21
-81.6923650658
 31
0.0
  0
LINE
  5
1B3
  8
0
  6
CONTINUOUS
 62
     7
 10
-102.995367752
 20
-627.6923688805
 30
0.0
 11
-7.3588621184
 21
-627.6923688805
 31
0.0
  0
LINE
  5
1B4
  8
0
  6
CONTINUOUS
 62
     7
 10
-7.3588621184
 20
-81.6923650658
 30
0.0
 11
-102.9939521417
 21
-81.6923650658
 31
0.0
  0
LINE
  5
1B5
  8
0
  6
CONTINUOUS
 62
     7
 10
-118.974329935
 20
-873.6481937325
 30
0.0
 11
-118.974329935
 21
-771.6482254422
 31
0.0
  0
LINE
  5
1B6
  8
0
  6
CONTINUOUS
 62
     7
 10
-485.6656361684
 20
-771.6482254422
 30
0.0
 11
-485.6656361684
 21
-810.1482364095
 31
0.0
  0
LINE
  5
1B7
  8
0
  6
CONTINUOUS
 62
     7
 10
-485.6656361684
 20
-835.1482125676
 30
0.0
 11
-485.6656361684
 21
-873.6481937325
 31
0.0
  0
LINE
  5
1B8
  8
0
  6
CONTINUOUS
 62
     7
 10
-947.3588634595
 20
-64.6923753178
 30
0.0
 11
-947.3588634595
 21
-81.6923650658
 31
0.0
  0
LINE
  5
1B9
  8
0
  6
CONTINUOUS
 62
     7
 10
-947.3588634595
 20
-627.6884945786
 30
0.0
 11
-947.3588634595
 21
-644.6923586285
 31
0.0
  0
LINE
  5
1BA
  8
0
  6
CONTINUOUS
 62
     7
 10
-671.1599994764
 20
-44.692364589
 30
0.0
 11
-671.1599994764
 21
-64.6923753178
 31
0.0
  0
LINE
  5
1BB
  8
0
  6
CONTINUOUS
 62
     7
 10
-591.159956561
 20
-44.692364589
 30
0.0
 11
-591.159956561
 21
-64.6923753178
 31
0.0
  0
LINE
  5
1BC
  8
0
  6
CONTINUOUS
 62
     7
 10
-591.159956561
 20
-64.6923753178
 30
0.0
 11
-671.1599994764
 21
-64.6923753178
 31
0.0
  0
LINE
  5
1BD
  8
0
  6
CONTINUOUS
 62
     7
 10
-591.159956561
 20
-44.692364589
 30
0.0
 11
-671.1599994764
 21
-44.692364589
 31
0.0
  0
LINE
  5
1BE
  8
0
  6
CONTINUOUS
 62
     7
 10
-591.159956561
 20
-664.6923693574
 30
0.0
 11
-591.159956561
 21
-644.6923586285
 31
0.0
  0
LINE
  5
1BF
  8
0
  6
CONTINUOUS
 62
     7
 10
-591.159956561
 20
-664.6923693574
 30
0.0
 11
-671.1599994764
 21
-664.6923693574
 31
0.0
  0
LINE
  5
1C0
  8
0
  6
CONTINUOUS
 62
     7
 10
-671.1599994764
 20
-664.6923693574
 30
0.0
 11
-671.1599994764
 21
-644.6923586285
 31
0.0
  0
LINE
  5
1C1
  8
0
  6
CONTINUOUS
 62
     7
 10
-591.159956561
 20
-644.6923586285
 30
0.0
 11
-671.1599994764
 21
-644.6923586285
 31
0.0
  0
POLYLINE
  5
1C2
  8
0
  6
CONTINUOUS
 62
     7
 66
     1
 10
0.0
 20
0.0
 30
0.0
  0
VERTEX
  5
7D7
  8
0
  6
CONTINUOUS
 62
     7
 10
-916.9483352766
 20
-654.6923788941
 30
0.0
  0
VERTEX
  5
7D8
  8
0
  6
CONTINUOUS
 62
     7
 10
-916.9128109083
 20
-657.4106487191
 30
0.0
  0
VERTEX
  5
7D9
  8
0
  6
CONTINUOUS
 62
     7
 10
-916.8061781988
 20
-660.1264449513
 30
0.0
  0
VERTEX
  5
7DA
  8
0
  6
CONTINUOUS
 62
     7
 10
-916.6284967527
 20
-662.8372641957
 30
0.0
  0
VERTEX
  5
7DB
  8
0
  6
CONTINUOUS
 62
     7
 10
-916.3800645933
 20
-665.5406626618
 30
0.0
  0
VERTEX
  5
7DC
  8
0
  6
CONTINUOUS
 62
     7
 10
-916.0610009298
 20
-668.2341667569
 30
0.0
  0
VERTEX
  5
7DD
  8
0
  6
CONTINUOUS
 62
     7
 10
-915.6716633901
 20
-670.9153326905
 30
0.0
  0
VERTEX
  5
7DE
  8
0
  6
CONTINUOUS
 62
     7
 10
-915.2123499975
 20
-673.5816570676
 30
0.0
  0
VERTEX
  5
7DF
  8
0
  6
CONTINUOUS
 62
     7
 10
-914.6834779844
 20
-676.2307855046
 30
0.0
  0
VERTEX
  5
7E0
  8
0
  6
CONTINUOUS
 62
     7
 10
-914.0855837926
 20
-678.8602444089
 30
0.0
  0
VERTEX
  5
7E1
  8
0
  6
CONTINUOUS
 62
     7
 10
-913.4192038641
 20
-681.4676495946
 30
0.0
  0
VERTEX
  5
7E2
  8
0
  6
CONTINUOUS
 62
     7
 10
-912.6848746404
 20
-684.0506168759
 30
0.0
  0
VERTEX
  5
7E3
  8
0
  6
CONTINUOUS
 62
     7
 10
-911.8833709821
 20
-686.6068216717
 30
0.0
  0
VERTEX
  5
7E4
  8
0
  6
CONTINUOUS
 62
     7
 10
-911.0153485403
 20
-689.1338797963
 30
0.0
  0
VERTEX
  5
7E5
  8
0
  6
CONTINUOUS
 62
     7
 10
-910.0816417799
 20
-691.629526273
 30
0.0
  0
VERTEX
  5
7E6
  8
0
  6
CONTINUOUS
 62
     7
 10
-909.0830255613
 20
-694.0914663232
 30
0.0
  0
VERTEX
  5
7E7
  8
0
  6
CONTINUOUS
 62
     7
 10
-908.0205131635
 20
-696.5174647725
 30
0.0
  0
VERTEX
  5
7E8
  8
0
  6
CONTINUOUS
 62
     7
 10
-906.8950582609
 20
-698.9052864468
 30
0.0
  0
VERTEX
  5
7E9
  8
0
  6
CONTINUOUS
 62
     7
 10
-905.7076145277
 20
-701.2527557767
 30
0.0
  0
VERTEX
  5
7EA
  8
0
  6
CONTINUOUS
 62
     7
 10
-904.4593144521
 20
-703.5577865994
 30
0.0
  0
VERTEX
  5
7EB
  8
0
  6
CONTINUOUS
 62
     7
 10
-903.1512905225
 20
-705.8182033456
 30
0.0
  0
VERTEX
  5
7EC
  8
0
  6
CONTINUOUS
 62
     7
 10
-901.7847944364
 20
-708.0319496548
 30
0.0
  0
VERTEX
  5
7ED
  8
0
  6
CONTINUOUS
 62
     7
 10
-900.360958682
 20
-710.197058574
 30
0.0
  0
VERTEX
  5
7EE
  8
0
  6
CONTINUOUS
 62
     7
 10
-898.8811541662
 20
-712.3115333474
 30
0.0
  0
VERTEX
  5
7EF
  8
0
  6
CONTINUOUS
 62
     7
 10
-897.3466921911
 20
-714.3734070218
 30
0.0
  0
VERTEX
  5
7F0
  8
0
  6
CONTINUOUS
 62
     7
 10
-895.7590628728
 20
-716.3808318532
 30
0.0
  0
VERTEX
  5
7F1
  8
0
  6
CONTINUOUS
 62
     7
 10
-894.1195775136
 20
-718.3319898999
 30
0.0
  0
VERTEX
  5
7F2
  8
0
  6
CONTINUOUS
 62
     7
 10
-892.4298454389
 20
-720.2250632203
 30
0.0
  0
VERTEX
  5
7F3
  8
0
  6
CONTINUOUS
 62
     7
 10
-890.6913567647
 20
-722.0583232796
 30
0.0
  0
VERTEX
  5
7F4
  8
0
  6
CONTINUOUS
 62
     7
 10
-888.9057208166
 20
-723.8301607526
 30
0.0
  0
VERTEX
  5
7F5
  8
0
  6
CONTINUOUS
 62
     7
 10
-887.0745469198
 20
-725.5388769067
 30
0.0
  0
VERTEX
  5
7F6
  8
0
  6
CONTINUOUS
 62
     7
 10
-885.1995040044
 20
-727.1829816258
 30
0.0
  0
VERTEX
  5
7F7
  8
0
  6
CONTINUOUS
 62
     7
 10
-883.2823206052
 20
-728.7609251893
 30
0.0
  0
VERTEX
  5
7F8
  8
0
  6
CONTINUOUS
 62
     7
 10
-881.3247252569
 20
-730.2712770856
 30
0.0
  0
VERTEX
  5
7F9
  8
0
  6
CONTINUOUS
 62
     7
 10
-879.3285657033
 20
-731.7126962102
 30
0.0
  0
VERTEX
  5
7FA
  8
0
  6
CONTINUOUS
 62
     7
 10
-877.2955704793
 20
-733.0838116563
 30
0.0
  0
VERTEX
  5
7FB
  8
0
  6
CONTINUOUS
 62
     7
 10
-875.2276469335
 20
-734.3834015286
 30
0.0
  0
VERTEX
  5
7FC
  8
0
  6
CONTINUOUS
 62
     7
 10
-873.1267024145
 20
-735.6103035367
 30
0.0
  0
VERTEX
  5
7FD
  8
0
  6
CONTINUOUS
 62
     7
 10
-870.9945846662
 20
-736.7633553899
 30
0.0
  0
VERTEX
  5
7FE
  8
0
  6
CONTINUOUS
 62
     7
 10
-868.8333202467
 20
-737.8415140069
 30
0.0
  0
VERTEX
  5
7FF
  8
0
  6
CONTINUOUS
 62
     7
 10
-866.6447568998
 20
-738.8438257134
 30
0.0
  0
VERTEX
  5
800
  8
0
  6
CONTINUOUS
 62
     7
 10
-864.4310403928
 20
-739.7693368352
 30
0.0
  0
VERTEX
  5
801
  8
0
  6
CONTINUOUS
 62
     7
 10
-862.1941376791
 20
-740.6172427094
 30
0.0
  0
VERTEX
  5
802
  8
0
  6
CONTINUOUS
 62
     7
 10
-859.9360753164
 20
-741.3867386735
 30
0.0
  0
VERTEX
  5
803
  8
0
  6
CONTINUOUS
 62
     7
 10
-857.6588798627
 20
-742.0771392739
 30
0.0
  0
VERTEX
  5
804
  8
0
  6
CONTINUOUS
 62
     7
 10
-855.3646970853
 20
-742.6877888596
 30
0.0
  0
VERTEX
  5
805
  8
0
  6
CONTINUOUS
 62
     7
 10
-854.2755414114
 20
-742.9483803666
 30
0.0
  0
SEQEND
  5
BE6
  8
0
  6
CONTINUOUS
 62
     7
  0
LINE
  5
1C3
  8
0
  6
CONTINUOUS
 62
     7
 10
-916.9483352766
 20
-54.6923550523
 30
0.0
 11
-916.9483352766
 21
-111.6923662579
 31
0.0
  0
LINE
  5
1C4
  8
0
  6
CONTINUOUS
 62
     7
 10
-916.9483352766
 20
-597.6923676884
 30
0.0
 11
-916.9483352766
 21
-654.6923788941
 31
0.0
  0
POLYLINE
  5
1C5
  8
0
  6
CONTINUOUS
 62
     7
 66
     1
 10
0.0
 20
0.0
 30
0.0
  0
VERTEX
  5
806
  8
0
  6
CONTINUOUS
 62
     7
 10
-839.0060831174
 20
35.3076187217
 30
0.0
  0
VERTEX
  5
807
  8
0
  6
CONTINUOUS
 62
     7
 10
-841.3601685628
 20
35.2665809238
 30
0.0
  0
VERTEX
  5
808
  8
0
  6
CONTINUOUS
 62
     7
 10
-843.712108241
 20
35.1434377277
 30
0.0
  0
VERTEX
  5
809
  8
0
  6
CONTINUOUS
 62
     7
 10
-846.0597563848
 20
34.9383083427
 30
0.0
  0
VERTEX
  5
80A
  8
0
  6
CONTINUOUS
 62
     7
 10
-848.4009672269
 20
34.6514311874
 30
0.0
  0
VERTEX
  5
80B
  8
0
  6
CONTINUOUS
 62
     7
 10
-850.7335950002
 20
34.283014878
 30
0.0
  0
VERTEX
  5
80C
  8
0
  6
CONTINUOUS
 62
     7
 10
-853.0555535421
 20
33.8334170425
 30
0.0
  0
VERTEX
  5
80D
  8
0
  6
CONTINUOUS
 62
     7
 10
-855.3646970853
 20
33.3030549133
 30
0.0
  0
VERTEX
  5
80E
  8
0
  6
CONTINUOUS
 62
     7
 10
-857.6588798627
 20
32.6924053275
 30
0.0
  0
VERTEX
  5
80F
  8
0
  6
CONTINUOUS
 62
     7
 10
-859.9360753164
 20
32.0020047271
 30
0.0
  0
VERTEX
  5
810
  8
0
  6
CONTINUOUS
 62
     7
 10
-862.1941376791
 20
31.2325087631
 30
0.0
  0
VERTEX
  5
811
  8
0
  6
CONTINUOUS
 62
     7
 10
-864.4310403928
 20
30.3846028888
 30
0.0
  0
VERTEX
  5
812
  8
0
  6
CONTINUOUS
 62
     7
 10
-866.6447568998
 20
29.459091767
 30
0.0
  0
VERTEX
  5
813
  8
0
  6
CONTINUOUS
 62
     7
 10
-868.8333202467
 20
28.4567800605
 30
0.0
  0
VERTEX
  5
814
  8
0
  6
CONTINUOUS
 62
     7
 10
-870.9945846662
 20
27.3786214435
 30
0.0
  0
VERTEX
  5
815
  8
0
  6
CONTINUOUS
 62
     7
 10
-873.1267024145
 20
26.2255695903
 30
0.0
  0
VERTEX
  5
816
  8
0
  6
CONTINUOUS
 62
     7
 10
-875.2276469335
 20
24.9986675822
 30
0.0
  0
VERTEX
  5
817
  8
0
  6
CONTINUOUS
 62
     7
 10
-877.2955704793
 20
23.6990777099
 30
0.0
  0
VERTEX
  5
818
  8
0
  6
CONTINUOUS
 62
     7
 10
-879.3285657033
 20
22.3279622638
 30
0.0
  0
VERTEX
  5
819
  8
0
  6
CONTINUOUS
 62
     7
 10
-881.3247252569
 20
20.8865431392
 30
0.0
  0
VERTEX
  5
81A
  8
0
  6
CONTINUOUS
 62
     7
 10
-883.2823206052
 20
19.3761912429
 30
0.0
  0
VERTEX
  5
81B
  8
0
  6
CONTINUOUS
 62
     7
 10
-885.1995040044
 20
17.7982476794
 30
0.0
  0
VERTEX
  5
81C
  8
0
  6
CONTINUOUS
 62
     7
 10
-887.0745469198
 20
16.1541429603
 30
0.0
  0
VERTEX
  5
81D
  8
0
  6
CONTINUOUS
 62
     7
 10
-888.9057208166
 20
14.4454268062
 30
0.0
  0
VERTEX
  5
81E
  8
0
  6
CONTINUOUS
 62
     7
 10
-890.6913567647
 20
12.6735893333
 30
0.0
  0
VERTEX
  5
81F
  8
0
  6
CONTINUOUS
 62
     7
 10
-892.4298454389
 20
10.8403292739
 30
0.0
  0
VERTEX
  5
820
  8
0
  6
CONTINUOUS
 62
     7
 10
-894.1195775136
 20
8.9472559535
 30
0.0
  0
VERTEX
  5
821
  8
0
  6
CONTINUOUS
 62
     7
 10
-895.7590628728
 20
6.9960979068
 30
0.0
  0
VERTEX
  5
822
  8
0
  6
CONTINUOUS
 62
     7
 10
-897.3466921911
 20
4.9886730754
 30
0.0
  0
VERTEX
  5
823
  8
0
  6
CONTINUOUS
 62
     7
 10
-898.8811541662
 20
2.926799401
 30
0.0
  0
VERTEX
  5
824
  8
0
  6
CONTINUOUS
 62
     7
 10
-900.360958682
 20
0.8123246276
 30
0.0
  0
VERTEX
  5
825
  8
0
  6
CONTINUOUS
 62
     7
 10
-901.7847944364
 20
-1.3527842915
 30
0.0
  0
VERTEX
  5
826
  8
0
  6
CONTINUOUS
 62
     7
 10
-903.1512905225
 20
-3.5665306008
 30
0.0
  0
VERTEX
  5
827
  8
0
  6
CONTINUOUS
 62
     7
 10
-904.4593144521
 20
-5.826947347
 30
0.0
  0
VERTEX
  5
828
  8
0
  6
CONTINUOUS
 62
     7
 10
-905.7076145277
 20
-8.1319781697
 30
0.0
  0
VERTEX
  5
829
  8
0
  6
CONTINUOUS
 62
     7
 10
-906.8950582609
 20
-10.4794474995
 30
0.0
  0
VERTEX
  5
82A
  8
0
  6
CONTINUOUS
 62
     7
 10
-908.0205131635
 20
-12.8672691739
 30
0.0
  0
VERTEX
  5
82B
  8
0
  6
CONTINUOUS
 62
     7
 10
-909.0830255613
 20
-15.2932676232
 30
0.0
  0
VERTEX
  5
82C
  8
0
  6
CONTINUOUS
 62
     7
 10
-910.0816417799
 20
-17.7552076733
 30
0.0
  0
VERTEX
  5
82D
  8
0
  6
CONTINUOUS
 62
     7
 10
-911.0153485403
 20
-20.2508541501
 30
0.0
  0
VERTEX
  5
82E
  8
0
  6
CONTINUOUS
 62
     7
 10
-911.8833709821
 20
-22.7779122746
 30
0.0
  0
VERTEX
  5
82F
  8
0
  6
CONTINUOUS
 62
     7
 10
-912.6848746404
 20
-25.3341170705
 30
0.0
  0
VERTEX
  5
830
  8
0
  6
CONTINUOUS
 62
     7
 10
-913.4192038641
 20
-27.9170843518
 30
0.0
  0
VERTEX
  5
831
  8
0
  6
CONTINUOUS
 62
     7
 10
-914.0855837926
 20
-30.5244895375
 30
0.0
  0
VERTEX
  5
832
  8
0
  6
CONTINUOUS
 62
     7
 10
-914.6834779844
 20
-33.1539484418
 30
0.0
  0
VERTEX
  5
833
  8
0
  6
CONTINUOUS
 62
     7
 10
-915.2123499975
 20
-35.8030768788
 30
0.0
  0
VERTEX
  5
834
  8
0
  6
CONTINUOUS
 62
     7
 10
-915.6716633901
 20
-38.4694012559
 30
0.0
  0
VERTEX
  5
835
  8
0
  6
CONTINUOUS
 62
     7
 10
-916.0610009298
 20
-41.1505671895
 30
0.0
  0
VERTEX
  5
836
  8
0
  6
CONTINUOUS
 62
     7
 10
-916.3800645933
 20
-43.8440712846
 30
0.0
  0
VERTEX
  5
837
  8
0
  6
CONTINUOUS
 62
     7
 10
-916.6284967527
 20
-46.5474697507
 30
0.0
  0
VERTEX
  5
838
  8
0
  6
CONTINUOUS
 62
     7
 10
-916.8061781988
 20
-49.2582889951
 30
0.0
  0
VERTEX
  5
839
  8
0
  6
CONTINUOUS
 62
     7
 10
-916.9128109083
 20
-51.9740852273
 30
0.0
  0
VERTEX
  5
83A
  8
0
  6
CONTINUOUS
 62
     7
 10
-916.9483352766
 20
-54.6923550523
 30
0.0
  0
SEQEND
  5
BE5
  8
0
  6
CONTINUOUS
 62
     7
  0
LINE
  5
1C6
  8
0
  6
CONTINUOUS
 62
     7
 10
-605.1792074308
 20
35.3076187217
 30
0.0
 11
-839.0060831174
 21
35.3076187217
 31
0.0
  0
POLYLINE
  5
1C7
  8
0
  6
CONTINUOUS
 62
     7
 66
     1
 10
0.0
 20
0.0
 30
0.0
  0
VERTEX
  5
83B
  8
0
  6
CONTINUOUS
 62
     7
 10
-527.236895667
 20
-54.6923550523
 30
0.0
  0
VERTEX
  5
83C
  8
0
  6
CONTINUOUS
 62
     7
 10
-527.27247964
 20
-51.9740852273
 30
0.0
  0
VERTEX
  5
83D
  8
0
  6
CONTINUOUS
 62
     7
 10
-527.3791123495
 20
-49.2582889951
 30
0.0
  0
VERTEX
  5
83E
  8
0
  6
CONTINUOUS
 62
     7
 10
-527.5567341909
 20
-46.5474697507
 30
0.0
  0
VERTEX
  5
83F
  8
0
  6
CONTINUOUS
 62
     7
 10
-527.805225955
 20
-43.8440712846
 30
0.0
  0
VERTEX
  5
840
  8
0
  6
CONTINUOUS
 62
     7
 10
-528.1242896184
 20
-41.1505671895
 30
0.0
  0
VERTEX
  5
841
  8
0
  6
CONTINUOUS
 62
     7
 10
-528.5136271581
 20
-38.4694012559
 30
0.0
  0
VERTEX
  5
842
  8
0
  6
CONTINUOUS
 62
     7
 10
-528.9729405508
 20
-35.8030768788
 30
0.0
  0
VERTEX
  5
843
  8
0
  6
CONTINUOUS
 62
     7
 10
-529.5018125638
 20
-33.1539484418
 30
0.0
  0
VERTEX
  5
844
  8
0
  6
CONTINUOUS
 62
     7
 10
-530.0997067556
 20
-30.5244895375
 30
0.0
  0
VERTEX
  5
845
  8
0
  6
CONTINUOUS
 62
     7
 10
-530.7660866842
 20
-27.9170843518
 30
0.0
  0
VERTEX
  5
846
  8
0
  6
CONTINUOUS
 62
     7
 10
-531.5003563032
 20
-25.3341170705
 30
0.0
  0
VERTEX
  5
847
  8
0
  6
CONTINUOUS
 62
     7
 10
-532.3019195661
 20
-22.7779122746
 30
0.0
  0
VERTEX
  5
848
  8
0
  6
CONTINUOUS
 62
     7
 10
-533.169942008
 20
-20.2508541501
 30
0.0
  0
VERTEX
  5
849
  8
0
  6
CONTINUOUS
 62
     7
 10
-534.1036487684
 20
-17.7552076733
 30
0.0
  0
VERTEX
  5
84A
  8
0
  6
CONTINUOUS
 62
     7
 10
-535.1022053823
 20
-15.2932676232
 30
0.0
  0
VERTEX
  5
84B
  8
0
  6
CONTINUOUS
 62
     7
 10
-536.1647177801
 20
-12.8672691739
 30
0.0
  0
VERTEX
  5
84C
  8
0
  6
CONTINUOUS
 62
     7
 10
-537.2902322874
 20
-10.4794474995
 30
0.0
  0
VERTEX
  5
84D
  8
0
  6
CONTINUOUS
 62
     7
 10
-538.4776760206
 20
-8.1319781697
 30
0.0
  0
VERTEX
  5
84E
  8
0
  6
CONTINUOUS
 62
     7
 10
-539.7259760961
 20
-5.826947347
 30
0.0
  0
VERTEX
  5
84F
  8
0
  6
CONTINUOUS
 62
     7
 10
-541.0339404211
 20
-3.5665306008
 30
0.0
  0
VERTEX
  5
850
  8
0
  6
CONTINUOUS
 62
     7
 10
-542.4004961118
 20
-1.3527842915
 30
0.0
  0
VERTEX
  5
851
  8
0
  6
CONTINUOUS
 62
     7
 10
-543.8243318662
 20
0.8123246276
 30
0.0
  0
VERTEX
  5
852
  8
0
  6
CONTINUOUS
 62
     7
 10
-545.3041363821
 20
2.926799401
 30
0.0
  0
VERTEX
  5
853
  8
0
  6
CONTINUOUS
 62
     7
 10
-546.8385983572
 20
4.9886730754
 30
0.0
  0
VERTEX
  5
854
  8
0
  6
CONTINUOUS
 62
     7
 10
-548.4262276754
 20
6.9960979068
 30
0.0
  0
VERTEX
  5
855
  8
0
  6
CONTINUOUS
 62
     7
 10
-550.0657130346
 20
8.9472559535
 30
0.0
  0
VERTEX
  5
856
  8
0
  6
CONTINUOUS
 62
     7
 10
-551.7554451093
 20
10.8403292739
 30
0.0
  0
VERTEX
  5
857
  8
0
  6
CONTINUOUS
 62
     7
 10
-553.4939337835
 20
12.6735893333
 30
0.0
  0
VERTEX
  5
858
  8
0
  6
CONTINUOUS
 62
     7
 10
-555.2795697317
 20
14.4454268062
 30
0.0
  0
VERTEX
  5
859
  8
0
  6
CONTINUOUS
 62
     7
 10
-557.1107436285
 20
16.1541429603
 30
0.0
  0
VERTEX
  5
85A
  8
0
  6
CONTINUOUS
 62
     7
 10
-558.9857865438
 20
17.7982476794
 30
0.0
  0
VERTEX
  5
85B
  8
0
  6
CONTINUOUS
 62
     7
 10
-560.902969943
 20
19.3761912429
 30
0.0
  0
VERTEX
  5
85C
  8
0
  6
CONTINUOUS
 62
     7
 10
-562.8605056867
 20
20.8865431392
 30
0.0
  0
VERTEX
  5
85D
  8
0
  6
CONTINUOUS
 62
     7
 10
-564.8567248449
 20
22.3279622638
 30
0.0
  0
VERTEX
  5
85E
  8
0
  6
CONTINUOUS
 62
     7
 10
-566.8897200689
 20
23.6990777099
 30
0.0
  0
VERTEX
  5
85F
  8
0
  6
CONTINUOUS
 62
     7
 10
-568.9576436147
 20
24.9986675822
 30
0.0
  0
VERTEX
  5
860
  8
0
  6
CONTINUOUS
 62
     7
 10
-571.0585881338
 20
26.2255695903
 30
0.0
  0
VERTEX
  5
861
  8
0
  6
CONTINUOUS
 62
     7
 10
-573.190705882
 20
27.3786214435
 30
0.0
  0
VERTEX
  5
862
  8
0
  6
CONTINUOUS
 62
     7
 10
-575.3519703016
 20
28.4567800605
 30
0.0
  0
VERTEX
  5
863
  8
0
  6
CONTINUOUS
 62
     7
 10
-577.5404740438
 20
29.459091767
 30
0.0
  0
VERTEX
  5
864
  8
0
  6
CONTINUOUS
 62
     7
 10
-579.7541905508
 20
30.3846028888
 30
0.0
  0
VERTEX
  5
865
  8
0
  6
CONTINUOUS
 62
     7
 10
-581.9911528692
 20
31.2325087631
 30
0.0
  0
VERTEX
  5
866
  8
0
  6
CONTINUOUS
 62
     7
 10
-584.2492152318
 20
32.0020047271
 30
0.0
  0
VERTEX
  5
867
  8
0
  6
CONTINUOUS
 62
     7
 10
-586.5264106855
 20
32.6924053275
 30
0.0
  0
VERTEX
  5
868
  8
0
  6
CONTINUOUS
 62
     7
 10
-588.8205934629
 20
33.3030549133
 30
0.0
  0
VERTEX
  5
869
  8
0
  6
CONTINUOUS
 62
     7
 10
-591.1297370061
 20
33.8334170425
 30
0.0
  0
VERTEX
  5
86A
  8
0
  6
CONTINUOUS
 62
     7
 10
-593.4516359434
 20
34.283014878
 30
0.0
  0
VERTEX
  5
86B
  8
0
  6
CONTINUOUS
 62
     7
 10
-595.7843233213
 20
34.6514311874
 30
0.0
  0
VERTEX
  5
86C
  8
0
  6
CONTINUOUS
 62
     7
 10
-598.1255341634
 20
34.9383083427
 30
0.0
  0
VERTEX
  5
86D
  8
0
  6
CONTINUOUS
 62
     7
 10
-600.4731823072
 20
35.1434377277
 30
0.0
  0
VERTEX
  5
86E
  8
0
  6
CONTINUOUS
 62
     7
 10
-602.8251219854
 20
35.2665809238
 30
0.0
  0
VERTEX
  5
86F
  8
0
  6
CONTINUOUS
 62
     7
 10
-605.1792074308
 20
35.3076187217
 30
0.0
  0
SEQEND
  5
BE4
  8
0
  6
CONTINUOUS
 62
     7
  0
LINE
  5
1C8
  8
0
  6
CONTINUOUS
 62
     7
 10
-527.236895667
 20
-654.6923788941
 30
0.0
 11
-527.236895667
 21
-54.6923550523
 31
0.0
  0
POLYLINE
  5
1C9
  8
0
  6
CONTINUOUS
 62
     7
 66
     1
 10
0.0
 20
0.0
 30
0.0
  0
VERTEX
  5
870
  8
0
  6
CONTINUOUS
 62
     7
 10
-605.1792074308
 20
-744.6923526681
 30
0.0
  0
VERTEX
  5
871
  8
0
  6
CONTINUOUS
 62
     7
 10
-602.8251219854
 20
-744.6513148701
 30
0.0
  0
VERTEX
  5
872
  8
0
  6
CONTINUOUS
 62
     7
 10
-600.4731823072
 20
-744.528171674
 30
0.0
  0
VERTEX
  5
873
  8
0
  6
CONTINUOUS
 62
     7
 10
-598.1255341634
 20
-744.323042289
 30
0.0
  0
VERTEX
  5
874
  8
0
  6
CONTINUOUS
 62
     7
 10
-595.7843233213
 20
-744.0361651337
 30
0.0
  0
VERTEX
  5
875
  8
0
  6
CONTINUOUS
 62
     7
 10
-593.4516359434
 20
-743.6677488244
 30
0.0
  0
VERTEX
  5
876
  8
0
  6
CONTINUOUS
 62
     7
 10
-591.1297370061
 20
-743.2181509888
 30
0.0
  0
VERTEX
  5
877
  8
0
  6
CONTINUOUS
 62
     7
 10
-588.8205934629
 20
-742.6877888596
 30
0.0
  0
VERTEX
  5
878
  8
0
  6
CONTINUOUS
 62
     7
 10
-586.5264106855
 20
-742.0771392739
 30
0.0
  0
VERTEX
  5
879
  8
0
  6
CONTINUOUS
 62
     7
 10
-584.2492152318
 20
-741.3867386735
 30
0.0
  0
VERTEX
  5
87A
  8
0
  6
CONTINUOUS
 62
     7
 10
-581.9911528692
 20
-740.6172427094
 30
0.0
  0
VERTEX
  5
87B
  8
0
  6
CONTINUOUS
 62
     7
 10
-579.7541905508
 20
-739.7693368352
 30
0.0
  0
VERTEX
  5
87C
  8
0
  6
CONTINUOUS
 62
     7
 10
-577.5404740438
 20
-738.8438257134
 30
0.0
  0
VERTEX
  5
87D
  8
0
  6
CONTINUOUS
 62
     7
 10
-575.3519703016
 20
-737.8415140069
 30
0.0
  0
VERTEX
  5
87E
  8
0
  6
CONTINUOUS
 62
     7
 10
-573.190705882
 20
-736.7633553899
 30
0.0
  0
VERTEX
  5
87F
  8
0
  6
CONTINUOUS
 62
     7
 10
-571.0585881338
 20
-735.6103035367
 30
0.0
  0
VERTEX
  5
880
  8
0
  6
CONTINUOUS
 62
     7
 10
-568.9576436147
 20
-734.3834015286
 30
0.0
  0
VERTEX
  5
881
  8
0
  6
CONTINUOUS
 62
     7
 10
-566.8897200689
 20
-733.0838116563
 30
0.0
  0
VERTEX
  5
882
  8
0
  6
CONTINUOUS
 62
     7
 10
-564.8567248449
 20
-731.7126962102
 30
0.0
  0
VERTEX
  5
883
  8
0
  6
CONTINUOUS
 62
     7
 10
-562.8605056867
 20
-730.2712770856
 30
0.0
  0
VERTEX
  5
884
  8
0
  6
CONTINUOUS
 62
     7
 10
-560.902969943
 20
-728.7609251893
 30
0.0
  0
VERTEX
  5
885
  8
0
  6
CONTINUOUS
 62
     7
 10
-558.9857865438
 20
-727.1829816258
 30
0.0
  0
VERTEX
  5
886
  8
0
  6
CONTINUOUS
 62
     7
 10
-557.1107436285
 20
-725.5388769067
 30
0.0
  0
VERTEX
  5
887
  8
0
  6
CONTINUOUS
 62
     7
 10
-555.2795697317
 20
-723.8301607526
 30
0.0
  0
VERTEX
  5
888
  8
0
  6
CONTINUOUS
 62
     7
 10
-553.4939337835
 20
-722.0583232796
 30
0.0
  0
VERTEX
  5
889
  8
0
  6
CONTINUOUS
 62
     7
 10
-551.7554451093
 20
-720.2250632203
 30
0.0
  0
VERTEX
  5
88A
  8
0
  6
CONTINUOUS
 62
     7
 10
-550.0657130346
 20
-718.3319898999
 30
0.0
  0
VERTEX
  5
88B
  8
0
  6
CONTINUOUS
 62
     7
 10
-548.4262276754
 20
-716.3808318532
 30
0.0
  0
VERTEX
  5
88C
  8
0
  6
CONTINUOUS
 62
     7
 10
-546.8385983572
 20
-714.3734070218
 30
0.0
  0
VERTEX
  5
88D
  8
0
  6
CONTINUOUS
 62
     7
 10
-545.3041363821
 20
-712.3115333474
 30
0.0
  0
VERTEX
  5
88E
  8
0
  6
CONTINUOUS
 62
     7
 10
-543.8243318662
 20
-710.197058574
 30
0.0
  0
VERTEX
  5
88F
  8
0
  6
CONTINUOUS
 62
     7
 10
-542.4004961118
 20
-708.0319496548
 30
0.0
  0
VERTEX
  5
890
  8
0
  6
CONTINUOUS
 62
     7
 10
-541.0339404211
 20
-705.8182033456
 30
0.0
  0
VERTEX
  5
891
  8
0
  6
CONTINUOUS
 62
     7
 10
-539.7259760961
 20
-703.5577865994
 30
0.0
  0
VERTEX
  5
892
  8
0
  6
CONTINUOUS
 62
     7
 10
-538.4776760206
 20
-701.2527557767
 30
0.0
  0
VERTEX
  5
893
  8
0
  6
CONTINUOUS
 62
     7
 10
-537.2902322874
 20
-698.9052864468
 30
0.0
  0
VERTEX
  5
894
  8
0
  6
CONTINUOUS
 62
     7
 10
-536.1647177801
 20
-696.5174647725
 30
0.0
  0
VERTEX
  5
895
  8
0
  6
CONTINUOUS
 62
     7
 10
-535.1022053823
 20
-694.0914663232
 30
0.0
  0
VERTEX
  5
896
  8
0
  6
CONTINUOUS
 62
     7
 10
-534.1036487684
 20
-691.629526273
 30
0.0
  0
VERTEX
  5
897
  8
0
  6
CONTINUOUS
 62
     7
 10
-533.169942008
 20
-689.1338797963
 30
0.0
  0
VERTEX
  5
898
  8
0
  6
CONTINUOUS
 62
     7
 10
-532.3019195661
 20
-686.6068216717
 30
0.0
  0
VERTEX
  5
899
  8
0
  6
CONTINUOUS
 62
     7
 10
-531.5003563032
 20
-684.0506168759
 30
0.0
  0
VERTEX
  5
89A
  8
0
  6
CONTINUOUS
 62
     7
 10
-530.7660866842
 20
-681.4676495946
 30
0.0
  0
VERTEX
  5
89B
  8
0
  6
CONTINUOUS
 62
     7
 10
-530.0997067556
 20
-678.8602444089
 30
0.0
  0
VERTEX
  5
89C
  8
0
  6
CONTINUOUS
 62
     7
 10
-529.5018125638
 20
-676.2307855046
 30
0.0
  0
VERTEX
  5
89D
  8
0
  6
CONTINUOUS
 62
     7
 10
-528.9729405508
 20
-673.5816570676
 30
0.0
  0
VERTEX
  5
89E
  8
0
  6
CONTINUOUS
 62
     7
 10
-528.5136271581
 20
-670.9153326905
 30
0.0
  0
VERTEX
  5
89F
  8
0
  6
CONTINUOUS
 62
     7
 10
-528.1242896184
 20
-668.2341667569
 30
0.0
  0
VERTEX
  5
8A0
  8
0
  6
CONTINUOUS
 62
     7
 10
-527.805225955
 20
-665.5406626618
 30
0.0
  0
VERTEX
  5
8A1
  8
0
  6
CONTINUOUS
 62
     7
 10
-527.5567341909
 20
-662.8372641957
 30
0.0
  0
VERTEX
  5
8A2
  8
0
  6
CONTINUOUS
 62
     7
 10
-527.3791123495
 20
-660.1264449513
 30
0.0
  0
VERTEX
  5
8A3
  8
0
  6
CONTINUOUS
 62
     7
 10
-527.27247964
 20
-657.4106487191
 30
0.0
  0
VERTEX
  5
8A4
  8
0
  6
CONTINUOUS
 62
     7
 10
-527.236895667
 20
-654.6923788941
 30
0.0
  0
SEQEND
  5
BE3
  8
0
  6
CONTINUOUS
 62
     7
  0
LINE
  5
1CA
  8
0
  6
CONTINUOUS
 62
     7
 10
-814.2755795583
 20
-744.6923526681
 30
0.0
 11
-605.1792074308
 21
-744.6923526681
 31
0.0
  0
LINE
  5
1CB
  8
0
  6
CONTINUOUS
 62
     7
 10
-752.403514491
 20
-27.692374841
 30
0.0
 11
-752.403514491
 21
-111.6923662579
 31
0.0
  0
LINE
  5
1CC
  8
0
  6
CONTINUOUS
 62
     7
 10
-761.0637713537
 20
-21.6923626817
 30
0.0
 11
-761.0637713537
 21
-27.692374841
 31
0.0
  0
LINE
  5
1CD
  8
0
  6
CONTINUOUS
 62
     7
 10
-761.0637713537
 20
-687.6923712647
 30
0.0
 11
-761.0637713537
 21
-681.6923591054
 31
0.0
  0
LINE
  5
1CE
  8
0
  6
CONTINUOUS
 62
     7
 10
-752.403514491
 20
-681.6923591054
 30
0.0
 11
-752.403514491
 21
-597.6923676884
 31
0.0
  0
LINE
  5
1CF
  8
0
  6
CONTINUOUS
 62
     7
 10
-591.3757849798
 20
-511.2191560424
 30
0.0
 11
-721.0856248006
 21
-597.6923676884
 31
0.0
  0
LINE
  5
1D0
  8
0
  6
CONTINUOUS
 62
     7
 10
-591.3757849798
 20
-511.2191560424
 30
0.0
 11
-591.3757849798
 21
-198.165577904
 31
0.0
  0
LINE
  5
1D1
  8
0
  6
CONTINUOUS
 62
     7
 10
-591.3757849798
 20
-198.165577904
 30
0.0
 11
-721.0856248006
 21
-111.6923662579
 31
0.0
  0
LINE
  5
1D2
  8
0
  6
CONTINUOUS
 62
     7
 10
-605.1792074308
 20
35.3076187217
 30
0.0
 11
-590.1792217359
 21
35.3076187217
 31
0.0
  0
POLYLINE
  5
1D3
  8
0
  6
CONTINUOUS
 62
     7
 66
     1
 10
0.0
 20
0.0
 30
0.0
  0
VERTEX
  5
8A5
  8
0
  6
CONTINUOUS
 62
     7
 10
-590.1792217359
 20
35.3076187217
 30
0.0
  0
VERTEX
  5
8A6
  8
0
  6
CONTINUOUS
 62
     7
 10
-587.8251362905
 20
35.2665809238
 30
0.0
  0
VERTEX
  5
8A7
  8
0
  6
CONTINUOUS
 62
     7
 10
-585.4731966123
 20
35.1434377277
 30
0.0
  0
VERTEX
  5
8A8
  8
0
  6
CONTINUOUS
 62
     7
 10
-583.1255484685
 20
34.9383083427
 30
0.0
  0
VERTEX
  5
8A9
  8
0
  6
CONTINUOUS
 62
     7
 10
-580.7842780218
 20
34.6514311874
 30
0.0
  0
VERTEX
  5
8AA
  8
0
  6
CONTINUOUS
 62
     7
 10
-578.4516502485
 20
34.283014878
 30
0.0
  0
VERTEX
  5
8AB
  8
0
  6
CONTINUOUS
 62
     7
 10
-576.1296917066
 20
33.8334170425
 30
0.0
  0
VERTEX
  5
8AC
  8
0
  6
CONTINUOUS
 62
     7
 10
-573.820607768
 20
33.3030549133
 30
0.0
  0
VERTEX
  5
8AD
  8
0
  6
CONTINUOUS
 62
     7
 10
-571.5264249906
 20
32.6924053275
 30
0.0
  0
VERTEX
  5
8AE
  8
0
  6
CONTINUOUS
 62
     7
 10
-569.249229537
 20
32.0020047271
 30
0.0
  0
VERTEX
  5
8AF
  8
0
  6
CONTINUOUS
 62
     7
 10
-566.9911671743
 20
31.2325087631
 30
0.0
  0
VERTEX
  5
8B0
  8
0
  6
CONTINUOUS
 62
     7
 10
-564.7542048559
 20
30.3846028888
 30
0.0
  0
VERTEX
  5
8B1
  8
0
  6
CONTINUOUS
 62
     7
 10
-562.5404883489
 20
29.459091767
 30
0.0
  0
VERTEX
  5
8B2
  8
0
  6
CONTINUOUS
 62
     7
 10
-560.3519846067
 20
28.4567800605
 30
0.0
  0
VERTEX
  5
8B3
  8
0
  6
CONTINUOUS
 62
     7
 10
-558.1907201871
 20
27.3786214435
 30
0.0
  0
VERTEX
  5
8B4
  8
0
  6
CONTINUOUS
 62
     7
 10
-556.0586024389
 20
26.2255695903
 30
0.0
  0
VERTEX
  5
8B5
  8
0
  6
CONTINUOUS
 62
     7
 10
-553.9575983152
 20
24.9986675822
 30
0.0
  0
VERTEX
  5
8B6
  8
0
  6
CONTINUOUS
 62
     7
 10
-551.8896747694
 20
23.6990777099
 30
0.0
  0
VERTEX
  5
8B7
  8
0
  6
CONTINUOUS
 62
     7
 10
-549.85673915
 20
22.3279622638
 30
0.0
  0
VERTEX
  5
8B8
  8
0
  6
CONTINUOUS
 62
     7
 10
-547.8605199918
 20
20.8865431392
 30
0.0
  0
VERTEX
  5
8B9
  8
0
  6
CONTINUOUS
 62
     7
 10
-545.9029246435
 20
19.3761912429
 30
0.0
  0
VERTEX
  5
8BA
  8
0
  6
CONTINUOUS
 62
     7
 10
-543.9857412443
 20
17.7982476794
 30
0.0
  0
VERTEX
  5
8BB
  8
0
  6
CONTINUOUS
 62
     7
 10
-542.1107579336
 20
16.1541429603
 30
0.0
  0
VERTEX
  5
8BC
  8
0
  6
CONTINUOUS
 62
     7
 10
-540.2795840368
 20
14.4454268062
 30
0.0
  0
VERTEX
  5
8BD
  8
0
  6
CONTINUOUS
 62
     7
 10
-538.493888484
 20
12.6735893333
 30
0.0
  0
VERTEX
  5
8BE
  8
0
  6
CONTINUOUS
 62
     7
 10
-536.7554594144
 20
10.8403292739
 30
0.0
  0
VERTEX
  5
8BF
  8
0
  6
CONTINUOUS
 62
     7
 10
-535.0656677351
 20
8.9472559535
 30
0.0
  0
VERTEX
  5
8C0
  8
0
  6
CONTINUOUS
 62
     7
 10
-533.4262419805
 20
6.9960979068
 30
0.0
  0
VERTEX
  5
8C1
  8
0
  6
CONTINUOUS
 62
     7
 10
-531.8385530576
 20
4.9886730754
 30
0.0
  0
VERTEX
  5
8C2
  8
0
  6
CONTINUOUS
 62
     7
 10
-530.3041506872
 20
2.926799401
 30
0.0
  0
VERTEX
  5
8C3
  8
0
  6
CONTINUOUS
 62
     7
 10
-528.8243461713
 20
0.8123246276
 30
0.0
  0
VERTEX
  5
8C4
  8
0
  6
CONTINUOUS
 62
     7
 10
-527.4005104169
 20
-1.3527842915
 30
0.0
  0
VERTEX
  5
8C5
  8
0
  6
CONTINUOUS
 62
     7
 10
-526.0339547262
 20
-3.5665306008
 30
0.0
  0
VERTEX
  5
8C6
  8
0
  6
CONTINUOUS
 62
     7
 10
-524.7259307966
 20
-5.826947347
 30
0.0
  0
VERTEX
  5
8C7
  8
0
  6
CONTINUOUS
 62
     7
 10
-523.4776903257
 20
-8.1319781697
 30
0.0
  0
VERTEX
  5
8C8
  8
0
  6
CONTINUOUS
 62
     7
 10
-522.2902465925
 20
-10.4794474995
 30
0.0
  0
VERTEX
  5
8C9
  8
0
  6
CONTINUOUS
 62
     7
 10
-521.1647320852
 20
-12.8672691739
 30
0.0
  0
VERTEX
  5
8CA
  8
0
  6
CONTINUOUS
 62
     7
 10
-520.1022196874
 20
-15.2932676232
 30
0.0
  0
VERTEX
  5
8CB
  8
0
  6
CONTINUOUS
 62
     7
 10
-519.1036630735
 20
-17.7552076733
 30
0.0
  0
VERTEX
  5
8CC
  8
0
  6
CONTINUOUS
 62
     7
 10
-518.1699563131
 20
-20.2508541501
 30
0.0
  0
VERTEX
  5
8CD
  8
0
  6
CONTINUOUS
 62
     7
 10
-517.3019338712
 20
-22.7779122746
 30
0.0
  0
VERTEX
  5
8CE
  8
0
  6
CONTINUOUS
 62
     7
 10
-516.5003706083
 20
-25.3341170705
 30
0.0
  0
VERTEX
  5
8CF
  8
0
  6
CONTINUOUS
 62
     7
 10
-515.7661009893
 20
-27.9170843518
 30
0.0
  0
VERTEX
  5
8D0
  8
0
  6
CONTINUOUS
 62
     7
 10
-515.0996614561
 20
-30.5244895375
 30
0.0
  0
VERTEX
  5
8D1
  8
0
  6
CONTINUOUS
 62
     7
 10
-514.5017672643
 20
-33.1539484418
 30
0.0
  0
VERTEX
  5
8D2
  8
0
  6
CONTINUOUS
 62
     7
 10
-513.9729548559
 20
-35.8030768788
 30
0.0
  0
VERTEX
  5
8D3
  8
0
  6
CONTINUOUS
 62
     7
 10
-513.5136414632
 20
-38.4694012559
 30
0.0
  0
VERTEX
  5
8D4
  8
0
  6
CONTINUOUS
 62
     7
 10
-513.1242443189
 20
-41.1505671895
 30
0.0
  0
VERTEX
  5
8D5
  8
0
  6
CONTINUOUS
 62
     7
 10
-512.8052402601
 20
-43.8440712846
 30
0.0
  0
VERTEX
  5
8D6
  8
0
  6
CONTINUOUS
 62
     7
 10
-512.556748496
 20
-46.5474697507
 30
0.0
  0
VERTEX
  5
8D7
  8
0
  6
CONTINUOUS
 62
     7
 10
-512.3791266546
 20
-49.2582889951
 30
0.0
  0
VERTEX
  5
8D8
  8
0
  6
CONTINUOUS
 62
     7
 10
-512.2724939451
 20
-51.9740852273
 30
0.0
  0
VERTEX
  5
8D9
  8
0
  6
CONTINUOUS
 62
     7
 10
-512.2369099721
 20
-54.6923550523
 30
0.0
  0
SEQEND
  5
BE2
  8
0
  6
CONTINUOUS
 62
     7
  0
LINE
  5
1D4
  8
0
  6
CONTINUOUS
 62
     7
 10
-512.2369099721
 20
-54.6923550523
 30
0.0
 11
-527.236895667
 21
-54.6923550523
 31
0.0
  0
LINE
  5
1D5
  8
0
  6
CONTINUOUS
 62
     7
 10
-512.2369099721
 20
-654.6923788941
 30
0.0
 11
-512.2369099721
 21
-54.6923550523
 31
0.0
  0
LINE
  5
1D6
  8
0
  6
CONTINUOUS
 62
     7
 10
-527.236895667
 20
-654.6923788941
 30
0.0
 11
-512.2369099721
 21
-654.6923788941
 31
0.0
  0
POLYLINE
  5
1D7
  8
0
  6
CONTINUOUS
 62
     7
 66
     1
 10
0.0
 20
0.0
 30
0.0
  0
VERTEX
  5
8DA
  8
0
  6
CONTINUOUS
 62
     7
 10
-512.2369099721
 20
-654.6923788941
 30
0.0
  0
VERTEX
  5
8DB
  8
0
  6
CONTINUOUS
 62
     7
 10
-512.2724939451
 20
-657.4106487191
 30
0.0
  0
VERTEX
  5
8DC
  8
0
  6
CONTINUOUS
 62
     7
 10
-512.3791266546
 20
-660.1264449513
 30
0.0
  0
VERTEX
  5
8DD
  8
0
  6
CONTINUOUS
 62
     7
 10
-512.556748496
 20
-662.8372641957
 30
0.0
  0
VERTEX
  5
8DE
  8
0
  6
CONTINUOUS
 62
     7
 10
-512.8052402601
 20
-665.5406626618
 30
0.0
  0
VERTEX
  5
8DF
  8
0
  6
CONTINUOUS
 62
     7
 10
-513.1242443189
 20
-668.2341667569
 30
0.0
  0
VERTEX
  5
8E0
  8
0
  6
CONTINUOUS
 62
     7
 10
-513.5136414632
 20
-670.9153326905
 30
0.0
  0
VERTEX
  5
8E1
  8
0
  6
CONTINUOUS
 62
     7
 10
-513.9729548559
 20
-673.5816570676
 30
0.0
  0
VERTEX
  5
8E2
  8
0
  6
CONTINUOUS
 62
     7
 10
-514.5017672643
 20
-676.2307855046
 30
0.0
  0
VERTEX
  5
8E3
  8
0
  6
CONTINUOUS
 62
     7
 10
-515.0996614561
 20
-678.8602444089
 30
0.0
  0
VERTEX
  5
8E4
  8
0
  6
CONTINUOUS
 62
     7
 10
-515.7661009893
 20
-681.4676495946
 30
0.0
  0
VERTEX
  5
8E5
  8
0
  6
CONTINUOUS
 62
     7
 10
-516.5003706083
 20
-684.0506168759
 30
0.0
  0
VERTEX
  5
8E6
  8
0
  6
CONTINUOUS
 62
     7
 10
-517.3019338712
 20
-686.6068216717
 30
0.0
  0
VERTEX
  5
8E7
  8
0
  6
CONTINUOUS
 62
     7
 10
-518.1699563131
 20
-689.1338797963
 30
0.0
  0
VERTEX
  5
8E8
  8
0
  6
CONTINUOUS
 62
     7
 10
-519.1036630735
 20
-691.629526273
 30
0.0
  0
VERTEX
  5
8E9
  8
0
  6
CONTINUOUS
 62
     7
 10
-520.1022196874
 20
-694.0914663232
 30
0.0
  0
VERTEX
  5
8EA
  8
0
  6
CONTINUOUS
 62
     7
 10
-521.1647320852
 20
-696.5174647725
 30
0.0
  0
VERTEX
  5
8EB
  8
0
  6
CONTINUOUS
 62
     7
 10
-522.2902465925
 20
-698.9052864468
 30
0.0
  0
VERTEX
  5
8EC
  8
0
  6
CONTINUOUS
 62
     7
 10
-523.4776903257
 20
-701.2527557767
 30
0.0
  0
VERTEX
  5
8ED
  8
0
  6
CONTINUOUS
 62
     7
 10
-524.7259307966
 20
-703.5577865994
 30
0.0
  0
VERTEX
  5
8EE
  8
0
  6
CONTINUOUS
 62
     7
 10
-526.0339547262
 20
-705.8182033456
 30
0.0
  0
VERTEX
  5
8EF
  8
0
  6
CONTINUOUS
 62
     7
 10
-527.4005104169
 20
-708.0319496548
 30
0.0
  0
VERTEX
  5
8F0
  8
0
  6
CONTINUOUS
 62
     7
 10
-528.8243461713
 20
-710.197058574
 30
0.0
  0
VERTEX
  5
8F1
  8
0
  6
CONTINUOUS
 62
     7
 10
-530.3041506872
 20
-712.3115333474
 30
0.0
  0
VERTEX
  5
8F2
  8
0
  6
CONTINUOUS
 62
     7
 10
-531.8385530576
 20
-714.3734070218
 30
0.0
  0
VERTEX
  5
8F3
  8
0
  6
CONTINUOUS
 62
     7
 10
-533.4262419805
 20
-716.3808318532
 30
0.0
  0
VERTEX
  5
8F4
  8
0
  6
CONTINUOUS
 62
     7
 10
-535.0656677351
 20
-718.3319898999
 30
0.0
  0
VERTEX
  5
8F5
  8
0
  6
CONTINUOUS
 62
     7
 10
-536.7554594144
 20
-720.2250632203
 30
0.0
  0
VERTEX
  5
8F6
  8
0
  6
CONTINUOUS
 62
     7
 10
-538.493888484
 20
-722.0583232796
 30
0.0
  0
VERTEX
  5
8F7
  8
0
  6
CONTINUOUS
 62
     7
 10
-540.2795840368
 20
-723.8301607526
 30
0.0
  0
VERTEX
  5
8F8
  8
0
  6
CONTINUOUS
 62
     7
 10
-542.1107579336
 20
-725.5388769067
 30
0.0
  0
VERTEX
  5
8F9
  8
0
  6
CONTINUOUS
 62
     7
 10
-543.9857412443
 20
-727.1829816258
 30
0.0
  0
VERTEX
  5
8FA
  8
0
  6
CONTINUOUS
 62
     7
 10
-545.9029246435
 20
-728.7609251893
 30
0.0
  0
VERTEX
  5
8FB
  8
0
  6
CONTINUOUS
 62
     7
 10
-547.8605199918
 20
-730.2712770856
 30
0.0
  0
VERTEX
  5
8FC
  8
0
  6
CONTINUOUS
 62
     7
 10
-549.85673915
 20
-731.7126962102
 30
0.0
  0
VERTEX
  5
8FD
  8
0
  6
CONTINUOUS
 62
     7
 10
-551.8896747694
 20
-733.0838116563
 30
0.0
  0
VERTEX
  5
8FE
  8
0
  6
CONTINUOUS
 62
     7
 10
-553.9575983152
 20
-734.3834015286
 30
0.0
  0
VERTEX
  5
8FF
  8
0
  6
CONTINUOUS
 62
     7
 10
-556.0586024389
 20
-735.6103035367
 30
0.0
  0
VERTEX
  5
900
  8
0
  6
CONTINUOUS
 62
     7
 10
-558.1907201871
 20
-736.7633553899
 30
0.0
  0
VERTEX
  5
901
  8
0
  6
CONTINUOUS
 62
     7
 10
-560.3519846067
 20
-737.8415140069
 30
0.0
  0
VERTEX
  5
902
  8
0
  6
CONTINUOUS
 62
     7
 10
-562.5404883489
 20
-738.8438257134
 30
0.0
  0
VERTEX
  5
903
  8
0
  6
CONTINUOUS
 62
     7
 10
-564.7542048559
 20
-739.7693368352
 30
0.0
  0
VERTEX
  5
904
  8
0
  6
CONTINUOUS
 62
     7
 10
-566.9911671743
 20
-740.6172427094
 30
0.0
  0
VERTEX
  5
905
  8
0
  6
CONTINUOUS
 62
     7
 10
-569.249229537
 20
-741.3867386735
 30
0.0
  0
VERTEX
  5
906
  8
0
  6
CONTINUOUS
 62
     7
 10
-571.5264249906
 20
-742.0771392739
 30
0.0
  0
VERTEX
  5
907
  8
0
  6
CONTINUOUS
 62
     7
 10
-573.820607768
 20
-742.6877888596
 30
0.0
  0
VERTEX
  5
908
  8
0
  6
CONTINUOUS
 62
     7
 10
-576.1296917066
 20
-743.2181509888
 30
0.0
  0
VERTEX
  5
909
  8
0
  6
CONTINUOUS
 62
     7
 10
-578.4516502485
 20
-743.6677488244
 30
0.0
  0
VERTEX
  5
90A
  8
0
  6
CONTINUOUS
 62
     7
 10
-580.7842780218
 20
-744.0361651337
 30
0.0
  0
VERTEX
  5
90B
  8
0
  6
CONTINUOUS
 62
     7
 10
-583.1255484685
 20
-744.323042289
 30
0.0
  0
VERTEX
  5
90C
  8
0
  6
CONTINUOUS
 62
     7
 10
-585.4731966123
 20
-744.528171674
 30
0.0
  0
VERTEX
  5
90D
  8
0
  6
CONTINUOUS
 62
     7
 10
-587.8251362905
 20
-744.6513148701
 30
0.0
  0
VERTEX
  5
90E
  8
0
  6
CONTINUOUS
 62
     7
 10
-590.1792217359
 20
-744.6923526681
 30
0.0
  0
SEQEND
  5
BE1
  8
0
  6
CONTINUOUS
 62
     7
  0
LINE
  5
1D8
  8
0
  6
CONTINUOUS
 62
     7
 10
-590.1792217359
 20
-744.6923526681
 30
0.0
 11
-605.1792074308
 21
-744.6923526681
 31
0.0
  0
CIRCLE
  5
1D9
  8
0
  6
CONTINUOUS
 62
     7
 10
-834.3650529163
 20
-354.6923669732
 30
0.0
 40
22.49999999999989
  0
LINE
  5
1DA
  8
0
  6
CONTINUOUS
 62
     7
 10
-830.2388359174
 20
-597.6923676884
 30
0.0
 11
-917.3650313482
 21
-597.6923676884
 31
0.0
  0
LINE
  5
1DB
  8
0
  6
CONTINUOUS
 62
     7
 10
-830.2388359174
 20
-111.6923662579
 30
0.0
 11
-917.3650313482
 21
-111.6923662579
 31
0.0
  0
LINE
  5
1DC
  8
0
  6
CONTINUOUS
 62
     7
 10
-830.2388359174
 20
-332.5739568776
 30
0.0
 11
-830.2388359174
 21
-111.6923662579
 31
0.0
  0
LINE
  5
1DD
  8
0
  6
CONTINUOUS
 62
     7
 10
-830.2388359174
 20
-597.6923676884
 30
0.0
 11
-830.2388359174
 21
-376.8107770688
 31
0.0
  0
LINE
  5
1DE
  8
0
  6
CONTINUOUS
 62
     7
 10
-491.6474391088
 20
-54.6923550523
 30
0.0
 11
-510.6474329099
 21
-54.6923550523
 31
0.0
  0
POLYLINE
  5
1DF
  8
0
  6
CONTINUOUS
 62
     7
 66
     1
 10
0.0
 20
0.0
 30
0.0
  0
VERTEX
  5
90F
  8
0
  6
CONTINUOUS
 62
     7
 10
-510.6474329099
 20
-54.6923550523
 30
0.0
  0
VERTEX
  5
910
  8
0
  6
CONTINUOUS
 62
     7
 10
-510.6830168829
 20
-51.9740852273
 30
0.0
  0
VERTEX
  5
911
  8
0
  6
CONTINUOUS
 62
     7
 10
-510.7896495924
 20
-49.2582889951
 30
0.0
  0
VERTEX
  5
912
  8
0
  6
CONTINUOUS
 62
     7
 10
-510.9672714338
 20
-46.5474697507
 30
0.0
  0
VERTEX
  5
913
  8
0
  6
CONTINUOUS
 62
     7
 10
-511.2157035932
 20
-43.8440712846
 30
0.0
  0
VERTEX
  5
914
  8
0
  6
CONTINUOUS
 62
     7
 10
-511.5347672567
 20
-41.1505671895
 30
0.0
  0
VERTEX
  5
915
  8
0
  6
CONTINUOUS
 62
     7
 10
-511.9241047964
 20
-38.4694012559
 30
0.0
  0
VERTEX
  5
916
  8
0
  6
CONTINUOUS
 62
     7
 10
-512.383418189
 20
-35.8030768788
 30
0.0
  0
VERTEX
  5
917
  8
0
  6
CONTINUOUS
 62
     7
 10
-512.9122902021
 20
-33.1539484418
 30
0.0
  0
VERTEX
  5
918
  8
0
  6
CONTINUOUS
 62
     7
 10
-513.5101843938
 20
-30.5244895375
 30
0.0
  0
VERTEX
  5
919
  8
0
  6
CONTINUOUS
 62
     7
 10
-514.1765643224
 20
-27.9170843518
 30
0.0
  0
VERTEX
  5
91A
  8
0
  6
CONTINUOUS
 62
     7
 10
-514.9108935461
 20
-25.3341170705
 30
0.0
  0
VERTEX
  5
91B
  8
0
  6
CONTINUOUS
 62
     7
 10
-515.7123972044
 20
-22.7779122746
 30
0.0
  0
VERTEX
  5
91C
  8
0
  6
CONTINUOUS
 62
     7
 10
-516.5804196462
 20
-20.2508541501
 30
0.0
  0
VERTEX
  5
91D
  8
0
  6
CONTINUOUS
 62
     7
 10
-517.5141860113
 20
-17.7552076733
 30
0.0
  0
VERTEX
  5
91E
  8
0
  6
CONTINUOUS
 62
     7
 10
-518.5127426252
 20
-15.2932676232
 30
0.0
  0
VERTEX
  5
91F
  8
0
  6
CONTINUOUS
 62
     7
 10
-519.575255023
 20
-12.8672691739
 30
0.0
  0
VERTEX
  5
920
  8
0
  6
CONTINUOUS
 62
     7
 10
-520.7007099256
 20
-10.4794474995
 30
0.0
  0
VERTEX
  5
921
  8
0
  6
CONTINUOUS
 62
     7
 10
-521.8881536588
 20
-8.1319781697
 30
0.0
  0
VERTEX
  5
922
  8
0
  6
CONTINUOUS
 62
     7
 10
-523.1364537344
 20
-5.826947347
 30
0.0
  0
VERTEX
  5
923
  8
0
  6
CONTINUOUS
 62
     7
 10
-524.4444776639
 20
-3.5665306008
 30
0.0
  0
VERTEX
  5
924
  8
0
  6
CONTINUOUS
 62
     7
 10
-525.8110333547
 20
-1.3527842915
 30
0.0
  0
VERTEX
  5
925
  8
0
  6
CONTINUOUS
 62
     7
 10
-527.2348095045
 20
0.8123246276
 30
0.0
  0
VERTEX
  5
926
  8
0
  6
CONTINUOUS
 62
     7
 10
-528.7146140203
 20
2.926799401
 30
0.0
  0
VERTEX
  5
927
  8
0
  6
CONTINUOUS
 62
     7
 10
-530.2490759954
 20
4.9886730754
 30
0.0
  0
VERTEX
  5
928
  8
0
  6
CONTINUOUS
 62
     7
 10
-531.8367649183
 20
6.9960979068
 30
0.0
  0
VERTEX
  5
929
  8
0
  6
CONTINUOUS
 62
     7
 10
-533.4761906728
 20
8.9472559535
 30
0.0
  0
VERTEX
  5
92A
  8
0
  6
CONTINUOUS
 62
     7
 10
-535.1659227476
 20
10.8403292739
 30
0.0
  0
VERTEX
  5
92B
  8
0
  6
CONTINUOUS
 62
     7
 10
-536.9044114217
 20
12.6735893333
 30
0.0
  0
VERTEX
  5
92C
  8
0
  6
CONTINUOUS
 62
     7
 10
-538.6900473699
 20
14.4454268062
 30
0.0
  0
VERTEX
  5
92D
  8
0
  6
CONTINUOUS
 62
     7
 10
-540.5212212667
 20
16.1541429603
 30
0.0
  0
VERTEX
  5
92E
  8
0
  6
CONTINUOUS
 62
     7
 10
-542.396264182
 20
17.7982476794
 30
0.0
  0
VERTEX
  5
92F
  8
0
  6
CONTINUOUS
 62
     7
 10
-544.3134475812
 20
19.3761912429
 30
0.0
  0
VERTEX
  5
930
  8
0
  6
CONTINUOUS
 62
     7
 10
-546.2710429296
 20
20.8865431392
 30
0.0
  0
VERTEX
  5
931
  8
0
  6
CONTINUOUS
 62
     7
 10
-548.2672024831
 20
22.3279622638
 30
0.0
  0
VERTEX
  5
932
  8
0
  6
CONTINUOUS
 62
     7
 10
-550.3001977071
 20
23.6990777099
 30
0.0
  0
VERTEX
  5
933
  8
0
  6
CONTINUOUS
 62
     7
 10
-552.368121253
 20
24.9986675822
 30
0.0
  0
VERTEX
  5
934
  8
0
  6
CONTINUOUS
 62
     7
 10
-554.4691253767
 20
26.2255695903
 30
0.0
  0
VERTEX
  5
935
  8
0
  6
CONTINUOUS
 62
     7
 10
-556.6011835203
 20
27.3786214435
 30
0.0
  0
VERTEX
  5
936
  8
0
  6
CONTINUOUS
 62
     7
 10
-558.7625075445
 20
28.4567800605
 30
0.0
  0
VERTEX
  5
937
  8
0
  6
CONTINUOUS
 62
     7
 10
-560.9510112867
 20
29.459091767
 30
0.0
  0
VERTEX
  5
938
  8
0
  6
CONTINUOUS
 62
     7
 10
-563.1647277936
 20
30.3846028888
 30
0.0
  0
VERTEX
  5
939
  8
0
  6
CONTINUOUS
 62
     7
 10
-565.4016305074
 20
31.2325087631
 30
0.0
  0
VERTEX
  5
93A
  8
0
  6
CONTINUOUS
 62
     7
 10
-567.6597524747
 20
32.0020047271
 30
0.0
  0
VERTEX
  5
93B
  8
0
  6
CONTINUOUS
 62
     7
 10
-569.9368883237
 20
32.6924053275
 30
0.0
  0
VERTEX
  5
93C
  8
0
  6
CONTINUOUS
 62
     7
 10
-572.2311307058
 20
33.3030549133
 30
0.0
  0
VERTEX
  5
93D
  8
0
  6
CONTINUOUS
 62
     7
 10
-574.5402146444
 20
33.8334170425
 30
0.0
  0
VERTEX
  5
93E
  8
0
  6
CONTINUOUS
 62
     7
 10
-576.8621731863
 20
34.283014878
 30
0.0
  0
VERTEX
  5
93F
  8
0
  6
CONTINUOUS
 62
     7
 10
-579.1948009595
 20
34.6514311874
 30
0.0
  0
VERTEX
  5
940
  8
0
  6
CONTINUOUS
 62
     7
 10
-581.5360118017
 20
34.9383083427
 30
0.0
  0
VERTEX
  5
941
  8
0
  6
CONTINUOUS
 62
     7
 10
-583.8836599454
 20
35.1434377277
 30
0.0
  0
VERTEX
  5
942
  8
0
  6
CONTINUOUS
 62
     7
 10
-586.2355996236
 20
35.2665809238
 30
0.0
  0
VERTEX
  5
943
  8
0
  6
CONTINUOUS
 62
     7
 10
-588.5897446737
 20
35.3076187217
 30
0.0
  0
SEQEND
  5
BE0
  8
0
  6
CONTINUOUS
 62
     7
  0
LINE
  5
1E0
  8
0
  6
CONTINUOUS
 62
     7
 10
-588.5897446737
 20
35.3076187217
 30
0.0
 11
-569.5896912679
 21
35.3076187217
 31
0.0
  0
POLYLINE
  5
1E1
  8
0
  6
CONTINUOUS
 62
     7
 66
     1
 10
0.0
 20
0.0
 30
0.0
  0
VERTEX
  5
944
  8
0
  6
CONTINUOUS
 62
     7
 10
-569.5896912679
 20
35.3076187217
 30
0.0
  0
VERTEX
  5
945
  8
0
  6
CONTINUOUS
 62
     7
 10
-567.2356058225
 20
35.2665809238
 30
0.0
  0
VERTEX
  5
946
  8
0
  6
CONTINUOUS
 62
     7
 10
-564.8836661443
 20
35.1434377277
 30
0.0
  0
VERTEX
  5
947
  8
0
  6
CONTINUOUS
 62
     7
 10
-562.5360180006
 20
34.9383083427
 30
0.0
  0
VERTEX
  5
948
  8
0
  6
CONTINUOUS
 62
     7
 10
-560.1948071584
 20
34.6514311874
 30
0.0
  0
VERTEX
  5
949
  8
0
  6
CONTINUOUS
 62
     7
 10
-557.8621793851
 20
34.283014878
 30
0.0
  0
VERTEX
  5
94A
  8
0
  6
CONTINUOUS
 62
     7
 10
-555.5402208433
 20
33.8334170425
 30
0.0
  0
VERTEX
  5
94B
  8
0
  6
CONTINUOUS
 62
     7
 10
-553.2310773
 20
33.3030549133
 30
0.0
  0
VERTEX
  5
94C
  8
0
  6
CONTINUOUS
 62
     7
 10
-550.9368945226
 20
32.6924053275
 30
0.0
  0
VERTEX
  5
94D
  8
0
  6
CONTINUOUS
 62
     7
 10
-548.659699069
 20
32.0020047271
 30
0.0
  0
VERTEX
  5
94E
  8
0
  6
CONTINUOUS
 62
     7
 10
-546.4016367063
 20
31.2325087631
 30
0.0
  0
VERTEX
  5
94F
  8
0
  6
CONTINUOUS
 62
     7
 10
-544.1647339925
 20
30.3846028888
 30
0.0
  0
VERTEX
  5
950
  8
0
  6
CONTINUOUS
 62
     7
 10
-541.9510174856
 20
29.459091767
 30
0.0
  0
VERTEX
  5
951
  8
0
  6
CONTINUOUS
 62
     7
 10
-539.7625137434
 20
28.4567800605
 30
0.0
  0
VERTEX
  5
952
  8
0
  6
CONTINUOUS
 62
     7
 10
-537.6011897192
 20
27.3786214435
 30
0.0
  0
VERTEX
  5
953
  8
0
  6
CONTINUOUS
 62
     7
 10
-535.4690719709
 20
26.2255695903
 30
0.0
  0
VERTEX
  5
954
  8
0
  6
CONTINUOUS
 62
     7
 10
-533.3681274519
 20
24.9986675822
 30
0.0
  0
VERTEX
  5
955
  8
0
  6
CONTINUOUS
 62
     7
 10
-531.300203906
 20
23.6990777099
 30
0.0
  0
VERTEX
  5
956
  8
0
  6
CONTINUOUS
 62
     7
 10
-529.267208682
 20
22.3279622638
 30
0.0
  0
VERTEX
  5
957
  8
0
  6
CONTINUOUS
 62
     7
 10
-527.2710491285
 20
20.8865431392
 30
0.0
  0
VERTEX
  5
958
  8
0
  6
CONTINUOUS
 62
     7
 10
-525.3134537801
 20
19.3761912429
 30
0.0
  0
VERTEX
  5
959
  8
0
  6
CONTINUOUS
 62
     7
 10
-523.3962703809
 20
17.7982476794
 30
0.0
  0
VERTEX
  5
95A
  8
0
  6
CONTINUOUS
 62
     7
 10
-521.5212274656
 20
16.1541429603
 30
0.0
  0
VERTEX
  5
95B
  8
0
  6
CONTINUOUS
 62
     7
 10
-519.6900535688
 20
14.4454268062
 30
0.0
  0
VERTEX
  5
95C
  8
0
  6
CONTINUOUS
 62
     7
 10
-517.9044176206
 20
12.6735893333
 30
0.0
  0
VERTEX
  5
95D
  8
0
  6
CONTINUOUS
 62
     7
 10
-516.1659289464
 20
10.8403292739
 30
0.0
  0
VERTEX
  5
95E
  8
0
  6
CONTINUOUS
 62
     7
 10
-514.4761968717
 20
8.9472559535
 30
0.0
  0
VERTEX
  5
95F
  8
0
  6
CONTINUOUS
 62
     7
 10
-512.8367711172
 20
6.9960979068
 30
0.0
  0
VERTEX
  5
960
  8
0
  6
CONTINUOUS
 62
     7
 10
-511.2490821943
 20
4.9886730754
 30
0.0
  0
VERTEX
  5
961
  8
0
  6
CONTINUOUS
 62
     7
 10
-509.7146202192
 20
2.926799401
 30
0.0
  0
VERTEX
  5
962
  8
0
  6
CONTINUOUS
 62
     7
 10
-508.2348157033
 20
0.8123246276
 30
0.0
  0
VERTEX
  5
963
  8
0
  6
CONTINUOUS
 62
     7
 10
-506.8110395536
 20
-1.3527842915
 30
0.0
  0
VERTEX
  5
964
  8
0
  6
CONTINUOUS
 62
     7
 10
-505.4444838628
 20
-3.5665306008
 30
0.0
  0
VERTEX
  5
965
  8
0
  6
CONTINUOUS
 62
     7
 10
-504.1364599332
 20
-5.826947347
 30
0.0
  0
VERTEX
  5
966
  8
0
  6
CONTINUOUS
 62
     7
 10
-502.8881598577
 20
-8.1319781697
 30
0.0
  0
VERTEX
  5
967
  8
0
  6
CONTINUOUS
 62
     7
 10
-501.7007161245
 20
-10.4794474995
 30
0.0
  0
VERTEX
  5
968
  8
0
  6
CONTINUOUS
 62
     7
 10
-500.5752612218
 20
-12.8672691739
 30
0.0
  0
VERTEX
  5
969
  8
0
  6
CONTINUOUS
 62
     7
 10
-499.5127488241
 20
-15.2932676232
 30
0.0
  0
VERTEX
  5
96A
  8
0
  6
CONTINUOUS
 62
     7
 10
-498.5141326055
 20
-17.7552076733
 30
0.0
  0
VERTEX
  5
96B
  8
0
  6
CONTINUOUS
 62
     7
 10
-497.5804258451
 20
-20.2508541501
 30
0.0
  0
VERTEX
  5
96C
  8
0
  6
CONTINUOUS
 62
     7
 10
-496.7124034032
 20
-22.7779122746
 30
0.0
  0
VERTEX
  5
96D
  8
0
  6
CONTINUOUS
 62
     7
 10
-495.9108997449
 20
-25.3341170705
 30
0.0
  0
VERTEX
  5
96E
  8
0
  6
CONTINUOUS
 62
     7
 10
-495.1765705213
 20
-27.9170843518
 30
0.0
  0
VERTEX
  5
96F
  8
0
  6
CONTINUOUS
 62
     7
 10
-494.5101905927
 20
-30.5244895375
 30
0.0
  0
VERTEX
  5
970
  8
0
  6
CONTINUOUS
 62
     7
 10
-493.912296401
 20
-33.1539484418
 30
0.0
  0
VERTEX
  5
971
  8
0
  6
CONTINUOUS
 62
     7
 10
-493.3834243879
 20
-35.8030768788
 30
0.0
  0
VERTEX
  5
972
  8
0
  6
CONTINUOUS
 62
     7
 10
-492.9241109952
 20
-38.4694012559
 30
0.0
  0
VERTEX
  5
973
  8
0
  6
CONTINUOUS
 62
     7
 10
-492.5347734556
 20
-41.1505671895
 30
0.0
  0
VERTEX
  5
974
  8
0
  6
CONTINUOUS
 62
     7
 10
-492.2157097921
 20
-43.8440712846
 30
0.0
  0
VERTEX
  5
975
  8
0
  6
CONTINUOUS
 62
     7
 10
-491.9672776327
 20
-46.5474697507
 30
0.0
  0
VERTEX
  5
976
  8
0
  6
CONTINUOUS
 62
     7
 10
-491.7896557912
 20
-49.2582889951
 30
0.0
  0
VERTEX
  5
977
  8
0
  6
CONTINUOUS
 62
     7
 10
-491.6829634771
 20
-51.9740852273
 30
0.0
  0
VERTEX
  5
978
  8
0
  6
CONTINUOUS
 62
     7
 10
-491.6474391088
 20
-54.6923550523
 30
0.0
  0
SEQEND
  5
BDF
  8
0
  6
CONTINUOUS
 62
     7
  0
LINE
  5
1E2
  8
0
  6
CONTINUOUS
 62
     7
 10
-588.5897446737
 20
35.3076187217
 30
0.0
 11
-590.1792217359
 21
35.3076187217
 31
0.0
  0
LINE
  5
1E3
  8
0
  6
CONTINUOUS
 62
     7
 10
-510.6474329099
 20
-654.6923788941
 30
0.0
 11
-510.6474329099
 21
-54.6923550523
 31
0.0
  0
POLYLINE
  5
1E4
  8
0
  6
CONTINUOUS
 62
     7
 66
     1
 10
0.0
 20
0.0
 30
0.0
  0
VERTEX
  5
979
  8
0
  6
CONTINUOUS
 62
     7
 10
-588.5897446737
 20
-744.6923526681
 30
0.0
  0
VERTEX
  5
97A
  8
0
  6
CONTINUOUS
 62
     7
 10
-586.2355996236
 20
-744.6513148701
 30
0.0
  0
VERTEX
  5
97B
  8
0
  6
CONTINUOUS
 62
     7
 10
-583.8836599454
 20
-744.528171674
 30
0.0
  0
VERTEX
  5
97C
  8
0
  6
CONTINUOUS
 62
     7
 10
-581.5360118017
 20
-744.323042289
 30
0.0
  0
VERTEX
  5
97D
  8
0
  6
CONTINUOUS
 62
     7
 10
-579.1948009595
 20
-744.0361651337
 30
0.0
  0
VERTEX
  5
97E
  8
0
  6
CONTINUOUS
 62
     7
 10
-576.8621731863
 20
-743.6677488244
 30
0.0
  0
VERTEX
  5
97F
  8
0
  6
CONTINUOUS
 62
     7
 10
-574.5402146444
 20
-743.2181509888
 30
0.0
  0
VERTEX
  5
980
  8
0
  6
CONTINUOUS
 62
     7
 10
-572.2311307058
 20
-742.6877888596
 30
0.0
  0
VERTEX
  5
981
  8
0
  6
CONTINUOUS
 62
     7
 10
-569.9368883237
 20
-742.0771392739
 30
0.0
  0
VERTEX
  5
982
  8
0
  6
CONTINUOUS
 62
     7
 10
-567.6597524747
 20
-741.3867386735
 30
0.0
  0
VERTEX
  5
983
  8
0
  6
CONTINUOUS
 62
     7
 10
-565.4016305074
 20
-740.6172427094
 30
0.0
  0
VERTEX
  5
984
  8
0
  6
CONTINUOUS
 62
     7
 10
-563.1647277936
 20
-739.7693368352
 30
0.0
  0
VERTEX
  5
985
  8
0
  6
CONTINUOUS
 62
     7
 10
-560.9510112867
 20
-738.8438257134
 30
0.0
  0
VERTEX
  5
986
  8
0
  6
CONTINUOUS
 62
     7
 10
-558.7625075445
 20
-737.8415140069
 30
0.0
  0
VERTEX
  5
987
  8
0
  6
CONTINUOUS
 62
     7
 10
-556.6011835203
 20
-736.7633553899
 30
0.0
  0
VERTEX
  5
988
  8
0
  6
CONTINUOUS
 62
     7
 10
-554.4691253767
 20
-735.6103035367
 30
0.0
  0
VERTEX
  5
989
  8
0
  6
CONTINUOUS
 62
     7
 10
-552.368121253
 20
-734.3834015286
 30
0.0
  0
VERTEX
  5
98A
  8
0
  6
CONTINUOUS
 62
     7
 10
-550.3001977071
 20
-733.0838116563
 30
0.0
  0
VERTEX
  5
98B
  8
0
  6
CONTINUOUS
 62
     7
 10
-548.2672024831
 20
-731.7126962102
 30
0.0
  0
VERTEX
  5
98C
  8
0
  6
CONTINUOUS
 62
     7
 10
-546.2710429296
 20
-730.2712770856
 30
0.0
  0
VERTEX
  5
98D
  8
0
  6
CONTINUOUS
 62
     7
 10
-544.3134475812
 20
-728.7609251893
 30
0.0
  0
VERTEX
  5
98E
  8
0
  6
CONTINUOUS
 62
     7
 10
-542.396264182
 20
-727.1829816258
 30
0.0
  0
VERTEX
  5
98F
  8
0
  6
CONTINUOUS
 62
     7
 10
-540.5212212667
 20
-725.5388769067
 30
0.0
  0
VERTEX
  5
990
  8
0
  6
CONTINUOUS
 62
     7
 10
-538.6900473699
 20
-723.8301607526
 30
0.0
  0
VERTEX
  5
991
  8
0
  6
CONTINUOUS
 62
     7
 10
-536.9044114217
 20
-722.0583232796
 30
0.0
  0
VERTEX
  5
992
  8
0
  6
CONTINUOUS
 62
     7
 10
-535.1659227476
 20
-720.2250632203
 30
0.0
  0
VERTEX
  5
993
  8
0
  6
CONTINUOUS
 62
     7
 10
-533.4761906728
 20
-718.3319898999
 30
0.0
  0
VERTEX
  5
994
  8
0
  6
CONTINUOUS
 62
     7
 10
-531.8367649183
 20
-716.3808318532
 30
0.0
  0
VERTEX
  5
995
  8
0
  6
CONTINUOUS
 62
     7
 10
-530.2490759954
 20
-714.3734070218
 30
0.0
  0
VERTEX
  5
996
  8
0
  6
CONTINUOUS
 62
     7
 10
-528.7146140203
 20
-712.3115333474
 30
0.0
  0
VERTEX
  5
997
  8
0
  6
CONTINUOUS
 62
     7
 10
-527.2348095045
 20
-710.197058574
 30
0.0
  0
VERTEX
  5
998
  8
0
  6
CONTINUOUS
 62
     7
 10
-525.8110333547
 20
-708.0319496548
 30
0.0
  0
VERTEX
  5
999
  8
0
  6
CONTINUOUS
 62
     7
 10
-524.4444776639
 20
-705.8182033456
 30
0.0
  0
VERTEX
  5
99A
  8
0
  6
CONTINUOUS
 62
     7
 10
-523.1364537344
 20
-703.5577865994
 30
0.0
  0
VERTEX
  5
99B
  8
0
  6
CONTINUOUS
 62
     7
 10
-521.8881536588
 20
-701.2527557767
 30
0.0
  0
VERTEX
  5
99C
  8
0
  6
CONTINUOUS
 62
     7
 10
-520.7007099256
 20
-698.9052864468
 30
0.0
  0
VERTEX
  5
99D
  8
0
  6
CONTINUOUS
 62
     7
 10
-519.575255023
 20
-696.5174647725
 30
0.0
  0
VERTEX
  5
99E
  8
0
  6
CONTINUOUS
 62
     7
 10
-518.5127426252
 20
-694.0914663232
 30
0.0
  0
VERTEX
  5
99F
  8
0
  6
CONTINUOUS
 62
     7
 10
-517.5141860113
 20
-691.629526273
 30
0.0
  0
VERTEX
  5
9A0
  8
0
  6
CONTINUOUS
 62
     7
 10
-516.5804196462
 20
-689.1338797963
 30
0.0
  0
VERTEX
  5
9A1
  8
0
  6
CONTINUOUS
 62
     7
 10
-515.7123972044
 20
-686.6068216717
 30
0.0
  0
VERTEX
  5
9A2
  8
0
  6
CONTINUOUS
 62
     7
 10
-514.9108935461
 20
-684.0506168759
 30
0.0
  0
VERTEX
  5
9A3
  8
0
  6
CONTINUOUS
 62
     7
 10
-514.1765643224
 20
-681.4676495946
 30
0.0
  0
VERTEX
  5
9A4
  8
0
  6
CONTINUOUS
 62
     7
 10
-513.5101843938
 20
-678.8602444089
 30
0.0
  0
VERTEX
  5
9A5
  8
0
  6
CONTINUOUS
 62
     7
 10
-512.9122902021
 20
-676.2307855046
 30
0.0
  0
VERTEX
  5
9A6
  8
0
  6
CONTINUOUS
 62
     7
 10
-512.383418189
 20
-673.5816570676
 30
0.0
  0
VERTEX
  5
9A7
  8
0
  6
CONTINUOUS
 62
     7
 10
-511.9241047964
 20
-670.9153326905
 30
0.0
  0
VERTEX
  5
9A8
  8
0
  6
CONTINUOUS
 62
     7
 10
-511.5347672567
 20
-668.2341667569
 30
0.0
  0
VERTEX
  5
9A9
  8
0
  6
CONTINUOUS
 62
     7
 10
-511.2157035932
 20
-665.5406626618
 30
0.0
  0
VERTEX
  5
9AA
  8
0
  6
CONTINUOUS
 62
     7
 10
-510.9672714338
 20
-662.8372641957
 30
0.0
  0
VERTEX
  5
9AB
  8
0
  6
CONTINUOUS
 62
     7
 10
-510.7896495924
 20
-660.1264449513
 30
0.0
  0
VERTEX
  5
9AC
  8
0
  6
CONTINUOUS
 62
     7
 10
-510.6830168829
 20
-657.4106487191
 30
0.0
  0
VERTEX
  5
9AD
  8
0
  6
CONTINUOUS
 62
     7
 10
-510.6474329099
 20
-654.6923788941
 30
0.0
  0
SEQEND
  5
BDE
  8
0
  6
CONTINUOUS
 62
     7
  0
LINE
  5
1E5
  8
0
  6
CONTINUOUS
 62
     7
 10
-588.5897446737
 20
-744.6923526681
 30
0.0
 11
-590.1792217359
 21
-744.6923526681
 31
0.0
  0
LINE
  5
1E6
  8
0
  6
CONTINUOUS
 62
     7
 10
-491.6474391088
 20
-344.6923671967
 30
0.0
 11
-491.6474391088
 21
-54.6923550523
 31
0.0
  0
LINE
  5
1E7
  8
0
  6
CONTINUOUS
 62
     7
 10
-495.0046707258
 20
-364.6923667497
 30
0.0
 11
-495.0046707258
 21
-344.6923671967
 31
0.0
  0
LINE
  5
1E8
  8
0
  6
CONTINUOUS
 62
     7
 10
-491.6474391088
 20
-654.6923788941
 30
0.0
 11
-491.6474391088
 21
-364.6923667497
 31
0.0
  0
LINE
  5
1E9
  8
0
  6
CONTINUOUS
 62
     7
 10
-510.6474329099
 20
-654.6923788941
 30
0.0
 11
-491.6474391088
 21
-654.6923788941
 31
0.0
  0
LINE
  5
1EA
  8
0
  6
CONTINUOUS
 62
     7
 10
-569.5896912679
 20
-744.6923526681
 30
0.0
 11
-588.5897446737
 21
-744.6923526681
 31
0.0
  0
POLYLINE
  5
1EB
  8
0
  6
CONTINUOUS
 62
     7
 66
     1
 10
0.0
 20
0.0
 30
0.0
  0
VERTEX
  5
9AE
  8
0
  6
CONTINUOUS
 62
     7
 10
-491.6474391088
 20
-654.6923788941
 30
0.0
  0
VERTEX
  5
9AF
  8
0
  6
CONTINUOUS
 62
     7
 10
-491.6829634771
 20
-657.4106487191
 30
0.0
  0
VERTEX
  5
9B0
  8
0
  6
CONTINUOUS
 62
     7
 10
-491.7896557912
 20
-660.1264449513
 30
0.0
  0
VERTEX
  5
9B1
  8
0
  6
CONTINUOUS
 62
     7
 10
-491.9672776327
 20
-662.8372641957
 30
0.0
  0
VERTEX
  5
9B2
  8
0
  6
CONTINUOUS
 62
     7
 10
-492.2157097921
 20
-665.5406626618
 30
0.0
  0
VERTEX
  5
9B3
  8
0
  6
CONTINUOUS
 62
     7
 10
-492.5347734556
 20
-668.2341667569
 30
0.0
  0
VERTEX
  5
9B4
  8
0
  6
CONTINUOUS
 62
     7
 10
-492.9241109952
 20
-670.9153326905
 30
0.0
  0
VERTEX
  5
9B5
  8
0
  6
CONTINUOUS
 62
     7
 10
-493.3834243879
 20
-673.5816570676
 30
0.0
  0
VERTEX
  5
9B6
  8
0
  6
CONTINUOUS
 62
     7
 10
-493.912296401
 20
-676.2307855046
 30
0.0
  0
VERTEX
  5
9B7
  8
0
  6
CONTINUOUS
 62
     7
 10
-494.5101905927
 20
-678.8602444089
 30
0.0
  0
VERTEX
  5
9B8
  8
0
  6
CONTINUOUS
 62
     7
 10
-495.1765705213
 20
-681.4676495946
 30
0.0
  0
VERTEX
  5
9B9
  8
0
  6
CONTINUOUS
 62
     7
 10
-495.9108997449
 20
-684.0506168759
 30
0.0
  0
VERTEX
  5
9BA
  8
0
  6
CONTINUOUS
 62
     7
 10
-496.7124034032
 20
-686.6068216717
 30
0.0
  0
VERTEX
  5
9BB
  8
0
  6
CONTINUOUS
 62
     7
 10
-497.5804258451
 20
-689.1338797963
 30
0.0
  0
VERTEX
  5
9BC
  8
0
  6
CONTINUOUS
 62
     7
 10
-498.5141326055
 20
-691.629526273
 30
0.0
  0
VERTEX
  5
9BD
  8
0
  6
CONTINUOUS
 62
     7
 10
-499.5127488241
 20
-694.0914663232
 30
0.0
  0
VERTEX
  5
9BE
  8
0
  6
CONTINUOUS
 62
     7
 10
-500.5752612218
 20
-696.5174647725
 30
0.0
  0
VERTEX
  5
9BF
  8
0
  6
CONTINUOUS
 62
     7
 10
-501.7007161245
 20
-698.9052864468
 30
0.0
  0
VERTEX
  5
9C0
  8
0
  6
CONTINUOUS
 62
     7
 10
-502.8881598577
 20
-701.2527557767
 30
0.0
  0
VERTEX
  5
9C1
  8
0
  6
CONTINUOUS
 62
     7
 10
-504.1364599332
 20
-703.5577865994
 30
0.0
  0
VERTEX
  5
9C2
  8
0
  6
CONTINUOUS
 62
     7
 10
-505.4444838628
 20
-705.8182033456
 30
0.0
  0
VERTEX
  5
9C3
  8
0
  6
CONTINUOUS
 62
     7
 10
-506.8110395536
 20
-708.0319496548
 30
0.0
  0
VERTEX
  5
9C4
  8
0
  6
CONTINUOUS
 62
     7
 10
-508.2348157033
 20
-710.197058574
 30
0.0
  0
VERTEX
  5
9C5
  8
0
  6
CONTINUOUS
 62
     7
 10
-509.7146202192
 20
-712.3115333474
 30
0.0
  0
VERTEX
  5
9C6
  8
0
  6
CONTINUOUS
 62
     7
 10
-511.2490821943
 20
-714.3734070218
 30
0.0
  0
VERTEX
  5
9C7
  8
0
  6
CONTINUOUS
 62
     7
 10
-512.8367711172
 20
-716.3808318532
 30
0.0
  0
VERTEX
  5
9C8
  8
0
  6
CONTINUOUS
 62
     7
 10
-514.4761968717
 20
-718.3319898999
 30
0.0
  0
VERTEX
  5
9C9
  8
0
  6
CONTINUOUS
 62
     7
 10
-516.1659289464
 20
-720.2250632203
 30
0.0
  0
VERTEX
  5
9CA
  8
0
  6
CONTINUOUS
 62
     7
 10
-517.9044176206
 20
-722.0583232796
 30
0.0
  0
VERTEX
  5
9CB
  8
0
  6
CONTINUOUS
 62
     7
 10
-519.6900535688
 20
-723.8301607526
 30
0.0
  0
VERTEX
  5
9CC
  8
0
  6
CONTINUOUS
 62
     7
 10
-521.5212274656
 20
-725.5388769067
 30
0.0
  0
VERTEX
  5
9CD
  8
0
  6
CONTINUOUS
 62
     7
 10
-523.3962703809
 20
-727.1829816258
 30
0.0
  0
VERTEX
  5
9CE
  8
0
  6
CONTINUOUS
 62
     7
 10
-525.3134537801
 20
-728.7609251893
 30
0.0
  0
VERTEX
  5
9CF
  8
0
  6
CONTINUOUS
 62
     7
 10
-527.2710491285
 20
-730.2712770856
 30
0.0
  0
VERTEX
  5
9D0
  8
0
  6
CONTINUOUS
 62
     7
 10
-529.267208682
 20
-731.7126962102
 30
0.0
  0
VERTEX
  5
9D1
  8
0
  6
CONTINUOUS
 62
     7
 10
-531.300203906
 20
-733.0838116563
 30
0.0
  0
VERTEX
  5
9D2
  8
0
  6
CONTINUOUS
 62
     7
 10
-533.3681274519
 20
-734.3834015286
 30
0.0
  0
VERTEX
  5
9D3
  8
0
  6
CONTINUOUS
 62
     7
 10
-535.4690719709
 20
-735.6103035367
 30
0.0
  0
VERTEX
  5
9D4
  8
0
  6
CONTINUOUS
 62
     7
 10
-537.6011897192
 20
-736.7633553899
 30
0.0
  0
VERTEX
  5
9D5
  8
0
  6
CONTINUOUS
 62
     7
 10
-539.7625137434
 20
-737.8415140069
 30
0.0
  0
VERTEX
  5
9D6
  8
0
  6
CONTINUOUS
 62
     7
 10
-541.9510174856
 20
-738.8438257134
 30
0.0
  0
VERTEX
  5
9D7
  8
0
  6
CONTINUOUS
 62
     7
 10
-544.1647339925
 20
-739.7693368352
 30
0.0
  0
VERTEX
  5
9D8
  8
0
  6
CONTINUOUS
 62
     7
 10
-546.4016367063
 20
-740.6172427094
 30
0.0
  0
VERTEX
  5
9D9
  8
0
  6
CONTINUOUS
 62
     7
 10
-548.659699069
 20
-741.3867386735
 30
0.0
  0
VERTEX
  5
9DA
  8
0
  6
CONTINUOUS
 62
     7
 10
-550.9368945226
 20
-742.0771392739
 30
0.0
  0
VERTEX
  5
9DB
  8
0
  6
CONTINUOUS
 62
     7
 10
-553.2310773
 20
-742.6877888596
 30
0.0
  0
VERTEX
  5
9DC
  8
0
  6
CONTINUOUS
 62
     7
 10
-555.5402208433
 20
-743.2181509888
 30
0.0
  0
VERTEX
  5
9DD
  8
0
  6
CONTINUOUS
 62
     7
 10
-557.8621793851
 20
-743.6677488244
 30
0.0
  0
VERTEX
  5
9DE
  8
0
  6
CONTINUOUS
 62
     7
 10
-560.1948071584
 20
-744.0361651337
 30
0.0
  0
VERTEX
  5
9DF
  8
0
  6
CONTINUOUS
 62
     7
 10
-562.5360180006
 20
-744.323042289
 30
0.0
  0
VERTEX
  5
9E0
  8
0
  6
CONTINUOUS
 62
     7
 10
-564.8836661443
 20
-744.528171674
 30
0.0
  0
VERTEX
  5
9E1
  8
0
  6
CONTINUOUS
 62
     7
 10
-567.2356058225
 20
-744.6513148701
 30
0.0
  0
VERTEX
  5
9E2
  8
0
  6
CONTINUOUS
 62
     7
 10
-569.5896912679
 20
-744.6923526681
 30
0.0
  0
SEQEND
  5
BDD
  8
0
  6
CONTINUOUS
 62
     7
  0
ARC
  5
1EC
  8
0
  6
CONTINUOUS
 62
     7
 10
-752.4432543455
 20
-319.5631317841
 30
0.0
 40
15.46600643690028
 50
2.1684279237
 51
89.9653932813
  0
LINE
  5
1ED
  8
0
  6
CONTINUOUS
 62
     7
 10
-752.4339128599
 20
-312.7221139825
 30
0.0
 11
-752.4339128599
 21
-326.0577722198
 31
0.0
  0
LINE
  5
1EE
  8
0
  6
CONTINUOUS
 62
     7
 10
-752.4339128599
 20
-326.0577722198
 30
0.0
 11
-710.0756932363
 21
-343.3249910108
 31
0.0
  0
LINE
  5
1EF
  8
0
  6
CONTINUOUS
 62
     7
 10
-710.0756932363
 20
-295.168557272
 30
0.0
 11
-728.828268157
 21
-309.3171353197
 31
0.0
  0
LINE
  5
1F0
  8
0
  6
CONTINUOUS
 62
     7
 10
-752.4339128599
 20
-292.1923669732
 30
0.0
 11
-752.4339128599
 21
-304.0971281684
 31
0.0
  0
LINE
  5
1F1
  8
0
  6
CONTINUOUS
 62
     7
 10
-710.0756932363
 20
-366.0597429356
 30
0.0
 11
-752.4339128599
 21
-383.3269617266
 31
0.0
  0
LINE
  5
1F2
  8
0
  6
CONTINUOUS
 62
     7
 10
-752.4339128599
 20
-383.3269617266
 30
0.0
 11
-752.4339128599
 21
-417.1923669732
 31
0.0
  0
LINE
  5
1F3
  8
0
  6
CONTINUOUS
 62
     7
 10
-740.4444981679
 20
-405.5204438722
 30
0.0
 11
-710.0756932363
 21
-417.1923669732
 31
0.0
  0
LINE
  5
1F4
  8
0
  6
CONTINUOUS
 62
     7
 10
-599.0749765501
 20
-323.1923664665
 30
0.0
 11
-599.0749765501
 21
-386.1923674798
 31
0.0
  0
ARC
  5
1F5
  8
0
  6
CONTINUOUS
 62
     7
 10
-604.3629828104
 20
-323.1890858715
 30
0.0
 40
5.288007277950276
 50
359.9644546139
 51
89.9644649548
  0
LINE
  5
1F6
  8
0
  6
CONTINUOUS
 62
     7
 10
-604.3597031698
 20
-317.9010796106
 30
0.0
 11
-647.3065782651
 21
-317.9010796106
 31
0.0
  0
ARC
  5
1F7
  8
0
  6
CONTINUOUS
 62
     7
 10
-647.3032738041
 20
-323.1891106611
 30
0.0
 40
5.288032083007783
 50
90.0358038072
 51
180.0352766241
  0
LINE
  5
1F8
  8
0
  6
CONTINUOUS
 62
     7
 10
-652.5913048849
 20
-323.1923664665
 30
0.0
 11
-652.5913048849
 21
-386.1923674798
 31
0.0
  0
ARC
  5
1F9
  8
0
  6
CONTINUOUS
 62
     7
 10
-647.3032738041
 20
-386.1956232852
 30
0.0
 40
5.288032083007783
 50
179.9647233759
 51
269.9641961928
  0
LINE
  5
1FA
  8
0
  6
CONTINUOUS
 62
     7
 10
-647.3065782651
 20
-391.4836543358
 30
0.0
 11
-604.3597031698
 21
-391.4836543358
 31
0.0
  0
ARC
  5
1FB
  8
0
  6
CONTINUOUS
 62
     7
 10
-604.3629828104
 20
-386.1956480748
 30
0.0
 40
5.288007277950333
 50
270.0355350452
 51
0.0355453861
  0
LINE
  5
1FC
  8
0
  6
CONTINUOUS
 62
     7
 10
-591.3757849798
 20
-198.165577904
 30
0.0
 11
-769.4393564329
 21
-111.6923662579
 31
0.0
  0
LINE
  5
1FD
  8
0
  6
CONTINUOUS
 62
     7
 10
-591.3757849798
 20
-511.2191560424
 30
0.0
 11
-769.4393564329
 21
-597.6923676884
 31
0.0
  0
LINE
  5
1FE
  8
0
  6
CONTINUOUS
 62
     7
 10
-769.5259023771
 20
-292.1923669732
 30
0.0
 11
-769.5259023771
 21
-337.7280804074
 31
0.0
  0
LINE
  5
1FF
  8
0
  6
CONTINUOUS
 62
     7
 10
-769.5259023771
 20
-337.7280804074
 30
0.0
 11
-727.9107142553
 21
-354.6923669732
 31
0.0
  0
LINE
  5
200
  8
0
  6
CONTINUOUS
 62
     7
 10
-727.9107142553
 20
-354.6923669732
 30
0.0
 11
-769.5259023771
 21
-371.656653539
 31
0.0
  0
LINE
  5
201
  8
0
  6
CONTINUOUS
 62
     7
 10
-769.5259023771
 20
-371.656653539
 30
0.0
 11
-769.5259023771
 21
-417.1923669732
 31
0.0
  0
LINE
  5
202
  8
0
  6
CONTINUOUS
 62
     7
 10
-769.4393564329
 20
-597.6923676884
 30
0.0
 11
-830.2388359174
 21
-597.6923676884
 31
0.0
  0
LINE
  5
203
  8
0
  6
CONTINUOUS
 62
     7
 10
-769.4393564329
 20
-111.6923662579
 30
0.0
 11
-830.2388359174
 21
-111.6923662579
 31
0.0
  0
LINE
  5
204
  8
0
  6
CONTINUOUS
 62
     7
 10
-769.426422225
 20
-292.1923669732
 30
0.0
 11
-769.5259023771
 21
-292.1923669732
 31
0.0
  0
LINE
  5
205
  8
0
  6
CONTINUOUS
 62
     7
 10
-769.426422225
 20
-292.1923669732
 30
0.0
 11
-769.426422225
 21
-337.7280804074
 31
0.0
  0
LINE
  5
206
  8
0
  6
CONTINUOUS
 62
     7
 10
-769.426422225
 20
-337.7280804074
 30
0.0
 11
-769.5259023771
 21
-337.7280804074
 31
0.0
  0
LINE
  5
207
  8
0
  6
CONTINUOUS
 62
     7
 10
-769.426422225
 20
-371.656653539
 30
0.0
 11
-769.426422225
 21
-417.1923669732
 31
0.0
  0
LINE
  5
208
  8
0
  6
CONTINUOUS
 62
     7
 10
-727.8112937078
 20
-354.6923669732
 30
0.0
 11
-769.426422225
 21
-371.656653539
 31
0.0
  0
LINE
  5
209
  8
0
  6
CONTINUOUS
 62
     7
 10
-769.426422225
 20
-337.7280804074
 30
0.0
 11
-727.8112937078
 21
-354.6923669732
 31
0.0
  0
LINE
  5
20A
  8
0
  6
CONTINUOUS
 62
     7
 10
-757.0905257329
 20
-292.1923669732
 30
0.0
 11
-769.426422225
 21
-292.1923669732
 31
0.0
  0
LINE
  5
20B
  8
0
  6
CONTINUOUS
 62
     7
 10
-757.0905257329
 20
-329.2604545808
 30
0.0
 11
-757.0905257329
 21
-292.1923669732
 31
0.0
  0
LINE
  5
20C
  8
0
  6
CONTINUOUS
 62
     7
 10
-709.9762130842
 20
-348.4664485535
 30
0.0
 11
-757.0905257329
 21
-329.2604545808
 31
0.0
  0
LINE
  5
20D
  8
0
  6
CONTINUOUS
 62
     7
 10
-709.9762130842
 20
-360.9182853928
 30
0.0
 11
-709.9762130842
 21
-348.4664485535
 31
0.0
  0
LINE
  5
20E
  8
0
  6
CONTINUOUS
 62
     7
 10
-757.0905257329
 20
-380.1242793656
 30
0.0
 11
-709.9762130842
 21
-360.9182853928
 31
0.0
  0
LINE
  5
20F
  8
0
  6
CONTINUOUS
 62
     7
 10
-757.0905257329
 20
-417.1923669732
 30
0.0
 11
-757.0905257329
 21
-380.1242793656
 31
0.0
  0
LINE
  5
210
  8
0
  6
CONTINUOUS
 62
     7
 10
-769.426422225
 20
-417.1923669732
 30
0.0
 11
-757.0905257329
 21
-417.1923669732
 31
0.0
  0
LINE
  5
211
  8
0
  6
CONTINUOUS
 62
     7
 10
-727.8112937078
 20
-354.6923669732
 30
0.0
 11
-727.9107142553
 21
-354.6923669732
 31
0.0
  0
LINE
  5
212
  8
0
  6
CONTINUOUS
 62
     7
 10
-769.426422225
 20
-371.656653539
 30
0.0
 11
-769.5259023771
 21
-371.656653539
 31
0.0
  0
LINE
  5
213
  8
0
  6
CONTINUOUS
 62
     7
 10
-769.426422225
 20
-417.1923669732
 30
0.0
 11
-769.5259023771
 21
-417.1923669732
 31
0.0
  0
LINE
  5
214
  8
0
  6
CONTINUOUS
 62
     7
 10
-740.4444981679
 20
-292.1923669732
 30
0.0
 11
-752.3344923124
 21
-292.1923669732
 31
0.0
  0
LINE
  5
215
  8
0
  6
CONTINUOUS
 62
     7
 10
-740.4444981679
 20
-295.7637953317
 30
0.0
 11
-740.4444981679
 21
-292.1923669732
 31
0.0
  0
ARC
  5
216
  8
0
  6
CONTINUOUS
 62
     7
 10
-747.1501140754
 20
-313.2657096544
 30
0.0
 40
18.74252623463783
 50
11.9599834351
 51
69.0363580179
  0
LINE
  5
217
  8
0
  6
CONTINUOUS
 62
     7
 10
-709.9762130842
 20
-295.168557272
 30
0.0
 11
-728.8144398794
 21
-309.3817244029
 31
0.0
  0
LINE
  5
218
  8
0
  6
CONTINUOUS
 62
     7
 10
-709.9762130842
 20
-310.6339248574
 30
0.0
 11
-709.9762130842
 21
-295.168557272
 31
0.0
  0
LINE
  5
219
  8
0
  6
CONTINUOUS
 62
     7
 10
-726.6313005552
 20
-323.1999511576
 30
0.0
 11
-709.9762130842
 21
-310.6339248574
 31
0.0
  0
LINE
  5
21A
  8
0
  6
CONTINUOUS
 62
     7
 10
-709.9762130842
 20
-329.9893355674
 30
0.0
 11
-726.6313005552
 21
-323.1999511576
 31
0.0
  0
LINE
  5
21B
  8
0
  6
CONTINUOUS
 62
     7
 10
-709.9762130842
 20
-343.3249910108
 30
0.0
 11
-709.9762130842
 21
-329.9893355674
 31
0.0
  0
LINE
  5
21C
  8
0
  6
CONTINUOUS
 62
     7
 10
-752.3344923124
 20
-326.0577722198
 30
0.0
 11
-709.9762130842
 21
-343.3249910108
 31
0.0
  0
LINE
  5
21D
  8
0
  6
CONTINUOUS
 62
     7
 10
-752.3344923124
 20
-312.7221139825
 30
0.0
 11
-752.3344923124
 21
-326.0577722198
 31
0.0
  0
LINE
  5
21E
  8
0
  6
CONTINUOUS
 62
     7
 10
-736.8873525724
 20
-319.0190951085
 30
0.0
 11
-752.3344923124
 21
-312.7221139825
 31
0.0
  0
ARC
  5
21F
  8
0
  6
CONTINUOUS
 62
     7
 10
-752.3437755483
 20
-319.5631194899
 30
0.0
 40
15.4659941076337
 50
2.0158246729
 51
89.9656090474
  0
LINE
  5
220
  8
0
  6
CONTINUOUS
 62
     7
 10
-752.3344923124
 20
-292.1923669732
 30
0.0
 11
-752.3344923124
 21
-304.0971281684
 31
0.0
  0
LINE
  5
221
  8
0
  6
CONTINUOUS
 62
     7
 10
-752.3344923124
 20
-304.0971281684
 30
0.0
 11
-752.4339128599
 21
-304.0971281684
 31
0.0
  0
LINE
  5
222
  8
0
  6
CONTINUOUS
 62
     7
 10
-752.3344923124
 20
-292.1923669732
 30
0.0
 11
-752.4339128599
 21
-292.1923669732
 31
0.0
  0
LINE
  5
223
  8
0
  6
CONTINUOUS
 62
     7
 10
-752.3344923124
 20
-312.7221139825
 30
0.0
 11
-752.4339128599
 21
-312.7221139825
 31
0.0
  0
LINE
  5
224
  8
0
  6
CONTINUOUS
 62
     7
 10
-752.3344923124
 20
-326.0577722198
 30
0.0
 11
-752.4339128599
 21
-326.0577722198
 31
0.0
  0
LINE
  5
225
  8
0
  6
CONTINUOUS
 62
     7
 10
-742.6058817968
 20
-392.6967727697
 30
0.0
 11
-727.8112937078
 21
-398.382910595
 31
0.0
  0
LINE
  5
226
  8
0
  6
CONTINUOUS
 62
     7
 10
-727.8112937078
 20
-398.382910595
 30
0.0
 11
-727.8112937078
 21
-386.6658071733
 31
0.0
  0
LINE
  5
227
  8
0
  6
CONTINUOUS
 62
     7
 10
-727.8112937078
 20
-386.6658071733
 30
0.0
 11
-742.6058817968
 21
-392.6967727697
 31
0.0
  0
LINE
  5
228
  8
0
  6
CONTINUOUS
 62
     7
 10
-740.4444981679
 20
-417.1923669732
 30
0.0
 11
-740.4444981679
 21
-405.4822298444
 31
0.0
  0
LINE
  5
229
  8
0
  6
CONTINUOUS
 62
     7
 10
-752.3344923124
 20
-417.1923669732
 30
0.0
 11
-740.4444981679
 21
-417.1923669732
 31
0.0
  0
LINE
  5
22A
  8
0
  6
CONTINUOUS
 62
     7
 10
-752.3344923124
 20
-383.3269617266
 30
0.0
 11
-752.3344923124
 21
-417.1923669732
 31
0.0
  0
LINE
  5
22B
  8
0
  6
CONTINUOUS
 62
     7
 10
-709.9762130842
 20
-366.0597429356
 30
0.0
 11
-752.3344923124
 21
-383.3269617266
 31
0.0
  0
LINE
  5
22C
  8
0
  6
CONTINUOUS
 62
     7
 10
-709.9762130842
 20
-379.395398379
 30
0.0
 11
-709.9762130842
 21
-366.0597429356
 31
0.0
  0
LINE
  5
22D
  8
0
  6
CONTINUOUS
 62
     7
 10
-716.5157366857
 20
-382.0612161166
 30
0.0
 11
-709.9762130842
 21
-379.395398379
 31
0.0
  0
LINE
  5
22E
  8
0
  6
CONTINUOUS
 62
     7
 10
-716.5157366857
 20
-401.4490554786
 30
0.0
 11
-716.5157366857
 21
-382.0612161166
 31
0.0
  0
LINE
  5
22F
  8
0
  6
CONTINUOUS
 62
     7
 10
-709.9762130842
 20
-403.9624529636
 30
0.0
 11
-716.5157366857
 21
-401.4490554786
 31
0.0
  0
LINE
  5
230
  8
0
  6
CONTINUOUS
 62
     7
 10
-709.9762130842
 20
-417.1923669732
 30
0.0
 11
-709.9762130842
 21
-403.9624529636
 31
0.0
  0
LINE
  5
231
  8
0
  6
CONTINUOUS
 62
     7
 10
-740.4444981679
 20
-405.4822298444
 30
0.0
 11
-709.9762130842
 21
-417.1923669732
 31
0.0
  0
LINE
  5
232
  8
0
  6
CONTINUOUS
 62
     7
 10
-709.9762130842
 20
-343.3249910108
 30
0.0
 11
-710.0756932363
 21
-343.3249910108
 31
0.0
  0
LINE
  5
233
  8
0
  6
CONTINUOUS
 62
     7
 10
-709.9762130842
 20
-366.0597429356
 30
0.0
 11
-710.0756932363
 21
-366.0597429356
 31
0.0
  0
LINE
  5
234
  8
0
  6
CONTINUOUS
 62
     7
 10
-752.3344923124
 20
-383.3269617266
 30
0.0
 11
-752.4339128599
 21
-383.3269617266
 31
0.0
  0
LINE
  5
235
  8
0
  6
CONTINUOUS
 62
     7
 10
-752.3344923124
 20
-417.1923669732
 30
0.0
 11
-752.4339128599
 21
-417.1923669732
 31
0.0
  0
LINE
  5
236
  8
0
  6
CONTINUOUS
 62
     7
 10
-709.9762130842
 20
-417.1923669732
 30
0.0
 11
-710.0756932363
 21
-417.1923669732
 31
0.0
  0
LINE
  5
237
  8
0
  6
CONTINUOUS
 62
     7
 10
-721.0856248006
 20
-111.6923662579
 30
0.0
 11
-769.4393564329
 21
-111.6923662579
 31
0.0
  0
LINE
  5
238
  8
0
  6
CONTINUOUS
 62
     7
 10
-769.4393564329
 20
-597.6923676884
 30
0.0
 11
-721.0856248006
 21
-597.6923676884
 31
0.0
  0
LINE
  5
239
  8
0
  6
CONTINUOUS
 62
     7
 10
-709.9762130842
 20
-295.168557272
 30
0.0
 11
-710.0756932363
 21
-295.168557272
 31
0.0
  0
LINE
  5
23A
  8
0
  6
CONTINUOUS
 62
     7
 10
-727.9107142553
 20
-398.3446965671
 30
0.0
 11
-727.9107142553
 21
-386.7063383317
 31
0.0
  0
ARC
  5
23B
  8
0
  6
CONTINUOUS
 62
     7
 10
-647.306117185
 20
-323.1919222903
 30
0.0
 40
0.708266376128859
 50
90.0372994525
 51
180.0359319944
  0
LINE
  5
23C
  8
0
  6
CONTINUOUS
 62
     7
 10
-652.5913048849
 20
-323.1923664665
 30
0.0
 11
-648.0143834219
 21
-323.1923664665
 31
0.0
  0
ARC
  5
23D
  8
0
  6
CONTINUOUS
 62
     7
 10
-679.7196353597
 20
-320.1923678375
 30
0.0
 40
32.49394208080552
 50
355.9564714225
 51
4.0435285775
  0
LINE
  5
23E
  8
0
  6
CONTINUOUS
 62
     7
 10
-648.0143834219
 20
-323.1923664665
 30
0.0
 11
-648.0143834219
 21
-386.1923674798
 31
0.0
  0
LINE
  5
23F
  8
0
  6
CONTINUOUS
 62
     7
 10
-652.5913048849
 20
-386.1923674798
 30
0.0
 11
-648.0143834219
 21
-386.1923674798
 31
0.0
  0
ARC
  5
240
  8
0
  6
CONTINUOUS
 62
     7
 10
-647.306117185
 20
-386.192811656
 30
0.0
 40
0.708266376128916
 50
179.9640680056
 51
269.9627005475
  0
ARC
  5
241
  8
0
  6
CONTINUOUS
 62
     7
 10
-679.7196353597
 20
-389.1923661089
 30
0.0
 40
32.49394208080552
 50
355.9564714225
 51
4.0435285775
  0
LINE
  5
242
  8
0
  6
CONTINUOUS
 62
     7
 10
-604.3597031698
 20
-322.4836560643
 30
0.0
 11
-647.3065782651
 21
-322.4836560643
 31
0.0
  0
ARC
  5
243
  8
0
  6
CONTINUOUS
 62
     7
 10
-636.8049301667
 20
-320.1923678375
 30
0.0
 40
32.52603198391218
 50
355.9604673593
 51
4.0395326407
  0
POLYLINE
  5
244
  8
0
  6
CONTINUOUS
 62
     7
 66
     1
 10
0.0
 20
0.0
 30
0.0
  0
VERTEX
  5
9E3
  8
0
  6
CONTINUOUS
 62
     7
 10
-628.7627388105
 20
-320.1923678375
 30
0.0
  0
VERTEX
  5
9E4
  8
0
  6
CONTINUOUS
 62
     7
 10
-628.7920046911
 20
-320.3498246825
 30
0.0
  0
VERTEX
  5
9E5
  8
0
  6
CONTINUOUS
 62
     7
 10
-628.8921404943
 20
-320.5203721977
 30
0.0
  0
VERTEX
  5
9E6
  8
0
  6
CONTINUOUS
 62
     7
 10
-629.139857398
 20
-320.7394863224
 30
0.0
  0
VERTEX
  5
9E7
  8
0
  6
CONTINUOUS
 62
     7
 10
-629.5263339147
 20
-320.9439116276
 30
0.0
  0
VERTEX
  5
9E8
  8
0
  6
CONTINUOUS
 62
     7
 10
-629.9419571027
 20
-321.0870037532
 30
0.0
  0
VERTEX
  5
9E9
  8
0
  6
CONTINUOUS
 62
     7
 10
-631.1217118368
 20
-321.309262023
 30
0.0
  0
VERTEX
  5
9EA
  8
0
  6
CONTINUOUS
 62
     7
 10
-632.3248911962
 20
-321.3557499206
 30
0.0
  0
VERTEX
  5
9EB
  8
0
  6
CONTINUOUS
 62
     7
 10
-633.3698202238
 20
-321.2865601039
 30
0.0
  0
VERTEX
  5
9EC
  8
0
  6
CONTINUOUS
 62
     7
 10
-634.3875695333
 20
-321.0771727121
 30
0.0
  0
VERTEX
  5
9ED
  8
0
  6
CONTINUOUS
 62
     7
 10
-635.0739766225
 20
-320.7860822535
 30
0.0
  0
VERTEX
  5
9EE
  8
0
  6
CONTINUOUS
 62
     7
 10
-635.2755595312
 20
-320.6393914974
 30
0.0
  0
VERTEX
  5
9EF
  8
0
  6
CONTINUOUS
 62
     7
 10
-635.4400683507
 20
-320.4488428986
 30
0.0
  0
VERTEX
  5
9F0
  8
0
  6
CONTINUOUS
 62
     7
 10
-635.5035472974
 20
-320.3006806529
 30
0.0
  0
VERTEX
  5
9F1
  8
0
  6
CONTINUOUS
 62
     7
 10
-635.5137396917
 20
-320.1380270279
 30
0.0
  0
VERTEX
  5
9F2
  8
0
  6
CONTINUOUS
 62
     7
 10
-635.473744975
 20
-319.9992711401
 30
0.0
  0
VERTEX
  5
9F3
  8
0
  6
CONTINUOUS
 62
     7
 10
-635.3534628019
 20
-319.8216604746
 30
0.0
  0
VERTEX
  5
9F4
  8
0
  6
CONTINUOUS
 62
     7
 10
-635.0543666944
 20
-319.5868330753
 30
0.0
  0
VERTEX
  5
9F5
  8
0
  6
CONTINUOUS
 62
     7
 10
-634.5687080488
 20
-319.3646381355
 30
0.0
  0
VERTEX
  5
9F6
  8
0
  6
CONTINUOUS
 62
     7
 10
-634.0510417089
 20
-319.2193778909
 30
0.0
  0
VERTEX
  5
9F7
  8
0
  6
CONTINUOUS
 62
     7
 10
-632.9023409948
 20
-319.0518702126
 30
0.0
  0
VERTEX
  5
9F8
  8
0
  6
CONTINUOUS
 62
     7
 10
-631.7340899572
 20
-319.0360302782
 30
0.0
  0
VERTEX
  5
9F9
  8
0
  6
CONTINUOUS
 62
     7
 10
-630.9817601308
 20
-319.0946812487
 30
0.0
  0
VERTEX
  5
9FA
  8
0
  6
CONTINUOUS
 62
     7
 10
-630.2387286291
 20
-319.2215646363
 30
0.0
  0
VERTEX
  5
9FB
  8
0
  6
CONTINUOUS
 62
     7
 10
-629.6977568731
 20
-319.3760337985
 30
0.0
  0
VERTEX
  5
9FC
  8
0
  6
CONTINUOUS
 62
     7
 10
-629.1230488882
 20
-319.6567120707
 30
0.0
  0
VERTEX
  5
9FD
  8
0
  6
CONTINUOUS
 62
     7
 10
-628.937499629
 20
-319.8127533055
 30
0.0
  0
VERTEX
  5
9FE
  8
0
  6
CONTINUOUS
 62
     7
 10
-628.7998128995
 20
-320.015323416
 30
0.0
  0
VERTEX
  5
9FF
  8
0
  6
CONTINUOUS
 62
     7
 10
-628.7636924848
 20
-320.1632844961
 30
0.0
  0
VERTEX
  5
A00
  8
0
  6
CONTINUOUS
 62
     7
 10
-628.7627388105
 20
-320.1923678375
 30
0.0
  0
SEQEND
  5
BDC
  8
0
  6
CONTINUOUS
 62
     7
  0
LINE
  5
245
  8
0
  6
CONTINUOUS
 62
     7
 10
-647.3065782651
 20
-386.9010778821
 30
0.0
 11
-604.3597031698
 21
-386.9010778821
 31
0.0
  0
ARC
  5
246
  8
0
  6
CONTINUOUS
 62
     7
 10
-636.8049301667
 20
-389.1923661089
 30
0.0
 40
32.52603198391218
 50
355.9604673593
 51
4.0395326407
  0
POLYLINE
  5
247
  8
0
  6
CONTINUOUS
 62
     7
 66
     1
 10
0.0
 20
0.0
 30
0.0
  0
VERTEX
  5
A01
  8
0
  6
CONTINUOUS
 62
     7
 10
-635.5171371564
 20
-389.1923661089
 30
0.0
  0
VERTEX
  5
A02
  8
0
  6
CONTINUOUS
 62
     7
 10
-635.488348113
 20
-389.0349092639
 30
0.0
  0
VERTEX
  5
A03
  8
0
  6
CONTINUOUS
 62
     7
 10
-635.3898812398
 20
-388.8643617487
 30
0.0
  0
VERTEX
  5
A04
  8
0
  6
CONTINUOUS
 62
     7
 10
-635.1460386381
 20
-388.6452476239
 30
0.0
  0
VERTEX
  5
A05
  8
0
  6
CONTINUOUS
 62
     7
 10
-634.764986144
 20
-388.4408223188
 30
0.0
  0
VERTEX
  5
A06
  8
0
  6
CONTINUOUS
 62
     7
 10
-634.3543697462
 20
-388.2977301932
 30
0.0
  0
VERTEX
  5
A07
  8
0
  6
CONTINUOUS
 62
     7
 10
-633.1840921506
 20
-388.0754719234
 30
0.0
  0
VERTEX
  5
A08
  8
0
  6
CONTINUOUS
 62
     7
 10
-631.9835353956
 20
-388.0289840257
 30
0.0
  0
VERTEX
  5
A09
  8
0
  6
CONTINUOUS
 62
     7
 10
-630.93491088
 20
-388.0981738425
 30
0.0
  0
VERTEX
  5
A0A
  8
0
  6
CONTINUOUS
 62
     7
 10
-629.9083400831
 20
-388.3075612343
 30
0.0
  0
VERTEX
  5
A0B
  8
0
  6
CONTINUOUS
 62
     7
 10
-629.2129922971
 20
-388.5986516929
 30
0.0
  0
VERTEX
  5
A0C
  8
0
  6
CONTINUOUS
 62
     7
 10
-629.0083695516
 20
-388.745342449
 30
0.0
  0
VERTEX
  5
A0D
  8
0
  6
CONTINUOUS
 62
     7
 10
-628.8411189184
 20
-388.9358910477
 30
0.0
  0
VERTEX
  5
A0E
  8
0
  6
CONTINUOUS
 62
     7
 10
-628.7765074834
 20
-389.0840532935
 30
0.0
  0
VERTEX
  5
A0F
  8
0
  6
CONTINUOUS
 62
     7
 10
-628.7661958799
 20
-389.2467069185
 30
0.0
  0
VERTEX
  5
A10
  8
0
  6
CONTINUOUS
 62
     7
 10
-628.8068462476
 20
-389.3854628062
 30
0.0
  0
VERTEX
  5
A11
  8
0
  6
CONTINUOUS
 62
     7
 10
-628.9291549787
 20
-389.5630734718
 30
0.0
  0
VERTEX
  5
A12
  8
0
  6
CONTINUOUS
 62
     7
 10
-629.2329002485
 20
-389.7979008711
 30
0.0
  0
VERTEX
  5
A13
  8
0
  6
CONTINUOUS
 62
     7
 10
-629.725115405
 20
-390.0200958109
 30
0.0
  0
VERTEX
  5
A14
  8
0
  6
CONTINUOUS
 62
     7
 10
-630.2484441862
 20
-390.1653560555
 30
0.0
  0
VERTEX
  5
A15
  8
0
  6
CONTINUOUS
 62
     7
 10
-631.4047146902
 20
-390.3328637338
 30
0.0
  0
VERTEX
  5
A16
  8
0
  6
CONTINUOUS
 62
     7
 10
-632.5739790067
 20
-390.3487036681
 30
0.0
  0
VERTEX
  5
A17
  8
0
  6
CONTINUOUS
 62
     7
 10
-633.3232689962
 20
-390.2900526977
 30
0.0
  0
VERTEX
  5
A18
  8
0
  6
CONTINUOUS
 62
     7
 10
-634.0606380567
 20
-390.1631693101
 30
0.0
  0
VERTEX
  5
A19
  8
0
  6
CONTINUOUS
 62
     7
 10
-634.5957685575
 20
-390.0087001479
 30
0.0
  0
VERTEX
  5
A1A
  8
0
  6
CONTINUOUS
 62
     7
 10
-635.1625491247
 20
-389.7280218756
 30
0.0
  0
VERTEX
  5
A1B
  8
0
  6
CONTINUOUS
 62
     7
 10
-635.3452373609
 20
-389.5719806409
 30
0.0
  0
VERTEX
  5
A1C
  8
0
  6
CONTINUOUS
 62
     7
 10
-635.4807187185
 20
-389.3694105304
 30
0.0
  0
VERTEX
  5
A1D
  8
0
  6
CONTINUOUS
 62
     7
 10
-635.5161834821
 20
-389.2214494503
 30
0.0
  0
VERTEX
  5
A1E
  8
0
  6
CONTINUOUS
 62
     7
 10
-635.5171371564
 20
-389.1923661089
 30
0.0
  0
SEQEND
  5
BDB
  8
0
  6
CONTINUOUS
 62
     7
  0
ARC
  5
248
  8
0
  6
CONTINUOUS
 62
     7
 10
-604.3601642499
 20
-323.1919222903
 30
0.0
 40
0.7082663761289498
 50
359.9640680056
 51
89.9627005475
  0
LINE
  5
249
  8
0
  6
CONTINUOUS
 62
     7
 10
-603.6518980131
 20
-323.1923664665
 30
0.0
 11
-603.6518980131
 21
-386.1923674798
 31
0.0
  0
ARC
  5
24A
  8
0
  6
CONTINUOUS
 62
     7
 10
-604.3601642499
 20
-386.192811656
 30
0.0
 40
0.7082663761288363
 50
270.0372994525
 51
0.0359319944
  0
LINE
  5
24B
  8
0
  6
CONTINUOUS
 62
     7
 10
-599.0749765501
 20
-323.1923664665
 30
0.0
 11
-603.6518980131
 21
-323.1923664665
 31
0.0
  0
LINE
  5
24C
  8
0
  6
CONTINUOUS
 62
     7
 10
-599.0749765501
 20
-386.1923674798
 30
0.0
 11
-603.6518980131
 21
-386.1923674798
 31
0.0
  0
LINE
  5
24D
  8
0
  6
CONTINUOUS
 62
     7
 10
-782.4035454855
 20
-27.692374841
 30
0.0
 11
-782.4035454855
 21
-111.6923662579
 31
0.0
  0
LINE
  5
24E
  8
0
  6
CONTINUOUS
 62
     7
 10
-782.4035454855
 20
-27.692374841
 30
0.0
 11
-894.3650294408
 21
-27.692374841
 31
0.0
  0
LINE
  5
24F
  8
0
  6
CONTINUOUS
 62
     7
 10
-782.4035454855
 20
-681.6923591054
 30
0.0
 11
-782.4035454855
 21
-597.6923676884
 31
0.0
  0
LINE
  5
250
  8
0
  6
CONTINUOUS
 62
     7
 10
-782.4035454855
 20
-681.6923591054
 30
0.0
 11
-894.3650294408
 21
-681.6923591054
 31
0.0
  0
LINE
  5
251
  8
0
  6
CONTINUOUS
 62
     7
 10
-136.399181591
 20
-344.6923671967
 30
0.0
 11
-136.399181591
 21
-364.6923667497
 31
0.0
  0
LINE
  5
252
  8
0
  6
CONTINUOUS
 62
     7
 10
-136.399181591
 20
-364.6923667497
 30
0.0
 11
-495.0046707258
 21
-364.6923667497
 31
0.0
  0
LINE
  5
253
  8
0
  6
CONTINUOUS
 62
     7
 10
-136.399181591
 20
-344.6923671967
 30
0.0
 11
-495.0046707258
 21
-344.6923671967
 31
0.0
  0
LINE
  5
254
  8
0
  6
CONTINUOUS
 62
     7
 10
-437.3186100587
 20
-11.6923722184
 30
0.0
 11
-501.1189151868
 21
-11.6923722184
 31
0.0
  0
LINE
  5
255
  8
0
  6
CONTINUOUS
 62
     7
 10
-437.3186100587
 20
-16.5984603322
 30
0.0
 11
-437.3186100587
 21
-11.6923722184
 31
0.0
  0
POLYLINE
  5
256
  8
0
  6
CONTINUOUS
 62
     7
 66
     1
 10
0.0
 20
0.0
 30
0.0
  0
VERTEX
  5
A1F
  8
0
  6
CONTINUOUS
 62
     7
 10
-437.3186100587
 20
-16.5982517159
 30
0.0
  0
VERTEX
  5
A20
  8
0
  6
CONTINUOUS
 62
     7
 10
-441.3461853132
 20
-18.3005007661
 30
0.0
  0
VERTEX
  5
A21
  8
0
  6
CONTINUOUS
 62
     7
 10
-445.3432429895
 20
-20.2693017876
 30
0.0
  0
VERTEX
  5
A22
  8
0
  6
CONTINUOUS
 62
     7
 10
-449.3225086793
 20
-22.5245925343
 30
0.0
  0
VERTEX
  5
A23
  8
0
  6
CONTINUOUS
 62
     7
 10
-453.2585013971
 20
-25.0650319016
 30
0.0
  0
VERTEX
  5
A24
  8
0
  6
CONTINUOUS
 62
     7
 10
-456.3977588281
 20
-27.3277732289
 30
0.0
  0
VERTEX
  5
A25
  8
0
  6
CONTINUOUS
 62
     7
 10
-459.5027733907
 20
-29.7875377095
 30
0.0
  0
VERTEX
  5
A26
  8
0
  6
CONTINUOUS
 62
     7
 10
-462.56680976
 20
-32.4477824128
 30
0.0
  0
VERTEX
  5
A27
  8
0
  6
CONTINUOUS
 62
     7
 10
-465.5831028089
 20
-35.3119346059
 30
0.0
  0
VERTEX
  5
A28
  8
0
  6
CONTINUOUS
 62
     7
 10
-468.5449172124
 20
-38.3833917535
 30
0.0
  0
VERTEX
  5
A29
  8
0
  6
CONTINUOUS
 62
     7
 10
-471.0512627229
 20
-41.2029000676
 30
0.0
  0
VERTEX
  5
A2A
  8
0
  6
CONTINUOUS
 62
     7
 10
-473.5133517847
 20
-44.1892715848
 30
0.0
  0
VERTEX
  5
A2B
  8
0
  6
CONTINUOUS
 62
     7
 10
-475.9243298635
 20
-47.3433109677
 30
0.0
  0
VERTEX
  5
A2C
  8
0
  6
CONTINUOUS
 62
     7
 10
-478.2772828207
 20
-50.6657334721
 30
0.0
  0
VERTEX
  5
A2D
  8
0
  6
CONTINUOUS
 62
     7
 10
-480.565266715
 20
-54.1573437608
 30
0.0
  0
VERTEX
  5
A2E
  8
0
  6
CONTINUOUS
 62
     7
 10
-482.781486617
 20
-57.8188868916
 30
0.0
  0
VERTEX
  5
A2F
  8
0
  6
CONTINUOUS
 62
     7
 10
-484.8520327672
 20
-61.5266236222
 30
0.0
  0
VERTEX
  5
A30
  8
0
  6
CONTINUOUS
 62
     7
 10
-486.8470002279
 20
-65.4037269509
 30
0.0
  0
VERTEX
  5
A31
  8
0
  6
CONTINUOUS
 62
     7
 10
-488.7573886976
 20
-69.4465609944
 30
0.0
  0
VERTEX
  5
A32
  8
0
  6
CONTINUOUS
 62
     7
 10
-490.5740786657
 20
-73.651549474
 30
0.0
  0
VERTEX
  5
A33
  8
0
  6
CONTINUOUS
 62
     7
 10
-491.6474391088
 20
-76.3610574162
 30
0.0
  0
SEQEND
  5
BDA
  8
0
  6
CONTINUOUS
 62
     7
  0
POLYLINE
  5
257
  8
0
  6
CONTINUOUS
 62
     7
 66
     1
 10
0.0
 20
0.0
 30
0.0
  0
VERTEX
  5
A34
  8
0
  6
CONTINUOUS
 62
     7
 10
-433.9664746389
 20
-91.5045412934
 30
0.0
  0
VERTEX
  5
A35
  8
0
  6
CONTINUOUS
 62
     7
 10
-433.9665342435
 20
-104.9172851002
 30
0.0
  0
VERTEX
  5
A36
  8
0
  6
CONTINUOUS
 62
     7
 10
-433.9687098131
 20
-118.4250983155
 30
0.0
  0
VERTEX
  5
A37
  8
0
  6
CONTINUOUS
 62
     7
 10
-433.9733589754
 20
-132.0204409516
 30
0.0
  0
VERTEX
  5
A38
  8
0
  6
CONTINUOUS
 62
     7
 10
-433.980809556
 20
-145.6957879222
 30
0.0
  0
VERTEX
  5
A39
  8
0
  6
CONTINUOUS
 62
     7
 10
-433.9904059038
 20
-159.448814646
 30
0.0
  0
VERTEX
  5
A3A
  8
0
  6
CONTINUOUS
 62
     7
 10
-433.9999724493
 20
-173.2770624316
 30
0.0
  0
VERTEX
  5
A3B
  8
0
  6
CONTINUOUS
 62
     7
 10
-434.0077508554
 20
-187.1729167855
 30
0.0
  0
VERTEX
  5
A3C
  8
0
  6
CONTINUOUS
 62
     7
 10
-434.0118635759
 20
-201.1287483132
 30
0.0
  0
VERTEX
  5
A3D
  8
0
  6
CONTINUOUS
 62
     7
 10
-434.0218175516
 20
-215.1412489569
 30
0.0
  0
VERTEX
  5
A3E
  8
0
  6
CONTINUOUS
 62
     7
 10
-434.0413976774
 20
-229.2076471007
 30
0.0
  0
VERTEX
  5
A3F
  8
0
  6
CONTINUOUS
 62
     7
 10
-434.0602625474
 20
-243.3207231319
 30
0.0
  0
VERTEX
  5
A40
  8
0
  6
CONTINUOUS
 62
     7
 10
-434.0679813489
 20
-257.4732201851
 30
0.0
  0
VERTEX
  5
A41
  8
0
  6
CONTINUOUS
 62
     7
 10
-434.0694714651
 20
-272.5434052503
 30
0.0
  0
VERTEX
  5
A42
  8
0
  6
CONTINUOUS
 62
     7
 10
-434.0752829179
 20
-287.6510220325
 30
0.0
  0
VERTEX
  5
A43
  8
0
  6
CONTINUOUS
 62
     7
 10
-434.0831805334
 20
-302.7866865254
 30
0.0
  0
VERTEX
  5
A44
  8
0
  6
CONTINUOUS
 62
     7
 10
-434.0910185442
 20
-317.941007272
 30
0.0
  0
VERTEX
  5
A45
  8
0
  6
CONTINUOUS
 62
     7
 10
-434.0927172765
 20
-331.3106047666
 30
0.0
  0
VERTEX
  5
A46
  8
0
  6
CONTINUOUS
 62
     7
 10
-434.0861309633
 20
-344.6923671967
 30
0.0
  0
SEQEND
  5
BD9
  8
0
  6
CONTINUOUS
 62
     7
  0
POLYLINE
  5
258
  8
0
  6
CONTINUOUS
 62
     7
 66
     1
 10
0.0
 20
0.0
 30
0.0
  0
VERTEX
  5
A47
  8
0
  6
CONTINUOUS
 62
     7
 10
-434.0861309633
 20
-364.6923667497
 30
0.0
  0
VERTEX
  5
A48
  8
0
  6
CONTINUOUS
 62
     7
 10
-434.0878893003
 20
-380.004613728
 30
0.0
  0
VERTEX
  5
A49
  8
0
  6
CONTINUOUS
 62
     7
 10
-434.0794552431
 20
-395.3092182732
 30
0.0
  0
VERTEX
  5
A4A
  8
0
  6
CONTINUOUS
 62
     7
 10
-434.0675939188
 20
-410.5964499271
 30
0.0
  0
VERTEX
  5
A4B
  8
0
  6
CONTINUOUS
 62
     7
 10
-434.0591002569
 20
-425.8565800941
 30
0.0
  0
VERTEX
  5
A4C
  8
0
  6
CONTINUOUS
 62
     7
 10
-434.056805478
 20
-441.0862895406
 30
0.0
  0
VERTEX
  5
A4D
  8
0
  6
CONTINUOUS
 62
     7
 10
-434.0549875364
 20
-456.2824117697
 30
0.0
  0
VERTEX
  5
A4E
  8
0
  6
CONTINUOUS
 62
     7
 10
-434.0479541883
 20
-471.4348363436
 30
0.0
  0
VERTEX
  5
A4F
  8
0
  6
CONTINUOUS
 62
     7
 10
-434.0299535856
 20
-486.533460275
 30
0.0
  0
VERTEX
  5
A50
  8
0
  6
CONTINUOUS
 62
     7
 10
-434.0148438081
 20
-498.9107819951
 30
0.0
  0
VERTEX
  5
A51
  8
0
  6
CONTINUOUS
 62
     7
 10
-434.0083469018
 20
-511.2496587193
 30
0.0
  0
VERTEX
  5
A52
  8
0
  6
CONTINUOUS
 62
     7
 10
-434.0058733091
 20
-523.5444578088
 30
0.0
  0
VERTEX
  5
A53
  8
0
  6
CONTINUOUS
 62
     7
 10
-434.0029228792
 20
-535.7895168221
 30
0.0
  0
VERTEX
  5
A54
  8
0
  6
CONTINUOUS
 62
     7
 10
-433.9949060545
 20
-547.9791882193
 30
0.0
  0
VERTEX
  5
A55
  8
0
  6
CONTINUOUS
 62
     7
 10
-433.9846242532
 20
-559.7648444331
 30
0.0
  0
VERTEX
  5
A56
  8
0
  6
CONTINUOUS
 62
     7
 10
-433.9771736726
 20
-571.4956643737
 30
0.0
  0
VERTEX
  5
A57
  8
0
  6
CONTINUOUS
 62
     7
 10
-433.9724649057
 20
-583.1669243729
 30
0.0
  0
VERTEX
  5
A58
  8
0
  6
CONTINUOUS
 62
     7
 10
-433.9692462549
 20
-594.8043736375
 30
0.0
  0
VERTEX
  5
A59
  8
0
  6
CONTINUOUS
 62
     7
 10
-433.9669514761
 20
-606.3770028508
 30
0.0
  0
VERTEX
  5
A5A
  8
0
  6
CONTINUOUS
 62
     7
 10
-433.9664746389
 20
-617.880192653
 30
0.0
  0
SEQEND
  5
BD8
  8
0
  6
CONTINUOUS
 62
     7
  0
POLYLINE
  5
259
  8
0
  6
CONTINUOUS
 62
     7
 66
     1
 10
0.0
 20
0.0
 30
0.0
  0
VERTEX
  5
A5B
  8
0
  6
CONTINUOUS
 62
     7
 10
-491.6474391088
 20
-632.9972716725
 30
0.0
  0
VERTEX
  5
A5C
  8
0
  6
CONTINUOUS
 62
     7
 10
-490.3664756879
 20
-636.2334462559
 30
0.0
  0
VERTEX
  5
A5D
  8
0
  6
CONTINUOUS
 62
     7
 10
-488.3772898778
 20
-640.7714458859
 30
0.0
  0
VERTEX
  5
A5E
  8
0
  6
CONTINUOUS
 62
     7
 10
-486.2828422651
 20
-645.1114686883
 30
0.0
  0
VERTEX
  5
A5F
  8
0
  6
CONTINUOUS
 62
     7
 10
-483.9716721639
 20
-649.4711312211
 30
0.0
  0
VERTEX
  5
A60
  8
0
  6
CONTINUOUS
 62
     7
 10
-481.5607238874
 20
-653.6186608231
 30
0.0
  0
VERTEX
  5
A61
  8
0
  6
CONTINUOUS
 62
     7
 10
-479.061322318
 20
-657.5530442155
 30
0.0
  0
VERTEX
  5
A62
  8
0
  6
CONTINUOUS
 62
     7
 10
-476.484851943
 20
-661.2732383168
 30
0.0
  0
VERTEX
  5
A63
  8
0
  6
CONTINUOUS
 62
     7
 10
-473.762052165
 20
-664.8813458836
 30
0.0
  0
VERTEX
  5
A64
  8
0
  6
CONTINUOUS
 62
     7
 10
-470.9692169294
 20
-668.277529136
 30
0.0
  0
VERTEX
  5
A65
  8
0
  6
CONTINUOUS
 62
     7
 10
-468.1148398981
 20
-671.4641126549
 30
0.0
  0
VERTEX
  5
A66
  8
0
  6
CONTINUOUS
 62
     7
 10
-465.2075041399
 20
-674.4433018124
 30
0.0
  0
VERTEX
  5
A67
  8
0
  6
CONTINUOUS
 62
     7
 10
-462.2814227209
 20
-677.1947416222
 30
0.0
  0
VERTEX
  5
A68
  8
0
  6
CONTINUOUS
 62
     7
 10
-459.3106974229
 20
-679.7558936036
 30
0.0
  0
VERTEX
  5
A69
  8
0
  6
CONTINUOUS
 62
     7
 10
-456.3011098966
 20
-682.129857198
 30
0.0
  0
VERTEX
  5
A6A
  8
0
  6
CONTINUOUS
 62
     7
 10
-453.2585013971
 20
-684.3197020448
 30
0.0
  0
VERTEX
  5
A6B
  8
0
  6
CONTINUOUS
 62
     7
 10
-449.3331481084
 20
-686.8533464825
 30
0.0
  0
VERTEX
  5
A6C
  8
0
  6
CONTINUOUS
 62
     7
 10
-445.3623164758
 20
-689.1044351018
 30
0.0
  0
VERTEX
  5
A6D
  8
0
  6
CONTINUOUS
 62
     7
 10
-441.3546193704
 20
-691.0798522389
 30
0.0
  0
VERTEX
  5
A6E
  8
0
  6
CONTINUOUS
 62
     7
 10
-437.3186398611
 20
-692.7864822304
 30
0.0
  0
SEQEND
  5
BD7
  8
0
  6
CONTINUOUS
 62
     7
  0
LINE
  5
25A
  8
0
  6
CONTINUOUS
 62
     7
 10
-437.3183716402
 20
-692.7865120328
 30
0.0
 11
-437.3186398611
 21
-692.7864822304
 31
0.0
  0
LINE
  5
25B
  8
0
  6
CONTINUOUS
 62
     7
 10
-437.3183716402
 20
-692.7865120328
 30
0.0
 11
-437.3183716402
 21
-697.692361728
 31
0.0
  0
LINE
  5
25C
  8
0
  6
CONTINUOUS
 62
     7
 10
-437.3183716402
 20
-697.692361728
 30
0.0
 11
-501.1189151868
 21
-697.692361728
 31
0.0
  0
LINE
  5
25D
  8
0
  6
CONTINUOUS
 62
     7
 10
-791.0638023481
 20
-21.6923626817
 30
0.0
 11
-884.3650389776
 21
-21.6923626817
 31
0.0
  0
LINE
  5
25E
  8
0
  6
CONTINUOUS
 62
     7
 10
-791.0638023481
 20
-21.6923626817
 30
0.0
 11
-791.0638023481
 21
-27.692374841
 31
0.0
  0
LINE
  5
25F
  8
0
  6
CONTINUOUS
 62
     7
 10
-791.0638023481
 20
-687.6923712647
 30
0.0
 11
-791.0638023481
 21
-681.6923591054
 31
0.0
  0
LINE
  5
260
  8
0
  6
CONTINUOUS
 62
     7
 10
-791.0638023481
 20
-687.6923712647
 30
0.0
 11
-884.3650389776
 21
-687.6923712647
 31
0.0
  0
POLYLINE
  5
261
  8
0
  6
CONTINUOUS
 62
     7
 66
     1
 10
0.0
 20
0.0
 30
0.0
  0
VERTEX
  5
A6F
  8
0
  6
CONTINUOUS
 62
     7
 10
-433.9664746389
 20
-617.880192653
 30
0.0
  0
VERTEX
  5
A70
  8
0
  6
CONTINUOUS
 62
     7
 10
-433.9473117456
 20
-622.0573755658
 30
0.0
  0
VERTEX
  5
A71
  8
0
  6
CONTINUOUS
 62
     7
 10
-433.9047242269
 20
-626.1695298112
 30
0.0
  0
VERTEX
  5
A72
  8
0
  6
CONTINUOUS
 62
     7
 10
-433.8617790803
 20
-630.2117678082
 30
0.0
  0
VERTEX
  5
A73
  8
0
  6
CONTINUOUS
 62
     7
 10
-433.8416923151
 20
-634.1791423714
 30
0.0
  0
VERTEX
  5
A74
  8
0
  6
CONTINUOUS
 62
     7
 10
-433.8537920579
 20
-639.4596370614
 30
0.0
  0
VERTEX
  5
A75
  8
0
  6
CONTINUOUS
 62
     7
 10
-433.8935781583
 20
-644.5846232331
 30
0.0
  0
VERTEX
  5
A76
  8
0
  6
CONTINUOUS
 62
     7
 10
-433.9621831045
 20
-649.5356532491
 30
0.0
  0
VERTEX
  5
A77
  8
0
  6
CONTINUOUS
 62
     7
 10
-434.0432454214
 20
-653.5459729588
 30
0.0
  0
VERTEX
  5
A78
  8
0
  6
CONTINUOUS
 62
     7
 10
-434.1464806661
 20
-657.4241789735
 30
0.0
  0
VERTEX
  5
A79
  8
0
  6
CONTINUOUS
 62
     7
 10
-434.2717696294
 20
-661.1604961312
 30
0.0
  0
VERTEX
  5
A7A
  8
0
  6
CONTINUOUS
 62
     7
 10
-434.418993102
 20
-664.745030061
 30
0.0
  0
VERTEX
  5
A7B
  8
0
  6
CONTINUOUS
 62
     7
 10
-434.5926512346
 20
-668.2698401368
 30
0.0
  0
VERTEX
  5
A7C
  8
0
  6
CONTINUOUS
 62
     7
 10
-434.78764783
 20
-671.6267439282
 30
0.0
  0
VERTEX
  5
A7D
  8
0
  6
CONTINUOUS
 62
     7
 10
-435.0030888185
 20
-674.8063835061
 30
0.0
  0
VERTEX
  5
A7E
  8
0
  6
CONTINUOUS
 62
     7
 10
-435.2379907236
 20
-677.7993413365
 30
0.0
  0
VERTEX
  5
A7F
  8
0
  6
CONTINUOUS
 62
     7
 10
-435.5219472513
 20
-680.9111210263
 30
0.0
  0
VERTEX
  5
A80
  8
0
  6
CONTINUOUS
 62
     7
 10
-435.8290899858
 20
-683.7809952653
 30
0.0
  0
VERTEX
  5
A81
  8
0
  6
CONTINUOUS
 62
     7
 10
-436.1594487295
 20
-686.3983246243
 30
0.0
  0
VERTEX
  5
A82
  8
0
  6
CONTINUOUS
 62
     7
 10
-436.521129714
 20
-688.8054582036
 30
0.0
  0
VERTEX
  5
A83
  8
0
  6
CONTINUOUS
 62
     7
 10
-436.9074572191
 20
-690.9377845681
 30
0.0
  0
VERTEX
  5
A84
  8
0
  6
CONTINUOUS
 62
     7
 10
-437.3186398611
 20
-692.7864822304
 30
0.0
  0
SEQEND
  5
BD6
  8
0
  6
CONTINUOUS
 62
     7
  0
POLYLINE
  5
262
  8
0
  6
CONTINUOUS
 62
     7
 66
     1
 10
0.0
 20
0.0
 30
0.0
  0
VERTEX
  5
A85
  8
0
  6
CONTINUOUS
 62
     7
 10
-285.1803470716
 20
-364.6923667497
 30
0.0
  0
VERTEX
  5
A86
  8
0
  6
CONTINUOUS
 62
     7
 10
-285.1751018629
 20
-372.2289326346
 30
0.0
  0
VERTEX
  5
A87
  8
0
  6
CONTINUOUS
 62
     7
 10
-285.1654459104
 20
-379.763354615
 30
0.0
  0
VERTEX
  5
A88
  8
0
  6
CONTINUOUS
 62
     7
 10
-285.1514388189
 20
-387.2984098947
 30
0.0
  0
VERTEX
  5
A89
  8
0
  6
CONTINUOUS
 62
     7
 10
-285.133795844
 20
-394.8294902897
 30
0.0
  0
VERTEX
  5
A8A
  8
0
  6
CONTINUOUS
 62
     7
 10
-285.0935329065
 20
-408.8280173695
 30
0.0
  0
VERTEX
  5
A8B
  8
0
  6
CONTINUOUS
 62
     7
 10
-285.0392628774
 20
-422.8095683015
 30
0.0
  0
VERTEX
  5
A8C
  8
0
  6
CONTINUOUS
 62
     7
 10
-284.9705685243
 20
-436.7696168578
 30
0.0
  0
VERTEX
  5
A8D
  8
0
  6
CONTINUOUS
 62
     7
 10
-284.8896254167
 20
-450.6979482925
 30
0.0
  0
VERTEX
  5
A8E
  8
0
  6
CONTINUOUS
 62
     7
 10
-284.7967315778
 20
-464.5857560194
 30
0.0
  0
VERTEX
  5
A8F
  8
0
  6
CONTINUOUS
 62
     7
 10
-284.6922446355
 20
-478.4242558038
 30
0.0
  0
VERTEX
  5
A90
  8
0
  6
CONTINUOUS
 62
     7
 10
-284.5752705202
 20
-492.304367081
 30
0.0
  0
VERTEX
  5
A91
  8
0
  6
CONTINUOUS
 62
     7
 10
-284.4472397432
 20
-506.128591553
 30
0.0
  0
VERTEX
  5
A92
  8
0
  6
CONTINUOUS
 62
     7
 10
-284.3095828161
 20
-519.8881598866
 30
0.0
  0
VERTEX
  5
A93
  8
0
  6
CONTINUOUS
 62
     7
 10
-284.1638494596
 20
-533.5742952979
 30
0.0
  0
VERTEX
  5
A94
  8
0
  6
CONTINUOUS
 62
     7
 10
-284.0834129915
 20
-539.3662574446
 30
0.0
  0
VERTEX
  5
A95
  8
0
  6
CONTINUOUS
 62
     7
 10
-283.9787472353
 20
-545.1176139272
 30
0.0
  0
VERTEX
  5
A96
  8
0
  6
CONTINUOUS
 62
     7
 10
-283.8640678987
 20
-550.8136871016
 30
0.0
  0
VERTEX
  5
A97
  8
0
  6
CONTINUOUS
 62
     7
 10
-283.7537098989
 20
-556.4398440278
 30
0.0
  0
VERTEX
  5
A98
  8
0
  6
CONTINUOUS
 62
     7
 10
-283.6618591413
 20
-561.9813772595
 30
0.0
  0
VERTEX
  5
A99
  8
0
  6
CONTINUOUS
 62
     7
 10
-283.589260684
 20
-567.5855847752
 30
0.0
  0
VERTEX
  5
A9A
  8
0
  6
CONTINUOUS
 62
     7
 10
-283.5316825971
 20
-573.0998041785
 30
0.0
  0
VERTEX
  5
A9B
  8
0
  6
CONTINUOUS
 62
     7
 10
-283.4894825086
 20
-578.5142454064
 30
0.0
  0
VERTEX
  5
A9C
  8
0
  6
CONTINUOUS
 62
     7
 10
-283.463077651
 20
-583.8191780007
 30
0.0
  0
VERTEX
  5
A9D
  8
0
  6
CONTINUOUS
 62
     7
 10
-283.4528554544
 20
-589.0048417008
 30
0.0
  0
VERTEX
  5
A9E
  8
0
  6
CONTINUOUS
 62
     7
 10
-283.457623826
 20
-593.9399423754
 30
0.0
  0
VERTEX
  5
A9F
  8
0
  6
CONTINUOUS
 62
     7
 10
-283.4763694868
 20
-598.7584265626
 30
0.0
  0
VERTEX
  5
AA0
  8
0
  6
CONTINUOUS
 62
     7
 10
-283.5100163087
 20
-603.4524860537
 30
0.0
  0
VERTEX
  5
AA1
  8
0
  6
CONTINUOUS
 62
     7
 10
-283.5594881639
 20
-608.0143126405
 30
0.0
  0
VERTEX
  5
AA2
  8
0
  6
CONTINUOUS
 62
     7
 10
-283.6256791219
 20
-612.4360832131
 30
0.0
  0
VERTEX
  5
AA3
  8
0
  6
CONTINUOUS
 62
     7
 10
-283.7106455431
 20
-616.8440851128
 30
0.0
  0
VERTEX
  5
AA4
  8
0
  6
CONTINUOUS
 62
     7
 10
-283.8118244276
 20
-621.0996481335
 30
0.0
  0
VERTEX
  5
AA5
  8
0
  6
CONTINUOUS
 62
     7
 10
-283.9299608335
 20
-625.1953216946
 30
0.0
  0
VERTEX
  5
AA6
  8
0
  6
CONTINUOUS
 62
     7
 10
-284.0657998189
 20
-629.1236850178
 30
0.0
  0
VERTEX
  5
AA7
  8
0
  6
CONTINUOUS
 62
     7
 10
-284.2201162443
 20
-632.8773471272
 30
0.0
  0
VERTEX
  5
AA8
  8
0
  6
CONTINUOUS
 62
     7
 10
-284.4270635709
 20
-637.0939287102
 30
0.0
  0
VERTEX
  5
AA9
  8
0
  6
CONTINUOUS
 62
     7
 10
-284.6602965459
 20
-641.0594257272
 30
0.0
  0
VERTEX
  5
AAA
  8
0
  6
CONTINUOUS
 62
     7
 10
-284.9202025995
 20
-644.7632881558
 30
0.0
  0
VERTEX
  5
AAB
  8
0
  6
CONTINUOUS
 62
     7
 10
-285.2071989641
 20
-648.1949957764
 30
0.0
  0
VERTEX
  5
AAC
  8
0
  6
CONTINUOUS
 62
     7
 10
-285.464273797
 20
-650.8139046586
 30
0.0
  0
VERTEX
  5
AAD
  8
0
  6
CONTINUOUS
 62
     7
 10
-285.7402731046
 20
-653.2441946423
 30
0.0
  0
VERTEX
  5
AAE
  8
0
  6
CONTINUOUS
 62
     7
 10
-286.0353458986
 20
-655.48127617
 30
0.0
  0
VERTEX
  5
AAF
  8
0
  6
CONTINUOUS
 62
     7
 10
-286.3497305974
 20
-657.5207086957
 30
0.0
  0
VERTEX
  5
AB0
  8
0
  6
CONTINUOUS
 62
     7
 10
-286.6835166082
 20
-659.3579920686
 30
0.0
  0
VERTEX
  5
AB1
  8
0
  6
CONTINUOUS
 62
     7
 10
-287.0154846773
 20
-660.9059544957
 30
0.0
  0
VERTEX
  5
AB2
  8
0
  6
CONTINUOUS
 62
     7
 10
-287.3634565935
 20
-662.2705730355
 30
0.0
  0
VERTEX
  5
AB3
  8
0
  6
CONTINUOUS
 62
     7
 10
-287.7293993101
 20
-663.4497913277
 30
0.0
  0
VERTEX
  5
AB4
  8
0
  6
CONTINUOUS
 62
     7
 10
-288.115339385
 20
-664.4415828145
 30
0.0
  0
VERTEX
  5
AB5
  8
0
  6
CONTINUOUS
 62
     7
 10
-288.5581124887
 20
-665.2632328427
 30
0.0
  0
VERTEX
  5
AB6
  8
0
  6
CONTINUOUS
 62
     7
 10
-289.0353370771
 20
-665.8901842988
 30
0.0
  0
VERTEX
  5
AB7
  8
0
  6
CONTINUOUS
 62
     7
 10
-289.4822527036
 20
-666.3076552308
 30
0.0
  0
VERTEX
  5
AB8
  8
0
  6
CONTINUOUS
 62
     7
 10
-289.8341585264
 20
-666.5008636868
 30
0.0
  0
SEQEND
  5
BD5
  8
0
  6
CONTINUOUS
 62
     7
  0
POLYLINE
  5
263
  8
0
  6
CONTINUOUS
 62
     7
 66
     1
 10
0.0
 20
0.0
 30
0.0
  0
VERTEX
  5
AB9
  8
0
  6
CONTINUOUS
 62
     7
 10
-289.8382116422
 20
-666.5019961751
 30
0.0
  0
VERTEX
  5
ABA
  8
0
  6
CONTINUOUS
 62
     7
 10
-289.923327075
 20
-666.5199669755
 30
0.0
  0
VERTEX
  5
ABB
  8
0
  6
CONTINUOUS
 62
     7
 10
-289.9973262414
 20
-666.5353151715
 30
0.0
  0
VERTEX
  5
ABC
  8
0
  6
CONTINUOUS
 62
     7
 10
-290.0654543504
 20
-666.5494712746
 30
0.0
  0
VERTEX
  5
ABD
  8
0
  6
CONTINUOUS
 62
     7
 10
-290.1293207273
 20
-666.5628227151
 30
0.0
  0
VERTEX
  5
ABE
  8
0
  6
CONTINUOUS
 62
     7
 10
-290.1587058172
 20
-666.5689321912
 30
0.0
  0
SEQEND
  5
BD4
  8
0
  6
CONTINUOUS
 62
     7
  0
POLYLINE
  5
264
  8
0
  6
CONTINUOUS
 62
     7
 66
     1
 10
0.0
 20
0.0
 30
0.0
  0
VERTEX
  5
ABF
  8
0
  6
CONTINUOUS
 62
     7
 10
-290.188359128
 20
-666.5751310742
 30
0.0
  0
VERTEX
  5
AC0
  8
0
  6
CONTINUOUS
 62
     7
 10
-290.2428377733
 20
-666.5864559567
 30
0.0
  0
VERTEX
  5
AC1
  8
0
  6
CONTINUOUS
 62
     7
 10
-290.3021741972
 20
-666.5987941182
 30
0.0
  0
VERTEX
  5
AC2
  8
0
  6
CONTINUOUS
 62
     7
 10
-290.3567422494
 20
-666.610148803
 30
0.0
  0
VERTEX
  5
AC3
  8
0
  6
CONTINUOUS
 62
     7
 10
-290.387021409
 20
-666.616437093
 30
0.0
  0
SEQEND
  5
BD3
  8
0
  6
CONTINUOUS
 62
     7
  0
POLYLINE
  5
265
  8
0
  6
CONTINUOUS
 62
     7
 66
     1
 10
0.0
 20
0.0
 30
0.0
  0
VERTEX
  5
AC4
  8
0
  6
CONTINUOUS
 62
     7
 10
-290.2461160287
 20
-42.786565677
 30
0.0
  0
VERTEX
  5
AC5
  8
0
  6
CONTINUOUS
 62
     7
 10
-290.2614940271
 20
-42.7806946194
 30
0.0
  0
VERTEX
  5
AC6
  8
0
  6
CONTINUOUS
 62
     7
 10
-290.2759481534
 20
-42.77094926
 30
0.0
  0
VERTEX
  5
AC7
  8
0
  6
CONTINUOUS
 62
     7
 10
-290.1630569562
 20
-42.7969368851
 30
0.0
  0
VERTEX
  5
AC8
  8
0
  6
CONTINUOUS
 62
     7
 10
-289.833294259
 20
-42.8841086781
 30
0.0
  0
SEQEND
  5
BD2
  8
0
  6
CONTINUOUS
 62
     7
  0
POLYLINE
  5
266
  8
0
  6
CONTINUOUS
 62
     7
 66
     1
 10
0.0
 20
0.0
 30
0.0
  0
VERTEX
  5
AC9
  8
0
  6
CONTINUOUS
 62
     7
 10
-289.833294259
 20
-42.8841086781
 30
0.0
  0
VERTEX
  5
ACA
  8
0
  6
CONTINUOUS
 62
     7
 10
-289.5997334585
 20
-42.9829033768
 30
0.0
  0
VERTEX
  5
ACB
  8
0
  6
CONTINUOUS
 62
     7
 10
-289.3027831182
 20
-43.1729229844
 30
0.0
  0
VERTEX
  5
ACC
  8
0
  6
CONTINUOUS
 62
     7
 10
-289.0114356145
 20
-43.4394153512
 30
0.0
  0
VERTEX
  5
ACD
  8
0
  6
CONTINUOUS
 62
     7
 10
-288.6175383195
 20
-43.9775558865
 30
0.0
  0
VERTEX
  5
ACE
  8
0
  6
CONTINUOUS
 62
     7
 10
-288.2336844072
 20
-44.6886989033
 30
0.0
  0
VERTEX
  5
ACF
  8
0
  6
CONTINUOUS
 62
     7
 10
-287.8036070928
 20
-45.7326444543
 30
0.0
  0
VERTEX
  5
AD0
  8
0
  6
CONTINUOUS
 62
     7
 10
-287.3966861829
 20
-47.0060976899
 30
0.0
  0
VERTEX
  5
AD1
  8
0
  6
CONTINUOUS
 62
     7
 10
-287.0114017591
 20
-48.5057505524
 30
0.0
  0
VERTEX
  5
AD2
  8
0
  6
CONTINUOUS
 62
     7
 10
-286.6462637052
 20
-50.2282949841
 30
0.0
  0
VERTEX
  5
AD3
  8
0
  6
CONTINUOUS
 62
     7
 10
-286.2997819051
 20
-52.1704527295
 30
0.0
  0
VERTEX
  5
AD4
  8
0
  6
CONTINUOUS
 62
     7
 10
-285.9628368482
 20
-54.4112595475
 30
0.0
  0
VERTEX
  5
AD5
  8
0
  6
CONTINUOUS
 62
     7
 10
-285.6502998933
 20
-56.8826767361
 30
0.0
  0
VERTEX
  5
AD6
  8
0
  6
CONTINUOUS
 62
     7
 10
-285.3605319128
 20
-59.5791014588
 30
0.0
  0
VERTEX
  5
AD7
  8
0
  6
CONTINUOUS
 62
     7
 10
-285.0919533834
 20
-62.4949010766
 30
0.0
  0
VERTEX
  5
AD8
  8
0
  6
CONTINUOUS
 62
     7
 10
-284.8429549799
 20
-65.6244131482
 30
0.0
  0
VERTEX
  5
AD9
  8
0
  6
CONTINUOUS
 62
     7
 10
-284.6226860151
 20
-68.8469084656
 30
0.0
  0
VERTEX
  5
ADA
  8
0
  6
CONTINUOUS
 62
     7
 10
-284.4239045248
 20
-72.263983146
 30
0.0
  0
VERTEX
  5
ADB
  8
0
  6
CONTINUOUS
 62
     7
 10
-284.2451203928
 20
-75.8690210736
 30
0.0
  0
VERTEX
  5
ADC
  8
0
  6
CONTINUOUS
 62
     7
 10
-284.0849627122
 20
-79.6554359353
 30
0.0
  0
VERTEX
  5
ADD
  8
0
  6
CONTINUOUS
 62
     7
 10
-283.9419711694
 20
-83.6165818131
 30
0.0
  0
VERTEX
  5
ADE
  8
0
  6
CONTINUOUS
 62
     7
 10
-283.8126290903
 20
-87.8937217152
 30
0.0
  0
VERTEX
  5
ADF
  8
0
  6
CONTINUOUS
 62
     7
 10
-283.7031353578
 20
-92.3533710397
 30
0.0
  0
VERTEX
  5
AE0
  8
0
  6
CONTINUOUS
 62
     7
 10
-283.6129833326
 20
-96.9862314618
 30
0.0
  0
VERTEX
  5
AE1
  8
0
  6
CONTINUOUS
 62
     7
 10
-283.5416961774
 20
-101.7829748547
 30
0.0
  0
VERTEX
  5
AE2
  8
0
  6
CONTINUOUS
 62
     7
 10
-283.4887076482
 20
-106.7343326962
 30
0.0
  0
VERTEX
  5
AE3
  8
0
  6
CONTINUOUS
 62
     7
 10
-283.4497262105
 20
-112.4956282532
 30
0.0
  0
VERTEX
  5
AE4
  8
0
  6
CONTINUOUS
 62
     7
 10
-283.432291852
 20
-118.4460791505
 30
0.0
  0
VERTEX
  5
AE5
  8
0
  6
CONTINUOUS
 62
     7
 10
-283.4370006189
 20
-124.569890157
 30
0.0
  0
VERTEX
  5
AE6
  8
0
  6
CONTINUOUS
 62
     7
 10
-283.4645677671
 20
-130.8513107455
 30
0.0
  0
VERTEX
  5
AE7
  8
0
  6
CONTINUOUS
 62
     7
 10
-283.5035492048
 20
-136.137214557
 30
0.0
  0
VERTEX
  5
AE8
  8
0
  6
CONTINUOUS
 62
     7
 10
-283.5563291177
 20
-141.5254595435
 30
0.0
  0
VERTEX
  5
AE9
  8
0
  6
CONTINUOUS
 62
     7
 10
-283.6233843431
 20
-147.0063003457
 30
0.0
  0
VERTEX
  5
AEA
  8
0
  6
CONTINUOUS
 62
     7
 10
-283.7051619157
 20
-152.5700214064
 30
0.0
  0
VERTEX
  5
AEB
  8
0
  6
CONTINUOUS
 62
     7
 10
-283.8021386728
 20
-158.2069071687
 30
0.0
  0
VERTEX
  5
AEC
  8
0
  6
CONTINUOUS
 62
     7
 10
-283.9254010782
 20
-165.2918132699
 30
0.0
  0
VERTEX
  5
AED
  8
0
  6
CONTINUOUS
 62
     7
 10
-284.0362955198
 20
-172.4614622748
 30
0.0
  0
VERTEX
  5
AEE
  8
0
  6
CONTINUOUS
 62
     7
 10
-284.1362525091
 20
-179.6963336623
 30
0.0
  0
VERTEX
  5
AEF
  8
0
  6
CONTINUOUS
 62
     7
 10
-284.2266727552
 20
-186.9769516146
 30
0.0
  0
VERTEX
  5
AF0
  8
0
  6
CONTINUOUS
 62
     7
 10
-284.3089867696
 20
-194.2837956107
 30
0.0
  0
VERTEX
  5
AF1
  8
0
  6
CONTINUOUS
 62
     7
 10
-284.3846548662
 20
-201.5973749316
 30
0.0
  0
VERTEX
  5
AF2
  8
0
  6
CONTINUOUS
 62
     7
 10
-284.4902444944
 20
-212.5505479729
 30
0.0
  0
VERTEX
  5
AF3
  8
0
  6
CONTINUOUS
 62
     7
 10
-284.5891286001
 20
-223.54344751
 30
0.0
  0
VERTEX
  5
AF4
  8
0
  6
CONTINUOUS
 62
     7
 10
-284.6808899507
 20
-234.5716777003
 30
0.0
  0
VERTEX
  5
AF5
  8
0
  6
CONTINUOUS
 62
     7
 10
-284.7652901277
 20
-245.6307979977
 30
0.0
  0
VERTEX
  5
AF6
  8
0
  6
CONTINUOUS
 62
     7
 10
-284.8426569566
 20
-256.7192586816
 30
0.0
  0
VERTEX
  5
AF7
  8
0
  6
CONTINUOUS
 62
     7
 10
-284.9131692514
 20
-267.8355323828
 30
0.0
  0
VERTEX
  5
AF8
  8
0
  6
CONTINUOUS
 62
     7
 10
-284.976081954
 20
-278.975200907
 30
0.0
  0
VERTEX
  5
AF9
  8
0
  6
CONTINUOUS
 62
     7
 10
-285.0307096109
 20
-290.1338311589
 30
0.0
  0
VERTEX
  5
AFA
  8
0
  6
CONTINUOUS
 62
     7
 10
-285.0803006753
 20
-302.2448095238
 30
0.0
  0
VERTEX
  5
AFB
  8
0
  6
CONTINUOUS
 62
     7
 10
-285.1201165781
 20
-314.3743398345
 30
0.0
  0
VERTEX
  5
AFC
  8
0
  6
CONTINUOUS
 62
     7
 10
-285.150157319
 20
-326.5166609293
 30
0.0
  0
VERTEX
  5
AFD
  8
0
  6
CONTINUOUS
 62
     7
 10
-285.170303689
 20
-338.6660153723
 30
0.0
  0
VERTEX
  5
AFE
  8
0
  6
CONTINUOUS
 62
     7
 10
-285.1764429674
 20
-344.6923671967
 30
0.0
  0
SEQEND
  5
BD1
  8
0
  6
CONTINUOUS
 62
     7
  0
POLYLINE
  5
267
  8
0
  6
CONTINUOUS
 62
     7
 66
     1
 10
0.0
 20
0.0
 30
0.0
  0
VERTEX
  5
AFF
  8
0
  6
CONTINUOUS
 62
     7
 10
-437.3183120355
 20
-16.5983113206
 30
0.0
  0
VERTEX
  5
B00
  8
0
  6
CONTINUOUS
 62
     7
 10
-437.2233916387
 20
-16.9906886971
 30
0.0
  0
VERTEX
  5
B01
  8
0
  6
CONTINUOUS
 62
     7
 10
-437.1273089513
 20
-17.4078616059
 30
0.0
  0
VERTEX
  5
B02
  8
0
  6
CONTINUOUS
 62
     7
 10
-437.0336402521
 20
-17.8355547345
 30
0.0
  0
VERTEX
  5
B03
  8
0
  6
CONTINUOUS
 62
     7
 10
-436.9472433195
 20
-18.2496878064
 30
0.0
  0
VERTEX
  5
B04
  8
0
  6
CONTINUOUS
 62
     7
 10
-436.8695188627
 20
-18.6385783112
 30
0.0
  0
VERTEX
  5
B05
  8
0
  6
CONTINUOUS
 62
     7
 10
-436.7956091032
 20
-19.02302827
 30
0.0
  0
VERTEX
  5
B06
  8
0
  6
CONTINUOUS
 62
     7
 10
-436.7169309721
 20
-19.4482478059
 30
0.0
  0
VERTEX
  5
B07
  8
0
  6
CONTINUOUS
 62
     7
 10
-436.6349745855
 20
-19.9079486287
 30
0.0
  0
VERTEX
  5
B08
  8
0
  6
CONTINUOUS
 62
     7
 10
-436.5488756761
 20
-20.4112204468
 30
0.0
  0
VERTEX
  5
B09
  8
0
  6
CONTINUOUS
 62
     7
 10
-436.4591706857
 20
-20.9599408067
 30
0.0
  0
VERTEX
  5
B0A
  8
0
  6
CONTINUOUS
 62
     7
 10
-436.3874662981
 20
-21.4170488274
 30
0.0
  0
VERTEX
  5
B0B
  8
0
  6
CONTINUOUS
 62
     7
 10
-436.286972867
 20
-22.0864387906
 30
0.0
  0
VERTEX
  5
B0C
  8
0
  6
CONTINUOUS
 62
     7
 10
-436.1807871923
 20
-22.8319736874
 30
0.0
  0
VERTEX
  5
B0D
  8
0
  6
CONTINUOUS
 62
     7
 10
-436.0691178903
 20
-23.6588689244
 30
0.0
  0
VERTEX
  5
B0E
  8
0
  6
CONTINUOUS
 62
     7
 10
-435.9600413904
 20
-24.5139869607
 30
0.0
  0
VERTEX
  5
B0F
  8
0
  6
CONTINUOUS
 62
     7
 10
-435.8739722833
 20
-25.223699466
 30
0.0
  0
VERTEX
  5
B10
  8
0
  6
CONTINUOUS
 62
     7
 10
-435.743229495
 20
-26.3653370297
 30
0.0
  0
VERTEX
  5
B11
  8
0
  6
CONTINUOUS
 62
     7
 10
-435.6091488466
 20
-27.6165875352
 30
0.0
  0
VERTEX
  5
B12
  8
0
  6
CONTINUOUS
 62
     7
 10
-435.4726840124
 20
-28.9842161095
 30
0.0
  0
VERTEX
  5
B13
  8
0
  6
CONTINUOUS
 62
     7
 10
-435.3346694574
 20
-30.4751964963
 30
0.0
  0
VERTEX
  5
B14
  8
0
  6
CONTINUOUS
 62
     7
 10
-435.1954032049
 20
-32.0996018803
 30
0.0
  0
VERTEX
  5
B15
  8
0
  6
CONTINUOUS
 62
     7
 10
-435.0560773477
 20
-33.8660451329
 30
0.0
  0
VERTEX
  5
B16
  8
0
  6
CONTINUOUS
 62
     7
 10
-434.9132944211
 20
-35.8462008393
 30
0.0
  0
VERTEX
  5
B17
  8
0
  6
CONTINUOUS
 62
     7
 10
-434.7855914697
 20
-37.788477794
 30
0.0
  0
VERTEX
  5
B18
  8
0
  6
CONTINUOUS
 62
     7
 10
-434.6719552145
 20
-39.6810146725
 30
0.0
  0
VERTEX
  5
B19
  8
0
  6
CONTINUOUS
 62
     7
 10
-434.5711637601
 20
-41.5153476155
 30
0.0
  0
VERTEX
  5
B1A
  8
0
  6
CONTINUOUS
 62
     7
 10
-434.5139731035
 20
-42.6338287747
 30
0.0
  0
VERTEX
  5
B1B
  8
0
  6
CONTINUOUS
 62
     7
 10
-434.4612825975
 20
-43.7223585999
 30
0.0
  0
VERTEX
  5
B1C
  8
0
  6
CONTINUOUS
 62
     7
 10
-434.4127346143
 20
-44.7786423123
 30
0.0
  0
VERTEX
  5
B1D
  8
0
  6
CONTINUOUS
 62
     7
 10
-434.3643952474
 20
-45.8886894143
 30
0.0
  0
VERTEX
  5
B1E
  8
0
  6
CONTINUOUS
 62
     7
 10
-434.3070257768
 20
-47.2960444844
 30
0.0
  0
VERTEX
  5
B1F
  8
0
  6
CONTINUOUS
 62
     7
 10
-434.2214037046
 20
-49.6225925839
 30
0.0
  0
VERTEX
  5
B20
  8
0
  6
CONTINUOUS
 62
     7
 10
-434.1474343404
 20
-51.9190105355
 30
0.0
  0
VERTEX
  5
B21
  8
0
  6
CONTINUOUS
 62
     7
 10
-434.0843726263
 20
-54.1786524213
 30
0.0
  0
VERTEX
  5
B22
  8
0
  6
CONTINUOUS
 62
     7
 10
-434.0676535234
 20
-54.8358234322
 30
0.0
  0
VERTEX
  5
B23
  8
0
  6
CONTINUOUS
 62
     7
 10
-434.0517092809
 20
-55.4886135018
 30
0.0
  0
VERTEX
  5
B24
  8
0
  6
CONTINUOUS
 62
     7
 10
-434.0365100965
 20
-56.1366948045
 30
0.0
  0
VERTEX
  5
B25
  8
0
  6
CONTINUOUS
 62
     7
 10
-434.0220559701
 20
-56.7801567471
 30
0.0
  0
VERTEX
  5
B26
  8
0
  6
CONTINUOUS
 62
     7
 10
-434.0084065065
 20
-57.4191483414
 30
0.0
  0
VERTEX
  5
B27
  8
0
  6
CONTINUOUS
 62
     7
 10
-433.9955021009
 20
-58.0534013665
 30
0.0
  0
VERTEX
  5
B28
  8
0
  6
CONTINUOUS
 62
     7
 10
-433.983312951
 20
-58.6825581944
 30
0.0
  0
VERTEX
  5
B29
  8
0
  6
CONTINUOUS
 62
     7
 10
-433.97174965
 20
-59.306410209
 30
0.0
  0
VERTEX
  5
B2A
  8
0
  6
CONTINUOUS
 62
     7
 10
-433.9437354669
 20
-60.9906586564
 30
0.0
  0
VERTEX
  5
B2B
  8
0
  6
CONTINUOUS
 62
     7
 10
-433.9216817483
 20
-62.5371607697
 30
0.0
  0
VERTEX
  5
B2C
  8
0
  6
CONTINUOUS
 62
     7
 10
-433.9038897619
 20
-63.9478238976
 30
0.0
  0
VERTEX
  5
B2D
  8
0
  6
CONTINUOUS
 62
     7
 10
-433.8877071008
 20
-65.4441389001
 30
0.0
  0
VERTEX
  5
B2E
  8
0
  6
CONTINUOUS
 62
     7
 10
-433.8732231721
 20
-67.1153935349
 30
0.0
  0
VERTEX
  5
B2F
  8
0
  6
CONTINUOUS
 62
     7
 10
-433.8616896734
 20
-68.9486833966
 30
0.0
  0
VERTEX
  5
B30
  8
0
  6
CONTINUOUS
 62
     7
 10
-433.8563252553
 20
-70.0846287167
 30
0.0
  0
VERTEX
  5
B31
  8
0
  6
CONTINUOUS
 62
     7
 10
-433.8520933256
 20
-71.0860165513
 30
0.0
  0
VERTEX
  5
B32
  8
0
  6
CONTINUOUS
 62
     7
 10
-433.8483680353
 20
-71.9865235245
 30
0.0
  0
VERTEX
  5
B33
  8
0
  6
CONTINUOUS
 62
     7
 10
-433.8446725473
 20
-73.0517479337
 30
0.0
  0
VERTEX
  5
B34
  8
0
  6
CONTINUOUS
 62
     7
 10
-433.8420797452
 20
-74.3204924023
 30
0.0
  0
VERTEX
  5
B35
  8
0
  6
CONTINUOUS
 62
     7
 10
-433.8419903383
 20
-75.6218406117
 30
0.0
  0
VERTEX
  5
B36
  8
0
  6
CONTINUOUS
 62
     7
 10
-433.8443149194
 20
-76.8147679723
 30
0.0
  0
VERTEX
  5
B37
  8
0
  6
CONTINUOUS
 62
     7
 10
-433.8595737085
 20
-80.3060504353
 30
0.0
  0
VERTEX
  5
B38
  8
0
  6
CONTINUOUS
 62
     7
 10
-433.8810611829
 20
-83.9820774949
 30
0.0
  0
VERTEX
  5
B39
  8
0
  6
CONTINUOUS
 62
     7
 10
-433.9138735399
 20
-87.6945229924
 30
0.0
  0
VERTEX
  5
B3A
  8
0
  6
CONTINUOUS
 62
     7
 10
-433.9664746389
 20
-91.5045412934
 30
0.0
  0
SEQEND
  5
BD0
  8
0
  6
CONTINUOUS
 62
     7
  0
LINE
  5
268
  8
0
  6
CONTINUOUS
 62
     7
 10
-814.2913151845
 20
-687.6923712647
 30
0.0
 11
-814.2913151845
 21
-707.6923521912
 31
0.0
  0
LINE
  5
269
  8
0
  6
CONTINUOUS
 62
     7
 10
-814.2913151845
 20
-707.6923521912
 30
0.0
 11
-858.4781457052
 21
-707.6923521912
 31
0.0
  0
LINE
  5
26A
  8
0
  6
CONTINUOUS
 62
     7
 10
-858.4781457052
 20
-687.6923712647
 30
0.0
 11
-858.4781457052
 21
-707.6923521912
 31
0.0
  0
LINE
  5
26B
  8
0
  6
CONTINUOUS
 62
     7
 10
-790.0887299642
 20
-687.6923712647
 30
0.0
 11
-790.0887299642
 21
-707.6923521912
 31
0.0
  0
LINE
  5
26C
  8
0
  6
CONTINUOUS
 62
     7
 10
-790.0887299642
 20
-707.6923521912
 30
0.0
 11
-814.2913151845
 21
-707.6923521912
 31
0.0
  0
LINE
  5
26D
  8
0
  6
CONTINUOUS
 62
     7
 10
-878.4623910055
 20
-687.6923712647
 30
0.0
 11
-878.4623910055
 21
-707.6923521912
 31
0.0
  0
LINE
  5
26E
  8
0
  6
CONTINUOUS
 62
     7
 10
-858.4781457052
 20
-707.6923521912
 30
0.0
 11
-878.4623910055
 21
-707.6923521912
 31
0.0
  0
LINE
  5
26F
  8
0
  6
CONTINUOUS
 62
     7
 10
-866.27556573
 20
-847.648230449
 30
0.0
 11
-869.2755867109
 21
-847.648230449
 31
0.0
  0
LINE
  5
270
  8
0
  6
CONTINUOUS
 62
     7
 10
-799.2755342588
 20
-847.648230449
 30
0.0
 11
-866.27556573
 21
-847.648230449
 31
0.0
  0
LINE
  5
271
  8
0
  6
CONTINUOUS
 62
     7
 10
-801.753478156
 20
-835.1482125676
 30
0.0
 11
-801.753478156
 21
-810.1482364095
 31
0.0
  0
LINE
  5
272
  8
0
  6
CONTINUOUS
 62
     7
 10
-866.27556573
 20
-797.6482185281
 30
0.0
 11
-869.2755867109
 21
-797.6482185281
 31
0.0
  0
LINE
  5
273
  8
0
  6
CONTINUOUS
 62
     7
 10
-799.2755342588
 20
-797.6482185281
 30
0.0
 11
-866.27556573
 21
-797.6482185281
 31
0.0
  0
LINE
  5
274
  8
0
  6
CONTINUOUS
 62
     7
 10
-752.403514491
 20
-27.692374841
 30
0.0
 11
-782.4035454855
 21
-27.692374841
 31
0.0
  0
LINE
  5
275
  8
0
  6
CONTINUOUS
 62
     7
 10
-752.403514491
 20
-681.6923591054
 30
0.0
 11
-782.4035454855
 21
-681.6923591054
 31
0.0
  0
LINE
  5
276
  8
0
  6
CONTINUOUS
 62
     7
 10
-824.3544269666
 20
-847.648230449
 30
0.0
 11
-824.9648977384
 21
-877.1547945893
 31
0.0
  0
LINE
  5
277
  8
0
  6
CONTINUOUS
 62
     7
 10
-824.9648977384
 20
-877.1547945893
 30
0.0
 11
-842.0416284666
 21
-877.1547945893
 31
0.0
  0
LINE
  5
278
  8
0
  6
CONTINUOUS
 62
     7
 10
-842.5508905515
 20
-847.648230449
 30
0.0
 11
-842.0416284666
 21
-877.1547945893
 31
0.0
  0
LINE
  5
279
  8
0
  6
CONTINUOUS
 62
     7
 10
-761.0637713537
 20
-21.6923626817
 30
0.0
 11
-791.0638023481
 21
-21.6923626817
 31
0.0
  0
LINE
  5
27A
  8
0
  6
CONTINUOUS
 62
     7
 10
-761.0637713537
 20
-687.6923712647
 30
0.0
 11
-791.0638023481
 21
-687.6923712647
 31
0.0
  0
LINE
  5
27B
  8
0
  6
CONTINUOUS
 62
     7
 10
-852.4720240697
 20
-847.648230449
 30
0.0
 11
-851.352291213
 21
-877.1547945893
 31
0.0
  0
LINE
  5
27C
  8
0
  6
CONTINUOUS
 62
     7
 10
-842.0416284666
 20
-877.1547945893
 30
0.0
 11
-851.352291213
 21
-877.1547945893
 31
0.0
  0
LINE
  5
27D
  8
0
  6
CONTINUOUS
 62
     7
 10
-816.0790968999
 20
-847.648230449
 30
0.0
 11
-817.1988297567
 21
-877.1547945893
 31
0.0
  0
LINE
  5
27E
  8
0
  6
CONTINUOUS
 62
     7
 10
-817.1988297567
 20
-877.1547945893
 30
0.0
 11
-824.9648977384
 21
-877.1547945893
 31
0.0
  0
LINE
  5
27F
  8
0
  6
CONTINUOUS
 62
     7
 10
-432.0790339574
 20
-835.1482125676
 30
0.0
 11
-801.753478156
 21
-835.1482125676
 31
0.0
  0
LINE
  5
280
  8
0
  6
CONTINUOUS
 62
     7
 10
-432.0790339574
 20
-810.1482364095
 30
0.0
 11
-801.753478156
 21
-810.1482364095
 31
0.0
  0
LINE
  5
281
  8
0
  6
CONTINUOUS
 62
     7
 10
-432.0790339574
 20
-810.1482364095
 30
0.0
 11
-432.0790339574
 21
-835.1482125676
 31
0.0
  0
POLYLINE
  5
282
  8
0
  6
CONTINUOUS
 62
     7
 66
     1
 10
0.0
 20
0.0
 30
0.0
  0
VERTEX
  5
B3B
  8
0
  6
CONTINUOUS
 62
     7
 10
-99.2311332688
 20
-364.6923667497
 30
0.0
  0
VERTEX
  5
B3C
  8
0
  6
CONTINUOUS
 62
     7
 10
-99.2264915571
 20
-372.6287252015
 30
0.0
  0
VERTEX
  5
B3D
  8
0
  6
CONTINUOUS
 62
     7
 10
-99.2187727556
 20
-380.5548949844
 30
0.0
  0
VERTEX
  5
B3E
  8
0
  6
CONTINUOUS
 62
     7
 10
-99.2085580096
 20
-388.4608383036
 30
0.0
  0
VERTEX
  5
B3F
  8
0
  6
CONTINUOUS
 62
     7
 10
-99.1964135632
 20
-396.3365155018
 30
0.0
  0
VERTEX
  5
B40
  8
0
  6
CONTINUOUS
 62
     7
 10
-99.1829280123
 20
-404.1718813336
 30
0.0
  0
VERTEX
  5
B41
  8
0
  6
CONTINUOUS
 62
     7
 10
-99.1673861012
 20
-412.1361906386
 30
0.0
  0
VERTEX
  5
B42
  8
0
  6
CONTINUOUS
 62
     7
 10
-99.1492662892
 20
-420.0548576868
 30
0.0
  0
VERTEX
  5
B43
  8
0
  6
CONTINUOUS
 62
     7
 10
-99.1285089716
 20
-427.9174553907
 30
0.0
  0
VERTEX
  5
B44
  8
0
  6
CONTINUOUS
 62
     7
 10
-99.1050470933
 20
-435.7135417617
 30
0.0
  0
VERTEX
  5
B45
  8
0
  6
CONTINUOUS
 62
     7
 10
-99.0788135991
 20
-443.4327008879
 30
0.0
  0
VERTEX
  5
B46
  8
0
  6
CONTINUOUS
 62
     7
 10
-99.0467910037
 20
-451.9619243896
 30
0.0
  0
VERTEX
  5
B47
  8
0
  6
CONTINUOUS
 62
     7
 10
-99.0120936498
 20
-460.3905725038
 30
0.0
  0
VERTEX
  5
B48
  8
0
  6
CONTINUOUS
 62
     7
 10
-98.9741701946
 20
-468.7048840082
 30
0.0
  0
VERTEX
  5
B49
  8
0
  6
CONTINUOUS
 62
     7
 10
-98.9324841961
 20
-476.8910976804
 30
0.0
  0
VERTEX
  5
B4A
  8
0
  6
CONTINUOUS
 62
     7
 10
-98.8865066633
 20
-484.9354448474
 30
0.0
  0
VERTEX
  5
B4B
  8
0
  6
CONTINUOUS
 62
     7
 10
-98.8351200089
 20
-493.0624338544
 30
0.0
  0
VERTEX
  5
B4C
  8
0
  6
CONTINUOUS
 62
     7
 10
-98.7800229654
 20
-501.0343911803
 30
0.0
  0
VERTEX
  5
B4D
  8
0
  6
CONTINUOUS
 62
     7
 10
-98.7206641898
 20
-508.8376524604
 30
0.0
  0
VERTEX
  5
B4E
  8
0
  6
CONTINUOUS
 62
     7
 10
-98.6564923391
 20
-516.4585235274
 30
0.0
  0
VERTEX
  5
B4F
  8
0
  6
CONTINUOUS
 62
     7
 10
-98.586963521
 20
-523.8833549178
 30
0.0
  0
VERTEX
  5
B50
  8
0
  6
CONTINUOUS
 62
     7
 10
-98.5511560306
 20
-527.4902554906
 30
0.0
  0
SEQEND
  5
BCF
  8
0
  6
CONTINUOUS
 62
     7
  0
POLYLINE
  5
283
  8
0
  6
CONTINUOUS
 62
     7
 66
     1
 10
0.0
 20
0.0
 30
0.0
  0
VERTEX
  5
B51
  8
0
  6
CONTINUOUS
 62
     7
 10
-98.5511560306
 20
-527.4902554906
 30
0.0
  0
VERTEX
  5
B52
  8
0
  6
CONTINUOUS
 62
     7
 10
-98.4905455575
 20
-534.4215157187
 30
0.0
  0
VERTEX
  5
B53
  8
0
  6
CONTINUOUS
 62
     7
 10
-98.4453056321
 20
-541.1578389561
 30
0.0
  0
VERTEX
  5
B54
  8
0
  6
CONTINUOUS
 62
     7
 10
-98.4165314898
 20
-547.6881834424
 30
0.0
  0
VERTEX
  5
B55
  8
0
  6
CONTINUOUS
 62
     7
 10
-98.4053481683
 20
-554.0015372193
 30
0.0
  0
VERTEX
  5
B56
  8
0
  6
CONTINUOUS
 62
     7
 10
-98.4130967721
 20
-560.2035495198
 30
0.0
  0
VERTEX
  5
B57
  8
0
  6
CONTINUOUS
 62
     7
 10
-98.4419603214
 20
-566.1732974208
 30
0.0
  0
VERTEX
  5
B58
  8
0
  6
CONTINUOUS
 62
     7
 10
-98.4941441879
 20
-571.9006779349
 30
0.0
  0
VERTEX
  5
B59
  8
0
  6
CONTINUOUS
 62
     7
 10
-98.5718835458
 20
-577.3756029761
 30
0.0
  0
VERTEX
  5
B5A
  8
0
  6
CONTINUOUS
 62
     7
 10
-98.6753125057
 20
-582.5061621821
 30
0.0
  0
VERTEX
  5
B5B
  8
0
  6
CONTINUOUS
 62
     7
 10
-98.8081116542
 20
-587.38702263
 30
0.0
  0
VERTEX
  5
B5C
  8
0
  6
CONTINUOUS
 62
     7
 10
-98.9730898604
 20
-592.0102270997
 30
0.0
  0
VERTEX
  5
B5D
  8
0
  6
CONTINUOUS
 62
     7
 10
-99.1730410919
 20
-596.3678183711
 30
0.0
  0
VERTEX
  5
B5E
  8
0
  6
CONTINUOUS
 62
     7
 10
-99.4173456296
 20
-600.5301001227
 30
0.0
  0
VERTEX
  5
B5F
  8
0
  6
CONTINUOUS
 62
     7
 10
-99.7057799563
 20
-604.4119122184
 30
0.0
  0
VERTEX
  5
B60
  8
0
  6
CONTINUOUS
 62
     7
 10
-100.0389028654
 20
-608.0068620599
 30
0.0
  0
VERTEX
  5
B61
  8
0
  6
CONTINUOUS
 62
     7
 10
-100.4172433481
 20
-611.3084825433
 30
0.0
  0
SEQEND
  5
BCE
  8
0
  6
CONTINUOUS
 62
     7
  0
POLYLINE
  5
284
  8
0
  6
CONTINUOUS
 62
     7
 66
     1
 10
0.0
 20
0.0
 30
0.0
  0
VERTEX
  5
B62
  8
0
  6
CONTINUOUS
 62
     7
 10
-100.4172433481
 20
-611.3084825433
 30
0.0
  0
VERTEX
  5
B63
  8
0
  6
CONTINUOUS
 62
     7
 10
-100.767778264
 20
-613.8920756734
 30
0.0
  0
VERTEX
  5
B64
  8
0
  6
CONTINUOUS
 62
     7
 10
-101.1261064872
 20
-616.2598105824
 30
0.0
  0
VERTEX
  5
B65
  8
0
  6
CONTINUOUS
 62
     7
 10
-101.479219304
 20
-618.4088858521
 30
0.0
  0
VERTEX
  5
B66
  8
0
  6
CONTINUOUS
 62
     7
 10
-101.817281948
 20
-620.3517588532
 30
0.0
  0
VERTEX
  5
B67
  8
0
  6
CONTINUOUS
 62
     7
 10
-102.1252889499
 20
-622.0701309598
 30
0.0
  0
VERTEX
  5
B68
  8
0
  6
CONTINUOUS
 62
     7
 10
-102.3904402122
 20
-623.5618266022
 30
0.0
  0
VERTEX
  5
B69
  8
0
  6
CONTINUOUS
 62
     7
 10
-102.6026923522
 20
-624.8167427933
 30
0.0
  0
VERTEX
  5
B6A
  8
0
  6
CONTINUOUS
 62
     7
 10
-102.7650107011
 20
-625.8464130318
 30
0.0
  0
VERTEX
  5
B6B
  8
0
  6
CONTINUOUS
 62
     7
 10
-102.8785873518
 20
-626.6494068063
 30
0.0
  0
VERTEX
  5
B6C
  8
0
  6
CONTINUOUS
 62
     7
 10
-102.9490102396
 20
-627.2285255349
 30
0.0
  0
VERTEX
  5
B6D
  8
0
  6
CONTINUOUS
 62
     7
 10
-102.9851604566
 20
-627.5763186372
 30
0.0
  0
VERTEX
  5
B6E
  8
0
  6
CONTINUOUS
 62
     7
 10
-102.99444388
 20
-627.6818486607
 30
0.0
  0
SEQEND
  5
BCD
  8
0
  6
CONTINUOUS
 62
     7
  0
POLYLINE
  5
285
  8
0
  6
CONTINUOUS
 62
     7
 66
     1
 10
0.0
 20
0.0
 30
0.0
  0
VERTEX
  5
B6F
  8
0
  6
CONTINUOUS
 62
     7
 10
-102.9930282697
 20
-81.7159089005
 30
0.0
  0
VERTEX
  5
B70
  8
0
  6
CONTINUOUS
 62
     7
 10
-102.9857863054
 20
-81.774559871
 30
0.0
  0
VERTEX
  5
B71
  8
0
  6
CONTINUOUS
 62
     7
 10
-102.9507536754
 20
-82.0881101048
 30
0.0
  0
VERTEX
  5
B72
  8
0
  6
CONTINUOUS
 62
     7
 10
-102.8824765548
 20
-82.6356979764
 30
0.0
  0
VERTEX
  5
B73
  8
0
  6
CONTINUOUS
 62
     7
 10
-102.7702261076
 20
-83.4244164384
 30
0.0
  0
VERTEX
  5
B74
  8
0
  6
CONTINUOUS
 62
     7
 10
-102.6090104446
 20
-84.449944154
 30
0.0
  0
VERTEX
  5
B75
  8
0
  6
CONTINUOUS
 62
     7
 10
-102.3973841533
 20
-85.7108208096
 30
0.0
  0
VERTEX
  5
B76
  8
0
  6
CONTINUOUS
 62
     7
 10
-102.1365691289
 20
-87.1932181275
 30
0.0
  0
VERTEX
  5
B77
  8
0
  6
CONTINUOUS
 62
     7
 10
-101.8328536615
 20
-88.9051231301
 30
0.0
  0
VERTEX
  5
B78
  8
0
  6
CONTINUOUS
 62
     7
 10
-101.4980990753
 20
-90.8442410386
 30
0.0
  0
VERTEX
  5
B79
  8
0
  6
CONTINUOUS
 62
     7
 10
-101.1409331426
 20
-93.0275293744
 30
0.0
  0
VERTEX
  5
B7A
  8
0
  6
CONTINUOUS
 62
     7
 10
-100.7763911352
 20
-95.4390736974
 30
0.0
  0
VERTEX
  5
B7B
  8
0
  6
CONTINUOUS
 62
     7
 10
-100.4176903829
 20
-98.0758639729
 30
0.0
  0
SEQEND
  5
BCC
  8
0
  6
CONTINUOUS
 62
     7
  0
POLYLINE
  5
286
  8
0
  6
CONTINUOUS
 62
     7
 66
     1
 10
0.0
 20
0.0
 30
0.0
  0
VERTEX
  5
B7C
  8
0
  6
CONTINUOUS
 62
     7
 10
-100.4176903829
 20
-98.0758639729
 30
0.0
  0
VERTEX
  5
B7D
  8
0
  6
CONTINUOUS
 62
     7
 10
-100.0516955122
 20
-101.2372347272
 30
0.0
  0
VERTEX
  5
B7E
  8
0
  6
CONTINUOUS
 62
     7
 10
-99.7272748813
 20
-104.6685549176
 30
0.0
  0
VERTEX
  5
B7F
  8
0
  6
CONTINUOUS
 62
     7
 10
-99.4447488651
 20
-108.3642366088
 30
0.0
  0
VERTEX
  5
B80
  8
0
  6
CONTINUOUS
 62
     7
 10
-99.204482542
 20
-112.3186173594
 30
0.0
  0
VERTEX
  5
B81
  8
0
  6
CONTINUOUS
 62
     7
 10
-99.0009326801
 20
-116.6071119464
 30
0.0
  0
VERTEX
  5
B82
  8
0
  6
CONTINUOUS
 62
     7
 10
-98.8340545759
 20
-121.1590739644
 30
0.0
  0
VERTEX
  5
B83
  8
0
  6
CONTINUOUS
 62
     7
 10
-98.7007785902
 20
-125.9667399085
 30
0.0
  0
VERTEX
  5
B84
  8
0
  6
CONTINUOUS
 62
     7
 10
-98.598012732
 20
-131.0223462737
 30
0.0
  0
VERTEX
  5
B85
  8
0
  6
CONTINUOUS
 62
     7
 10
-98.5243190393
 20
-136.2252506173
 30
0.0
  0
VERTEX
  5
B86
  8
0
  6
CONTINUOUS
 62
     7
 10
-98.4755624399
 20
-141.6617157614
 30
0.0
  0
VERTEX
  5
B87
  8
0
  6
CONTINUOUS
 62
     7
 10
-98.4494779572
 20
-147.3229351199
 30
0.0
  0
VERTEX
  5
B88
  8
0
  6
CONTINUOUS
 62
     7
 10
-98.4438080654
 20
-153.2000574029
 30
0.0
  0
VERTEX
  5
B89
  8
0
  6
CONTINUOUS
 62
     7
 10
-98.4565932617
 20
-159.3987765467
 30
0.0
  0
VERTEX
  5
B8A
  8
0
  6
CONTINUOUS
 62
     7
 10
-98.4864179358
 20
-165.8143820918
 30
0.0
  0
VERTEX
  5
B8B
  8
0
  6
CONTINUOUS
 62
     7
 10
-98.532052742
 20
-172.4361750043
 30
0.0
  0
VERTEX
  5
B8C
  8
0
  6
CONTINUOUS
 62
     7
 10
-98.5922534332
 20
-179.2534413493
 30
0.0
  0
SEQEND
  5
BCB
  8
0
  6
CONTINUOUS
 62
     7
  0
POLYLINE
  5
287
  8
0
  6
CONTINUOUS
 62
     7
 66
     1
 10
0.0
 20
0.0
 30
0.0
  0
VERTEX
  5
B8D
  8
0
  6
CONTINUOUS
 62
     7
 10
-98.5922534332
 20
-179.2534413493
 30
0.0
  0
VERTEX
  5
B8E
  8
0
  6
CONTINUOUS
 62
     7
 10
-98.6257139906
 20
-182.614904896
 30
0.0
  0
VERTEX
  5
B8F
  8
0
  6
CONTINUOUS
 62
     7
 10
-98.6927021608
 20
-189.7348436272
 30
0.0
  0
VERTEX
  5
B90
  8
0
  6
CONTINUOUS
 62
     7
 10
-98.7544525728
 20
-197.0422836697
 30
0.0
  0
VERTEX
  5
B91
  8
0
  6
CONTINUOUS
 62
     7
 10
-98.8114495143
 20
-204.5248868621
 30
0.0
  0
VERTEX
  5
B92
  8
0
  6
CONTINUOUS
 62
     7
 10
-98.8641623721
 20
-212.1703448451
 30
0.0
  0
VERTEX
  5
B93
  8
0
  6
CONTINUOUS
 62
     7
 10
-98.9130754337
 20
-219.9663045562
 30
0.0
  0
VERTEX
  5
B94
  8
0
  6
CONTINUOUS
 62
     7
 10
-98.9591796264
 20
-228.1426760113
 30
0.0
  0
VERTEX
  5
B95
  8
0
  6
CONTINUOUS
 62
     7
 10
-99.0007464156
 20
-236.4736842668
 30
0.0
  0
VERTEX
  5
B96
  8
0
  6
CONTINUOUS
 62
     7
 10
-99.0382675395
 20
-244.9445697224
 30
0.0
  0
VERTEX
  5
B97
  8
0
  6
CONTINUOUS
 62
     7
 10
-99.0722272858
 20
-253.5405578769
 30
0.0
  0
VERTEX
  5
B98
  8
0
  6
CONTINUOUS
 62
     7
 10
-99.103117393
 20
-262.2468891299
 30
0.0
  0
VERTEX
  5
B99
  8
0
  6
CONTINUOUS
 62
     7
 10
-99.1280023322
 20
-270.1226967132
 30
0.0
  0
VERTEX
  5
B9A
  8
0
  6
CONTINUOUS
 62
     7
 10
-99.1499219403
 20
-278.0827703631
 30
0.0
  0
VERTEX
  5
B9B
  8
0
  6
CONTINUOUS
 62
     7
 10
-99.1689656243
 20
-286.1159044063
 30
0.0
  0
VERTEX
  5
B9C
  8
0
  6
CONTINUOUS
 62
     7
 10
-99.1852302417
 20
-294.2109080708
 30
0.0
  0
VERTEX
  5
B9D
  8
0
  6
CONTINUOUS
 62
     7
 10
-99.1988051996
 20
-302.3565756834
 30
0.0
  0
VERTEX
  5
B9E
  8
0
  6
CONTINUOUS
 62
     7
 10
-99.210629271
 20
-310.7503848827
 30
0.0
  0
VERTEX
  5
B9F
  8
0
  6
CONTINUOUS
 62
     7
 10
-99.2206279501
 20
-319.1932673311
 30
0.0
  0
VERTEX
  5
BA0
  8
0
  6
CONTINUOUS
 62
     7
 10
-99.2283020482
 20
-327.6728252626
 30
0.0
  0
VERTEX
  5
BA1
  8
0
  6
CONTINUOUS
 62
     7
 10
-99.2331449255
 20
-336.1766571856
 30
0.0
  0
VERTEX
  5
BA2
  8
0
  6
CONTINUOUS
 62
     7
 10
-99.2346424922
 20
-344.6923671967
 30
0.0
  0
SEQEND
  5
BCA
  8
0
  6
CONTINUOUS
 62
     7
  0
LINE
  5
288
  8
0
  6
CONTINUOUS
 62
     7
 10
-367.9048884973
 20
-873.6481937325
 30
0.0
 11
-367.9048884973
 21
-771.6482254422
 31
0.0
  0
LINE
  5
289
  8
0
  6
CONTINUOUS
 62
     7
 10
-367.9048884973
 20
-873.6481937325
 30
0.0
 11
-400.8887578115
 21
-873.6481937325
 31
0.0
  0
LINE
  5
28A
  8
0
  6
CONTINUOUS
 62
     7
 10
-400.8887578115
 20
-873.6481937325
 30
0.0
 11
-400.8887578115
 21
-771.6482254422
 31
0.0
  0
LINE
  5
28B
  8
0
  6
CONTINUOUS
 62
     7
 10
-367.9048884973
 20
-771.6482254422
 30
0.0
 11
-400.8887578115
 21
-771.6482254422
 31
0.0
  0
LINE
  5
28C
  8
0
  6
CONTINUOUS
 62
     7
 10
-320.3619886503
 20
-873.6481937325
 30
0.0
 11
-320.3619886503
 21
-771.6482254422
 31
0.0
  0
LINE
  5
28D
  8
0
  6
CONTINUOUS
 62
     7
 10
-320.3619886503
 20
-873.6481937325
 30
0.0
 11
-367.9048884973
 21
-873.6481937325
 31
0.0
  0
LINE
  5
28E
  8
0
  6
CONTINUOUS
 62
     7
 10
-320.3619886503
 20
-771.6482254422
 30
0.0
 11
-367.9048884973
 21
-771.6482254422
 31
0.0
  0
LINE
  5
28F
  8
0
  6
CONTINUOUS
 62
     7
 10
19.6411395132
 20
-712.1923538602
 30
0.0
 11
19.6411395132
 21
2.8076199138
 31
0.0
  0
LINE
  5
290
  8
0
  6
CONTINUOUS
 62
     7
 10
-7.3588621184
 20
-712.1923538602
 30
0.0
 11
-7.3588621184
 21
2.8076199138
 31
0.0
  0
LINE
  5
291
  8
0
  6
CONTINUOUS
 62
     7
 10
-1071.3588167295
 20
-712.1923538602
 30
0.0
 11
-1071.3588167295
 21
2.8076199138
 31
0.0
  0
LINE
  5
292
  8
0
  6
CONTINUOUS
 62
     7
 10
-1043.3588195905
 20
-712.1923538602
 30
0.0
 11
-1043.3588195905
 21
2.8076199138
 31
0.0
  0
LINE
  5
293
  8
0
  6
CONTINUOUS
 62
     7
 10
-400.8887578115
 20
-873.6481937325
 30
0.0
 11
-483.5227895841
 21
-873.6481937325
 31
0.0
  0
LINE
  5
294
  8
0
  6
CONTINUOUS
 62
     7
 10
-400.8887578115
 20
-771.6482254422
 30
0.0
 11
-483.5227895841
 21
-771.6482254422
 31
0.0
  0
LINE
  5
295
  8
0
  6
CONTINUOUS
 62
     7
 10
-305.4887224302
 20
-873.6481937325
 30
0.0
 11
-320.3619886503
 21
-873.6481937325
 31
0.0
  0
LINE
  5
296
  8
0
  6
CONTINUOUS
 62
     7
 10
-305.4887224302
 20
-771.6482254422
 30
0.0
 11
-320.3619886503
 21
-771.6482254422
 31
0.0
  0
LINE
  5
297
  8
0
  6
CONTINUOUS
 62
     7
 10
-274.647669898
 20
-873.6481937325
 30
0.0
 11
-274.647669898
 21
-771.6482254422
 31
0.0
  0
LINE
  5
298
  8
0
  6
CONTINUOUS
 62
     7
 10
-274.647669898
 20
-873.6481937325
 30
0.0
 11
-305.4887224302
 21
-873.6481937325
 31
0.0
  0
LINE
  5
299
  8
0
  6
CONTINUOUS
 62
     7
 10
-274.647669898
 20
-771.6482254422
 30
0.0
 11
-305.4887224302
 21
-771.6482254422
 31
0.0
  0
LINE
  5
29A
  8
0
  6
CONTINUOUS
 62
     7
 10
-7.3588621184
 20
-364.6923667497
 30
0.0
 11
-136.399181591
 21
-364.6923667497
 31
0.0
  0
LINE
  5
29B
  8
0
  6
CONTINUOUS
 62
     7
 10
-7.3588621184
 20
-344.6923671967
 30
0.0
 11
-136.399181591
 21
-344.6923671967
 31
0.0
  0
LINE
  5
29C
  8
0
  6
CONTINUOUS
 62
     7
 10
-227.1047998533
 20
-873.6481937325
 30
0.0
 11
-227.1047998533
 21
-771.6482254422
 31
0.0
  0
LINE
  5
29D
  8
0
  6
CONTINUOUS
 62
     7
 10
-227.1047998533
 20
-873.6481937325
 30
0.0
 11
-274.647669898
 21
-873.6481937325
 31
0.0
  0
LINE
  5
29E
  8
0
  6
CONTINUOUS
 62
     7
 10
-227.1047998533
 20
-771.6482254422
 30
0.0
 11
-274.647669898
 21
-771.6482254422
 31
0.0
  0
LINE
  5
29F
  8
0
  6
CONTINUOUS
 62
     7
 10
-212.231518732
 20
-873.6481937325
 30
0.0
 11
-227.1047998533
 21
-873.6481937325
 31
0.0
  0
LINE
  5
2A0
  8
0
  6
CONTINUOUS
 62
     7
 10
-212.231518732
 20
-771.6482254422
 30
0.0
 11
-227.1047998533
 21
-771.6482254422
 31
0.0
  0
LINE
  5
2A1
  8
0
  6
CONTINUOUS
 62
     7
 10
-1075.3588844404
 20
-645.6923755563
 30
0.0
 11
-1075.3588844404
 21
-63.6923583901
 31
0.0
  0
LINE
  5
2A2
  8
0
  6
CONTINUOUS
 62
     7
 10
24.6411394015
 20
-63.6923583901
 30
0.0
 11
24.6411394015
 21
-645.6923755563
 31
0.0
  0
LINE
  5
2A3
  8
0
  6
CONTINUOUS
 62
     7
 10
-181.3904960022
 20
-873.6481937325
 30
0.0
 11
-181.3904960022
 21
-771.6482254422
 31
0.0
  0
LINE
  5
2A4
  8
0
  6
CONTINUOUS
 62
     7
 10
-181.3904960022
 20
-873.6481937325
 30
0.0
 11
-212.231518732
 21
-873.6481937325
 31
0.0
  0
LINE
  5
2A5
  8
0
  6
CONTINUOUS
 62
     7
 10
-181.3904960022
 20
-771.6482254422
 30
0.0
 11
-212.231518732
 21
-771.6482254422
 31
0.0
  0
LINE
  5
2A6
  8
0
  6
CONTINUOUS
 62
     7
 10
-133.8476110563
 20
-873.6481937325
 30
0.0
 11
-133.8476110563
 21
-771.6482254422
 31
0.0
  0
LINE
  5
2A7
  8
0
  6
CONTINUOUS
 62
     7
 10
-133.8476110563
 20
-873.6481937325
 30
0.0
 11
-181.3904960022
 21
-873.6481937325
 31
0.0
  0
LINE
  5
2A8
  8
0
  6
CONTINUOUS
 62
     7
 10
-133.8476110563
 20
-771.6482254422
 30
0.0
 11
-181.3904960022
 21
-771.6482254422
 31
0.0
  0
POLYLINE
  5
2A9
  8
0
  6
CONTINUOUS
 62
     7
 66
     1
 10
0.0
 20
0.0
 30
0.0
  0
VERTEX
  5
BA3
  8
0
  6
CONTINUOUS
 62
     7
 10
-916.9483352766
 20
-622.9975196278
 30
0.0
  0
VERTEX
  5
BA4
  8
0
  6
CONTINUOUS
 62
     7
 10
-917.1948004827
 20
-623.0208846486
 30
0.0
  0
VERTEX
  5
BA5
  8
0
  6
CONTINUOUS
 62
     7
 10
-919.895069705
 20
-623.3043941415
 30
0.0
  0
VERTEX
  5
BA6
  8
0
  6
CONTINUOUS
 62
     7
 10
-922.5045610532
 20
-623.6037882722
 30
0.0
  0
VERTEX
  5
BA7
  8
0
  6
CONTINUOUS
 62
     7
 10
-925.0862170324
 20
-623.924640075
 30
0.0
  0
VERTEX
  5
BA8
  8
0
  6
CONTINUOUS
 62
     7
 10
-927.5605846509
 20
-624.2549690163
 30
0.0
  0
VERTEX
  5
BA9
  8
0
  6
CONTINUOUS
 62
     7
 10
-929.916398631
 20
-624.5901259339
 30
0.0
  0
VERTEX
  5
BAA
  8
0
  6
CONTINUOUS
 62
     7
 10
-932.1298171148
 20
-624.9234351075
 30
0.0
  0
VERTEX
  5
BAB
  8
0
  6
CONTINUOUS
 62
     7
 10
-934.2168141469
 20
-625.2538534558
 30
0.0
  0
VERTEX
  5
BAC
  8
0
  6
CONTINUOUS
 62
     7
 10
-936.167912589
 20
-625.5769702351
 30
0.0
  0
VERTEX
  5
BAD
  8
0
  6
CONTINUOUS
 62
     7
 10
-938.0284715757
 20
-625.8977922356
 30
0.0
  0
VERTEX
  5
BAE
  8
0
  6
CONTINUOUS
 62
     7
 10
-939.7360850439
 20
-626.2031468308
 30
0.0
  0
VERTEX
  5
BAF
  8
0
  6
CONTINUOUS
 62
     7
 10
-941.2822295293
 20
-626.4885934747
 30
0.0
  0
VERTEX
  5
BB0
  8
0
  6
CONTINUOUS
 62
     7
 10
-942.6273871526
 20
-626.7437907613
 30
0.0
  0
VERTEX
  5
BB1
  8
0
  6
CONTINUOUS
 62
     7
 10
-943.8125063047
 20
-626.9739838994
 30
0.0
  0
VERTEX
  5
BB2
  8
0
  6
CONTINUOUS
 62
     7
 10
-944.831805335
 20
-627.1759542382
 30
0.0
  0
VERTEX
  5
BB3
  8
0
  6
CONTINUOUS
 62
     7
 10
-945.7049537763
 20
-627.3517879403
 30
0.0
  0
VERTEX
  5
BB4
  8
0
  6
CONTINUOUS
 62
     7
 10
-946.3967848882
 20
-627.4930509484
 30
0.0
  0
VERTEX
  5
BB5
  8
0
  6
CONTINUOUS
 62
     7
 10
-946.9034839735
 20
-627.5976571
 30
0.0
  0
VERTEX
  5
BB6
  8
0
  6
CONTINUOUS
 62
     7
 10
-947.2121764287
 20
-627.6617320931
 30
0.0
  0
VERTEX
  5
BB7
  8
0
  6
CONTINUOUS
 62
     7
 10
-947.3505188093
 20
-627.6905807412
 30
0.0
  0
VERTEX
  5
BB8
  8
0
  6
CONTINUOUS
 62
     7
 10
-947.3404456243
 20
-627.6884945786
 30
0.0
  0
SEQEND
  5
BC9
  8
0
  6
CONTINUOUS
 62
     7
  0
ARC
  5
2AA
  8
0
  6
CONTINUOUS
 62
     7
 10
-888.3028151063
 20
200.1531117902
 30
0.0
 40
287.9661259094539
 50
258.1658268854
 51
264.2910425903
  0
LINE
  5
2AB
  8
0
  6
CONTINUOUS
 62
     7
 10
-118.974329935
 20
-873.6481937325
 30
0.0
 11
-133.8476110563
 21
-873.6481937325
 31
0.0
  0
LINE
  5
2AC
  8
0
  6
CONTINUOUS
 62
     7
 10
-118.974329935
 20
-771.6482254422
 30
0.0
 11
-133.8476110563
 21
-771.6482254422
 31
0.0
  0
LINE
  5
2AD
  8
0
  6
CONTINUOUS
 62
     7
 10
-483.5227895841
 20
-873.6481937325
 30
0.0
 11
-485.6656361684
 21
-873.6481937325
 31
0.0
  0
LINE
  5
2AE
  8
0
  6
CONTINUOUS
 62
     7
 10
-483.5227895841
 20
-771.6482254422
 30
0.0
 11
-485.6656361684
 21
-771.6482254422
 31
0.0
  0
LINE
  5
2AF
  8
0
  6
CONTINUOUS
 62
     7
 10
-115.5770290956
 20
-835.1482125676
 30
0.0
 11
-115.5770290956
 21
-810.1482364095
 31
0.0
  0
LINE
  5
2B0
  8
0
  6
CONTINUOUS
 62
     7
 10
-115.5770290956
 20
-835.1482125676
 30
0.0
 11
-118.974329935
 21
-835.1482125676
 31
0.0
  0
LINE
  5
2B1
  8
0
  6
CONTINUOUS
 62
     7
 10
-115.5770290956
 20
-810.1482364095
 30
0.0
 11
-118.974329935
 21
-810.1482364095
 31
0.0
  0
LINE
  5
2B2
  8
0
  6
CONTINUOUS
 62
     7
 10
-916.9483352766
 20
-64.6923753178
 30
0.0
 11
-947.3588634595
 21
-64.6923753178
 31
0.0
  0
LINE
  5
2B3
  8
0
  6
CONTINUOUS
 62
     7
 10
-916.9483352766
 20
-644.6923586285
 30
0.0
 11
-947.3588634595
 21
-644.6923586285
 31
0.0
  0
POLYLINE
  5
2B4
  8
0
  6
CONTINUOUS
 62
     7
 66
     1
 10
0.0
 20
0.0
 30
0.0
  0
VERTEX
  5
BB9
  8
0
  6
CONTINUOUS
 62
     7
 10
-433.9664746389
 20
-91.5045412934
 30
0.0
  0
VERTEX
  5
BBA
  8
0
  6
CONTINUOUS
 62
     7
 10
-444.4232750997
 20
-91.7381616986
 30
0.0
  0
VERTEX
  5
BBB
  8
0
  6
CONTINUOUS
 62
     7
 10
-454.9108017549
 20
-91.9618579304
 30
0.0
  0
VERTEX
  5
BBC
  8
0
  6
CONTINUOUS
 62
     7
 10
-465.4091466531
 20
-92.1784612096
 30
0.0
  0
VERTEX
  5
BBD
  8
0
  6
CONTINUOUS
 62
     7
 10
-475.9218860731
 20
-92.3875245011
 30
0.0
  0
VERTEX
  5
BBE
  8
0
  6
CONTINUOUS
 62
     7
 10
-486.4456821546
 20
-92.5897928632
 30
0.0
  0
VERTEX
  5
BBF
  8
0
  6
CONTINUOUS
 62
     7
 10
-491.6474391088
 20
-92.6861735738
 30
0.0
  0
SEQEND
  5
BC8
  8
0
  6
CONTINUOUS
 62
     7
  0
POLYLINE
  5
2B5
  8
0
  6
CONTINUOUS
 62
     7
 66
     1
 10
0.0
 20
0.0
 30
0.0
  0
VERTEX
  5
BC0
  8
0
  6
CONTINUOUS
 62
     7
 10
-491.6474391088
 20
-616.6985901749
 30
0.0
  0
VERTEX
  5
BC1
  8
0
  6
CONTINUOUS
 62
     7
 10
-486.2805772886
 20
-616.7980405247
 30
0.0
  0
VERTEX
  5
BC2
  8
0
  6
CONTINUOUS
 62
     7
 10
-475.7901598081
 20
-616.9998022473
 30
0.0
  0
VERTEX
  5
BC3
  8
0
  6
CONTINUOUS
 62
     7
 10
-465.3102923498
 20
-617.2082694924
 30
0.0
  0
VERTEX
  5
BC4
  8
0
  6
CONTINUOUS
 62
     7
 10
-454.8451174364
 20
-617.4242469228
 30
0.0
  0
VERTEX
  5
BC5
  8
0
  6
CONTINUOUS
 62
     7
 10
-444.3904329404
 20
-617.6472875035
 30
0.0
  0
VERTEX
  5
BC6
  8
0
  6
CONTINUOUS
 62
     7
 10
-433.9664746389
 20
-617.880192653
 30
0.0
  0
SEQEND
  5
BC7
  8
0
  6
CONTINUOUS
 62
     7
  0
LINE
  5
2B6
  8
0
  6
CONTINUOUS
 62
     7
 10
-483.5227895841
 20
-873.6481937325
 30
0.0
 11
-483.5227895841
 21
-835.1482125676
 31
0.0
  0
LINE
  5
2B7
  8
0
  6
CONTINUOUS
 62
     7
 10
-483.5227895841
 20
-810.1482364095
 30
0.0
 11
-483.5227895841
 21
-771.6482254422
 31
0.0
  0
LINE
  5
2B8
  8
FORMAT
  6
CENTERX2
 10
49.0544451358
 20
-354.6923669732
 30
0.0
 11
-1100.9001936805
 21
-354.6923669732
 31
0.0
  0
ENDSEC
  0
EOF
