  0
SECTION
  2
HEADER
  9
$ACADVER
  1
AC1009
  9
$DWGCODEPAGE
  3
ansi_1252
  9
$INSBASE
 10
0.0
 20
0.0
 30
0.0
  9
$EXTMIN
 10
0.0
 20
0.0
 30
0.0
  9
$EXTMAX
 10
594.0
 20
420.0
 30
0.0
  9
$LIMMIN
 10
0.0
 20
0.0
  9
$LIMMAX
 10
594.0
 20
420.0
  9
$ORTHOMODE
 70
     0
  9
$REGENMODE
 70
     1
  9
$FILLMODE
 70
     1
  9
$QTEXTMODE
 70
     0
  9
$MIRRTEXT
 70
     1
  9
$DRAGMODE
 70
     2
  9
$LTSCALE
 40
1.0
  9
$OSMODE
 70
    37
  9
$ATTMODE
 70
     1
  9
$TEXTSIZE
 40
2.5
  9
$TRACEWID
 40
1.0
  9
$TEXTSTYLE
  7
STANDARD
  9
$CLAYER
  8
0
  9
$CELTYPE
  6
BYLAYER
  9
$CECOLOR
 62
   256
  9
$DIMSCALE
 40
1.0
  9
$DIMASZ
 40
2.5
  9
$DIMEXO
 40
1.0
  9
$DIMDLI
 40
3.75
  9
$DIMRND
 40
0.0
  9
$DIMDLE
 40
0.0
  9
$DIMEXE
 40
1.0
  9
$DIMTP
 40
0.0
  9
$DIMTM
 40
0.0
  9
$DIMTXT
 40
2.5
  9
$DIMCEN
 40
2.5
  9
$DIMTSZ
 40
0.0
  9
$DIMTOL
 70
     0
  9
$DIMLIM
 70
     0
  9
$DIMTIH
 70
     1
  9
$DIMTOH
 70
     1
  9
$DIMSE1
 70
     0
  9
$DIMSE2
 70
     0
  9
$DIMTAD
 70
     1
  9
$DIMZIN
 70
     0
  9
$DIMBLK
  1

  9
$DIMASO
 70
     1
  9
$DIMSHO
 70
     1
  9
$DIMPOST
  1

  9
$DIMAPOST
  1

  9
$DIMALT
 70
     0
  9
$DIMALTD
 70
     3
  9
$DIMALTF
 40
0.0393700787
  9
$DIMLFAC
 40
1.0
  9
$DIMTOFL
 70
     1
  9
$DIMTVP
 40
0.0
  9
$DIMTIX
 70
     0
  9
$DIMSOXD
 70
     0
  9
$DIMSAH
 70
     0
  9
$DIMBLK1
  1

  9
$DIMBLK2
  1

  9
$DIMSTYLE
  2
ISO-25
  9
$DIMCLRD
 70
     0
  9
$DIMCLRE
 70
     0
  9
$DIMCLRT
 70
     0
  9
$DIMTFAC
 40
1.0
  9
$DIMGAP
 40
1.524
  9
$LUNITS
 70
     2
  9
$LUPREC
 70
     2
  9
$SKETCHINC
 40
1.0
  9
$FILLETRAD
 40
10.0
  9
$AUNITS
 70
     0
  9
$AUPREC
 70
     2
  9
$MENU
  1
.
  9
$ELEVATION
 40
0.0
  9
$PELEVATION
 40
0.0
  9
$THICKNESS
 40
0.0
  9
$LIMCHECK
 70
     0
  9
$CHAMFERA
 40
10.0
  9
$CHAMFERB
 40
10.0
  9
$SKPOLY
 70
     0
  9
$TDCREATE
 40
2458222.318761181
  9
$TDUPDATE
 40
2458222.318761725
  9
$TDINDWG
 40
0.0000000116
  9
$TDUSRTIMER
 40
0.0000000116
  9
$USRTIMER
 70
     1
  9
$ANGBASE
 50
0.0
  9
$ANGDIR
 70
     0
  9
$PDMODE
 70
     0
  9
$PDSIZE
 40
-1.0
  9
$PLINEWID
 40
0.0
  9
$COORDS
 70
     1
  9
$SPLFRAME
 70
     0
  9
$SPLINETYPE
 70
     6
  9
$SPLINESEGS
 70
     8
  9
$ATTDIA
 70
     0
  9
$ATTREQ
 70
     1
  9
$HANDLING
 70
     1
  9
$HANDSEED
  5
B82
  9
$SURFTAB1
 70
     6
  9
$SURFTAB2
 70
     6
  9
$SURFTYPE
 70
     6
  9
$SURFU
 70
     6
  9
$SURFV
 70
     6
  9
$UCSNAME
  2

  9
$UCSORG
 10
0.0
 20
0.0
 30
0.0
  9
$UCSXDIR
 10
1.0
 20
0.0
 30
0.0
  9
$UCSYDIR
 10
0.0
 20
1.0
 30
0.0
  9
$PUCSNAME
  2

  9
$PUCSORG
 10
0.0
 20
0.0
 30
0.0
  9
$PUCSXDIR
 10
1.0
 20
0.0
 30
0.0
  9
$PUCSYDIR
 10
0.0
 20
1.0
 30
0.0
  9
$USERI1
 70
     0
  9
$USERI2
 70
     0
  9
$USERI3
 70
     0
  9
$USERI4
 70
     0
  9
$USERI5
 70
     0
  9
$USERR1
 40
0.0
  9
$USERR2
 40
0.0
  9
$USERR3
 40
0.0
  9
$USERR4
 40
0.0
  9
$USERR5
 40
0.0
  9
$WORLDVIEW
 70
     1
  9
$SHADEDGE
 70
     3
  9
$SHADEDIF
 70
    70
  9
$TILEMODE
 70
     1
  9
$MAXACTVP
 70
    64
  9
$PLIMCHECK
 70
     0
  9
$PEXTMIN
 10
1.0000000000E+20
 20
1.0000000000E+20
 30
1.0000000000E+20
  9
$PEXTMAX
 10
-1.0000000000E+20
 20
-1.0000000000E+20
 30
-1.0000000000E+20
  9
$PLIMMIN
 10
0.0
 20
0.0
  9
$PLIMMAX
 10
420.0
 20
297.0
  9
$UNITMODE
 70
     0
  9
$VISRETAIN
 70
     1
  9
$PLINEGEN
 70
     0
  9
$PSLTSCALE
 70
     1
  0
ENDSEC
  0
SECTION
  2
TABLES
  0
TABLE
  2
VPORT
 70
     1
  0
VPORT
  2
*ACTIVE
 70
     0
 10
0.0
 20
0.0
 11
1.0
 21
1.0
 12
297.0
 22
210.0
 13
0.0
 23
0.0
 14
10.0
 24
10.0
 15
10.0
 25
10.0
 16
0.0
 26
0.0
 36
1.0
 17
0.0
 27
0.0
 37
0.0
 40
420.0
 41
1.4142857143
 42
50.0
 43
0.0
 44
0.0
 50
0.0
 51
0.0
 71
     0
 72
  2000
 73
     1
 74
     3
 75
     0
 76
     0
 77
     0
 78
     0
  0
ENDTAB
  0
TABLE
  2
LTYPE
 70
     6
  0
LTYPE
  2
CONTINUOUS
 70
     0
  3
Solid line
 72
    65
 73
     0
 40
0.0
  0
LTYPE
  2
HIDDEN
 70
     0
  3
Hidden __ __ __ __ __ __ __ __ __ __ __ __ __ __
 72
    65
 73
     2
 40
1.905
 49
1.27
 49
-0.635
  0
LTYPE
  2
PHANTOM
 70
     0
  3
Phantom ______  __  __  ______  __  __  ______
 72
    65
 73
     6
 40
12.7
 49
6.35
 49
-1.27
 49
1.27
 49
-1.27
 49
1.27
 49
-1.27
  0
LTYPE
  2
CENTER
 70
     0
  3
Center ____ _ ____ _ ____ _ ____ _ ____ _ ____
 72
    65
 73
     4
 40
10.16
 49
6.35
 49
-1.27
 49
1.27
 49
-1.27
  0
LTYPE
  2
CENTERX2
 70
     0
  3
Center (2x) ________  __  ________  __  _____
 72
    65
 73
     4
 40
20.32
 49
12.7
 49
-2.54
 49
2.54
 49
-2.54
  0
LTYPE
  2
DOT2
 70
     0
  3
Dot (.5x) ........................................
 72
    65
 73
     2
 40
0.635
 49
0.0
 49
-0.635
  0
ENDTAB
  0
TABLE
  2
LAYER
 70
     3
  0
LAYER
  2
0
 70
     0
 62
     7
  6
CONTINUOUS
  0
LAYER
  2
FORMAT
 70
     0
 62
     7
  6
CONTINUOUS
  0
LAYER
  2
PROTOTYPE
 70
     0
 62
     7
  6
CONTINUOUS
  0
ENDTAB
  0
TABLE
  2
STYLE
 70
     1
  0
STYLE
  2
STANDARD
 70
     0
 40
0.0
 41
1.0
 50
0.0
 71
     0
 42
2.5
  3
txt
  4

  0
ENDTAB
  0
TABLE
  2
VIEW
 70
     0
  0
ENDTAB
  0
TABLE
  2
UCS
 70
     0
  0
ENDTAB
  0
TABLE
  2
APPID
 70
     1
  0
APPID
  2
ACAD
 70
     0
  0
ENDTAB
  0
TABLE
  2
DIMSTYLE
 70
     1
  0
DIMSTYLE
  2
ISO-25
 70
     0
  3

  4

  5

  6

  7

 40
1.0
 41
2.5
 42
0.625
 43
3.75
 44
1.25
 45
0.0
 46
0.0
 47
0.0
 48
0.0
140
2.5
141
2.5
142
0.0
143
0.0393700787
144
1.0
145
0.0
146
1.0
147
0.625
 71
     0
 72
     0
 73
     0
 74
     0
 75
     0
 76
     0
 77
     1
 78
     8
170
     0
171
     3
172
     1
173
     0
174
     0
175
     0
176
     0
177
     0
178
     0
  0
ENDTAB
  0
ENDSEC
  0
SECTION
  2
BLOCKS
  0
BLOCK
  8
0
  2
$MODEL_SPACE
 70
     0
 10
0.0
 20
0.0
 30
0.0
  3
$MODEL_SPACE
  1

  0
ENDBLK
  5
21
  8
0
  0
BLOCK
 67
     1
  8
0
  2
$PAPER_SPACE
 70
     0
 10
0.0
 20
0.0
 30
0.0
  3
$PAPER_SPACE
  1

  0
ENDBLK
  5
1D
 67
     1
  8
0
  0
BLOCK
  8
0
  2
SW_CENTERMARKSYMBOL_0
 70
     0
 10
0.0
 20
0.0
 30
0.0
  3
SW_CENTERMARKSYMBOL_0
  1

  0
LINE
  5
197
  8
FORMAT
 62
     0
 10
0.0
 20
0.0
 30
0.0
 11
0.0
 21
2.5
 31
0.0
  0
LINE
  5
198
  8
FORMAT
 62
     0
 10
0.0
 20
0.0
 30
0.0
 11
-2.5
 21
0.0
 31
0.0
  0
LINE
  5
199
  8
FORMAT
 62
     0
 10
0.0
 20
0.0
 30
0.0
 11
0.0
 21
-2.5
 31
0.0
  0
LINE
  5
19A
  8
FORMAT
 62
     0
 10
0.0
 20
0.0
 30
0.0
 11
2.5
 21
0.0
 31
0.0
  0
LINE
  5
19B
  8
FORMAT
 62
     0
 10
0.0
 20
5.0
 30
0.0
 11
0.0
 21
612.6187041023
 31
0.0
  0
LINE
  5
19C
  8
FORMAT
 62
     0
 10
-5.0
 20
0.0
 30
0.0
 11
-447.3156927721
 21
0.0
 31
0.0
  0
LINE
  5
19D
  8
FORMAT
 62
     0
 10
0.0
 20
-5.0
 30
0.0
 11
0.0
 21
-440.2610653907
 31
0.0
  0
LINE
  5
19E
  8
FORMAT
 62
     0
 10
5.0
 20
0.0
 30
0.0
 11
452.8515655271
 21
0.0
 31
0.0
  0
ENDBLK
  5
196
  8
0
  0
ENDSEC
  0
SECTION
  2
ENTITIES
  0
LINE
  5
46
  8
0
  6
CONTINUOUS
 62
     7
 10
-777.9504469243
 20
477.3471478397
 30
0.0
 11
-486.9438222257
 21
477.3471478397
 31
0.0
  0
POLYLINE
  5
47
  8
0
  6
CONTINUOUS
 62
     7
 66
     1
 10
0.0
 20
0.0
 30
0.0
  0
VERTEX
  5
2CE
  8
0
  6
CONTINUOUS
 62
     7
 10
-433.7571075765
 20
477.3485187466
 30
0.0
  0
VERTEX
  5
2CF
  8
0
  6
CONTINUOUS
 62
     7
 10
-332.1370592919
 20
496.7532280857
 30
0.0
  0
VERTEX
  5
2D0
  8
0
  6
CONTINUOUS
 62
     7
 10
-232.7768615094
 20
515.7263997967
 30
0.0
  0
SEQEND
  5
B81
  8
0
  6
CONTINUOUS
 62
     7
  0
LINE
  5
48
  8
0
  6
CONTINUOUS
 62
     7
 10
-486.9438222257
 20
477.3471478397
 30
0.0
 11
-433.7649157849
 21
477.3471478397
 31
0.0
  0
LINE
  5
49
  8
0
  6
CONTINUOUS
 62
     7
 10
78.0561707335
 20
1297.3471406872
 30
0.0
 11
47.0561721715
 21
1297.3471406872
 31
0.0
  0
LINE
  5
4A
  8
0
  6
CONTINUOUS
 62
     7
 10
72.0561706814
 20
457.3471669132
 30
0.0
 11
78.0561707335
 21
457.3471669132
 31
0.0
  0
LINE
  5
4B
  8
0
  6
CONTINUOUS
 62
     7
 10
-1211.9437864629
 20
457.3471669132
 30
0.0
 11
-1205.9438637105
 21
457.3471669132
 31
0.0
  0
LINE
  5
4C
  8
0
  6
CONTINUOUS
 62
     7
 10
-1180.9438875524
 20
1297.3471406872
 30
0.0
 11
-1211.9437864629
 21
1297.3471406872
 31
0.0
  0
POLYLINE
  5
4D
  8
0
  6
CONTINUOUS
 62
     7
 66
     1
 10
0.0
 20
0.0
 30
0.0
  0
VERTEX
  5
2D1
  8
0
  6
CONTINUOUS
 62
     7
 10
-232.7768615094
 20
515.7263997967
 30
0.0
  0
VERTEX
  5
2D2
  8
0
  6
CONTINUOUS
 62
     7
 10
-124.8241028396
 20
534.8638419087
 30
0.0
  0
VERTEX
  5
2D3
  8
0
  6
CONTINUOUS
 62
     7
 10
-14.9151793328
 20
554.3480638439
 30
0.0
  0
SEQEND
  5
B80
  8
0
  6
CONTINUOUS
 62
     7
  0
LINE
  5
4E
  8
0
  6
CONTINUOUS
 62
     7
 10
-1216.9437816945
 20
536.3471630985
 30
0.0
 11
-1211.9437864629
 21
536.3471630985
 31
0.0
  0
LINE
  5
4F
  8
0
  6
CONTINUOUS
 62
     7
 10
-1211.9437864629
 20
1218.3471445019
 30
0.0
 11
-1216.9437816945
 21
1218.3471445019
 31
0.0
  0
LINE
  5
50
  8
0
  6
CONTINUOUS
 62
     7
 10
83.0561706218
 20
1218.3471445019
 30
0.0
 11
78.0561707335
 21
1218.3471445019
 31
0.0
  0
LINE
  5
51
  8
0
  6
CONTINUOUS
 62
     7
 10
78.0561707335
 20
536.3471630985
 30
0.0
 11
83.0561706218
 21
536.3471630985
 31
0.0
  0
LINE
  5
52
  8
0
  6
CONTINUOUS
 62
     7
 10
-14.9202829805
 20
554.3471399719
 30
0.0
 11
47.0561721715
 21
554.3471399719
 31
0.0
  0
LINE
  5
53
  8
0
  6
CONTINUOUS
 62
     7
 10
-1180.9438875524
 20
554.3471399719
 30
0.0
 11
-791.5209940282
 21
554.3471399719
 31
0.0
  0
LINE
  5
54
  8
0
  6
CONTINUOUS
 62
     7
 10
-923.7553289739
 20
1200.3471676285
 30
0.0
 11
-1180.9438875524
 21
1200.3471676285
 31
0.0
  0
LINE
  5
55
  8
0
  6
CONTINUOUS
 62
     7
 10
-905.4282120076
 20
1200.3471676285
 30
0.0
 11
-910.1092031804
 21
1200.3471676285
 31
0.0
  0
LINE
  5
56
  8
0
  6
CONTINUOUS
 62
     7
 10
-197.5965908376
 20
1137.1717873985
 30
0.0
 11
-242.6299265233
 21
1163.1717804844
 31
0.0
  0
ARC
  5
57
  8
0
  6
CONTINUOUS
 62
     7
 10
-210.0965918144
 20
1115.5211456439
 30
0.0
 40
25.00000000000004
 50
330.0
 51
60.0
  0
LINE
  5
58
  8
0
  6
CONTINUOUS
 62
     7
 10
-290.445964655
 20
926.3519618685
 30
0.0
 11
-188.4459665624
 21
1103.0211422617
 31
0.0
  0
ARC
  5
59
  8
0
  6
CONTINUOUS
 62
     7
 10
-312.0965918144
 20
938.8519632719
 30
0.0
 40
24.99999999999999
 50
240.0
 51
330.0
  0
LINE
  5
5A
  8
0
  6
CONTINUOUS
 62
     7
 10
-369.6299007741
 20
943.2013306791
 30
0.0
 11
-324.5965948907
 21
917.2013264174
 31
0.0
  0
ARC
  5
5B
  8
0
  6
CONTINUOUS
 62
     7
 10
-357.1299128112
 20
964.8519632719
 30
0.0
 40
25.00000000000016
 50
150.0
 51
240.0
  0
ARC
  5
5C
  8
0
  6
CONTINUOUS
 62
     7
 10
-255.1299128112
 20
1141.5211456439
 30
0.0
 40
25.0000000000001
 50
60.0
 51
150.0
  0
LINE
  5
5D
  8
0
  6
CONTINUOUS
 62
     7
 10
-374.2657712308
 20
1239.1717854912
 30
0.0
 11
-419.2991069165
 21
1265.1717785771
 31
0.0
  0
ARC
  5
5E
  8
0
  6
CONTINUOUS
 62
     7
 10
-386.7657741864
 20
1217.5211456439
 30
0.0
 40
25.00000000000001
 50
330.0
 51
60.0
  0
ARC
  5
5F
  8
0
  6
CONTINUOUS
 62
     7
 10
-488.7657741864
 20
1040.8519632719
 30
0.0
 40
25.00000000000009
 50
240.0
 51
330.0
  0
LINE
  5
60
  8
0
  6
CONTINUOUS
 62
     7
 10
-546.2990811673
 20
1045.2013287718
 30
0.0
 11
-501.2657454816
 21
1019.2013207848
 31
0.0
  0
ARC
  5
61
  8
0
  6
CONTINUOUS
 62
     7
 10
-533.7990951832
 20
1066.8519632719
 30
0.0
 40
25.00000000000001
 50
150.0
 51
240.0
  0
LINE
  5
62
  8
0
  6
CONTINUOUS
 62
     7
 10
-453.4497073499
 20
1256.0211543018
 30
0.0
 11
-555.4497054425
 21
1079.3519590075
 31
0.0
  0
ARC
  5
63
  8
0
  6
CONTINUOUS
 62
     7
 10
-431.7990951832
 20
1243.5211456439
 30
0.0
 40
25.00000000000015
 50
60.0
 51
150.0
  0
ARC
  5
64
  8
0
  6
CONTINUOUS
 62
     7
 10
-343.4645039972
 20
1192.5211456439
 30
0.0
 40
24.99999999999992
 50
60.0
 51
150.0
  0
ARC
  5
65
  8
0
  6
CONTINUOUS
 62
     7
 10
-445.4645039972
 20
1015.8519632719
 30
0.0
 40
25.00000000000016
 50
150.0
 51
240.0
  0
LINE
  5
66
  8
0
  6
CONTINUOUS
 62
     7
 10
-457.964520773
 20
994.2013297255
 30
0.0
 11
-412.9311850873
 21
968.201329189
 31
0.0
  0
ARC
  5
67
  8
0
  6
CONTINUOUS
 62
     7
 10
-400.4311830004
 20
989.8519632719
 30
0.0
 40
24.99999999999999
 50
240.0
 51
330.0
  0
ARC
  5
68
  8
0
  6
CONTINUOUS
 62
     7
 10
-298.4311830004
 20
1166.5211456439
 30
0.0
 40
25.00000000000011
 50
330.0
 51
60.0
  0
LINE
  5
69
  8
0
  6
CONTINUOUS
 62
     7
 10
-285.9311810342
 20
1188.1717864449
 30
0.0
 11
-330.9645167199
 21
1214.1717795307
 31
0.0
  0
CIRCLE
  5
6A
  8
0
  6
CONTINUOUS
 62
     7
 10
-868.0643744635
 20
1375.8875163522
 30
0.0
 40
34.99999999999994
  0
LINE
  5
6B
  8
0
  6
CONTINUOUS
 62
     7
 10
-227.6959529725
 20
1035.0381556923
 30
0.0
 11
-184.3946984616
 21
1010.0381497318
 31
0.0
  0
LINE
  5
6C
  8
0
  6
CONTINUOUS
 62
     7
 10
-184.3946984616
 20
1010.0381497318
 30
0.0
 11
-209.3946746198
 21
966.7368803198
 31
0.0
  0
LINE
  5
6D
  8
0
  6
CONTINUOUS
 62
     7
 10
-209.3946746198
 20
966.7368803198
 30
0.0
 11
-252.695958933
 21
991.7368788297
 31
0.0
  0
LINE
  5
6E
  8
0
  6
CONTINUOUS
 62
     7
 10
-517.6997593251
 20
1144.7368685181
 30
0.0
 11
-859.3511989919
 21
1341.9894401009
 31
0.0
  0
LINE
  5
6F
  8
0
  6
CONTINUOUS
 62
     7
 10
-834.3511632291
 20
1385.2907244141
 30
0.0
 11
-492.6997235623
 21
1188.0381528313
 31
0.0
  0
LINE
  5
70
  8
0
  6
CONTINUOUS
 62
     7
 10
-954.3438366262
 20
1253.3279184277
 30
0.0
 11
-939.3438509313
 21
1227.3471478397
 31
0.0
  0
POLYLINE
  5
71
  8
0
  6
CONTINUOUS
 62
     7
 66
     1
 10
0.0
 20
0.0
 30
0.0
  0
VERTEX
  5
2D4
  8
0
  6
CONTINUOUS
 62
     7
 10
-954.3438366262
 20
1253.3279184277
 30
0.0
  0
VERTEX
  5
2D5
  8
0
  6
CONTINUOUS
 62
     7
 10
-954.3016365377
 20
1253.3522967274
 30
0.0
  0
VERTEX
  5
2D6
  8
0
  6
CONTINUOUS
 62
     7
 10
-954.1750362722
 20
1253.4253422196
 30
0.0
  0
VERTEX
  5
2D7
  8
0
  6
CONTINUOUS
 62
     7
 10
-953.9642742482
 20
1253.5470549042
 30
0.0
  0
VERTEX
  5
2D8
  8
0
  6
CONTINUOUS
 62
     7
 10
-953.6695888845
 20
1253.7171963627
 30
0.0
  0
VERTEX
  5
2D9
  8
0
  6
CONTINUOUS
 62
     7
 10
-953.2913378087
 20
1253.9356175835
 30
0.0
  0
VERTEX
  5
2DA
  8
0
  6
CONTINUOUS
 62
     7
 10
-952.8298786489
 20
1254.2020205433
 30
0.0
  0
VERTEX
  5
2DB
  8
0
  6
CONTINUOUS
 62
     7
 10
-952.2858074513
 20
1254.5160774166
 30
0.0
  0
VERTEX
  5
2DC
  8
0
  6
CONTINUOUS
 62
     7
 10
-951.6599586812
 20
1254.8774603779
 30
0.0
  0
VERTEX
  5
2DD
  8
0
  6
CONTINUOUS
 62
     7
 10
-950.9529283849
 20
1255.2856627876
 30
0.0
  0
VERTEX
  5
2DE
  8
0
  6
CONTINUOUS
 62
     7
 10
-950.1656702367
 20
1255.7402078087
 30
0.0
  0
VERTEX
  5
2DF
  8
0
  6
CONTINUOUS
 62
     7
 10
-949.2990187017
 20
1256.2405589993
 30
0.0
  0
VERTEX
  5
2E0
  8
0
  6
CONTINUOUS
 62
     7
 10
-948.3540466634
 20
1256.7860905106
 30
0.0
  0
VERTEX
  5
2E1
  8
0
  6
CONTINUOUS
 62
     7
 10
-947.3320654241
 20
1257.3761466915
 30
0.0
  0
VERTEX
  5
2E2
  8
0
  6
CONTINUOUS
 62
     7
 10
-946.2341478673
 20
1258.0100122864
 30
0.0
  0
VERTEX
  5
2E3
  8
0
  6
CONTINUOUS
 62
     7
 10
-945.0618437139
 20
1258.6869124348
 30
0.0
  0
VERTEX
  5
2E4
  8
0
  6
CONTINUOUS
 62
     7
 10
-943.8163450566
 20
1259.4059828693
 30
0.0
  0
VERTEX
  5
2E5
  8
0
  6
CONTINUOUS
 62
     7
 10
-942.4992016164
 20
1260.1664189274
 30
0.0
  0
VERTEX
  5
2E6
  8
0
  6
CONTINUOUS
 62
     7
 10
-941.1120823232
 20
1260.9672371323
 30
0.0
  0
VERTEX
  5
2E7
  8
0
  6
CONTINUOUS
 62
     7
 10
-939.6567753163
 20
1261.8074838097
 30
0.0
  0
VERTEX
  5
2E8
  8
0
  6
CONTINUOUS
 62
     7
 10
-938.1349495259
 20
1262.6861456806
 30
0.0
  0
VERTEX
  5
2E9
  8
0
  6
CONTINUOUS
 62
     7
 10
-936.5483930913
 20
1263.6021200592
 30
0.0
  0
VERTEX
  5
2EA
  8
0
  6
CONTINUOUS
 62
     7
 10
-934.8991325704
 20
1264.5543340618
 30
0.0
  0
VERTEX
  5
2EB
  8
0
  6
CONTINUOUS
 62
     7
 10
-933.1891945211
 20
1265.5415955956
 30
0.0
  0
VERTEX
  5
2EC
  8
0
  6
CONTINUOUS
 62
     7
 10
-931.420486292
 20
1266.5626827652
 30
0.0
  0
VERTEX
  5
2ED
  8
0
  6
CONTINUOUS
 62
     7
 10
-929.595392069
 20
1267.6164034779
 30
0.0
  0
VERTEX
  5
2EE
  8
0
  6
CONTINUOUS
 62
     7
 10
-927.7160576192
 20
1268.7014464314
 30
0.0
  0
VERTEX
  5
2EF
  8
0
  6
CONTINUOUS
 62
     7
 10
-925.7847479192
 20
1269.8165003235
 30
0.0
  0
VERTEX
  5
2F0
  8
0
  6
CONTINUOUS
 62
     7
 10
-923.8038471547
 20
1270.9601942474
 30
0.0
  0
VERTEX
  5
2F1
  8
0
  6
CONTINUOUS
 62
     7
 10
-921.7757395116
 20
1272.1311572964
 30
0.0
  0
VERTEX
  5
2F2
  8
0
  6
CONTINUOUS
 62
     7
 10
-919.7028091756
 20
1273.3279291565
 30
0.0
  0
VERTEX
  5
2F3
  8
0
  6
CONTINUOUS
 62
     7
 10
-917.5877979604
 20
1274.549049514
 30
0.0
  0
VERTEX
  5
2F4
  8
0
  6
CONTINUOUS
 62
     7
 10
-915.4330304471
 20
1275.7930580551
 30
0.0
  0
VERTEX
  5
2F5
  8
0
  6
CONTINUOUS
 62
     7
 10
-913.2413676587
 20
1277.0584646637
 30
0.0
  0
VERTEX
  5
2F6
  8
0
  6
CONTINUOUS
 62
     7
 10
-911.0153129903
 20
1278.3436600144
 30
0.0
  0
VERTEX
  5
2F7
  8
0
  6
CONTINUOUS
 62
     7
 10
-908.7576678601
 20
1279.6471241886
 30
0.0
  0
VERTEX
  5
2F8
  8
0
  6
CONTINUOUS
 62
     7
 10
-906.4711144773
 20
1280.9672478611
 30
0.0
  0
VERTEX
  5
2F9
  8
0
  6
CONTINUOUS
 62
     7
 10
-904.1585138646
 20
1282.3024217064
 30
0.0
  0
VERTEX
  5
2FA
  8
0
  6
CONTINUOUS
 62
     7
 10
-901.8226674405
 20
1283.6510363991
 30
0.0
  0
VERTEX
  5
2FB
  8
0
  6
CONTINUOUS
 62
     7
 10
-899.4663170186
 20
1285.0114528114
 30
0.0
  0
VERTEX
  5
2FC
  8
0
  6
CONTINUOUS
 62
     7
 10
-897.0925024358
 20
1286.3820020134
 30
0.0
  0
VERTEX
  5
2FD
  8
0
  6
CONTINUOUS
 62
     7
 10
-894.7039655057
 20
1287.7609852726
 30
0.0
  0
VERTEX
  5
2FE
  8
0
  6
CONTINUOUS
 62
     7
 10
-892.3037460652
 20
1289.1467634613
 30
0.0
  0
VERTEX
  5
2FF
  8
0
  6
CONTINUOUS
 62
     7
 10
-889.8946455327
 20
1290.5376676495
 30
0.0
  0
VERTEX
  5
300
  8
0
  6
CONTINUOUS
 62
     7
 10
-887.479703745
 20
1291.9319395001
 30
0.0
  0
VERTEX
  5
301
  8
0
  6
CONTINUOUS
 62
     7
 10
-885.061781725
 20
1293.327910083
 30
0.0
  0
SEQEND
  5
B7F
  8
0
  6
CONTINUOUS
 62
     7
  0
LINE
  5
72
  8
0
  6
CONTINUOUS
 62
     7
 10
-920.3437975255
 20
1194.438201564
 30
0.0
 11
-939.3438509313
 21
1227.3471478397
 31
0.0
  0
POLYLINE
  5
73
  8
0
  6
CONTINUOUS
 62
     7
 66
     1
 10
0.0
 20
0.0
 30
0.0
  0
VERTEX
  5
302
  8
0
  6
CONTINUOUS
 62
     7
 10
-920.3437975255
 20
1194.438201564
 30
0.0
  0
VERTEX
  5
303
  8
0
  6
CONTINUOUS
 62
     7
 10
-920.301597437
 20
1194.4625500614
 30
0.0
  0
VERTEX
  5
304
  8
0
  6
CONTINUOUS
 62
     7
 10
-920.1751163808
 20
1194.5356253559
 30
0.0
  0
VERTEX
  5
305
  8
0
  6
CONTINUOUS
 62
     7
 10
-919.9643543569
 20
1194.6573082382
 30
0.0
  0
VERTEX
  5
306
  8
0
  6
CONTINUOUS
 62
     7
 10
-919.6695497838
 20
1194.8274794991
 30
0.0
  0
VERTEX
  5
307
  8
0
  6
CONTINUOUS
 62
     7
 10
-919.2912987081
 20
1195.0458709175
 30
0.0
  0
VERTEX
  5
308
  8
0
  6
CONTINUOUS
 62
     7
 10
-918.8298395482
 20
1195.3122738773
 30
0.0
  0
VERTEX
  5
309
  8
0
  6
CONTINUOUS
 62
     7
 10
-918.28588756
 20
1195.626360553
 30
0.0
  0
VERTEX
  5
30A
  8
0
  6
CONTINUOUS
 62
     7
 10
-917.6599195806
 20
1195.9877137119
 30
0.0
  0
VERTEX
  5
30B
  8
0
  6
CONTINUOUS
 62
     7
 10
-916.9528892842
 20
1196.3959161217
 30
0.0
  0
VERTEX
  5
30C
  8
0
  6
CONTINUOUS
 62
     7
 10
-916.165631136
 20
1196.8504909451
 30
0.0
  0
VERTEX
  5
30D
  8
0
  6
CONTINUOUS
 62
     7
 10
-915.298979601
 20
1197.3508421356
 30
0.0
  0
VERTEX
  5
30E
  8
0
  6
CONTINUOUS
 62
     7
 10
-914.3540671674
 20
1197.8963736469
 30
0.0
  0
VERTEX
  5
30F
  8
0
  6
CONTINUOUS
 62
     7
 10
-913.3320859281
 20
1198.4864298279
 30
0.0
  0
VERTEX
  5
310
  8
0
  6
CONTINUOUS
 62
     7
 10
-912.2342279759
 20
1199.1202954228
 30
0.0
  0
VERTEX
  5
311
  8
0
  6
CONTINUOUS
 62
     7
 10
-911.0618046132
 20
1199.7971657688
 30
0.0
  0
VERTEX
  5
312
  8
0
  6
CONTINUOUS
 62
     7
 10
-909.816305956
 20
1200.5162660057
 30
0.0
  0
VERTEX
  5
313
  8
0
  6
CONTINUOUS
 62
     7
 10
-908.4992221204
 20
1201.2766722614
 30
0.0
  0
VERTEX
  5
314
  8
0
  6
CONTINUOUS
 62
     7
 10
-907.1121624318
 20
1202.0775202686
 30
0.0
  0
VERTEX
  5
315
  8
0
  6
CONTINUOUS
 62
     7
 10
-905.6567958203
 20
1202.917766946
 30
0.0
  0
VERTEX
  5
316
  8
0
  6
CONTINUOUS
 62
     7
 10
-904.1349104253
 20
1203.7963990147
 30
0.0
  0
VERTEX
  5
317
  8
0
  6
CONTINUOUS
 62
     7
 10
-902.5483539907
 20
1204.7124031956
 30
0.0
  0
VERTEX
  5
318
  8
0
  6
CONTINUOUS
 62
     7
 10
-900.8990934697
 20
1205.6645873959
 30
0.0
  0
VERTEX
  5
319
  8
0
  6
CONTINUOUS
 62
     7
 10
-899.1891554204
 20
1206.6518489296
 30
0.0
  0
VERTEX
  5
31A
  8
0
  6
CONTINUOUS
 62
     7
 10
-897.420506796
 20
1207.6729659016
 30
0.0
  0
VERTEX
  5
31B
  8
0
  6
CONTINUOUS
 62
     7
 10
-895.595412573
 20
1208.7266866142
 30
0.0
  0
VERTEX
  5
31C
  8
0
  6
CONTINUOUS
 62
     7
 10
-893.7160781232
 20
1209.8117295677
 30
0.0
  0
VERTEX
  5
31D
  8
0
  6
CONTINUOUS
 62
     7
 10
-891.7847684232
 20
1210.9267834599
 30
0.0
  0
VERTEX
  5
31E
  8
0
  6
CONTINUOUS
 62
     7
 10
-889.8038080541
 20
1212.0704773838
 30
0.0
  0
VERTEX
  5
31F
  8
0
  6
CONTINUOUS
 62
     7
 10
-887.7757004109
 20
1213.2414106304
 30
0.0
  0
VERTEX
  5
320
  8
0
  6
CONTINUOUS
 62
     7
 10
-885.7028296796
 20
1214.4381824905
 30
0.0
  0
VERTEX
  5
321
  8
0
  6
CONTINUOUS
 62
     7
 10
-883.5877588597
 20
1215.6593326504
 30
0.0
  0
VERTEX
  5
322
  8
0
  6
CONTINUOUS
 62
     7
 10
-881.4330509511
 20
1216.9033411915
 30
0.0
  0
VERTEX
  5
323
  8
0
  6
CONTINUOUS
 62
     7
 10
-879.2413285581
 20
1218.1687179978
 30
0.0
  0
VERTEX
  5
324
  8
0
  6
CONTINUOUS
 62
     7
 10
-877.0152738896
 20
1219.4539133484
 30
0.0
  0
VERTEX
  5
325
  8
0
  6
CONTINUOUS
 62
     7
 10
-874.7576287595
 20
1220.7573775227
 30
0.0
  0
VERTEX
  5
326
  8
0
  6
CONTINUOUS
 62
     7
 10
-872.4711349813
 20
1222.0775011952
 30
0.0
  0
VERTEX
  5
327
  8
0
  6
CONTINUOUS
 62
     7
 10
-870.1585343686
 20
1223.4127048428
 30
0.0
  0
VERTEX
  5
328
  8
0
  6
CONTINUOUS
 62
     7
 10
-867.8226283399
 20
1224.7613195355
 30
0.0
  0
VERTEX
  5
329
  8
0
  6
CONTINUOUS
 62
     7
 10
-865.4663375226
 20
1226.1217061455
 30
0.0
  0
VERTEX
  5
32A
  8
0
  6
CONTINUOUS
 62
     7
 10
-863.0925229398
 20
1227.4922553475
 30
0.0
  0
VERTEX
  5
32B
  8
0
  6
CONTINUOUS
 62
     7
 10
-860.7039860097
 20
1228.871268409
 30
0.0
  0
VERTEX
  5
32C
  8
0
  6
CONTINUOUS
 62
     7
 10
-858.3037665692
 20
1230.2570465977
 30
0.0
  0
VERTEX
  5
32D
  8
0
  6
CONTINUOUS
 62
     7
 10
-855.8946660367
 20
1231.6479209835
 30
0.0
  0
VERTEX
  5
32E
  8
0
  6
CONTINUOUS
 62
     7
 10
-853.479724249
 20
1233.0422226364
 30
0.0
  0
VERTEX
  5
32F
  8
0
  6
CONTINUOUS
 62
     7
 10
-851.061802229
 20
1234.4381932194
 30
0.0
  0
SEQEND
  5
B7E
  8
0
  6
CONTINUOUS
 62
     7
  0
LINE
  5
74
  8
0
  6
CONTINUOUS
 62
     7
 10
-851.061802229
 20
1234.4381932194
 30
0.0
 11
-762.0643785802
 21
1285.8208838875
 31
0.0
  0
LINE
  5
75
  8
0
  6
CONTINUOUS
 62
     7
 10
-712.0643666593
 20
1314.6883968289
 30
0.0
 11
-599.9144128171
 21
1379.4382039482
 31
0.0
  0
LINE
  5
76
  8
0
  6
CONTINUOUS
 62
     7
 10
-885.061781725
 20
1293.327910083
 30
0.0
 11
-830.0643971768
 21
1325.080705064
 31
0.0
  0
LINE
  5
77
  8
0
  6
CONTINUOUS
 62
     7
 10
-780.0643852559
 20
1353.9482180054
 30
0.0
 11
-633.9144519177
 21
1438.3278910095
 31
0.0
  0
LINE
  5
78
  8
0
  6
CONTINUOUS
 62
     7
 10
-564.6323970166
 20
1478.3279124672
 30
0.0
 11
-549.6324113217
 21
1452.3471418793
 31
0.0
  0
POLYLINE
  5
79
  8
0
  6
CONTINUOUS
 62
     7
 66
     1
 10
0.0
 20
0.0
 30
0.0
  0
VERTEX
  5
330
  8
0
  6
CONTINUOUS
 62
     7
 10
-633.9144519177
 20
1438.3278910095
 30
0.0
  0
VERTEX
  5
331
  8
0
  6
CONTINUOUS
 62
     7
 10
-631.4965298978
 20
1439.7238913948
 30
0.0
  0
VERTEX
  5
332
  8
0
  6
CONTINUOUS
 62
     7
 10
-629.0815881101
 20
1441.1181632454
 30
0.0
  0
VERTEX
  5
333
  8
0
  6
CONTINUOUS
 62
     7
 10
-626.6724875775
 20
1442.5090376312
 30
0.0
  0
VERTEX
  5
334
  8
0
  6
CONTINUOUS
 62
     7
 10
-624.2722085324
 20
1443.8948456223
 30
0.0
  0
VERTEX
  5
335
  8
0
  6
CONTINUOUS
 62
     7
 10
-621.883731207
 20
1445.2738586838
 30
0.0
  0
VERTEX
  5
336
  8
0
  6
CONTINUOUS
 62
     7
 10
-619.5098570195
 20
1446.6444078858
 30
0.0
  0
VERTEX
  5
337
  8
0
  6
CONTINUOUS
 62
     7
 10
-617.1535662023
 20
1448.0047646935
 30
0.0
  0
VERTEX
  5
338
  8
0
  6
CONTINUOUS
 62
     7
 10
-614.8177197782
 20
1449.3534389908
 30
0.0
  0
VERTEX
  5
339
  8
0
  6
CONTINUOUS
 62
     7
 10
-612.5051191655
 20
1450.6885830338
 30
0.0
  0
VERTEX
  5
33A
  8
0
  6
CONTINUOUS
 62
     7
 10
-610.2185657826
 20
1452.0087067062
 30
0.0
  0
VERTEX
  5
33B
  8
0
  6
CONTINUOUS
 62
     7
 10
-607.9609206525
 20
1453.3122006828
 30
0.0
  0
VERTEX
  5
33C
  8
0
  6
CONTINUOUS
 62
     7
 10
-605.7348659841
 20
1454.5973960335
 30
0.0
  0
VERTEX
  5
33D
  8
0
  6
CONTINUOUS
 62
     7
 10
-603.5432031957
 20
1455.8627430374
 30
0.0
  0
VERTEX
  5
33E
  8
0
  6
CONTINUOUS
 62
     7
 10
-601.388495287
 20
1457.1067515785
 30
0.0
  0
VERTEX
  5
33F
  8
0
  6
CONTINUOUS
 62
     7
 10
-599.2734244672
 20
1458.3279315407
 30
0.0
  0
VERTEX
  5
340
  8
0
  6
CONTINUOUS
 62
     7
 10
-597.2005537358
 20
1459.5246735985
 30
0.0
  0
VERTEX
  5
341
  8
0
  6
CONTINUOUS
 62
     7
 10
-595.1723864881
 20
1460.6956068451
 30
0.0
  0
VERTEX
  5
342
  8
0
  6
CONTINUOUS
 62
     7
 10
-593.1914857236
 20
1461.8393007691
 30
0.0
  0
VERTEX
  5
343
  8
0
  6
CONTINUOUS
 62
     7
 10
-591.2601760236
 20
1462.9543844635
 30
0.0
  0
VERTEX
  5
344
  8
0
  6
CONTINUOUS
 62
     7
 10
-589.3807819692
 20
1464.039427417
 30
0.0
  0
VERTEX
  5
345
  8
0
  6
CONTINUOUS
 62
     7
 10
-587.5556877461
 20
1465.0931183273
 30
0.0
  0
VERTEX
  5
346
  8
0
  6
CONTINUOUS
 62
     7
 10
-585.7870987264
 20
1466.1142651016
 30
0.0
  0
VERTEX
  5
347
  8
0
  6
CONTINUOUS
 62
     7
 10
-584.0771010724
 20
1467.101496833
 30
0.0
  0
VERTEX
  5
348
  8
0
  6
CONTINUOUS
 62
     7
 10
-582.4278405515
 20
1468.0536810333
 30
0.0
  0
VERTEX
  5
349
  8
0
  6
CONTINUOUS
 62
     7
 10
-580.8413437215
 20
1468.9696852142
 30
0.0
  0
VERTEX
  5
34A
  8
0
  6
CONTINUOUS
 62
     7
 10
-579.3194583264
 20
1469.8483172829
 30
0.0
  0
VERTEX
  5
34B
  8
0
  6
CONTINUOUS
 62
     7
 10
-577.864091715
 20
1470.6886235649
 30
0.0
  0
VERTEX
  5
34C
  8
0
  6
CONTINUOUS
 62
     7
 10
-576.4770320264
 20
1471.4894119675
 30
0.0
  0
VERTEX
  5
34D
  8
0
  6
CONTINUOUS
 62
     7
 10
-575.1599481908
 20
1472.2498480255
 30
0.0
  0
VERTEX
  5
34E
  8
0
  6
CONTINUOUS
 62
     7
 10
-573.9144495336
 20
1472.9689184601
 30
0.0
  0
VERTEX
  5
34F
  8
0
  6
CONTINUOUS
 62
     7
 10
-572.7420261708
 20
1473.6458484108
 30
0.0
  0
VERTEX
  5
350
  8
0
  6
CONTINUOUS
 62
     7
 10
-571.6441682187
 20
1474.2796842033
 30
0.0
  0
VERTEX
  5
351
  8
0
  6
CONTINUOUS
 62
     7
 10
-570.6221273748
 20
1474.869710582
 30
0.0
  0
VERTEX
  5
352
  8
0
  6
CONTINUOUS
 62
     7
 10
-569.6772745458
 20
1475.4152718956
 30
0.0
  0
VERTEX
  5
353
  8
0
  6
CONTINUOUS
 62
     7
 10
-568.8106230107
 20
1475.9155932839
 30
0.0
  0
VERTEX
  5
354
  8
0
  6
CONTINUOUS
 62
     7
 10
-568.0233052579
 20
1476.3701979096
 30
0.0
  0
VERTEX
  5
355
  8
0
  6
CONTINUOUS
 62
     7
 10
-567.3162749616
 20
1476.778370517
 30
0.0
  0
VERTEX
  5
356
  8
0
  6
CONTINUOUS
 62
     7
 10
-566.6903665868
 20
1477.1397534783
 30
0.0
  0
VERTEX
  5
357
  8
0
  6
CONTINUOUS
 62
     7
 10
-566.1463549939
 20
1477.4538103516
 30
0.0
  0
VERTEX
  5
358
  8
0
  6
CONTINUOUS
 62
     7
 10
-565.6849554387
 20
1477.7202431137
 30
0.0
  0
VERTEX
  5
359
  8
0
  6
CONTINUOUS
 62
     7
 10
-565.3066447583
 20
1477.9386345322
 30
0.0
  0
VERTEX
  5
35A
  8
0
  6
CONTINUOUS
 62
     7
 10
-565.0119593946
 20
1478.108805793
 30
0.0
  0
VERTEX
  5
35B
  8
0
  6
CONTINUOUS
 62
     7
 10
-564.801137766
 20
1478.230458873
 30
0.0
  0
VERTEX
  5
35C
  8
0
  6
CONTINUOUS
 62
     7
 10
-564.6745971051
 20
1478.3035341675
 30
0.0
  0
VERTEX
  5
35D
  8
0
  6
CONTINUOUS
 62
     7
 10
-564.6323970166
 20
1478.3279124672
 30
0.0
  0
SEQEND
  5
B7D
  8
0
  6
CONTINUOUS
 62
     7
  0
LINE
  5
7A
  8
0
  6
CONTINUOUS
 62
     7
 10
-530.6324175206
 20
1419.4381658012
 30
0.0
 11
-549.6324113217
 21
1452.3471418793
 31
0.0
  0
POLYLINE
  5
7B
  8
0
  6
CONTINUOUS
 62
     7
 66
     1
 10
0.0
 20
0.0
 30
0.0
  0
VERTEX
  5
35E
  8
0
  6
CONTINUOUS
 62
     7
 10
-599.9144128171
 20
1379.4382039482
 30
0.0
  0
VERTEX
  5
35F
  8
0
  6
CONTINUOUS
 62
     7
 10
-597.4965504018
 20
1380.8341447289
 30
0.0
  0
VERTEX
  5
360
  8
0
  6
CONTINUOUS
 62
     7
 10
-595.0815490094
 20
1382.2284761841
 30
0.0
  0
VERTEX
  5
361
  8
0
  6
CONTINUOUS
 62
     7
 10
-592.6725080815
 20
1383.6193505699
 30
0.0
  0
VERTEX
  5
362
  8
0
  6
CONTINUOUS
 62
     7
 10
-590.2722290364
 20
1385.0050989563
 30
0.0
  0
VERTEX
  5
363
  8
0
  6
CONTINUOUS
 62
     7
 10
-587.883751711
 20
1386.3841120178
 30
0.0
  0
VERTEX
  5
364
  8
0
  6
CONTINUOUS
 62
     7
 10
-585.5098775235
 20
1387.7546612198
 30
0.0
  0
VERTEX
  5
365
  8
0
  6
CONTINUOUS
 62
     7
 10
-583.1535867063
 20
1389.1150776322
 30
0.0
  0
VERTEX
  5
366
  8
0
  6
CONTINUOUS
 62
     7
 10
-580.8177402822
 20
1390.4636923248
 30
0.0
  0
VERTEX
  5
367
  8
0
  6
CONTINUOUS
 62
     7
 10
-578.5050800649
 20
1391.7988959725
 30
0.0
  0
VERTEX
  5
368
  8
0
  6
CONTINUOUS
 62
     7
 10
-576.2185862866
 20
1393.1190196449
 30
0.0
  0
VERTEX
  5
369
  8
0
  6
CONTINUOUS
 62
     7
 10
-573.9609411565
 20
1394.4224540169
 30
0.0
  0
VERTEX
  5
36A
  8
0
  6
CONTINUOUS
 62
     7
 10
-571.7348864881
 20
1395.7076493675
 30
0.0
  0
VERTEX
  5
36B
  8
0
  6
CONTINUOUS
 62
     7
 10
-569.543164095
 20
1396.9730559761
 30
0.0
  0
VERTEX
  5
36C
  8
0
  6
CONTINUOUS
 62
     7
 10
-567.388515791
 20
1398.2170645172
 30
0.0
  0
VERTEX
  5
36D
  8
0
  6
CONTINUOUS
 62
     7
 10
-565.2733853665
 20
1399.4381848747
 30
0.0
  0
VERTEX
  5
36E
  8
0
  6
CONTINUOUS
 62
     7
 10
-563.2005742398
 20
1400.6349865372
 30
0.0
  0
VERTEX
  5
36F
  8
0
  6
CONTINUOUS
 62
     7
 10
-561.1724069921
 20
1401.8059197838
 30
0.0
  0
VERTEX
  5
370
  8
0
  6
CONTINUOUS
 62
     7
 10
-559.191446623
 20
1402.9496137077
 30
0.0
  0
VERTEX
  5
371
  8
0
  6
CONTINUOUS
 62
     7
 10
-557.2601369229
 20
1404.0646377976
 30
0.0
  0
VERTEX
  5
372
  8
0
  6
CONTINUOUS
 62
     7
 10
-555.3808024732
 20
1405.149680751
 30
0.0
  0
VERTEX
  5
373
  8
0
  6
CONTINUOUS
 62
     7
 10
-553.5557082501
 20
1406.203431266
 30
0.0
  0
VERTEX
  5
374
  8
0
  6
CONTINUOUS
 62
     7
 10
-551.7870596257
 20
1407.2245184357
 30
0.0
  0
VERTEX
  5
375
  8
0
  6
CONTINUOUS
 62
     7
 10
-550.0771215764
 20
1408.2118097717
 30
0.0
  0
VERTEX
  5
376
  8
0
  6
CONTINUOUS
 62
     7
 10
-548.4278610555
 20
1409.163993972
 30
0.0
  0
VERTEX
  5
377
  8
0
  6
CONTINUOUS
 62
     7
 10
-546.8413046208
 20
1410.0799385483
 30
0.0
  0
VERTEX
  5
378
  8
0
  6
CONTINUOUS
 62
     7
 10
-545.3194192258
 20
1410.9586302216
 30
0.0
  0
VERTEX
  5
379
  8
0
  6
CONTINUOUS
 62
     7
 10
-543.864112219
 20
1411.798876899
 30
0.0
  0
VERTEX
  5
37A
  8
0
  6
CONTINUOUS
 62
     7
 10
-542.4769929257
 20
1412.5996653015
 30
0.0
  0
VERTEX
  5
37B
  8
0
  6
CONTINUOUS
 62
     7
 10
-541.1599090901
 20
1413.3601013596
 30
0.0
  0
VERTEX
  5
37C
  8
0
  6
CONTINUOUS
 62
     7
 10
-539.9144104329
 20
1414.0792313988
 30
0.0
  0
VERTEX
  5
37D
  8
0
  6
CONTINUOUS
 62
     7
 10
-538.7420466748
 20
1414.7561017449
 30
0.0
  0
VERTEX
  5
37E
  8
0
  6
CONTINUOUS
 62
     7
 10
-537.6441291181
 20
1415.3899375374
 30
0.0
  0
VERTEX
  5
37F
  8
0
  6
CONTINUOUS
 62
     7
 10
-536.6221478787
 20
1415.9800235207
 30
0.0
  0
VERTEX
  5
380
  8
0
  6
CONTINUOUS
 62
     7
 10
-535.6772354451
 20
1416.5255252297
 30
0.0
  0
VERTEX
  5
381
  8
0
  6
CONTINUOUS
 62
     7
 10
-534.8106435147
 20
1417.0259062225
 30
0.0
  0
VERTEX
  5
382
  8
0
  6
CONTINUOUS
 62
     7
 10
-534.0233257619
 20
1417.4804512436
 30
0.0
  0
VERTEX
  5
383
  8
0
  6
CONTINUOUS
 62
     7
 10
-533.3162954656
 20
1417.8886834557
 30
0.0
  0
VERTEX
  5
384
  8
0
  6
CONTINUOUS
 62
     7
 10
-532.6903870908
 20
1418.2500068123
 30
0.0
  0
VERTEX
  5
385
  8
0
  6
CONTINUOUS
 62
     7
 10
-532.1463754979
 20
1418.5640636856
 30
0.0
  0
VERTEX
  5
386
  8
0
  6
CONTINUOUS
 62
     7
 10
-531.6849759427
 20
1418.8304964478
 30
0.0
  0
VERTEX
  5
387
  8
0
  6
CONTINUOUS
 62
     7
 10
-531.3066652623
 20
1419.0488878662
 30
0.0
  0
VERTEX
  5
388
  8
0
  6
CONTINUOUS
 62
     7
 10
-531.0119202939
 20
1419.2190591271
 30
0.0
  0
VERTEX
  5
389
  8
0
  6
CONTINUOUS
 62
     7
 10
-530.80115827
 20
1419.3407718117
 30
0.0
  0
VERTEX
  5
38A
  8
0
  6
CONTINUOUS
 62
     7
 10
-530.6746176091
 20
1419.4138471062
 30
0.0
  0
VERTEX
  5
38B
  8
0
  6
CONTINUOUS
 62
     7
 10
-530.6324175206
 20
1419.4381658012
 30
0.0
  0
SEQEND
  5
B7C
  8
0
  6
CONTINUOUS
 62
     7
  0
POLYLINE
  5
7C
  8
0
  6
CONTINUOUS
 62
     7
 66
     1
 10
0.0
 20
0.0
 30
0.0
  0
VERTEX
  5
38C
  8
0
  6
CONTINUOUS
 62
     7
 10
-848.4746030179
 20
877.3471538002
 30
0.0
  0
VERTEX
  5
38D
  8
0
  6
CONTINUOUS
 62
     7
 10
-846.501331648
 20
866.1559589232
 30
0.0
  0
VERTEX
  5
38E
  8
0
  6
CONTINUOUS
 62
     7
 10
-844.5287755338
 20
854.9690108771
 30
0.0
  0
VERTEX
  5
38F
  8
0
  6
CONTINUOUS
 62
     7
 10
-842.5591996518
 20
843.7990445668
 30
0.0
  0
VERTEX
  5
390
  8
0
  6
CONTINUOUS
 62
     7
 10
-840.5948689786
 20
832.6587986226
 30
0.0
  0
VERTEX
  5
391
  8
0
  6
CONTINUOUS
 62
     7
 10
-838.6364987699
 20
821.5524975235
 30
0.0
  0
VERTEX
  5
392
  8
0
  6
CONTINUOUS
 62
     7
 10
-836.6849234906
 20
810.4844216282
 30
0.0
  0
VERTEX
  5
393
  8
0
  6
CONTINUOUS
 62
     7
 10
-834.7422889081
 20
799.4671959455
 30
0.0
  0
VERTEX
  5
394
  8
0
  6
CONTINUOUS
 62
     7
 10
-832.8108599988
 20
788.5134715612
 30
0.0
  0
VERTEX
  5
395
  8
0
  6
CONTINUOUS
 62
     7
 10
-830.7933619824
 20
777.0717043454
 30
0.0
  0
VERTEX
  5
396
  8
0
  6
CONTINUOUS
 62
     7
 10
-828.7899306623
 20
765.7096210892
 30
0.0
  0
VERTEX
  5
397
  8
0
  6
CONTINUOUS
 62
     7
 10
-826.8030694333
 20
754.4416237647
 30
0.0
  0
VERTEX
  5
398
  8
0
  6
CONTINUOUS
 62
     7
 10
-824.8353412953
 20
743.2820919926
 30
0.0
  0
VERTEX
  5
399
  8
0
  6
CONTINUOUS
 62
     7
 10
-822.9820540753
 20
732.7714536364
 30
0.0
  0
VERTEX
  5
39A
  8
0
  6
CONTINUOUS
 62
     7
 10
-821.1475423184
 20
722.3674479897
 30
0.0
  0
VERTEX
  5
39B
  8
0
  6
CONTINUOUS
 62
     7
 10
-819.3339517919
 20
712.0821002895
 30
0.0
  0
VERTEX
  5
39C
  8
0
  6
CONTINUOUS
 62
     7
 10
-817.5433686582
 20
701.9274506743
 30
0.0
  0
VERTEX
  5
39D
  8
0
  6
CONTINUOUS
 62
     7
 10
-815.7766273824
 20
691.907582062
 30
0.0
  0
VERTEX
  5
39E
  8
0
  6
CONTINUOUS
 62
     7
 10
-814.034324011
 20
682.026502865
 30
0.0
  0
VERTEX
  5
39F
  8
0
  6
CONTINUOUS
 62
     7
 10
-812.3185447064
 20
672.295821088
 30
0.0
  0
VERTEX
  5
3A0
  8
0
  6
CONTINUOUS
 62
     7
 10
-810.6313160268
 20
662.7271298344
 30
0.0
  0
VERTEX
  5
3A1
  8
0
  6
CONTINUOUS
 62
     7
 10
-808.8877609578
 20
652.8390023882
 30
0.0
  0
VERTEX
  5
3A2
  8
0
  6
CONTINUOUS
 62
     7
 10
-807.177405676
 20
643.1391064102
 30
0.0
  0
VERTEX
  5
3A3
  8
0
  6
CONTINUOUS
 62
     7
 10
-805.5025151578
 20
633.6401972944
 30
0.0
  0
VERTEX
  5
3A4
  8
0
  6
CONTINUOUS
 62
     7
 10
-803.8652947751
 20
624.3550602371
 30
0.0
  0
VERTEX
  5
3A5
  8
0
  6
CONTINUOUS
 62
     7
 10
-802.3572972623
 20
615.8027175839
 30
0.0
  0
VERTEX
  5
3A6
  8
0
  6
CONTINUOUS
 62
     7
 10
-800.8840492574
 20
607.4476961071
 30
0.0
  0
VERTEX
  5
3A7
  8
0
  6
CONTINUOUS
 62
     7
 10
-799.4473388997
 20
599.299711364
 30
0.0
  0
VERTEX
  5
3A8
  8
0
  6
CONTINUOUS
 62
     7
 10
-798.048894724
 20
591.3685683186
 30
0.0
  0
VERTEX
  5
3A9
  8
0
  6
CONTINUOUS
 62
     7
 10
-796.689253172
 20
583.6578432495
 30
0.0
  0
VERTEX
  5
3AA
  8
0
  6
CONTINUOUS
 62
     7
 10
-795.3690698949
 20
576.1707250054
 30
0.0
  0
VERTEX
  5
3AB
  8
0
  6
CONTINUOUS
 62
     7
 10
-794.089954218
 20
568.916362899
 30
0.0
  0
VERTEX
  5
3AC
  8
0
  6
CONTINUOUS
 62
     7
 10
-792.8534558621
 20
561.9037572319
 30
0.0
  0
VERTEX
  5
3AD
  8
0
  6
CONTINUOUS
 62
     7
 10
-791.5983608571
 20
554.7857705528
 30
0.0
  0
VERTEX
  5
3AE
  8
0
  6
CONTINUOUS
 62
     7
 10
-790.3917244283
 20
547.9427401001
 30
0.0
  0
VERTEX
  5
3AF
  8
0
  6
CONTINUOUS
 62
     7
 10
-789.2352155057
 20
541.3838747913
 30
0.0
  0
VERTEX
  5
3B0
  8
0
  6
CONTINUOUS
 62
     7
 10
-788.1304434148
 20
535.1183537418
 30
0.0
  0
VERTEX
  5
3B1
  8
0
  6
CONTINUOUS
 62
     7
 10
-787.1439269391
 20
529.5235041554
 30
0.0
  0
VERTEX
  5
3B2
  8
0
  6
CONTINUOUS
 62
     7
 10
-786.2036040631
 20
524.1907361919
 30
0.0
  0
VERTEX
  5
3B3
  8
0
  6
CONTINUOUS
 62
     7
 10
-785.3106072751
 20
519.1263083393
 30
0.0
  0
VERTEX
  5
3B4
  8
0
  6
CONTINUOUS
 62
     7
 10
-784.4660690633
 20
514.3365982945
 30
0.0
  0
VERTEX
  5
3B5
  8
0
  6
CONTINUOUS
 62
     7
 10
-783.6704066602
 20
509.8240200455
 30
0.0
  0
VERTEX
  5
3B6
  8
0
  6
CONTINUOUS
 62
     7
 10
-782.9238584844
 20
505.5902723248
 30
0.0
  0
VERTEX
  5
3B7
  8
0
  6
CONTINUOUS
 62
     7
 10
-782.2273782102
 20
501.6404811318
 30
0.0
  0
VERTEX
  5
3B8
  8
0
  6
CONTINUOUS
 62
     7
 10
-781.5819195119
 20
497.9796234543
 30
0.0
  0
VERTEX
  5
3B9
  8
0
  6
CONTINUOUS
 62
     7
 10
-780.9577992765
 20
494.4402996475
 30
0.0
  0
VERTEX
  5
3BA
  8
0
  6
CONTINUOUS
 62
     7
 10
-780.3908398954
 20
491.2250164921
 30
0.0
  0
VERTEX
  5
3BB
  8
0
  6
CONTINUOUS
 62
     7
 10
-779.881816229
 20
488.3379761154
 30
0.0
  0
VERTEX
  5
3BC
  8
0
  6
CONTINUOUS
 62
     7
 10
-779.4313839284
 20
485.7835296566
 30
0.0
  0
VERTEX
  5
3BD
  8
0
  6
CONTINUOUS
 62
     7
 10
-779.0627292005
 20
483.6927179272
 30
0.0
  0
VERTEX
  5
3BE
  8
0
  6
CONTINUOUS
 62
     7
 10
-778.7459305135
 20
481.896263736
 30
0.0
  0
VERTEX
  5
3BF
  8
0
  6
CONTINUOUS
 62
     7
 10
-778.4814647046
 20
480.3962234432
 30
0.0
  0
VERTEX
  5
3C0
  8
0
  6
CONTINUOUS
 62
     7
 10
-778.2695701924
 20
479.1946236069
 30
0.0
  0
VERTEX
  5
3C1
  8
0
  6
CONTINUOUS
 62
     7
 10
-778.1104853955
 20
478.2924179012
 30
0.0
  0
VERTEX
  5
3C2
  8
0
  6
CONTINUOUS
 62
     7
 10
-778.0042103139
 20
477.6895169193
 30
0.0
  0
VERTEX
  5
3C3
  8
0
  6
CONTINUOUS
 62
     7
 10
-777.9507449475
 20
477.3863378937
 30
0.0
  0
VERTEX
  5
3C4
  8
0
  6
CONTINUOUS
 62
     7
 10
-777.9504469243
 20
477.3847583706
 30
0.0
  0
SEQEND
  5
B7B
  8
0
  6
CONTINUOUS
 62
     7
  0
LINE
  5
7D
  8
0
  6
CONTINUOUS
 62
     7
 10
-433.7675383893
 20
980.2311856324
 30
0.0
 11
-433.7675383893
 21
877.3471538002
 31
0.0
  0
POLYLINE
  5
7E
  8
0
  6
CONTINUOUS
 62
     7
 66
     1
 10
0.0
 20
0.0
 30
0.0
  0
VERTEX
  5
3C5
  8
0
  6
CONTINUOUS
 62
     7
 10
-428.2562545148
 20
1302.1469537193
 30
0.0
  0
VERTEX
  5
3C6
  8
0
  6
CONTINUOUS
 62
     7
 10
-428.254704794
 20
1299.6582511837
 30
0.0
  0
VERTEX
  5
3C7
  8
0
  6
CONTINUOUS
 62
     7
 10
-428.2733610478
 20
1296.9277624065
 30
0.0
  0
VERTEX
  5
3C8
  8
0
  6
CONTINUOUS
 62
     7
 10
-428.3112696019
 20
1293.9647559101
 30
0.0
  0
VERTEX
  5
3C9
  8
0
  6
CONTINUOUS
 62
     7
 10
-428.3675959912
 20
1290.778530019
 30
0.0
  0
VERTEX
  5
3CA
  8
0
  6
CONTINUOUS
 62
     7
 10
-428.4415057508
 20
1287.3783234531
 30
0.0
  0
VERTEX
  5
3CB
  8
0
  6
CONTINUOUS
 62
     7
 10
-428.5321048108
 20
1283.7734643395
 30
0.0
  0
VERTEX
  5
3CC
  8
0
  6
CONTINUOUS
 62
     7
 10
-428.6289027539
 20
1280.3556446011
 30
0.0
  0
VERTEX
  5
3CD
  8
0
  6
CONTINUOUS
 62
     7
 10
-428.7416747418
 20
1276.7767731125
 30
0.0
  0
VERTEX
  5
3CE
  8
0
  6
CONTINUOUS
 62
     7
 10
-428.8707187978
 20
1273.0463270123
 30
0.0
  0
VERTEX
  5
3CF
  8
0
  6
CONTINUOUS
 62
     7
 10
-429.0162733403
 20
1269.1738132412
 30
0.0
  0
VERTEX
  5
3D0
  8
0
  6
CONTINUOUS
 62
     7
 10
-429.0507844297
 20
1268.3254901344
 30
0.0
  0
SEQEND
  5
B7A
  8
0
  6
CONTINUOUS
 62
     7
  0
POLYLINE
  5
7F
  8
0
  6
CONTINUOUS
 62
     7
 66
     1
 10
0.0
 20
0.0
 30
0.0
  0
VERTEX
  5
3D1
  8
0
  6
CONTINUOUS
 62
     7
 10
-428.9008191434
 20
1372.671944278
 30
0.0
  0
VERTEX
  5
3D2
  8
0
  6
CONTINUOUS
 62
     7
 10
-428.9096406308
 20
1372.4581722195
 30
0.0
  0
VERTEX
  5
3D3
  8
0
  6
CONTINUOUS
 62
     7
 10
-428.9173892346
 20
1372.1269194061
 30
0.0
  0
VERTEX
  5
3D4
  8
0
  6
CONTINUOUS
 62
     7
 10
-428.9213827458
 20
1371.677172559
 30
0.0
  0
VERTEX
  5
3D5
  8
0
  6
CONTINUOUS
 62
     7
 10
-428.9207866994
 20
1371.108931678
 30
0.0
  0
VERTEX
  5
3D6
  8
0
  6
CONTINUOUS
 62
     7
 10
-428.9175680486
 20
1369.9206534798
 30
0.0
  0
VERTEX
  5
3D7
  8
0
  6
CONTINUOUS
 62
     7
 10
-428.9161375371
 20
1368.4168878967
 30
0.0
  0
VERTEX
  5
3D8
  8
0
  6
CONTINUOUS
 62
     7
 10
-428.9139917699
 20
1366.5979925568
 30
0.0
  0
VERTEX
  5
3D9
  8
0
  6
CONTINUOUS
 62
     7
 10
-428.9088657704
 20
1364.4642952854
 30
0.0
  0
VERTEX
  5
3DA
  8
0
  6
CONTINUOUS
 62
     7
 10
-428.8983157483
 20
1362.0162133152
 30
0.0
  0
VERTEX
  5
3DB
  8
0
  6
CONTINUOUS
 62
     7
 10
-428.8807919828
 20
1359.253090995
 30
0.0
  0
VERTEX
  5
3DC
  8
0
  6
CONTINUOUS
 62
     7
 10
-428.8567117063
 20
1356.175673383
 30
0.0
  0
VERTEX
  5
3DD
  8
0
  6
CONTINUOUS
 62
     7
 10
-428.8267901746
 20
1352.7861360485
 30
0.0
  0
VERTEX
  5
3DE
  8
0
  6
CONTINUOUS
 62
     7
 10
-428.7917426435
 20
1349.0866843636
 30
0.0
  0
VERTEX
  5
3DF
  8
0
  6
CONTINUOUS
 62
     7
 10
-428.752224764
 20
1345.0795833046
 30
0.0
  0
VERTEX
  5
3E0
  8
0
  6
CONTINUOUS
 62
     7
 10
-428.7042430249
 20
1340.5771378452
 30
0.0
  0
VERTEX
  5
3E1
  8
0
  6
CONTINUOUS
 62
     7
 10
-428.6481550542
 20
1335.7407275612
 30
0.0
  0
VERTEX
  5
3E2
  8
0
  6
CONTINUOUS
 62
     7
 10
-428.5860470143
 20
1330.5743459637
 30
0.0
  0
VERTEX
  5
3E3
  8
0
  6
CONTINUOUS
 62
     7
 10
-428.5201242772
 20
1325.0820163662
 30
0.0
  0
VERTEX
  5
3E4
  8
0
  6
CONTINUOUS
 62
     7
 10
-428.4523537961
 20
1319.2677024777
 30
0.0
  0
VERTEX
  5
3E5
  8
0
  6
CONTINUOUS
 62
     7
 10
-428.40556415
 20
1315.2025166924
 30
0.0
  0
VERTEX
  5
3E6
  8
0
  6
CONTINUOUS
 62
     7
 10
-428.3564499227
 20
1310.9943691666
 30
0.0
  0
VERTEX
  5
3E7
  8
0
  6
CONTINUOUS
 62
     7
 10
-428.2995870915
 20
1306.6392663891
 30
0.0
  0
VERTEX
  5
3E8
  8
0
  6
CONTINUOUS
 62
     7
 10
-428.2562545148
 20
1302.1469537193
 30
0.0
  0
SEQEND
  5
B79
  8
0
  6
CONTINUOUS
 62
     7
  0
POLYLINE
  5
80
  8
0
  6
CONTINUOUS
 62
     7
 66
     1
 10
0.0
 20
0.0
 30
0.0
  0
VERTEX
  5
3E9
  8
0
  6
CONTINUOUS
 62
     7
 10
-428.9008191434
 20
1372.671944278
 30
0.0
  0
VERTEX
  5
3EA
  8
0
  6
CONTINUOUS
 62
     7
 10
-359.6943429318
 20
1348.8271359379
 30
0.0
  0
VERTEX
  5
3EB
  8
0
  6
CONTINUOUS
 62
     7
 10
-292.7149942723
 20
1325.7472042019
 30
0.0
  0
VERTEX
  5
3EC
  8
0
  6
CONTINUOUS
 62
     7
 10
-228.2111457196
 20
1303.517294305
 30
0.0
  0
SEQEND
  5
B78
  8
0
  6
CONTINUOUS
 62
     7
  0
POLYLINE
  5
81
  8
0
  6
CONTINUOUS
 62
     7
 66
     1
 10
0.0
 20
0.0
 30
0.0
  0
VERTEX
  5
3ED
  8
0
  6
CONTINUOUS
 62
     7
 10
-228.2111457196
 20
1303.517294305
 30
0.0
  0
VERTEX
  5
3EE
  8
0
  6
CONTINUOUS
 62
     7
 10
-228.1946948377
 20
1303.129864114
 30
0.0
  0
VERTEX
  5
3EF
  8
0
  6
CONTINUOUS
 62
     7
 10
-228.1669190732
 20
1302.5029722626
 30
0.0
  0
VERTEX
  5
3F0
  8
0
  6
CONTINUOUS
 62
     7
 10
-228.128533682
 20
1301.6374830181
 30
0.0
  0
VERTEX
  5
3F1
  8
0
  6
CONTINUOUS
 62
     7
 10
-228.080283722
 20
1300.534260648
 30
0.0
  0
VERTEX
  5
3F2
  8
0
  6
CONTINUOUS
 62
     7
 10
-228.0228844491
 20
1299.1941396172
 30
0.0
  0
VERTEX
  5
3F3
  8
0
  6
CONTINUOUS
 62
     7
 10
-227.9381564466
 20
1297.1855226929
 30
0.0
  0
VERTEX
  5
3F4
  8
0
  6
CONTINUOUS
 62
     7
 10
-227.8384974805
 20
1294.8070589478
 30
0.0
  0
VERTEX
  5
3F5
  8
0
  6
CONTINUOUS
 62
     7
 10
-227.7241757718
 20
1292.0610431606
 30
0.0
  0
VERTEX
  5
3F6
  8
0
  6
CONTINUOUS
 62
     7
 10
-227.5954297391
 20
1288.9498595173
 30
0.0
  0
VERTEX
  5
3F7
  8
0
  6
CONTINUOUS
 62
     7
 10
-227.4779787866
 20
1286.0708657677
 30
0.0
  0
VERTEX
  5
3F8
  8
0
  6
CONTINUOUS
 62
     7
 10
-227.3526898233
 20
1282.9386714871
 30
0.0
  0
VERTEX
  5
3F9
  8
0
  6
CONTINUOUS
 62
     7
 10
-227.2195330468
 20
1279.5553032333
 30
0.0
  0
VERTEX
  5
3FA
  8
0
  6
CONTINUOUS
 62
     7
 10
-227.0785084573
 20
1275.9228471691
 30
0.0
  0
VERTEX
  5
3FB
  8
0
  6
CONTINUOUS
 62
     7
 10
-226.9296756593
 20
1272.0433894569
 30
0.0
  0
VERTEX
  5
3FC
  8
0
  6
CONTINUOUS
 62
     7
 10
-226.7879656163
 20
1268.2772401745
 30
0.0
  0
VERTEX
  5
3FD
  8
0
  6
CONTINUOUS
 62
     7
 10
-226.6424408761
 20
1264.3066767628
 30
0.0
  0
VERTEX
  5
3FE
  8
0
  6
CONTINUOUS
 62
     7
 10
-226.4930120317
 20
1260.1338151867
 30
0.0
  0
VERTEX
  5
3FF
  8
0
  6
CONTINUOUS
 62
     7
 10
-226.3396194783
 20
1255.7607714111
 30
0.0
  0
VERTEX
  5
400
  8
0
  6
CONTINUOUS
 62
     7
 10
-226.1806240884
 20
1251.1583391602
 30
0.0
  0
VERTEX
  5
401
  8
0
  6
CONTINUOUS
 62
     7
 10
-226.0171881524
 20
1246.3542643959
 30
0.0
  0
VERTEX
  5
402
  8
0
  6
CONTINUOUS
 62
     7
 10
-225.8505335656
 20
1241.3519743855
 30
0.0
  0
VERTEX
  5
403
  8
0
  6
CONTINUOUS
 62
     7
 10
-225.6819120256
 20
1236.1548665936
 30
0.0
  0
VERTEX
  5
404
  8
0
  6
CONTINUOUS
 62
     7
 10
-225.6441524831
 20
1234.8546508724
 30
0.0
  0
SEQEND
  5
B77
  8
0
  6
CONTINUOUS
 62
     7
  0
POLYLINE
  5
82
  8
0
  6
CONTINUOUS
 62
     7
 66
     1
 10
0.0
 20
0.0
 30
0.0
  0
VERTEX
  5
405
  8
0
  6
CONTINUOUS
 62
     7
 10
-225.6441822854
 20
1234.8546508724
 30
0.0
  0
VERTEX
  5
406
  8
0
  6
CONTINUOUS
 62
     7
 10
-225.5923262445
 20
1227.6447538311
 30
0.0
  0
VERTEX
  5
407
  8
0
  6
CONTINUOUS
 62
     7
 10
-225.6378939954
 20
1219.2859474594
 30
0.0
  0
VERTEX
  5
408
  8
0
  6
CONTINUOUS
 62
     7
 10
-225.7848194448
 20
1209.7750131065
 30
0.0
  0
VERTEX
  5
409
  8
0
  6
CONTINUOUS
 62
     7
 10
-226.036470255
 20
1199.1241697247
 30
0.0
  0
VERTEX
  5
40A
  8
0
  6
CONTINUOUS
 62
     7
 10
-226.4043203202
 20
1187.3838130409
 30
0.0
  0
VERTEX
  5
40B
  8
0
  6
CONTINUOUS
 62
     7
 10
-226.8931082097
 20
1174.6337536747
 30
0.0
  0
VERTEX
  5
40C
  8
0
  6
CONTINUOUS
 62
     7
 10
-227.5109401551
 20
1160.9816972191
 30
0.0
  0
VERTEX
  5
40D
  8
0
  6
CONTINUOUS
 62
     7
 10
-227.8420439569
 20
1154.6340111668
 30
0.0
  0
SEQEND
  5
B76
  8
0
  6
CONTINUOUS
 62
     7
  0
POLYLINE
  5
83
  8
0
  6
CONTINUOUS
 62
     7
 66
     1
 10
0.0
 20
0.0
 30
0.0
  0
VERTEX
  5
40E
  8
0
  6
CONTINUOUS
 62
     7
 10
-232.5461021272
 20
980.1033634717
 30
0.0
  0
VERTEX
  5
40F
  8
0
  6
CONTINUOUS
 62
     7
 10
-232.3916068879
 20
961.7588046963
 30
0.0
  0
VERTEX
  5
410
  8
0
  6
CONTINUOUS
 62
     7
 10
-232.0981732217
 20
934.4699803764
 30
0.0
  0
VERTEX
  5
411
  8
0
  6
CONTINUOUS
 62
     7
 10
-231.8775168267
 20
920.1879028256
 30
0.0
  0
VERTEX
  5
412
  8
0
  6
CONTINUOUS
 62
     7
 10
-231.6168359128
 20
905.9060841823
 30
0.0
  0
VERTEX
  5
413
  8
0
  6
CONTINUOUS
 62
     7
 10
-231.4131966439
 20
891.624042953
 30
0.0
  0
VERTEX
  5
414
  8
0
  6
CONTINUOUS
 62
     7
 10
-231.3636353818
 20
877.3412927221
 30
0.0
  0
SEQEND
  5
B75
  8
0
  6
CONTINUOUS
 62
     7
  0
POLYLINE
  5
84
  8
0
  6
CONTINUOUS
 62
     7
 66
     1
 10
0.0
 20
0.0
 30
0.0
  0
VERTEX
  5
415
  8
0
  6
CONTINUOUS
 62
     7
 10
-231.3636353818
 20
877.3412927221
 30
0.0
  0
VERTEX
  5
416
  8
0
  6
CONTINUOUS
 62
     7
 10
-231.4026168195
 20
867.9872762436
 30
0.0
  0
VERTEX
  5
417
  8
0
  6
CONTINUOUS
 62
     7
 10
-231.4411810247
 20
858.6362220372
 30
0.0
  0
VERTEX
  5
418
  8
0
  6
CONTINUOUS
 62
     7
 10
-231.4794770089
 20
849.2975022668
 30
0.0
  0
VERTEX
  5
419
  8
0
  6
CONTINUOUS
 62
     7
 10
-231.5175345746
 20
839.980495351
 30
0.0
  0
VERTEX
  5
41A
  8
0
  6
CONTINUOUS
 62
     7
 10
-231.5558603612
 20
830.5869672472
 30
0.0
  0
VERTEX
  5
41B
  8
0
  6
CONTINUOUS
 62
     7
 10
-231.5940371362
 20
821.2220344717
 30
0.0
  0
VERTEX
  5
41C
  8
0
  6
CONTINUOUS
 62
     7
 10
-231.6319754926
 20
811.8953604276
 30
0.0
  0
VERTEX
  5
41D
  8
0
  6
CONTINUOUS
 62
     7
 10
-231.6696158258
 20
802.6166085178
 30
0.0
  0
VERTEX
  5
41E
  8
0
  6
CONTINUOUS
 62
     7
 10
-231.709014496
 20
792.8754139716
 30
0.0
  0
VERTEX
  5
41F
  8
0
  6
CONTINUOUS
 62
     7
 10
-231.7480555383
 20
783.1948298986
 30
0.0
  0
VERTEX
  5
420
  8
0
  6
CONTINUOUS
 62
     7
 10
-231.7867389527
 20
773.5858310039
 30
0.0
  0
VERTEX
  5
421
  8
0
  6
CONTINUOUS
 62
     7
 10
-231.825034937
 20
764.0593845422
 30
0.0
  0
VERTEX
  5
422
  8
0
  6
CONTINUOUS
 62
     7
 10
-231.8627944795
 20
754.6192679579
 30
0.0
  0
VERTEX
  5
423
  8
0
  6
CONTINUOUS
 62
     7
 10
-231.8999281732
 20
745.2691320355
 30
0.0
  0
VERTEX
  5
424
  8
0
  6
CONTINUOUS
 62
     7
 10
-231.9364658204
 20
736.0196832592
 30
0.0
  0
VERTEX
  5
425
  8
0
  6
CONTINUOUS
 62
     7
 10
-231.9724670259
 20
726.8816355641
 30
0.0
  0
VERTEX
  5
426
  8
0
  6
CONTINUOUS
 62
     7
 10
-232.0099583474
 20
717.3979405338
 30
0.0
  0
VERTEX
  5
427
  8
0
  6
CONTINUOUS
 62
     7
 10
-232.0471218434
 20
708.0449137861
 30
0.0
  0
VERTEX
  5
428
  8
0
  6
CONTINUOUS
 62
     7
 10
-232.083689293
 20
698.834297436
 30
0.0
  0
VERTEX
  5
429
  8
0
  6
CONTINUOUS
 62
     7
 10
-232.1193328706
 20
689.777893203
 30
0.0
  0
VERTEX
  5
42A
  8
0
  6
CONTINUOUS
 62
     7
 10
-232.149045786
 20
682.089728492
 30
0.0
  0
VERTEX
  5
42B
  8
0
  6
CONTINUOUS
 62
     7
 10
-232.1778050271
 20
674.5220396692
 30
0.0
  0
VERTEX
  5
42C
  8
0
  6
CONTINUOUS
 62
     7
 10
-232.2060278264
 20
667.0817408735
 30
0.0
  0
VERTEX
  5
42D
  8
0
  6
CONTINUOUS
 62
     7
 10
-232.2340718118
 20
659.7757909472
 30
0.0
  0
VERTEX
  5
42E
  8
0
  6
CONTINUOUS
 62
     7
 10
-232.2625330297
 20
652.5337372
 30
0.0
  0
VERTEX
  5
42F
  8
0
  6
CONTINUOUS
 62
     7
 10
-232.2908154336
 20
645.4331997807
 30
0.0
  0
VERTEX
  5
430
  8
0
  6
CONTINUOUS
 62
     7
 10
-232.3184719888
 20
638.4810183222
 30
0.0
  0
VERTEX
  5
431
  8
0
  6
CONTINUOUS
 62
     7
 10
-232.3450556603
 20
631.6840920622
 30
0.0
  0
VERTEX
  5
432
  8
0
  6
CONTINUOUS
 62
     7
 10
-232.3708942739
 20
624.8186055595
 30
0.0
  0
VERTEX
  5
433
  8
0
  6
CONTINUOUS
 62
     7
 10
-232.3952129689
 20
618.1234244282
 30
0.0
  0
VERTEX
  5
434
  8
0
  6
CONTINUOUS
 62
     7
 10
-232.4187568036
 20
611.6050306732
 30
0.0
  0
VERTEX
  5
435
  8
0
  6
CONTINUOUS
 62
     7
 10
-232.4422410337
 20
605.2697721893
 30
0.0
  0
VERTEX
  5
436
  8
0
  6
CONTINUOUS
 62
     7
 10
-232.4663511125
 20
599.1241458828
 30
0.0
  0
VERTEX
  5
437
  8
0
  6
CONTINUOUS
 62
     7
 10
-232.4909678308
 20
593.0657211716
 30
0.0
  0
VERTEX
  5
438
  8
0
  6
CONTINUOUS
 62
     7
 10
-232.5141540376
 20
587.2062269623
 30
0.0
  0
VERTEX
  5
439
  8
0
  6
CONTINUOUS
 62
     7
 10
-232.5352540818
 20
581.551951545
 30
0.0
  0
VERTEX
  5
43A
  8
0
  6
CONTINUOUS
 62
     7
 10
-232.5535527078
 20
576.1092726166
 30
0.0
  0
VERTEX
  5
43B
  8
0
  6
CONTINUOUS
 62
     7
 10
-232.5683942643
 20
570.8844784672
 30
0.0
  0
VERTEX
  5
43C
  8
0
  6
CONTINUOUS
 62
     7
 10
-232.5786462632
 20
566.7765263493
 30
0.0
  0
VERTEX
  5
43D
  8
0
  6
CONTINUOUS
 62
     7
 10
-232.5893750993
 20
562.8152016575
 30
0.0
  0
VERTEX
  5
43E
  8
0
  6
CONTINUOUS
 62
     7
 10
-232.6022795049
 20
559.00291838
 30
0.0
  0
VERTEX
  5
43F
  8
0
  6
CONTINUOUS
 62
     7
 10
-232.619296631
 20
556.2430445129
 30
0.0
  0
VERTEX
  5
440
  8
0
  6
CONTINUOUS
 62
     7
 10
-232.6399496404
 20
555.5635813648
 30
0.0
  0
VERTEX
  5
441
  8
0
  6
CONTINUOUS
 62
     7
 10
-232.6601258126
 20
555.3921584065
 30
0.0
  0
VERTEX
  5
442
  8
0
  6
CONTINUOUS
 62
     7
 10
-232.6480856744
 20
555.269164222
 30
0.0
  0
VERTEX
  5
443
  8
0
  6
CONTINUOUS
 62
     7
 10
-232.6117566434
 20
555.1504913742
 30
0.0
  0
SEQEND
  5
B74
  8
0
  6
CONTINUOUS
 62
     7
  0
POLYLINE
  5
85
  8
0
  6
CONTINUOUS
 62
     7
 66
     1
 10
0.0
 20
0.0
 30
0.0
  0
VERTEX
  5
444
  8
0
  6
CONTINUOUS
 62
     7
 10
-433.7675383893
 20
877.3471538002
 30
0.0
  0
VERTEX
  5
445
  8
0
  6
CONTINUOUS
 62
     7
 10
-433.7683728543
 20
865.9990236188
 30
0.0
  0
VERTEX
  5
446
  8
0
  6
CONTINUOUS
 62
     7
 10
-433.7703398076
 20
854.6531882162
 30
0.0
  0
VERTEX
  5
447
  8
0
  6
CONTINUOUS
 62
     7
 10
-433.7724259702
 20
843.323328721
 30
0.0
  0
VERTEX
  5
448
  8
0
  6
CONTINUOUS
 62
     7
 10
-433.7736776677
 20
832.0231188113
 30
0.0
  0
VERTEX
  5
449
  8
0
  6
CONTINUOUS
 62
     7
 10
-433.7730816213
 20
820.7662377531
 30
0.0
  0
VERTEX
  5
44A
  8
0
  6
CONTINUOUS
 62
     7
 10
-433.7717107144
 20
809.3215871627
 30
0.0
  0
VERTEX
  5
44B
  8
0
  6
CONTINUOUS
 62
     7
 10
-433.7711742726
 20
797.9269225175
 30
0.0
  0
VERTEX
  5
44C
  8
0
  6
CONTINUOUS
 62
     7
 10
-433.7709954587
 20
786.5964967782
 30
0.0
  0
VERTEX
  5
44D
  8
0
  6
CONTINUOUS
 62
     7
 10
-433.7706974355
 20
775.3445480044
 30
0.0
  0
VERTEX
  5
44E
  8
0
  6
CONTINUOUS
 62
     7
 10
-433.7699225751
 20
764.185321706
 30
0.0
  0
VERTEX
  5
44F
  8
0
  6
CONTINUOUS
 62
     7
 10
-433.7675383893
 20
753.3465895826
 30
0.0
  0
VERTEX
  5
450
  8
0
  6
CONTINUOUS
 62
     7
 10
-433.7636640874
 20
742.6012728388
 30
0.0
  0
VERTEX
  5
451
  8
0
  6
CONTINUOUS
 62
     7
 10
-433.7598493901
 20
731.9621864731
 30
0.0
  0
VERTEX
  5
452
  8
0
  6
CONTINUOUS
 62
     7
 10
-433.7577632276
 20
721.4421454842
 30
0.0
  0
VERTEX
  5
453
  8
0
  6
CONTINUOUS
 62
     7
 10
-433.7588361112
 20
711.053994673
 30
0.0
  0
VERTEX
  5
454
  8
0
  6
CONTINUOUS
 62
     7
 10
-433.762054762
 20
700.5877170736
 30
0.0
  0
VERTEX
  5
455
  8
0
  6
CONTINUOUS
 62
     7
 10
-433.764736971
 20
690.26331343
 30
0.0
  0
VERTEX
  5
456
  8
0
  6
CONTINUOUS
 62
     7
 10
-433.7667635289
 20
680.0935987408
 30
0.0
  0
VERTEX
  5
457
  8
0
  6
CONTINUOUS
 62
     7
 10
-433.7678364125
 20
670.0913731033
 30
0.0
  0
VERTEX
  5
458
  8
0
  6
CONTINUOUS
 62
     7
 10
-433.767597994
 20
660.2694366152
 30
0.0
  0
VERTEX
  5
459
  8
0
  6
CONTINUOUS
 62
     7
 10
-433.7680748311
 20
651.067135113
 30
0.0
  0
VERTEX
  5
45A
  8
0
  6
CONTINUOUS
 62
     7
 10
-433.7701609937
 20
642.034304517
 30
0.0
  0
VERTEX
  5
45B
  8
0
  6
CONTINUOUS
 62
     7
 10
-433.7723663655
 20
633.1812266285
 30
0.0
  0
VERTEX
  5
45C
  8
0
  6
CONTINUOUS
 62
     7
 10
-433.7730816213
 20
624.5181385452
 30
0.0
  0
VERTEX
  5
45D
  8
0
  6
CONTINUOUS
 62
     7
 10
-433.7708166448
 20
616.0486463482
 30
0.0
  0
VERTEX
  5
45E
  8
0
  6
CONTINUOUS
 62
     7
 10
-433.766584715
 20
607.775670665
 30
0.0
  0
VERTEX
  5
45F
  8
0
  6
CONTINUOUS
 62
     7
 10
-433.7626508084
 20
599.7084204132
 30
0.0
  0
VERTEX
  5
460
  8
0
  6
CONTINUOUS
 62
     7
 10
-433.7612799016
 20
591.8562237198
 30
0.0
  0
VERTEX
  5
461
  8
0
  6
CONTINUOUS
 62
     7
 10
-433.7637832967
 20
583.8354948933
 30
0.0
  0
VERTEX
  5
462
  8
0
  6
CONTINUOUS
 62
     7
 10
-433.7681940404
 20
576.0592941219
 30
0.0
  0
VERTEX
  5
463
  8
0
  6
CONTINUOUS
 62
     7
 10
-433.7723663655
 20
568.5373965675
 30
0.0
  0
VERTEX
  5
464
  8
0
  6
CONTINUOUS
 62
     7
 10
-433.7739160863
 20
561.2795773918
 30
0.0
  0
VERTEX
  5
465
  8
0
  6
CONTINUOUS
 62
     7
 10
-433.7725451795
 20
554.6266857559
 30
0.0
  0
VERTEX
  5
466
  8
0
  6
CONTINUOUS
 62
     7
 10
-433.770101389
 20
548.2178751404
 30
0.0
  0
VERTEX
  5
467
  8
0
  6
CONTINUOUS
 62
     7
 10
-433.7680152265
 20
542.0603279049
 30
0.0
  0
VERTEX
  5
468
  8
0
  6
CONTINUOUS
 62
     7
 10
-433.7677172032
 20
536.1612264092
 30
0.0
  0
VERTEX
  5
469
  8
0
  6
CONTINUOUS
 62
     7
 10
-433.768253645
 20
530.5231634552
 30
0.0
  0
VERTEX
  5
46A
  8
0
  6
CONTINUOUS
 62
     7
 10
-433.7677768079
 20
525.1478973801
 30
0.0
  0
VERTEX
  5
46B
  8
0
  6
CONTINUOUS
 62
     7
 10
-433.7661674825
 20
520.0413588459
 30
0.0
  0
VERTEX
  5
46C
  8
0
  6
CONTINUOUS
 62
     7
 10
-433.7633064595
 20
515.2095381195
 30
0.0
  0
VERTEX
  5
46D
  8
0
  6
CONTINUOUS
 62
     7
 10
-433.7609222737
 20
510.4279343063
 30
0.0
  0
VERTEX
  5
46E
  8
0
  6
CONTINUOUS
 62
     7
 10
-433.7608626691
 20
505.9540394718
 30
0.0
  0
VERTEX
  5
46F
  8
0
  6
CONTINUOUS
 62
     7
 10
-433.7627104131
 20
501.7933372433
 30
0.0
  0
VERTEX
  5
470
  8
0
  6
CONTINUOUS
 62
     7
 10
-433.7660482732
 20
497.9512814457
 30
0.0
  0
VERTEX
  5
471
  8
0
  6
CONTINUOUS
 62
     7
 10
-433.7687900868
 20
494.5944968636
 30
0.0
  0
VERTEX
  5
472
  8
0
  6
CONTINUOUS
 62
     7
 10
-433.7698033658
 20
491.5287915642
 30
0.0
  0
VERTEX
  5
473
  8
0
  6
CONTINUOUS
 62
     7
 10
-433.7698629705
 20
488.7575630123
 30
0.0
  0
VERTEX
  5
474
  8
0
  6
CONTINUOUS
 62
     7
 10
-433.7694457379
 20
486.2842086727
 30
0.0
  0
VERTEX
  5
475
  8
0
  6
CONTINUOUS
 62
     7
 10
-433.7703994123
 20
484.1100696499
 30
0.0
  0
VERTEX
  5
476
  8
0
  6
CONTINUOUS
 62
     7
 10
-433.7728432027
 20
482.2356823856
 30
0.0
  0
VERTEX
  5
477
  8
0
  6
CONTINUOUS
 62
     7
 10
-433.7752273885
 20
480.6629542286
 30
0.0
  0
VERTEX
  5
478
  8
0
  6
CONTINUOUS
 62
     7
 10
-433.7757042256
 20
479.393941539
 30
0.0
  0
VERTEX
  5
479
  8
0
  6
CONTINUOUS
 62
     7
 10
-433.772962412
 20
478.3881429607
 30
0.0
  0
VERTEX
  5
47A
  8
0
  6
CONTINUOUS
 62
     7
 10
-433.768432459
 20
477.7189616139
 30
0.0
  0
VERTEX
  5
47B
  8
0
  6
CONTINUOUS
 62
     7
 10
-433.7648561803
 20
477.3868147308
 30
0.0
  0
VERTEX
  5
47C
  8
0
  6
CONTINUOUS
 62
     7
 10
-433.7649157849
 20
477.3894373352
 30
0.0
  0
SEQEND
  5
B73
  8
0
  6
CONTINUOUS
 62
     7
  0
LINE
  5
86
  8
0
  6
CONTINUOUS
 62
     7
 10
72.0561706814
 20
485.0462500031
 30
0.0
 11
47.0561721715
 21
485.0462500031
 31
0.0
  0
LINE
  5
87
  8
0
  6
CONTINUOUS
 62
     7
 10
47.0561721715
 20
485.0462500031
 30
0.0
 11
47.0561721715
 21
1297.3471406872
 31
0.0
  0
LINE
  5
88
  8
0
  6
CONTINUOUS
 62
     7
 10
78.0561707335
 20
877.3471538002
 30
0.0
 11
78.0561707335
 21
1297.3471406872
 31
0.0
  0
LINE
  5
89
  8
0
  6
CONTINUOUS
 62
     7
 10
78.0561707335
 20
457.3471669132
 30
0.0
 11
78.0561707335
 21
877.3471538002
 31
0.0
  0
LINE
  5
8A
  8
0
  6
CONTINUOUS
 62
     7
 10
-1180.9438875524
 20
485.0462500031
 30
0.0
 11
-1180.9438875524
 21
1297.3471406872
 31
0.0
  0
LINE
  5
8B
  8
0
  6
CONTINUOUS
 62
     7
 10
-1205.9438637105
 20
485.0462500031
 30
0.0
 11
-1180.9438875524
 21
485.0462500031
 31
0.0
  0
LINE
  5
8C
  8
0
  6
CONTINUOUS
 62
     7
 10
-1211.9437864629
 20
877.3471538002
 30
0.0
 11
-1211.9437864629
 21
1297.3471406872
 31
0.0
  0
LINE
  5
8D
  8
0
  6
CONTINUOUS
 62
     7
 10
-1211.9437864629
 20
457.3471669132
 30
0.0
 11
-1211.9437864629
 21
877.3471538002
 31
0.0
  0
POLYLINE
  5
8E
  8
0
  6
CONTINUOUS
 62
     7
 66
     1
 10
0.0
 20
0.0
 30
0.0
  0
VERTEX
  5
47D
  8
0
  6
CONTINUOUS
 62
     7
 10
-837.0884469358
 20
1397.2356144363
 30
0.0
  0
VERTEX
  5
47E
  8
0
  6
CONTINUOUS
 62
     7
 10
-836.3183549253
 20
1395.9017220909
 30
0.0
  0
VERTEX
  5
47F
  8
0
  6
CONTINUOUS
 62
     7
 10
-834.6328547803
 20
1392.9824057991
 30
0.0
  0
VERTEX
  5
480
  8
0
  6
CONTINUOUS
 62
     7
 10
-832.9525402394
 20
1390.072030204
 30
0.0
  0
VERTEX
  5
481
  8
0
  6
CONTINUOUS
 62
     7
 10
-831.2827757207
 20
1387.1799532349
 30
0.0
  0
VERTEX
  5
482
  8
0
  6
CONTINUOUS
 62
     7
 10
-828.7568500844
 20
1382.8049127037
 30
0.0
  0
VERTEX
  5
483
  8
0
  6
CONTINUOUS
 62
     7
 10
-828.1124642697
 20
1381.6888157303
 30
0.0
  0
SEQEND
  5
B72
  8
0
  6
CONTINUOUS
 62
     7
  0
ARC
  5
8F
  8
0
  6
CONTINUOUS
 62
     7
 10
-869.5643744635
 20
1378.4855925635
 30
0.0
 40
37.50000000000035
 50
8.8046211791
 51
30.0
  0
LINE
  5
90
  8
0
  6
CONTINUOUS
 62
     7
 10
-857.6124718991
 20
1340.9855786736
 30
0.0
 11
-865.8278992978
 21
1340.9855786736
 31
0.0
  0
LINE
  5
91
  8
0
  6
CONTINUOUS
 62
     7
 10
-869.5643952695
 20
1415.9855667526
 30
0.0
 11
-847.9137233106
 21
1415.9855667526
 31
0.0
  0
POLYLINE
  5
92
  8
0
  6
CONTINUOUS
 62
     7
 66
     1
 10
0.0
 20
0.0
 30
0.0
  0
VERTEX
  5
484
  8
0
  6
CONTINUOUS
 62
     7
 10
-847.9137233106
 20
1415.9855667526
 30
0.0
  0
VERTEX
  5
485
  8
0
  6
CONTINUOUS
 62
     7
 10
-846.1620620099
 20
1412.9515711243
 30
0.0
  0
VERTEX
  5
486
  8
0
  6
CONTINUOUS
 62
     7
 10
-844.3934729901
 20
1409.8883096153
 30
0.0
  0
VERTEX
  5
487
  8
0
  6
CONTINUOUS
 62
     7
 10
-842.6101020185
 20
1406.7994181091
 30
0.0
  0
VERTEX
  5
488
  8
0
  6
CONTINUOUS
 62
     7
 10
-840.7788089124
 20
1403.6275569374
 30
0.0
  0
VERTEX
  5
489
  8
0
  6
CONTINUOUS
 62
     7
 10
-838.9357736913
 20
1400.4352513725
 30
0.0
  0
VERTEX
  5
48A
  8
0
  6
CONTINUOUS
 62
     7
 10
-837.0884469358
 20
1397.2356144363
 30
0.0
  0
SEQEND
  5
B71
  8
0
  6
CONTINUOUS
 62
     7
  0
ARC
  5
93
  8
0
  6
CONTINUOUS
 62
     7
 10
-869.5643744635
 20
1378.4855925635
 30
0.0
 40
37.50000000000035
 50
30.0
 51
90.0
  0
POLYLINE
  5
94
  8
0
  6
CONTINUOUS
 62
     7
 66
     1
 10
0.0
 20
0.0
 30
0.0
  0
VERTEX
  5
48B
  8
0
  6
CONTINUOUS
 62
     7
 10
-902.0403436032
 20
1397.2356144363
 30
0.0
  0
VERTEX
  5
48C
  8
0
  6
CONTINUOUS
 62
     7
 10
-901.2702515927
 20
1398.5694471771
 30
0.0
  0
VERTEX
  5
48D
  8
0
  6
CONTINUOUS
 62
     7
 10
-899.5847514478
 20
1401.4887634689
 30
0.0
  0
VERTEX
  5
48E
  8
0
  6
CONTINUOUS
 62
     7
 10
-897.9044369069
 20
1404.3991986687
 30
0.0
  0
VERTEX
  5
48F
  8
0
  6
CONTINUOUS
 62
     7
 10
-896.2346723882
 20
1407.2912756378
 30
0.0
  0
VERTEX
  5
490
  8
0
  6
CONTINUOUS
 62
     7
 10
-893.7087467519
 20
1411.6662565643
 30
0.0
  0
VERTEX
  5
491
  8
0
  6
CONTINUOUS
 62
     7
 10
-891.2150076238
 20
1415.9855667526
 30
0.0
  0
SEQEND
  5
B70
  8
0
  6
CONTINUOUS
 62
     7
  0
LINE
  5
95
  8
0
  6
CONTINUOUS
 62
     7
 10
-891.2150076238
 20
1415.9855667526
 30
0.0
 11
-869.5643952695
 21
1415.9855667526
 31
0.0
  0
ARC
  5
96
  8
0
  6
CONTINUOUS
 62
     7
 10
-869.5643744635
 20
1378.4855925635
 30
0.0
 40
37.50000000000025
 50
90.0
 51
150.0
  0
ARC
  5
97
  8
0
  6
CONTINUOUS
 62
     7
 10
-869.5643744635
 20
1378.4855925635
 30
0.0
 40
37.49999999999998
 50
210.0
 51
267.7315272878
  0
ARC
  5
98
  8
0
  6
CONTINUOUS
 62
     7
 10
-869.5643744635
 20
1378.4855925635
 30
0.0
 40
37.50000000000025
 50
150.0
 51
210.0
  0
POLYLINE
  5
99
  8
0
  6
CONTINUOUS
 62
     7
 66
     1
 10
0.0
 20
0.0
 30
0.0
  0
VERTEX
  5
492
  8
0
  6
CONTINUOUS
 62
     7
 10
-891.2150076238
 20
1340.9855786736
 30
0.0
  0
VERTEX
  5
493
  8
0
  6
CONTINUOUS
 62
     7
 10
-892.9666689244
 20
1344.0196041042
 30
0.0
  0
VERTEX
  5
494
  8
0
  6
CONTINUOUS
 62
     7
 10
-894.7352579442
 20
1347.0828954155
 30
0.0
  0
VERTEX
  5
495
  8
0
  6
CONTINUOUS
 62
     7
 10
-896.5186289159
 20
1350.1717571194
 30
0.0
  0
VERTEX
  5
496
  8
0
  6
CONTINUOUS
 62
     7
 10
-898.349922022
 20
1353.3436182911
 30
0.0
  0
VERTEX
  5
497
  8
0
  6
CONTINUOUS
 62
     7
 10
-900.1930168477
 20
1356.535923856
 30
0.0
  0
VERTEX
  5
498
  8
0
  6
CONTINUOUS
 62
     7
 10
-902.0403436032
 20
1359.7355905945
 30
0.0
  0
SEQEND
  5
B6F
  8
0
  6
CONTINUOUS
 62
     7
  0
LINE
  5
9A
  8
0
  6
CONTINUOUS
 62
     7
 10
-870.4382589665
 20
1340.9855786736
 30
0.0
 11
-891.2150076238
 21
1340.9855786736
 31
0.0
  0
POLYLINE
  5
9B
  8
0
  6
CONTINUOUS
 62
     7
 66
     1
 10
0.0
 20
0.0
 30
0.0
  0
VERTEX
  5
499
  8
0
  6
CONTINUOUS
 62
     7
 10
-912.8656199781
 20
1378.4856025154
 30
0.0
  0
VERTEX
  5
49A
  8
0
  6
CONTINUOUS
 62
     7
 10
-911.1139586774
 20
1381.5195981438
 30
0.0
  0
VERTEX
  5
49B
  8
0
  6
CONTINUOUS
 62
     7
 10
-909.3453696576
 20
1384.5828596527
 30
0.0
  0
VERTEX
  5
49C
  8
0
  6
CONTINUOUS
 62
     7
 10
-907.5619986859
 20
1387.6717511589
 30
0.0
  0
VERTEX
  5
49D
  8
0
  6
CONTINUOUS
 62
     7
 10
-905.7307651845
 20
1390.8436123306
 30
0.0
  0
VERTEX
  5
49E
  8
0
  6
CONTINUOUS
 62
     7
 10
-903.8876703588
 20
1394.0359178955
 30
0.0
  0
VERTEX
  5
49F
  8
0
  6
CONTINUOUS
 62
     7
 10
-902.0403436032
 20
1397.2356144363
 30
0.0
  0
SEQEND
  5
B6E
  8
0
  6
CONTINUOUS
 62
     7
  0
POLYLINE
  5
9C
  8
0
  6
CONTINUOUS
 62
     7
 66
     1
 10
0.0
 20
0.0
 30
0.0
  0
VERTEX
  5
4A0
  8
0
  6
CONTINUOUS
 62
     7
 10
-902.0403436032
 20
1359.7355905945
 30
0.0
  0
VERTEX
  5
4A1
  8
0
  6
CONTINUOUS
 62
     7
 10
-902.8104356137
 20
1361.0694233353
 30
0.0
  0
VERTEX
  5
4A2
  8
0
  6
CONTINUOUS
 62
     7
 10
-904.495876154
 20
1363.9887694294
 30
0.0
  0
VERTEX
  5
4A3
  8
0
  6
CONTINUOUS
 62
     7
 10
-906.1762502996
 20
1366.8991748268
 30
0.0
  0
VERTEX
  5
4A4
  8
0
  6
CONTINUOUS
 62
     7
 10
-907.8459552136
 20
1369.791251796
 30
0.0
  0
VERTEX
  5
4A5
  8
0
  6
CONTINUOUS
 62
     7
 10
-910.3718808499
 20
1374.1662625248
 30
0.0
  0
VERTEX
  5
4A6
  8
0
  6
CONTINUOUS
 62
     7
 10
-912.8656199781
 20
1378.4856025154
 30
0.0
  0
SEQEND
  5
B6D
  8
0
  6
CONTINUOUS
 62
     7
  0
LINE
  5
9D
  8
0
  6
CONTINUOUS
 62
     7
 10
-464.9315288869
 20
1236.1340347702
 30
0.0
 11
-560.7297829
 21
1402.0614448959
 31
0.0
  0
LINE
  5
9E
  8
0
  6
CONTINUOUS
 62
     7
 10
-905.8607629148
 20
1202.8000179703
 30
0.0
 11
-848.4746030179
 21
877.3471538002
 31
0.0
  0
ARC
  5
9F
  8
0
  6
CONTINUOUS
 62
     7
 10
-868.0643744635
 20
1375.8875163522
 30
0.0
 40
50.00000000000018
 50
30.0
 51
210.0
  0
LINE
  5
A0
  8
0
  6
CONTINUOUS
 62
     7
 10
-806.4618519155
 20
1369.1887978489
 30
0.0
 11
-824.7631004659
 21
1400.8875314171
 31
0.0
  0
LINE
  5
A1
  8
0
  6
CONTINUOUS
 62
     7
 10
-911.3656690923
 20
1350.8875194962
 30
0.0
 11
-879.8656276074
 21
1296.3279012615
 31
0.0
  0
POLYLINE
  5
A2
  8
0
  6
CONTINUOUS
 62
     7
 66
     1
 10
0.0
 20
0.0
 30
0.0
  0
VERTEX
  5
4A7
  8
0
  6
CONTINUOUS
 62
     7
 10
-11.7364040223
 20
1200.0854436333
 30
0.0
  0
VERTEX
  5
4A8
  8
0
  6
CONTINUOUS
 62
     7
 10
-11.7364040223
 20
1200.0705126698
 30
0.0
  0
VERTEX
  5
4A9
  8
0
  6
CONTINUOUS
 62
     7
 10
-11.736001691
 20
1199.5777908737
 30
0.0
  0
VERTEX
  5
4AA
  8
0
  6
CONTINUOUS
 62
     7
 10
-11.7351672259
 20
1198.8387230808
 30
0.0
  0
VERTEX
  5
4AB
  8
0
  6
CONTINUOUS
 62
     7
 10
-11.7341241447
 20
1197.8542927677
 30
0.0
  0
VERTEX
  5
4AC
  8
0
  6
CONTINUOUS
 62
     7
 10
-11.7331108657
 20
1196.625483411
 30
0.0
  0
VERTEX
  5
4AD
  8
0
  6
CONTINUOUS
 62
     7
 10
-11.7318591682
 20
1195.1524440224
 30
0.0
  0
VERTEX
  5
4AE
  8
0
  6
CONTINUOUS
 62
     7
 10
-11.7301455346
 20
1193.4360686714
 30
0.0
  0
VERTEX
  5
4AF
  8
0
  6
CONTINUOUS
 62
     7
 10
-11.7282232848
 20
1191.4784435207
 30
0.0
  0
VERTEX
  5
4B0
  8
0
  6
CONTINUOUS
 62
     7
 10
-11.7263457385
 20
1189.2816845352
 30
0.0
  0
VERTEX
  5
4B1
  8
0
  6
CONTINUOUS
 62
     7
 10
-11.7241776196
 20
1186.714631694
 30
0.0
  0
VERTEX
  5
4B2
  8
0
  6
CONTINUOUS
 62
     7
 10
-11.7215699163
 20
1183.8852290089
 30
0.0
  0
VERTEX
  5
4B3
  8
0
  6
CONTINUOUS
 62
     7
 10
-11.7187535969
 20
1180.79720177
 30
0.0
  0
VERTEX
  5
4B4
  8
0
  6
CONTINUOUS
 62
     7
 10
-11.7159819809
 20
1177.4543348724
 30
0.0
  0
VERTEX
  5
4B5
  8
0
  6
CONTINUOUS
 62
     7
 10
-11.7132103649
 20
1174.0394059593
 30
0.0
  0
VERTEX
  5
4B6
  8
0
  6
CONTINUOUS
 62
     7
 10
-11.7101034728
 20
1170.3965488846
 30
0.0
  0
VERTEX
  5
4B7
  8
0
  6
CONTINUOUS
 62
     7
 10
-11.7068177668
 20
1166.5300253803
 30
0.0
  0
VERTEX
  5
4B8
  8
0
  6
CONTINUOUS
 62
     7
 10
-11.7035320607
 20
1162.444126981
 30
0.0
  0
VERTEX
  5
4B9
  8
0
  6
CONTINUOUS
 62
     7
 10
-11.7002091018
 20
1158.140194791
 30
0.0
  0
VERTEX
  5
4BA
  8
0
  6
CONTINUOUS
 62
     7
 10
-11.6967147795
 20
1153.6200765545
 30
0.0
  0
VERTEX
  5
4BB
  8
0
  6
CONTINUOUS
 62
     7
 10
-11.6930863467
 20
1148.8891068871
 30
0.0
  0
VERTEX
  5
4BC
  8
0
  6
CONTINUOUS
 62
     7
 10
-11.6893461553
 20
1143.9525906021
 30
0.0
  0
VERTEX
  5
4BD
  8
0
  6
CONTINUOUS
 62
     7
 10
-11.6854122487
 20
1138.5423366005
 30
0.0
  0
VERTEX
  5
4BE
  8
0
  6
CONTINUOUS
 62
     7
 10
-11.6815155951
 20
1132.9091910297
 30
0.0
  0
VERTEX
  5
4BF
  8
0
  6
CONTINUOUS
 62
     7
 10
-11.6775742379
 20
1127.0604405577
 30
0.0
  0
VERTEX
  5
4C0
  8
0
  6
CONTINUOUS
 62
     7
 10
-11.6734913198
 20
1121.0033420498
 30
0.0
  0
VERTEX
  5
4C1
  8
0
  6
CONTINUOUS
 62
     7
 10
-11.6696170178
 20
1115.0512520249
 30
0.0
  0
VERTEX
  5
4C2
  8
0
  6
CONTINUOUS
 62
     7
 10
-11.6658991781
 20
1108.9152816708
 30
0.0
  0
VERTEX
  5
4C3
  8
0
  6
CONTINUOUS
 62
     7
 10
-11.6621813384
 20
1102.6025984461
 30
0.0
  0
VERTEX
  5
4C4
  8
0
  6
CONTINUOUS
 62
     7
 10
-11.6583442894
 20
1096.1202953035
 30
0.0
  0
VERTEX
  5
4C5
  8
0
  6
CONTINUOUS
 62
     7
 10
-11.6546264497
 20
1089.4706521208
 30
0.0
  0
VERTEX
  5
4C6
  8
0
  6
CONTINUOUS
 62
     7
 10
-11.6512066332
 20
1082.6564107115
 30
0.0
  0
VERTEX
  5
4C7
  8
0
  6
CONTINUOUS
 62
     7
 10
-11.6478836742
 20
1075.6854984934
 30
0.0
  0
VERTEX
  5
4C8
  8
0
  6
CONTINUOUS
 62
     7
 10
-11.6444340554
 20
1068.5657683785
 30
0.0
  0
VERTEX
  5
4C9
  8
0
  6
CONTINUOUS
 62
     7
 10
-11.6424223987
 20
1060.9222326452
 30
0.0
  0
VERTEX
  5
4CA
  8
0
  6
CONTINUOUS
 62
     7
 10
-11.6460433808
 20
1053.120431679
 30
0.0
  0
VERTEX
  5
4CB
  8
0
  6
CONTINUOUS
 62
     7
 10
-11.658493301
 20
1045.1703343565
 30
0.0
  0
VERTEX
  5
4CC
  8
0
  6
CONTINUOUS
 62
     7
 10
-11.6829610077
 20
1037.0819542582
 30
0.0
  0
VERTEX
  5
4CD
  8
0
  6
CONTINUOUS
 62
     7
 10
-11.7189920155
 20
1029.2644623692
 30
0.0
  0
VERTEX
  5
4CE
  8
0
  6
CONTINUOUS
 62
     7
 10
-11.7680913416
 20
1021.3280145104
 30
0.0
  0
VERTEX
  5
4CF
  8
0
  6
CONTINUOUS
 62
     7
 10
-11.831771454
 20
1013.2817748959
 30
0.0
  0
VERTEX
  5
4D0
  8
0
  6
CONTINUOUS
 62
     7
 10
-11.911552271
 20
1005.1349673445
 30
0.0
  0
VERTEX
  5
4D1
  8
0
  6
CONTINUOUS
 62
     7
 10
-12.0080372897
 20
996.8905422861
 30
0.0
  0
VERTEX
  5
4D2
  8
0
  6
CONTINUOUS
 62
     7
 10
-12.12199392
 20
988.5518450315
 30
0.0
  0
VERTEX
  5
4D3
  8
0
  6
CONTINUOUS
 62
     7
 10
-12.255158147
 20
980.1285762364
 30
0.0
  0
VERTEX
  5
4D4
  8
0
  6
CONTINUOUS
 62
     7
 10
-12.409265956
 20
971.6303993041
 30
0.0
  0
VERTEX
  5
4D5
  8
0
  6
CONTINUOUS
 62
     7
 10
-12.5934741107
 20
962.6159641916
 30
0.0
  0
VERTEX
  5
4D6
  8
0
  6
CONTINUOUS
 62
     7
 10
-12.7994230596
 20
953.5261292035
 30
0.0
  0
VERTEX
  5
4D7
  8
0
  6
CONTINUOUS
 62
     7
 10
-13.0282005874
 20
944.3725693996
 30
0.0
  0
VERTEX
  5
4D8
  8
0
  6
CONTINUOUS
 62
     7
 10
-13.2808795777
 20
935.1669300372
 30
0.0
  0
VERTEX
  5
4D9
  8
0
  6
CONTINUOUS
 62
     7
 10
-13.5653576461
 20
925.6410237426
 30
0.0
  0
VERTEX
  5
4DA
  8
0
  6
CONTINUOUS
 62
     7
 10
-13.8610562888
 20
916.0701494689
 30
0.0
  0
VERTEX
  5
4DB
  8
0
  6
CONTINUOUS
 62
     7
 10
-14.1497364846
 20
906.4666006739
 30
0.0
  0
VERTEX
  5
4DC
  8
0
  6
CONTINUOUS
 62
     7
 10
-14.4257730452
 20
896.7579558516
 30
0.0
  0
VERTEX
  5
4DD
  8
0
  6
CONTINUOUS
 62
     7
 10
-14.689866325
 20
887.0291385824
 30
0.0
  0
VERTEX
  5
4DE
  8
0
  6
CONTINUOUS
 62
     7
 10
-14.9401089755
 20
877.2933749274
 30
0.0
  0
VERTEX
  5
4DF
  8
0
  6
CONTINUOUS
 62
     7
 10
-15.1604449955
 20
868.23608652
 30
0.0
  0
VERTEX
  5
4E0
  8
0
  6
CONTINUOUS
 62
     7
 10
-15.3697690574
 20
859.1821409787
 30
0.0
  0
VERTEX
  5
4E1
  8
0
  6
CONTINUOUS
 62
     7
 10
-15.5677607862
 20
850.1422192926
 30
0.0
  0
VERTEX
  5
4E2
  8
0
  6
CONTINUOUS
 62
     7
 10
-15.7540998069
 20
841.1270093197
 30
0.0
  0
VERTEX
  5
4E3
  8
0
  6
CONTINUOUS
 62
     7
 10
-15.9293896166
 20
832.0243518824
 30
0.0
  0
VERTEX
  5
4E4
  8
0
  6
CONTINUOUS
 62
     7
 10
-16.088981053
 20
822.9543168122
 30
0.0
  0
VERTEX
  5
4E5
  8
0
  6
CONTINUOUS
 62
     7
 10
-16.231667122
 20
813.9278937156
 30
0.0
  0
VERTEX
  5
4E6
  8
0
  6
CONTINUOUS
 62
     7
 10
-16.356233379
 20
804.9560535724
 30
0.0
  0
VERTEX
  5
4E7
  8
0
  6
CONTINUOUS
 62
     7
 10
-16.4794883338
 20
794.7370383913
 30
0.0
  0
VERTEX
  5
4E8
  8
0
  6
CONTINUOUS
 62
     7
 10
-16.5740809051
 20
784.6054706747
 30
0.0
  0
VERTEX
  5
4E9
  8
0
  6
CONTINUOUS
 62
     7
 10
-16.6469848362
 20
774.5293650801
 30
0.0
  0
VERTEX
  5
4EA
  8
0
  6
CONTINUOUS
 62
     7
 10
-16.7057252136
 20
764.5633120114
 30
0.0
  0
VERTEX
  5
4EB
  8
0
  6
CONTINUOUS
 62
     7
 10
-16.718651971
 20
756.3369993145
 30
0.0
  0
VERTEX
  5
4EC
  8
0
  6
CONTINUOUS
 62
     7
 10
-16.6898852793
 20
748.1979403669
 30
0.0
  0
VERTEX
  5
4ED
  8
0
  6
CONTINUOUS
 62
     7
 10
-16.6350639072
 20
740.1552770311
 30
0.0
  0
VERTEX
  5
4EE
  8
0
  6
CONTINUOUS
 62
     7
 10
-16.5697968212
 20
732.2180990154
 30
0.0
  0
VERTEX
  5
4EF
  8
0
  6
CONTINUOUS
 62
     7
 10
-16.5024212209
 20
724.2943916494
 30
0.0
  0
VERTEX
  5
4F0
  8
0
  6
CONTINUOUS
 62
     7
 10
-16.4332351295
 20
716.4847675736
 30
0.0
  0
VERTEX
  5
4F1
  8
0
  6
CONTINUOUS
 62
     7
 10
-16.3634678927
 20
708.7981078798
 30
0.0
  0
VERTEX
  5
4F2
  8
0
  6
CONTINUOUS
 62
     7
 10
-16.2943563071
 20
701.2432787592
 30
0.0
  0
VERTEX
  5
4F3
  8
0
  6
CONTINUOUS
 62
     7
 10
-16.2278002707
 20
693.8288781817
 30
0.0
  0
VERTEX
  5
4F4
  8
0
  6
CONTINUOUS
 62
     7
 10
-16.1637997833
 20
686.5518216068
 30
0.0
  0
VERTEX
  5
4F5
  8
0
  6
CONTINUOUS
 62
     7
 10
-16.100864729
 20
679.420364278
 30
0.0
  0
VERTEX
  5
4F6
  8
0
  6
CONTINUOUS
 62
     7
 10
-16.0374975411
 20
672.4427912409
 30
0.0
  0
VERTEX
  5
4F7
  8
0
  6
CONTINUOUS
 62
     7
 10
-15.9746220914
 20
665.6219486172
 30
0.0
  0
VERTEX
  5
4F8
  8
0
  6
CONTINUOUS
 62
     7
 10
-15.9138253537
 20
658.960250395
 30
0.0
  0
VERTEX
  5
4F9
  8
0
  6
CONTINUOUS
 62
     7
 10
-15.8546006886
 20
652.4652067597
 30
0.0
  0
VERTEX
  5
4FA
  8
0
  6
CONTINUOUS
 62
     7
 10
-15.7964563576
 20
646.1443725998
 30
0.0
  0
VERTEX
  5
4FB
  8
0
  6
CONTINUOUS
 62
     7
 10
-15.7361290065
 20
639.6893236811
 30
0.0
  0
VERTEX
  5
4FC
  8
0
  6
CONTINUOUS
 62
     7
 10
-15.6770906058
 20
633.4322664911
 30
0.0
  0
VERTEX
  5
4FD
  8
0
  6
CONTINUOUS
 62
     7
 10
-15.6200117079
 20
627.3809794361
 30
0.0
  0
VERTEX
  5
4FE
  8
0
  6
CONTINUOUS
 62
     7
 10
-15.5655628649
 20
621.5432707245
 30
0.0
  0
VERTEX
  5
4FF
  8
0
  6
CONTINUOUS
 62
     7
 10
-15.5153608528
 20
616.1917869026
 30
0.0
  0
VERTEX
  5
500
  8
0
  6
CONTINUOUS
 62
     7
 10
-15.4660007564
 20
611.0377434666
 30
0.0
  0
VERTEX
  5
501
  8
0
  6
CONTINUOUS
 62
     7
 10
-15.418361744
 20
606.0869518692
 30
0.0
  0
VERTEX
  5
502
  8
0
  6
CONTINUOUS
 62
     7
 10
-15.3733155337
 20
601.3451937611
 30
0.0
  0
VERTEX
  5
503
  8
0
  6
CONTINUOUS
 62
     7
 10
-15.3306535092
 20
596.814585107
 30
0.0
  0
VERTEX
  5
504
  8
0
  6
CONTINUOUS
 62
     7
 10
-15.2896008102
 20
592.4965266163
 30
0.0
  0
VERTEX
  5
505
  8
0
  6
CONTINUOUS
 62
     7
 10
-15.2501648871
 20
588.3958760674
 30
0.0
  0
VERTEX
  5
506
  8
0
  6
CONTINUOUS
 62
     7
 10
-15.2123829928
 20
584.5174614365
 30
0.0
  0
VERTEX
  5
507
  8
0
  6
CONTINUOUS
 62
     7
 10
-15.1752865521
 20
580.6812170918
 30
0.0
  0
VERTEX
  5
508
  8
0
  6
CONTINUOUS
 62
     7
 10
-15.1412746516
 20
577.0939413483
 30
0.0
  0
VERTEX
  5
509
  8
0
  6
CONTINUOUS
 62
     7
 10
-15.1096543876
 20
573.7599555428
 30
0.0
  0
VERTEX
  5
50A
  8
0
  6
CONTINUOUS
 62
     7
 10
-15.0797403065
 20
570.6836704189
 30
0.0
  0
VERTEX
  5
50B
  8
0
  6
CONTINUOUS
 62
     7
 10
-15.0534025041
 20
567.9985705788
 30
0.0
  0
VERTEX
  5
50C
  8
0
  6
CONTINUOUS
 62
     7
 10
-15.02986612
 20
565.5487302715
 30
0.0
  0
VERTEX
  5
50D
  8
0
  6
CONTINUOUS
 62
     7
 10
-15.008795878
 20
563.3368913109
 30
0.0
  0
VERTEX
  5
50E
  8
0
  6
CONTINUOUS
 62
     7
 10
-14.9898565022
 20
561.3656464989
 30
0.0
  0
VERTEX
  5
50F
  8
0
  6
CONTINUOUS
 62
     7
 10
-14.9728393761
 20
559.6360985214
 30
0.0
  0
VERTEX
  5
510
  8
0
  6
CONTINUOUS
 62
     7
 10
-14.9580127207
 20
558.1486050064
 30
0.0
  0
VERTEX
  5
511
  8
0
  6
CONTINUOUS
 62
     7
 10
-14.9457267133
 20
556.9047156746
 30
0.0
  0
VERTEX
  5
512
  8
0
  6
CONTINUOUS
 62
     7
 10
-14.9363389817
 20
555.9060100491
 30
0.0
  0
VERTEX
  5
513
  8
0
  6
CONTINUOUS
 62
     7
 10
-14.9288809506
 20
555.1211360867
 30
0.0
  0
VERTEX
  5
514
  8
0
  6
CONTINUOUS
 62
     7
 10
-14.9234047738
 20
554.6080891068
 30
0.0
  0
VERTEX
  5
515
  8
0
  6
CONTINUOUS
 62
     7
 10
-14.9205735532
 20
554.3672863419
 30
0.0
  0
VERTEX
  5
516
  8
0
  6
CONTINUOUS
 62
     7
 10
-14.9207523671
 20
554.379505294
 30
0.0
  0
SEQEND
  5
B6C
  8
0
  6
CONTINUOUS
 62
     7
  0
POLYLINE
  5
A3
  8
0
  6
CONTINUOUS
 62
     7
 66
     1
 10
0.0
 20
0.0
 30
0.0
  0
VERTEX
  5
517
  8
0
  6
CONTINUOUS
 62
     7
 10
-228.2111457196
 20
1303.517294305
 30
0.0
  0
VERTEX
  5
518
  8
0
  6
CONTINUOUS
 62
     7
 10
-148.9572039453
 20
1265.6434003288
 30
0.0
  0
VERTEX
  5
519
  8
0
  6
CONTINUOUS
 62
     7
 10
-77.997948846
 20
1231.7398611481
 30
0.0
  0
VERTEX
  5
51A
  8
0
  6
CONTINUOUS
 62
     7
 10
-11.7364040223
 20
1200.0854436333
 30
0.0
  0
SEQEND
  5
B6B
  8
0
  6
CONTINUOUS
 62
     7
  0
LINE
  5
A4
  8
0
  6
CONTINUOUS
 62
     7
 10
-920.0258663503
 20
1345.8875242645
 30
0.0
 11
-888.5258844701
 21
1291.3279060299
 31
0.0
  0
LINE
  5
A5
  8
0
  6
CONTINUOUS
 62
     7
 10
-789.1413381902
 20
1359.1887775833
 30
0.0
 11
-816.1028436032
 21
1405.8875266487
 31
0.0
  0
ARC
  5
A6
  8
0
  6
CONTINUOUS
 62
     7
 10
-868.0643744635
 20
1375.8875163522
 30
0.0
 40
60.00000000000031
 50
30.0
 51
210.0
  0
CIRCLE
  5
A7
  8
0
  6
CONTINUOUS
 62
     7
 10
-648.914429978
 20
1464.3086780273
 30
0.0
 40
20.00000000000008
  0
ARC
  5
A8
  8
0
  6
CONTINUOUS
 62
     7
 10
-648.914429978
 20
1464.3086780273
 30
0.0
 40
39.99999999999994
 50
30.0
 51
210.0
  0
LINE
  5
A9
  8
0
  6
CONTINUOUS
 62
     7
 10
-599.2734244672
 20
1458.3279315407
 30
0.0
 11
-614.2734101621
 21
1484.3087021286
 31
0.0
  0
LINE
  5
AA
  8
0
  6
CONTINUOUS
 62
     7
 10
-683.5554650632
 20
1444.3086806709
 30
0.0
 11
-668.5554197637
 21
1418.327910083
 31
0.0
  0
LINE
  5
AB
  8
0
  6
CONTINUOUS
 62
     7
 10
-1216.9437816945
 20
877.3471538002
 30
0.0
 11
-1216.9437816945
 21
1218.3471445019
 31
0.0
  0
LINE
  5
AC
  8
0
  6
CONTINUOUS
 62
     7
 10
-1216.9437816945
 20
536.3471630985
 30
0.0
 11
-1216.9437816945
 21
877.3471538002
 31
0.0
  0
LINE
  5
AD
  8
0
  6
CONTINUOUS
 62
     7
 10
83.0561706218
 20
1218.3471445019
 30
0.0
 11
83.0561706218
 21
536.3471630985
 31
0.0
  0
POLYLINE
  5
AE
  8
0
  6
CONTINUOUS
 62
     7
 66
     1
 10
0.0
 20
0.0
 30
0.0
  0
VERTEX
  5
51B
  8
0
  6
CONTINUOUS
 62
     7
 10
-555.2270224896
 20
1405.2384916718
 30
0.0
  0
VERTEX
  5
51C
  8
0
  6
CONTINUOUS
 62
     7
 10
-536.6788318959
 20
1400.9048167641
 30
0.0
  0
VERTEX
  5
51D
  8
0
  6
CONTINUOUS
 62
     7
 10
-518.167417368
 20
1396.4160505707
 30
0.0
  0
VERTEX
  5
51E
  8
0
  6
CONTINUOUS
 62
     7
 10
-499.6785333959
 20
1391.8230358536
 30
0.0
  0
VERTEX
  5
51F
  8
0
  6
CONTINUOUS
 62
     7
 10
-481.202524027
 20
1387.1782843048
 30
0.0
  0
SEQEND
  5
B6A
  8
0
  6
CONTINUOUS
 62
     7
  0
POLYLINE
  5
AF
  8
0
  6
CONTINUOUS
 62
     7
 66
     1
 10
0.0
 20
0.0
 30
0.0
  0
VERTEX
  5
520
  8
0
  6
CONTINUOUS
 62
     7
 10
-481.202524027
 20
1387.1782843048
 30
0.0
  0
VERTEX
  5
521
  8
0
  6
CONTINUOUS
 62
     7
 10
-463.8054779378
 20
1382.5145188744
 30
0.0
  0
VERTEX
  5
522
  8
0
  6
CONTINUOUS
 62
     7
 10
-445.8051136342
 20
1377.5199476654
 30
0.0
  0
VERTEX
  5
523
  8
0
  6
CONTINUOUS
 62
     7
 10
-428.9008191434
 20
1372.671944278
 30
0.0
  0
SEQEND
  5
B69
  8
0
  6
CONTINUOUS
 62
     7
  0
LINE
  5
B0
  8
0
  6
CONTINUOUS
 62
     7
 10
47.0561721715
 20
1200.0854436333
 30
0.0
 11
-11.7364040223
 21
1200.0854436333
 31
0.0
  0
LINE
  5
B1
  8
0
  6
CONTINUOUS
 62
     7
 10
-813.8043692914
 20
1460.0706521446
 30
0.0
 11
-859.5266750661
 21
1464.4770447189
 31
0.0
  0
LINE
  5
B2
  8
0
  6
CONTINUOUS
 62
     7
 10
-813.8043692914
 20
1460.0706521446
 30
0.0
 11
-759.4169786779
 21
1365.8689681465
 31
0.0
  0
ARC
  5
B3
  8
0
  6
CONTINUOUS
 62
     7
 10
-868.0643744635
 20
1375.8875163522
 30
0.0
 40
89.00000000000003
 50
84.4951872263
 51
210.0
  0
LINE
  5
B4
  8
0
  6
CONTINUOUS
 62
     7
 10
-945.1406410543
 20
1331.38750233
 30
0.0
 11
-913.6406591741
 21
1276.8279138977
 31
0.0
  0
LINE
  5
B5
  8
0
  6
CONTINUOUS
 62
     7
 10
-685.296874365
 20
1447.6858798439
 30
0.0
 11
-813.8043692914
 21
1460.0706521446
 31
0.0
  0
LINE
  5
B6
  8
0
  6
CONTINUOUS
 62
     7
 10
72.0561706814
 20
447.3471466477
 30
0.0
 11
72.0561706814
 21
485.0462500031
 31
0.0
  0
LINE
  5
B7
  8
0
  6
CONTINUOUS
 62
     7
 10
72.0561706814
 20
447.3471466477
 30
0.0
 11
47.0561721715
 21
447.3471466477
 31
0.0
  0
LINE
  5
B8
  8
0
  6
CONTINUOUS
 62
     7
 10
47.0561721715
 20
447.3471466477
 30
0.0
 11
47.0561721715
 21
485.0462500031
 31
0.0
  0
LINE
  5
B9
  8
0
  6
CONTINUOUS
 62
     7
 10
-1205.9438637105
 20
447.3471466477
 30
0.0
 11
-1180.9438875524
 21
447.3471466477
 31
0.0
  0
LINE
  5
BA
  8
0
  6
CONTINUOUS
 62
     7
 10
-1205.9438637105
 20
485.0462500031
 30
0.0
 11
-1205.9438637105
 21
447.3471466477
 31
0.0
  0
LINE
  5
BB
  8
0
  6
CONTINUOUS
 62
     7
 10
-1180.9438875524
 20
485.0462500031
 30
0.0
 11
-1180.9438875524
 21
447.3471466477
 31
0.0
  0
LINE
  5
BC
  8
0
  6
CONTINUOUS
 62
     7
 10
-708.738904318
 20
1451.9543472702
 30
0.0
 11
-708.9307716695
 21
1449.9635521347
 31
0.0
  0
LINE
  5
BD
  8
0
  6
CONTINUOUS
 62
     7
 10
-739.1041329709
 20
1454.8807565147
 30
0.0
 11
-708.738904318
 21
1451.9543472702
 31
0.0
  0
LINE
  5
BE
  8
0
  6
CONTINUOUS
 62
     7
 10
-750.9540131894
 20
1456.0227815086
 30
0.0
 11
-751.1458805409
 21
1454.0319863731
 31
0.0
  0
LINE
  5
BF
  8
0
  6
CONTINUOUS
 62
     7
 10
-739.1041329709
 20
1454.8807565147
 30
0.0
 11
-739.2960003224
 21
1452.8899613793
 31
0.0
  0
LINE
  5
C0
  8
0
  6
CONTINUOUS
 62
     7
 10
-750.9540131894
 20
1456.0227815086
 30
0.0
 11
-739.1041329709
 21
1454.8807565147
 31
0.0
  0
LINE
  5
C1
  8
0
  6
CONTINUOUS
 62
     7
 10
-767.9881862012
 20
1457.664412635
 30
0.0
 11
-768.1800535527
 21
1455.6736174996
 31
0.0
  0
LINE
  5
C2
  8
0
  6
CONTINUOUS
 62
     7
 10
-755.6939533559
 20
1456.4795915062
 30
0.0
 11
-755.8858207074
 21
1454.4887963707
 31
0.0
  0
LINE
  5
C3
  8
0
  6
CONTINUOUS
 62
     7
 10
-767.9881862012
 20
1457.664412635
 30
0.0
 11
-755.6939533559
 21
1456.4795915062
 31
0.0
  0
LINE
  5
C4
  8
0
  6
CONTINUOUS
 62
     7
 10
-755.6939533559
 20
1456.4795915062
 30
0.0
 11
-750.9540131894
 21
1456.0227815086
 31
0.0
  0
ARC
  5
C5
  8
0
  6
CONTINUOUS
 62
     7
 10
-1015.6588831848
 20
-641.4967760904
 30
0.0
 40
2118.000000000001
 50
63.5226200828
 51
76.7761720153
  0
LINE
  5
C6
  8
0
  6
CONTINUOUS
 62
     7
 10
47.0561721715
 20
1254.3471578533
 30
0.0
 11
-71.3603159991
 21
1254.3471578533
 31
0.0
  0
LINE
  5
C7
  8
0
  6
CONTINUOUS
 62
     7
 10
-378.7805548516
 20
977.3519609148
 30
0.0
 11
-276.780556759
 21
1154.0211562092
 31
0.0
  0
LINE
  5
C8
  8
0
  6
CONTINUOUS
 62
     7
 10
-467.1151450482
 20
1028.3519599611
 30
0.0
 11
-365.1151469556
 21
1205.0211552555
 31
0.0
  0
LINE
  5
C9
  8
0
  6
CONTINUOUS
 62
     7
 10
-885.061781725
 20
1293.327910083
 30
0.0
 11
-870.0617960301
 21
1267.3471394951
 31
0.0
  0
POLYLINE
  5
CA
  8
0
  6
CONTINUOUS
 62
     7
 66
     1
 10
0.0
 20
0.0
 30
0.0
  0
VERTEX
  5
524
  8
0
  6
CONTINUOUS
 62
     7
 10
-870.0617960301
 20
1267.3471394951
 30
0.0
  0
VERTEX
  5
525
  8
0
  6
CONTINUOUS
 62
     7
 10
-872.4797180501
 20
1265.9511689121
 30
0.0
  0
VERTEX
  5
526
  8
0
  6
CONTINUOUS
 62
     7
 10
-874.8946598378
 20
1264.5568970615
 30
0.0
  0
VERTEX
  5
527
  8
0
  6
CONTINUOUS
 62
     7
 10
-877.3037603704
 20
1263.1660226757
 30
0.0
  0
VERTEX
  5
528
  8
0
  6
CONTINUOUS
 62
     7
 10
-879.7039798108
 20
1261.780244487
 30
0.0
  0
VERTEX
  5
529
  8
0
  6
CONTINUOUS
 62
     7
 10
-882.0925167409
 20
1260.4012314255
 30
0.0
  0
VERTEX
  5
52A
  8
0
  6
CONTINUOUS
 62
     7
 10
-884.4663313237
 20
1259.0306822235
 30
0.0
  0
VERTEX
  5
52B
  8
0
  6
CONTINUOUS
 62
     7
 10
-886.822622141
 20
1257.6702658112
 30
0.0
  0
VERTEX
  5
52C
  8
0
  6
CONTINUOUS
 62
     7
 10
-889.1585281697
 20
1256.3216511185
 30
0.0
  0
VERTEX
  5
52D
  8
0
  6
CONTINUOUS
 62
     7
 10
-891.4711287824
 20
1254.9864772732
 30
0.0
  0
VERTEX
  5
52E
  8
0
  6
CONTINUOUS
 62
     7
 10
-893.7576225606
 20
1253.6663536007
 30
0.0
  0
VERTEX
  5
52F
  8
0
  6
CONTINUOUS
 62
     7
 10
-896.0153272954
 20
1252.3628894264
 30
0.0
  0
VERTEX
  5
530
  8
0
  6
CONTINUOUS
 62
     7
 10
-898.2413223592
 20
1251.0776940758
 30
0.0
  0
VERTEX
  5
531
  8
0
  6
CONTINUOUS
 62
     7
 10
-900.4330447522
 20
1249.8123172695
 30
0.0
  0
VERTEX
  5
532
  8
0
  6
CONTINUOUS
 62
     7
 10
-902.5877526609
 20
1248.5682789261
 30
0.0
  0
VERTEX
  5
533
  8
0
  6
CONTINUOUS
 62
     7
 10
-904.7028234807
 20
1247.3471585686
 30
0.0
  0
VERTEX
  5
534
  8
0
  6
CONTINUOUS
 62
     7
 10
-906.7756942121
 20
1246.1503867085
 30
0.0
  0
VERTEX
  5
535
  8
0
  6
CONTINUOUS
 62
     7
 10
-908.8038018552
 20
1244.9794236595
 30
0.0
  0
VERTEX
  5
536
  8
0
  6
CONTINUOUS
 62
     7
 10
-910.7847622243
 20
1243.8357297356
 30
0.0
  0
VERTEX
  5
537
  8
0
  6
CONTINUOUS
 62
     7
 10
-912.7160719243
 20
1242.7207056458
 30
0.0
  0
VERTEX
  5
538
  8
0
  6
CONTINUOUS
 62
     7
 10
-914.5954063741
 20
1241.6356626923
 30
0.0
  0
VERTEX
  5
539
  8
0
  6
CONTINUOUS
 62
     7
 10
-916.4205005971
 20
1240.5819419796
 30
0.0
  0
VERTEX
  5
53A
  8
0
  6
CONTINUOUS
 62
     7
 10
-918.1890896169
 20
1239.5608250076
 30
0.0
  0
VERTEX
  5
53B
  8
0
  6
CONTINUOUS
 62
     7
 10
-919.8991468755
 20
1238.5735634739
 30
0.0
  0
VERTEX
  5
53C
  8
0
  6
CONTINUOUS
 62
     7
 10
-921.5484073964
 20
1237.6213494713
 30
0.0
  0
VERTEX
  5
53D
  8
0
  6
CONTINUOUS
 62
     7
 10
-923.134963831
 20
1236.7053750927
 30
0.0
  0
VERTEX
  5
53E
  8
0
  6
CONTINUOUS
 62
     7
 10
-924.6567896215
 20
1235.8267132218
 30
0.0
  0
VERTEX
  5
53F
  8
0
  6
CONTINUOUS
 62
     7
 10
-926.1120966283
 20
1234.9864665444
 30
0.0
  0
VERTEX
  5
540
  8
0
  6
CONTINUOUS
 62
     7
 10
-927.4992159215
 20
1234.1856483395
 30
0.0
  0
VERTEX
  5
541
  8
0
  6
CONTINUOUS
 62
     7
 10
-928.8162401525
 20
1233.4252420837
 30
0.0
  0
VERTEX
  5
542
  8
0
  6
CONTINUOUS
 62
     7
 10
-930.0617388097
 20
1232.7061418469
 30
0.0
  0
VERTEX
  5
543
  8
0
  6
CONTINUOUS
 62
     7
 10
-931.2341621724
 20
1232.0292416985
 30
0.0
  0
VERTEX
  5
544
  8
0
  6
CONTINUOUS
 62
     7
 10
-932.3320797292
 20
1231.3954059059
 30
0.0
  0
VERTEX
  5
545
  8
0
  6
CONTINUOUS
 62
     7
 10
-933.3540609685
 20
1230.805349725
 30
0.0
  0
VERTEX
  5
546
  8
0
  6
CONTINUOUS
 62
     7
 10
-934.2990330068
 20
1230.2597884113
 30
0.0
  0
VERTEX
  5
547
  8
0
  6
CONTINUOUS
 62
     7
 10
-935.1655653325
 20
1229.7594372208
 30
0.0
  0
VERTEX
  5
548
  8
0
  6
CONTINUOUS
 62
     7
 10
-935.95294269
 20
1229.3048921997
 30
0.0
  0
VERTEX
  5
549
  8
0
  6
CONTINUOUS
 62
     7
 10
-936.6599729863
 20
1228.89668979
 30
0.0
  0
VERTEX
  5
54A
  8
0
  6
CONTINUOUS
 62
     7
 10
-937.2858217565
 20
1228.535336631
 30
0.0
  0
VERTEX
  5
54B
  8
0
  6
CONTINUOUS
 62
     7
 10
-937.829892954
 20
1228.2212499554
 30
0.0
  0
VERTEX
  5
54C
  8
0
  6
CONTINUOUS
 62
     7
 10
-938.2912329045
 20
1227.9548469956
 30
0.0
  0
VERTEX
  5
54D
  8
0
  6
CONTINUOUS
 62
     7
 10
-938.6696031896
 20
1227.7364257748
 30
0.0
  0
VERTEX
  5
54E
  8
0
  6
CONTINUOUS
 62
     7
 10
-938.9642885533
 20
1227.5662843163
 30
0.0
  0
VERTEX
  5
54F
  8
0
  6
CONTINUOUS
 62
     7
 10
-939.1750505773
 20
1227.444601434
 30
0.0
  0
VERTEX
  5
550
  8
0
  6
CONTINUOUS
 62
     7
 10
-939.3016508428
 20
1227.3715261395
 30
0.0
  0
VERTEX
  5
551
  8
0
  6
CONTINUOUS
 62
     7
 10
-939.3438509313
 20
1227.3471478397
 30
0.0
  0
SEQEND
  5
B68
  8
0
  6
CONTINUOUS
 62
     7
  0
LINE
  5
CB
  8
0
  6
CONTINUOUS
 62
     7
 10
-851.061802229
 20
1234.4381932194
 30
0.0
 11
-870.0617960301
 21
1267.3471394951
 31
0.0
  0
LINE
  5
CC
  8
0
  6
CONTINUOUS
 62
     7
 10
-618.9144066182
 20
1412.3471800263
 30
0.0
 11
-750.0643542615
 21
1336.6277042801
 31
0.0
  0
LINE
  5
CD
  8
0
  6
CONTINUOUS
 62
     7
 10
-800.0643661824
 20
1307.7601913387
 30
0.0
 11
-870.0617960301
 21
1267.3471394951
 31
0.0
  0
LINE
  5
CE
  8
0
  6
CONTINUOUS
 62
     7
 10
-599.9144128171
 20
1379.4382039482
 30
0.0
 11
-618.9144066182
 21
1412.3471800263
 31
0.0
  0
LINE
  5
CF
  8
0
  6
CONTINUOUS
 62
     7
 10
-633.9144519177
 20
1438.3278910095
 30
0.0
 11
-618.9144066182
 21
1412.3471800263
 31
0.0
  0
POLYLINE
  5
D0
  8
0
  6
CONTINUOUS
 62
     7
 66
     1
 10
0.0
 20
0.0
 30
0.0
  0
VERTEX
  5
552
  8
0
  6
CONTINUOUS
 62
     7
 10
-549.6324113217
 20
1452.3471418793
 30
0.0
  0
VERTEX
  5
553
  8
0
  6
CONTINUOUS
 62
     7
 10
-549.6746114102
 20
1452.3227635796
 30
0.0
  0
VERTEX
  5
554
  8
0
  6
CONTINUOUS
 62
     7
 10
-549.8011520711
 20
1452.2496882851
 30
0.0
  0
VERTEX
  5
555
  8
0
  6
CONTINUOUS
 62
     7
 10
-550.011914095
 20
1452.1280352051
 30
0.0
  0
VERTEX
  5
556
  8
0
  6
CONTINUOUS
 62
     7
 10
-550.3066590634
 20
1451.9578639443
 30
0.0
  0
VERTEX
  5
557
  8
0
  6
CONTINUOUS
 62
     7
 10
-550.6849697438
 20
1451.7394725258
 30
0.0
  0
VERTEX
  5
558
  8
0
  6
CONTINUOUS
 62
     7
 10
-551.146369299
 20
1451.4730397637
 30
0.0
  0
VERTEX
  5
559
  8
0
  6
CONTINUOUS
 62
     7
 10
-551.6903808919
 20
1451.1589828903
 30
0.0
  0
VERTEX
  5
55A
  8
0
  6
CONTINUOUS
 62
     7
 10
-552.3162892667
 20
1450.7975999291
 30
0.0
  0
VERTEX
  5
55B
  8
0
  6
CONTINUOUS
 62
     7
 10
-553.023319563
 20
1450.3894273216
 30
0.0
  0
VERTEX
  5
55C
  8
0
  6
CONTINUOUS
 62
     7
 10
-553.8106373159
 20
1449.9348823006
 30
0.0
  0
VERTEX
  5
55D
  8
0
  6
CONTINUOUS
 62
     7
 10
-554.6772292462
 20
1449.4345013077
 30
0.0
  0
VERTEX
  5
55E
  8
0
  6
CONTINUOUS
 62
     7
 10
-555.6221416799
 20
1448.8889995987
 30
0.0
  0
VERTEX
  5
55F
  8
0
  6
CONTINUOUS
 62
     7
 10
-556.6441229192
 20
1448.2989136154
 30
0.0
  0
VERTEX
  5
560
  8
0
  6
CONTINUOUS
 62
     7
 10
-557.7420404759
 20
1447.6650778229
 30
0.0
  0
VERTEX
  5
561
  8
0
  6
CONTINUOUS
 62
     7
 10
-558.914404234
 20
1446.9881478722
 30
0.0
  0
VERTEX
  5
562
  8
0
  6
CONTINUOUS
 62
     7
 10
-560.1599624959
 20
1446.2690774376
 30
0.0
  0
VERTEX
  5
563
  8
0
  6
CONTINUOUS
 62
     7
 10
-561.4770463315
 20
1445.5086413796
 30
0.0
  0
VERTEX
  5
564
  8
0
  6
CONTINUOUS
 62
     7
 10
-562.8641060201
 20
1444.707852977
 30
0.0
  0
VERTEX
  5
565
  8
0
  6
CONTINUOUS
 62
     7
 10
-564.3194726316
 20
1443.8676062996
 30
0.0
  0
VERTEX
  5
566
  8
0
  6
CONTINUOUS
 62
     7
 10
-565.841298422
 20
1442.9889146263
 30
0.0
  0
VERTEX
  5
567
  8
0
  6
CONTINUOUS
 62
     7
 10
-567.4278548566
 20
1442.0729700501
 30
0.0
  0
VERTEX
  5
568
  8
0
  6
CONTINUOUS
 62
     7
 10
-569.0771153775
 20
1441.1207262451
 30
0.0
  0
VERTEX
  5
569
  8
0
  6
CONTINUOUS
 62
     7
 10
-570.7871130315
 20
1440.1334945137
 30
0.0
  0
VERTEX
  5
56A
  8
0
  6
CONTINUOUS
 62
     7
 10
-572.5557020513
 20
1439.1124073441
 30
0.0
  0
VERTEX
  5
56B
  8
0
  6
CONTINUOUS
 62
     7
 10
-574.3807962743
 20
1438.0586568291
 30
0.0
  0
VERTEX
  5
56C
  8
0
  6
CONTINUOUS
 62
     7
 10
-576.2601307241
 20
1436.9736138756
 30
0.0
  0
VERTEX
  5
56D
  8
0
  6
CONTINUOUS
 62
     7
 10
-578.1915000287
 20
1435.8585897858
 30
0.0
  0
VERTEX
  5
56E
  8
0
  6
CONTINUOUS
 62
     7
 10
-580.1724007932
 20
1434.7148958618
 30
0.0
  0
VERTEX
  5
56F
  8
0
  6
CONTINUOUS
 62
     7
 10
-582.2005680409
 20
1433.5439030106
 30
0.0
  0
VERTEX
  5
570
  8
0
  6
CONTINUOUS
 62
     7
 10
-584.2734387723
 20
1432.3471609528
 30
0.0
  0
VERTEX
  5
571
  8
0
  6
CONTINUOUS
 62
     7
 10
-586.3885095922
 20
1431.1260405953
 30
0.0
  0
VERTEX
  5
572
  8
0
  6
CONTINUOUS
 62
     7
 10
-588.5431578961
 20
1429.8819724495
 30
0.0
  0
VERTEX
  5
573
  8
0
  6
CONTINUOUS
 62
     7
 10
-590.7348802892
 20
1428.6166254456
 30
0.0
  0
VERTEX
  5
574
  8
0
  6
CONTINUOUS
 62
     7
 10
-592.9609349576
 20
1427.3314300949
 30
0.0
  0
VERTEX
  5
575
  8
0
  6
CONTINUOUS
 62
     7
 10
-595.2185800878
 20
1426.0279361183
 30
0.0
  0
VERTEX
  5
576
  8
0
  6
CONTINUOUS
 62
     7
 10
-597.5051334706
 20
1424.7078124458
 30
0.0
  0
VERTEX
  5
577
  8
0
  6
CONTINUOUS
 62
     7
 10
-599.8177340833
 20
1423.3726684029
 30
0.0
  0
VERTEX
  5
578
  8
0
  6
CONTINUOUS
 62
     7
 10
-602.1535805074
 20
1422.0240537102
 30
0.0
  0
VERTEX
  5
579
  8
0
  6
CONTINUOUS
 62
     7
 10
-604.5098713246
 20
1420.6636372978
 30
0.0
  0
VERTEX
  5
57A
  8
0
  6
CONTINUOUS
 62
     7
 10
-606.8837455121
 20
1419.2930880959
 30
0.0
  0
VERTEX
  5
57B
  8
0
  6
CONTINUOUS
 62
     7
 10
-609.2722228375
 20
1417.9140750343
 30
0.0
  0
VERTEX
  5
57C
  8
0
  6
CONTINUOUS
 62
     7
 10
-611.6725018827
 20
1416.5282670433
 30
0.0
  0
VERTEX
  5
57D
  8
0
  6
CONTINUOUS
 62
     7
 10
-614.0815428105
 20
1415.1373926575
 30
0.0
  0
VERTEX
  5
57E
  8
0
  6
CONTINUOUS
 62
     7
 10
-616.4965442029
 20
1413.7431208069
 30
0.0
  0
VERTEX
  5
57F
  8
0
  6
CONTINUOUS
 62
     7
 10
-618.9144066182
 20
1412.3471800263
 30
0.0
  0
SEQEND
  5
B67
  8
0
  6
CONTINUOUS
 62
     7
  0
LINE
  5
D1
  8
0
  6
CONTINUOUS
 62
     7
 10
-486.9438222257
 20
877.3471538002
 30
0.0
 11
-848.4746030179
 21
877.3471538002
 31
0.0
  0
LINE
  5
D2
  8
0
  6
CONTINUOUS
 62
     7
 10
-486.9438222257
 20
877.3471538002
 30
0.0
 11
-486.9438222257
 21
477.3471478397
 31
0.0
  0
POLYLINE
  5
D3
  8
0
  6
CONTINUOUS
 62
     7
 66
     1
 10
0.0
 20
0.0
 30
0.0
  0
VERTEX
  5
580
  8
0
  6
CONTINUOUS
 62
     7
 10
-232.6117566434
 20
555.1504913742
 30
0.0
  0
VERTEX
  5
581
  8
0
  6
CONTINUOUS
 62
     7
 10
-232.5753084031
 20
555.0320271427
 30
0.0
  0
VERTEX
  5
582
  8
0
  6
CONTINUOUS
 62
     7
 10
-232.5632682649
 20
554.9095694
 30
0.0
  0
VERTEX
  5
583
  8
0
  6
CONTINUOUS
 62
     7
 10
-232.7835074273
 20
553.1991545136
 30
0.0
  0
VERTEX
  5
584
  8
0
  6
CONTINUOUS
 62
     7
 10
-232.8282407132
 20
551.5493277485
 30
0.0
  0
VERTEX
  5
585
  8
0
  6
CONTINUOUS
 62
     7
 10
-232.7713182775
 20
549.9494198734
 30
0.0
  0
VERTEX
  5
586
  8
0
  6
CONTINUOUS
 62
     7
 10
-232.6866498796
 20
548.3888212616
 30
0.0
  0
VERTEX
  5
587
  8
0
  6
CONTINUOUS
 62
     7
 10
-232.6480856744
 20
546.8569222862
 30
0.0
  0
VERTEX
  5
588
  8
0
  6
CONTINUOUS
 62
     7
 10
-232.6719275323
 20
543.1515995438
 30
0.0
  0
VERTEX
  5
589
  8
0
  6
CONTINUOUS
 62
     7
 10
-232.6929381696
 20
539.6728936607
 30
0.0
  0
VERTEX
  5
58A
  8
0
  6
CONTINUOUS
 62
     7
 10
-232.7075711099
 20
536.4445868904
 30
0.0
  0
VERTEX
  5
58B
  8
0
  6
CONTINUOUS
 62
     7
 10
-232.7183297483
 20
533.4429565842
 30
0.0
  0
VERTEX
  5
58C
  8
0
  6
CONTINUOUS
 62
     7
 10
-232.7264061776
 20
530.6705359394
 30
0.0
  0
VERTEX
  5
58D
  8
0
  6
CONTINUOUS
 62
     7
 10
-232.7329626885
 20
528.1299177582
 30
0.0
  0
VERTEX
  5
58E
  8
0
  6
CONTINUOUS
 62
     7
 10
-232.7402642575
 20
525.6892267639
 30
0.0
  0
VERTEX
  5
58F
  8
0
  6
CONTINUOUS
 62
     7
 10
-232.7484002915
 20
523.5114518578
 30
0.0
  0
VERTEX
  5
590
  8
0
  6
CONTINUOUS
 62
     7
 10
-232.7567449418
 20
521.5990666325
 30
0.0
  0
VERTEX
  5
591
  8
0
  6
CONTINUOUS
 62
     7
 10
-232.7646127549
 20
519.9546936924
 30
0.0
  0
VERTEX
  5
592
  8
0
  6
CONTINUOUS
 62
     7
 10
-232.7705136148
 20
518.6683956558
 30
0.0
  0
VERTEX
  5
593
  8
0
  6
CONTINUOUS
 62
     7
 10
-232.7745369283
 20
517.6138404781
 30
0.0
  0
VERTEX
  5
594
  8
0
  6
CONTINUOUS
 62
     7
 10
-232.7768019048
 20
516.791922229
 30
0.0
  0
VERTEX
  5
595
  8
0
  6
CONTINUOUS
 62
     7
 10
-232.7774277536
 20
516.2003461296
 30
0.0
  0
VERTEX
  5
596
  8
0
  6
CONTINUOUS
 62
     7
 10
-232.7771595326
 20
515.8449832375
 30
0.0
  0
VERTEX
  5
597
  8
0
  6
CONTINUOUS
 62
     7
 10
-232.7768615094
 20
515.7263997967
 30
0.0
  0
SEQEND
  5
B66
  8
0
  6
CONTINUOUS
 62
     7
  0
LINE
  5
D4
  8
0
  6
CONTINUOUS
 62
     7
 10
-486.9438222257
 20
877.3471538002
 30
0.0
 11
-433.7675383893
 21
877.3471538002
 31
0.0
  0
POLYLINE
  5
D5
  8
0
  6
CONTINUOUS
 62
     7
 66
     1
 10
0.0
 20
0.0
 30
0.0
  0
VERTEX
  5
598
  8
0
  6
CONTINUOUS
 62
     7
 10
-481.2056830731
 20
1318.6783913548
 30
0.0
  0
VERTEX
  5
599
  8
0
  6
CONTINUOUS
 62
     7
 10
-472.3405054418
 20
1316.0346869404
 30
0.0
  0
VERTEX
  5
59A
  8
0
  6
CONTINUOUS
 62
     7
 10
-463.478248438
 20
1313.3412126476
 30
0.0
  0
VERTEX
  5
59B
  8
0
  6
CONTINUOUS
 62
     7
 10
-454.6223691312
 20
1310.602170604
 30
0.0
  0
VERTEX
  5
59C
  8
0
  6
CONTINUOUS
 62
     7
 10
-445.8210280744
 20
1307.8286472733
 30
0.0
  0
VERTEX
  5
59D
  8
0
  6
CONTINUOUS
 62
     7
 10
-437.023799738
 20
1305.0090197498
 30
0.0
  0
VERTEX
  5
59E
  8
0
  6
CONTINUOUS
 62
     7
 10
-428.2562545148
 20
1302.1469537193
 30
0.0
  0
SEQEND
  5
B65
  8
0
  6
CONTINUOUS
 62
     7
  0
POLYLINE
  5
D6
  8
0
  6
CONTINUOUS
 62
     7
 66
     1
 10
0.0
 20
0.0
 30
0.0
  0
VERTEX
  5
59F
  8
0
  6
CONTINUOUS
 62
     7
 10
-481.2077692357
 20
1318.6720732624
 30
0.0
  0
VERTEX
  5
5A0
  8
0
  6
CONTINUOUS
 62
     7
 10
-481.299500784
 20
1316.1505285675
 30
0.0
  0
VERTEX
  5
5A1
  8
0
  6
CONTINUOUS
 62
     7
 10
-481.4500621167
 20
1313.3794192249
 30
0.0
  0
VERTEX
  5
5A2
  8
0
  6
CONTINUOUS
 62
     7
 10
-481.6137364713
 20
1310.3566292698
 30
0.0
  0
VERTEX
  5
5A3
  8
0
  6
CONTINUOUS
 62
     7
 10
-481.7789605466
 20
1307.0088151867
 30
0.0
  0
VERTEX
  5
5A4
  8
0
  6
CONTINUOUS
 62
     7
 10
-481.9574764577
 20
1303.4092608864
 30
0.0
  0
VERTEX
  5
5A5
  8
0
  6
CONTINUOUS
 62
     7
 10
-482.1486285535
 20
1299.5711389954
 30
0.0
  0
VERTEX
  5
5A6
  8
0
  6
CONTINUOUS
 62
     7
 10
-482.3380521146
 20
1295.7816246922
 30
0.0
  0
VERTEX
  5
5A7
  8
0
  6
CONTINUOUS
 62
     7
 10
-482.5379660932
 20
1291.7968157703
 30
0.0
  0
VERTEX
  5
5A8
  8
0
  6
CONTINUOUS
 62
     7
 10
-482.7477744428
 20
1287.6295570309
 30
0.0
  0
VERTEX
  5
5A9
  8
0
  6
CONTINUOUS
 62
     7
 10
-482.9717686978
 20
1283.1969384129
 30
0.0
  0
VERTEX
  5
5AA
  8
0
  6
CONTINUOUS
 62
     7
 10
-483.2055381146
 20
1278.5889331276
 30
0.0
  0
VERTEX
  5
5AB
  8
0
  6
CONTINUOUS
 62
     7
 10
-483.4484270421
 20
1273.8209489758
 30
0.0
  0
VERTEX
  5
5AC
  8
0
  6
CONTINUOUS
 62
     7
 10
-483.7122371999
 20
1268.6631206448
 30
0.0
  0
SEQEND
  5
B64
  8
0
  6
CONTINUOUS
 62
     7
  0
LINE
  5
D7
  8
0
  6
CONTINUOUS
 62
     7
 10
-518.6282804814
 20
1329.1393343384
 30
0.0
 11
-481.3369325009
 21
1318.7016371662
 31
0.0
  0
POLYLINE
  5
D8
  8
0
  6
CONTINUOUS
 62
     7
 66
     1
 10
0.0
 20
0.0
 30
0.0
  0
VERTEX
  5
5AD
  8
0
  6
CONTINUOUS
 62
     7
 10
-481.202524027
 20
1387.1782843048
 30
0.0
  0
VERTEX
  5
5AE
  8
0
  6
CONTINUOUS
 62
     7
 10
-481.2025836316
 20
1386.7363158638
 30
0.0
  0
VERTEX
  5
5AF
  8
0
  6
CONTINUOUS
 62
     7
 10
-481.2026432363
 20
1385.9481040413
 30
0.0
  0
VERTEX
  5
5B0
  8
0
  6
CONTINUOUS
 62
     7
 10
-481.2027624456
 20
1384.8142448837
 30
0.0
  0
VERTEX
  5
5B1
  8
0
  6
CONTINUOUS
 62
     7
 10
-481.2028816548
 20
1383.3353344376
 30
0.0
  0
VERTEX
  5
5B2
  8
0
  6
CONTINUOUS
 62
     7
 10
-481.2030008641
 20
1381.4976040299
 30
0.0
  0
VERTEX
  5
5B3
  8
0
  6
CONTINUOUS
 62
     7
 10
-481.2031796781
 20
1379.3106500084
 30
0.0
  0
VERTEX
  5
5B4
  8
0
  6
CONTINUOUS
 62
     7
 10
-481.2034180966
 20
1376.775932687
 30
0.0
  0
VERTEX
  5
5B5
  8
0
  6
CONTINUOUS
 62
     7
 10
-481.2036565152
 20
1373.8950315888
 30
0.0
  0
VERTEX
  5
5B6
  8
0
  6
CONTINUOUS
 62
     7
 10
-481.2038949338
 20
1370.9299985344
 30
0.0
  0
VERTEX
  5
5B7
  8
0
  6
CONTINUOUS
 62
     7
 10
-481.2041333524
 20
1367.6712337906
 30
0.0
  0
VERTEX
  5
5B8
  8
0
  6
CONTINUOUS
 62
     7
 10
-481.2044313756
 20
1364.120555299
 30
0.0
  0
VERTEX
  5
5B9
  8
0
  6
CONTINUOUS
 62
     7
 10
-481.2047293988
 20
1360.2798704083
 30
0.0
  0
VERTEX
  5
5BA
  8
0
  6
CONTINUOUS
 62
     7
 10
-481.2050274221
 20
1356.1496559555
 30
0.0
  0
VERTEX
  5
5BB
  8
0
  6
CONTINUOUS
 62
     7
 10
-481.2053850499
 20
1351.7308358128
 30
0.0
  0
VERTEX
  5
5BC
  8
0
  6
CONTINUOUS
 62
     7
 10
-481.2057426778
 20
1347.0260325844
 30
0.0
  0
VERTEX
  5
5BD
  8
0
  6
CONTINUOUS
 62
     7
 10
-481.2061003057
 20
1342.0377794678
 30
0.0
  0
VERTEX
  5
5BE
  8
0
  6
CONTINUOUS
 62
     7
 10
-481.211583933
 20
1336.6368237908
 30
0.0
  0
VERTEX
  5
5BF
  8
0
  6
CONTINUOUS
 62
     7
 10
-481.2205246297
 20
1330.9414211685
 30
0.0
  0
VERTEX
  5
5C0
  8
0
  6
CONTINUOUS
 62
     7
 10
-481.2226107923
 20
1324.9527934963
 30
0.0
  0
VERTEX
  5
5C1
  8
0
  6
CONTINUOUS
 62
     7
 10
-481.2076500264
 20
1318.6720732624
 30
0.0
  0
SEQEND
  5
B63
  8
0
  6
CONTINUOUS
 62
     7
  0
LINE
  5
D9
  8
FORMAT
  6
CENTERX2
 10
113.6955071906
 20
877.3471538002
 30
0.0
 11
-1240.7084011464
 21
877.3471538002
 31
0.0
  0
LINE
  5
DA
  8
0
  6
CONTINUOUS
 62
     7
 10
1258.6007496322
 20
1464.8875419075
 30
0.0
 11
658.6007257903
 21
1464.8875419075
 31
0.0
  0
LINE
  5
DB
  8
0
  6
CONTINUOUS
 62
     7
 10
658.6007257903
 20
1435.8874980385
 30
0.0
 11
577.6007255519
 21
1435.8874980385
 31
0.0
  0
LINE
  5
DC
  8
0
  6
CONTINUOUS
 62
     7
 10
1339.6007498706
 20
1435.8874980385
 30
0.0
 11
1258.6007496322
 21
1435.8874980385
 31
0.0
  0
LINE
  5
DD
  8
0
  6
CONTINUOUS
 62
     7
 10
577.6007255519
 20
1425.8875075752
 30
0.0
 11
568.6007520164
 21
1425.8875075752
 31
0.0
  0
LINE
  5
DE
  8
0
  6
CONTINUOUS
 62
     7
 10
1348.6007234061
 20
1425.8875075752
 30
0.0
 11
1339.6007498706
 21
1425.8875075752
 31
0.0
  0
LINE
  5
DF
  8
0
  6
CONTINUOUS
 62
     7
 10
1531.6007515395
 20
1410.8875218804
 30
0.0
 11
1481.6007396186
 21
1410.8875218804
 31
0.0
  0
LINE
  5
E0
  8
0
  6
CONTINUOUS
 62
     7
 10
1481.6007396186
 20
1340.8875290329
 30
0.0
 11
1531.6007515395
 21
1340.8875290329
 31
0.0
  0
LINE
  5
E1
  8
0
  6
CONTINUOUS
 62
     7
 10
1368.600734135
 20
1355.8875147278
 30
0.0
 11
1474.1171976531
 21
1355.8875147278
 31
0.0
  0
LINE
  5
E2
  8
0
  6
CONTINUOUS
 62
     7
 10
1474.1171976531
 20
1395.8875361855
 30
0.0
 11
1368.600734135
 21
1395.8875361855
 31
0.0
  0
LINE
  5
E3
  8
0
  6
CONTINUOUS
 62
     7
 10
618.600734135
 20
1504.3086830551
 30
0.0
 11
598.6007234061
 21
1504.3086830551
 31
0.0
  0
LINE
  5
E4
  8
0
  6
CONTINUOUS
 62
     7
 10
1318.6007520164
 20
1504.3086830551
 30
0.0
 11
1298.6007412875
 21
1504.3086830551
 31
0.0
  0
LINE
  5
E5
  8
0
  6
CONTINUOUS
 62
     7
 10
1455.6007465327
 20
1015.8519569809
 30
0.0
 11
1557.6007148231
 21
1015.8519569809
 31
0.0
  0
LINE
  5
E6
  8
0
  6
CONTINUOUS
 62
     7
 10
1557.6007148231
 20
1268.5211423809
 30
0.0
 11
1519.1007634605
 21
1268.5211423809
 31
0.0
  0
LINE
  5
E7
  8
0
  6
CONTINUOUS
 62
     7
 10
1494.1007276977
 20
1268.5211423809
 30
0.0
 11
1455.6007465327
 21
1268.5211423809
 31
0.0
  0
LINE
  5
E8
  8
0
  6
CONTINUOUS
 62
     7
 10
1455.6007465327
 20
964.8519653852
 30
0.0
 11
1557.6007148231
 21
964.8519653852
 31
0.0
  0
LINE
  5
E9
  8
0
  6
CONTINUOUS
 62
     7
 10
1455.6007465327
 20
913.8519626135
 30
0.0
 11
1557.6007148231
 21
913.8519626135
 31
0.0
  0
CIRCLE
  5
EA
  8
0
  6
CONTINUOUS
 62
     7
 10
958.6007377113
 20
877.3471538002
 30
0.0
 40
341.0
  0
CIRCLE
  5
EB
  8
0
  6
CONTINUOUS
 62
     7
 10
958.6007377113
 20
877.3471538002
 30
0.0
 40
300.0
  0
CIRCLE
  5
EC
  8
0
  6
CONTINUOUS
 62
     7
 10
958.6007377113
 20
877.3471538002
 30
0.0
 40
420.0000000000002
  0
CIRCLE
  5
ED
  8
0
  6
CONTINUOUS
 62
     7
 10
1015.3082312883
 20
1235.3841772659
 30
0.0
 40
15.49999999999989
  0
CIRCLE
  5
EE
  8
0
  6
CONTINUOUS
 62
     7
 10
901.8932441342
 20
1235.3841772659
 30
0.0
 40
15.49999999999989
  0
CIRCLE
  5
EF
  8
0
  6
CONTINUOUS
 62
     7
 10
794.0291815557
 20
1200.3370188185
 30
0.0
 40
15.50000000000008
  0
CIRCLE
  5
F0
  8
0
  6
CONTINUOUS
 62
     7
 10
702.2745295311
 20
1133.6733619803
 30
0.0
 40
15.50000000000024
  0
CIRCLE
  5
F1
  8
0
  6
CONTINUOUS
 62
     7
 10
635.610872693
 20
1041.9187099558
 30
0.0
 40
15.49999999999982
  0
CIRCLE
  5
F2
  8
0
  6
CONTINUOUS
 62
     7
 10
600.5637142455
 20
934.0546473773
 30
0.0
 40
15.50000000000011
  0
CIRCLE
  5
F3
  8
0
  6
CONTINUOUS
 62
     7
 10
600.5637142455
 20
820.6396602231
 30
0.0
 40
15.49999999999996
  0
CIRCLE
  5
F4
  8
0
  6
CONTINUOUS
 62
     7
 10
635.610872693
 20
712.7755976446
 30
0.0
 40
15.49999999999989
  0
CIRCLE
  5
F5
  8
0
  6
CONTINUOUS
 62
     7
 10
702.2745295311
 20
621.0209456201
 30
0.0
 40
15.49999999999992
  0
CIRCLE
  5
F6
  8
0
  6
CONTINUOUS
 62
     7
 10
794.0291815557
 20
554.3572887819
 30
0.0
 40
15.50000000000003
  0
CIRCLE
  5
F7
  8
0
  6
CONTINUOUS
 62
     7
 10
901.8932441342
 20
519.3101303345
 30
0.0
 40
15.49999999999989
  0
CIRCLE
  5
F8
  8
0
  6
CONTINUOUS
 62
     7
 10
1015.3082312883
 20
519.3101303345
 30
0.0
 40
15.49999999999989
  0
CIRCLE
  5
F9
  8
0
  6
CONTINUOUS
 62
     7
 10
1123.1722938668
 20
554.3572887819
 30
0.0
 40
15.49999999999987
  0
CIRCLE
  5
FA
  8
0
  6
CONTINUOUS
 62
     7
 10
1214.9269458914
 20
621.0209456201
 30
0.0
 40
15.50000000000004
  0
CIRCLE
  5
FB
  8
0
  6
CONTINUOUS
 62
     7
 10
1281.5906027295
 20
712.7755976446
 30
0.0
 40
15.49999999999996
  0
CIRCLE
  5
FC
  8
0
  6
CONTINUOUS
 62
     7
 10
1316.637761177
 20
820.6396602231
 30
0.0
 40
15.49999999999989
  0
CIRCLE
  5
FD
  8
0
  6
CONTINUOUS
 62
     7
 10
1316.637761177
 20
934.0546473773
 30
0.0
 40
15.49999999999996
  0
CIRCLE
  5
FE
  8
0
  6
CONTINUOUS
 62
     7
 10
1281.5906027295
 20
1041.9187099558
 30
0.0
 40
15.50000000000012
  0
CIRCLE
  5
FF
  8
0
  6
CONTINUOUS
 62
     7
 10
1214.9269458914
 20
1133.6733619803
 30
0.0
 40
15.50000000000004
  0
CIRCLE
  5
100
  8
0
  6
CONTINUOUS
 62
     7
 10
1123.1722938668
 20
1200.3370188185
 30
0.0
 40
15.5
  0
LINE
  5
101
  8
0
  6
CONTINUOUS
 62
     7
 10
1108.6007436717
 20
447.3471466477
 30
0.0
 11
808.6007317508
 21
447.3471466477
 31
0.0
  0
LINE
  5
102
  8
0
  6
CONTINUOUS
 62
     7
 10
1108.6007436717
 20
485.0462500031
 30
0.0
 11
1108.6007436717
 21
447.3471466477
 31
0.0
  0
LINE
  5
103
  8
0
  6
CONTINUOUS
 62
     7
 10
808.6007317508
 20
447.3471466477
 30
0.0
 11
808.6007317508
 21
485.0462500031
 31
0.0
  0
LINE
  5
104
  8
0
  6
CONTINUOUS
 62
     7
 10
1258.6007496322
 20
1464.8875419075
 30
0.0
 11
1258.6007496322
 21
1331.38750233
 31
0.0
  0
LINE
  5
105
  8
0
  6
CONTINUOUS
 62
     7
 10
658.6007257903
 20
1464.8875419075
 30
0.0
 11
658.6007257903
 21
1331.38750233
 31
0.0
  0
LINE
  5
106
  8
0
  6
CONTINUOUS
 62
     7
 10
511.6007408107
 20
1293.327910083
 30
0.0
 11
511.6007408107
 21
1267.3471394951
 31
0.0
  0
POLYLINE
  5
107
  8
0
  6
CONTINUOUS
 62
     7
 66
     1
 10
0.0
 20
0.0
 30
0.0
  0
VERTEX
  5
5C2
  8
0
  6
CONTINUOUS
 62
     7
 10
511.6007408107
 20
1293.327910083
 30
0.0
  0
VERTEX
  5
5C3
  8
0
  6
CONTINUOUS
 62
     7
 10
511.6494676078
 20
1291.9319395001
 30
0.0
  0
VERTEX
  5
5C4
  8
0
  6
CONTINUOUS
 62
     7
 10
511.7956181968
 20
1290.5376676495
 30
0.0
  0
VERTEX
  5
5C5
  8
0
  6
CONTINUOUS
 62
     7
 10
512.0389839614
 20
1289.1467634613
 30
0.0
  0
VERTEX
  5
5C6
  8
0
  6
CONTINUOUS
 62
     7
 10
512.3792966808
 20
1287.7609852726
 30
0.0
  0
VERTEX
  5
5C7
  8
0
  6
CONTINUOUS
 62
     7
 10
512.81610932
 20
1286.3820020134
 30
0.0
  0
VERTEX
  5
5C8
  8
0
  6
CONTINUOUS
 62
     7
 10
513.3489152396
 20
1285.0114528114
 30
0.0
  0
VERTEX
  5
5C9
  8
0
  6
CONTINUOUS
 62
     7
 10
513.9770885909
 20
1283.6510363991
 30
0.0
  0
VERTEX
  5
5CA
  8
0
  6
CONTINUOUS
 62
     7
 10
514.6997949088
 20
1282.3024217064
 30
0.0
  0
VERTEX
  5
5CB
  8
0
  6
CONTINUOUS
 62
     7
 10
515.5162295306
 20
1280.9672478611
 30
0.0
  0
VERTEX
  5
5CC
  8
0
  6
CONTINUOUS
 62
     7
 10
516.4253195728
 20
1279.6471241886
 30
0.0
  0
VERTEX
  5
5CD
  8
0
  6
CONTINUOUS
 62
     7
 10
517.4260219539
 20
1278.3436600144
 30
0.0
  0
VERTEX
  5
5CE
  8
0
  6
CONTINUOUS
 62
     7
 10
518.5171147788
 20
1277.0584646637
 30
0.0
  0
VERTEX
  5
5CF
  8
0
  6
CONTINUOUS
 62
     7
 10
519.6972271407
 20
1275.7930580551
 30
0.0
  0
VERTEX
  5
5D0
  8
0
  6
CONTINUOUS
 62
     7
 10
520.9649285281
 20
1274.549049514
 30
0.0
  0
VERTEX
  5
5D1
  8
0
  6
CONTINUOUS
 62
     7
 10
522.3186990226
 20
1273.3279291565
 30
0.0
  0
VERTEX
  5
5D2
  8
0
  6
CONTINUOUS
 62
     7
 10
523.7568994964
 20
1272.1311572964
 30
0.0
  0
VERTEX
  5
5D3
  8
0
  6
CONTINUOUS
 62
     7
 10
525.2777418101
 20
1270.9601942474
 30
0.0
  0
VERTEX
  5
5D4
  8
0
  6
CONTINUOUS
 62
     7
 10
526.8793782199
 20
1269.8165003235
 30
0.0
  0
VERTEX
  5
5D5
  8
0
  6
CONTINUOUS
 62
     7
 10
528.5598715747
 20
1268.7014464314
 30
0.0
  0
VERTEX
  5
5D6
  8
0
  6
CONTINUOUS
 62
     7
 10
530.3171953166
 20
1267.6164034779
 30
0.0
  0
VERTEX
  5
5D7
  8
0
  6
CONTINUOUS
 62
     7
 10
532.1491440738
 20
1266.5626827652
 30
0.0
  0
VERTEX
  5
5D8
  8
0
  6
CONTINUOUS
 62
     7
 10
534.0535422767
 20
1265.5415955956
 30
0.0
  0
VERTEX
  5
5D9
  8
0
  6
CONTINUOUS
 62
     7
 10
536.0280653442
 20
1264.5543340618
 30
0.0
  0
VERTEX
  5
5DA
  8
0
  6
CONTINUOUS
 62
     7
 10
538.0702992881
 20
1263.6021200592
 30
0.0
  0
VERTEX
  5
5DB
  8
0
  6
CONTINUOUS
 62
     7
 10
540.1777407134
 20
1262.6861456806
 30
0.0
  0
VERTEX
  5
5DC
  8
0
  6
CONTINUOUS
 62
     7
 10
542.3478266204
 20
1261.8074838097
 30
0.0
  0
VERTEX
  5
5DD
  8
0
  6
CONTINUOUS
 62
     7
 10
544.5779046024
 20
1260.9672371323
 30
0.0
  0
VERTEX
  5
5DE
  8
0
  6
CONTINUOUS
 62
     7
 10
546.8652924503
 20
1260.1664189274
 30
0.0
  0
VERTEX
  5
5DF
  8
0
  6
CONTINUOUS
 62
     7
 10
549.2071887458
 20
1259.4059828693
 30
0.0
  0
VERTEX
  5
5E0
  8
0
  6
CONTINUOUS
 62
     7
 10
551.600732466
 20
1258.6869124348
 30
0.0
  0
VERTEX
  5
5E1
  8
0
  6
CONTINUOUS
 62
     7
 10
554.0430029834
 20
1258.0100122864
 30
0.0
  0
VERTEX
  5
5E2
  8
0
  6
CONTINUOUS
 62
     7
 10
556.5310498679
 20
1257.3761466915
 30
0.0
  0
VERTEX
  5
5E3
  8
0
  6
CONTINUOUS
 62
     7
 10
559.0618034805
 20
1256.7860905106
 30
0.0
  0
VERTEX
  5
5E4
  8
0
  6
CONTINUOUS
 62
     7
 10
561.6322239841
 20
1256.2405589993
 30
0.0
  0
VERTEX
  5
5E5
  8
0
  6
CONTINUOUS
 62
     7
 10
564.2391225303
 20
1255.7402078087
 30
0.0
  0
VERTEX
  5
5E6
  8
0
  6
CONTINUOUS
 62
     7
 10
566.8793698753
 20
1255.2856627876
 30
0.0
  0
VERTEX
  5
5E7
  8
0
  6
CONTINUOUS
 62
     7
 10
569.5497473682
 20
1254.8774603779
 30
0.0
  0
VERTEX
  5
5E8
  8
0
  6
CONTINUOUS
 62
     7
 10
572.2469767535
 20
1254.5160774166
 30
0.0
  0
VERTEX
  5
5E9
  8
0
  6
CONTINUOUS
 62
     7
 10
574.9678095782
 20
1254.2020205433
 30
0.0
  0
VERTEX
  5
5EA
  8
0
  6
CONTINUOUS
 62
     7
 10
577.7088781799
 20
1253.9356175835
 30
0.0
  0
VERTEX
  5
5EB
  8
0
  6
CONTINUOUS
 62
     7
 10
580.4669043029
 20
1253.7171963627
 30
0.0
  0
VERTEX
  5
5EC
  8
0
  6
CONTINUOUS
 62
     7
 10
583.2384606803
 20
1253.5470549042
 30
0.0
  0
VERTEX
  5
5ED
  8
0
  6
CONTINUOUS
 62
     7
 10
586.020209452
 20
1253.4253422196
 30
0.0
  0
VERTEX
  5
5EE
  8
0
  6
CONTINUOUS
 62
     7
 10
588.8087829555
 20
1253.3522967274
 30
0.0
  0
VERTEX
  5
5EF
  8
0
  6
CONTINUOUS
 62
     7
 10
591.6007241214
 20
1253.3279184277
 30
0.0
  0
SEQEND
  5
B62
  8
0
  6
CONTINUOUS
 62
     7
  0
LINE
  5
108
  8
0
  6
CONTINUOUS
 62
     7
 10
568.6007520164
 20
1296.3279012615
 30
0.0
 11
577.6007255519
 21
1296.3279012615
 31
0.0
  0
LINE
  5
109
  8
0
  6
CONTINUOUS
 62
     7
 10
577.6007255519
 20
1291.3279060299
 30
0.0
 11
658.6007257903
 21
1291.3279060299
 31
0.0
  0
LINE
  5
10A
  8
0
  6
CONTINUOUS
 62
     7
 10
1258.6007496322
 20
1276.8279138977
 30
0.0
 11
1088.2738610709
 21
1276.8279138977
 31
0.0
  0
LINE
  5
10B
  8
0
  6
CONTINUOUS
 62
     7
 10
828.9276143516
 20
1276.8279138977
 30
0.0
 11
658.6007257903
 21
1276.8279138977
 31
0.0
  0
LINE
  5
10C
  8
0
  6
CONTINUOUS
 62
     7
 10
1339.6007498706
 20
1291.3279060299
 30
0.0
 11
1258.6007496322
 21
1291.3279060299
 31
0.0
  0
LINE
  5
10D
  8
0
  6
CONTINUOUS
 62
     7
 10
1348.6007234061
 20
1296.3279012615
 30
0.0
 11
1339.6007498706
 21
1296.3279012615
 31
0.0
  0
LINE
  5
10E
  8
0
  6
CONTINUOUS
 62
     7
 10
591.6007241214
 20
1253.3279184277
 30
0.0
 11
771.4150926078
 21
1253.3279184277
 31
0.0
  0
LINE
  5
10F
  8
0
  6
CONTINUOUS
 62
     7
 10
1145.7863828147
 20
1253.3279184277
 30
0.0
 11
1325.6007513011
 21
1253.3279184277
 31
0.0
  0
LINE
  5
110
  8
0
  6
CONTINUOUS
 62
     7
 10
511.6007408107
 20
1438.3278910095
 30
0.0
 11
511.6007408107
 21
1293.327910083
 31
0.0
  0
POLYLINE
  5
111
  8
0
  6
CONTINUOUS
 62
     7
 66
     1
 10
0.0
 20
0.0
 30
0.0
  0
VERTEX
  5
5F0
  8
0
  6
CONTINUOUS
 62
     7
 10
591.6007241214
 20
1478.3279124672
 30
0.0
  0
VERTEX
  5
5F1
  8
0
  6
CONTINUOUS
 62
     7
 10
588.8087829555
 20
1478.3035341675
 30
0.0
  0
VERTEX
  5
5F2
  8
0
  6
CONTINUOUS
 62
     7
 10
586.020209452
 20
1478.230458873
 30
0.0
  0
VERTEX
  5
5F3
  8
0
  6
CONTINUOUS
 62
     7
 10
583.2384606803
 20
1478.108805793
 30
0.0
  0
VERTEX
  5
5F4
  8
0
  6
CONTINUOUS
 62
     7
 10
580.4669043029
 20
1477.9386345322
 30
0.0
  0
VERTEX
  5
5F5
  8
0
  6
CONTINUOUS
 62
     7
 10
577.7088781799
 20
1477.7202431137
 30
0.0
  0
VERTEX
  5
5F6
  8
0
  6
CONTINUOUS
 62
     7
 10
574.9678095782
 20
1477.4538103516
 30
0.0
  0
VERTEX
  5
5F7
  8
0
  6
CONTINUOUS
 62
     7
 10
572.2469767535
 20
1477.1397534783
 30
0.0
  0
VERTEX
  5
5F8
  8
0
  6
CONTINUOUS
 62
     7
 10
569.5497473682
 20
1476.778370517
 30
0.0
  0
VERTEX
  5
5F9
  8
0
  6
CONTINUOUS
 62
     7
 10
566.8793698753
 20
1476.3701979096
 30
0.0
  0
VERTEX
  5
5FA
  8
0
  6
CONTINUOUS
 62
     7
 10
564.2391225303
 20
1475.9155932839
 30
0.0
  0
VERTEX
  5
5FB
  8
0
  6
CONTINUOUS
 62
     7
 10
561.6322239841
 20
1475.4152718956
 30
0.0
  0
VERTEX
  5
5FC
  8
0
  6
CONTINUOUS
 62
     7
 10
559.0618034805
 20
1474.869710582
 30
0.0
  0
VERTEX
  5
5FD
  8
0
  6
CONTINUOUS
 62
     7
 10
556.5310498679
 20
1474.2796842033
 30
0.0
  0
VERTEX
  5
5FE
  8
0
  6
CONTINUOUS
 62
     7
 10
554.0430029834
 20
1473.6458484108
 30
0.0
  0
VERTEX
  5
5FF
  8
0
  6
CONTINUOUS
 62
     7
 10
551.600732466
 20
1472.9689184601
 30
0.0
  0
VERTEX
  5
600
  8
0
  6
CONTINUOUS
 62
     7
 10
549.2071887458
 20
1472.2498480255
 30
0.0
  0
VERTEX
  5
601
  8
0
  6
CONTINUOUS
 62
     7
 10
546.8652924503
 20
1471.4894119675
 30
0.0
  0
VERTEX
  5
602
  8
0
  6
CONTINUOUS
 62
     7
 10
544.5779046024
 20
1470.6886235649
 30
0.0
  0
VERTEX
  5
603
  8
0
  6
CONTINUOUS
 62
     7
 10
542.3478266204
 20
1469.8483172829
 30
0.0
  0
VERTEX
  5
604
  8
0
  6
CONTINUOUS
 62
     7
 10
540.1777407134
 20
1468.9696852142
 30
0.0
  0
VERTEX
  5
605
  8
0
  6
CONTINUOUS
 62
     7
 10
538.0702992881
 20
1468.0536810333
 30
0.0
  0
VERTEX
  5
606
  8
0
  6
CONTINUOUS
 62
     7
 10
536.0280653442
 20
1467.101496833
 30
0.0
  0
VERTEX
  5
607
  8
0
  6
CONTINUOUS
 62
     7
 10
534.0535422767
 20
1466.1142651016
 30
0.0
  0
VERTEX
  5
608
  8
0
  6
CONTINUOUS
 62
     7
 10
532.1491440738
 20
1465.0931183273
 30
0.0
  0
VERTEX
  5
609
  8
0
  6
CONTINUOUS
 62
     7
 10
530.3171953166
 20
1464.039427417
 30
0.0
  0
VERTEX
  5
60A
  8
0
  6
CONTINUOUS
 62
     7
 10
528.5598715747
 20
1462.9543844635
 30
0.0
  0
VERTEX
  5
60B
  8
0
  6
CONTINUOUS
 62
     7
 10
526.8793782199
 20
1461.8393007691
 30
0.0
  0
VERTEX
  5
60C
  8
0
  6
CONTINUOUS
 62
     7
 10
525.2777418101
 20
1460.6956068451
 30
0.0
  0
VERTEX
  5
60D
  8
0
  6
CONTINUOUS
 62
     7
 10
523.7568994964
 20
1459.5246735985
 30
0.0
  0
VERTEX
  5
60E
  8
0
  6
CONTINUOUS
 62
     7
 10
522.3186990226
 20
1458.3279315407
 30
0.0
  0
VERTEX
  5
60F
  8
0
  6
CONTINUOUS
 62
     7
 10
520.9649285281
 20
1457.1067515785
 30
0.0
  0
VERTEX
  5
610
  8
0
  6
CONTINUOUS
 62
     7
 10
519.6972271407
 20
1455.8627430374
 30
0.0
  0
VERTEX
  5
611
  8
0
  6
CONTINUOUS
 62
     7
 10
518.5171147788
 20
1454.5973960335
 30
0.0
  0
VERTEX
  5
612
  8
0
  6
CONTINUOUS
 62
     7
 10
517.4260219539
 20
1453.3122006828
 30
0.0
  0
VERTEX
  5
613
  8
0
  6
CONTINUOUS
 62
     7
 10
516.4253195728
 20
1452.0087067062
 30
0.0
  0
VERTEX
  5
614
  8
0
  6
CONTINUOUS
 62
     7
 10
515.5162295306
 20
1450.6885830338
 30
0.0
  0
VERTEX
  5
615
  8
0
  6
CONTINUOUS
 62
     7
 10
514.6997949088
 20
1449.3534389908
 30
0.0
  0
VERTEX
  5
616
  8
0
  6
CONTINUOUS
 62
     7
 10
513.9770885909
 20
1448.0047646935
 30
0.0
  0
VERTEX
  5
617
  8
0
  6
CONTINUOUS
 62
     7
 10
513.3489152396
 20
1446.6444078858
 30
0.0
  0
VERTEX
  5
618
  8
0
  6
CONTINUOUS
 62
     7
 10
512.81610932
 20
1445.2738586838
 30
0.0
  0
VERTEX
  5
619
  8
0
  6
CONTINUOUS
 62
     7
 10
512.3792966808
 20
1443.8948456223
 30
0.0
  0
VERTEX
  5
61A
  8
0
  6
CONTINUOUS
 62
     7
 10
512.0389839614
 20
1442.5090376312
 30
0.0
  0
VERTEX
  5
61B
  8
0
  6
CONTINUOUS
 62
     7
 10
511.7956181968
 20
1441.1181632454
 30
0.0
  0
VERTEX
  5
61C
  8
0
  6
CONTINUOUS
 62
     7
 10
511.6494676078
 20
1439.7238913948
 30
0.0
  0
VERTEX
  5
61D
  8
0
  6
CONTINUOUS
 62
     7
 10
511.6007408107
 20
1438.3278910095
 30
0.0
  0
SEQEND
  5
B61
  8
0
  6
CONTINUOUS
 62
     7
  0
LINE
  5
112
  8
0
  6
CONTINUOUS
 62
     7
 10
1325.6007513011
 20
1478.3279124672
 30
0.0
 11
1318.6007520164
 21
1478.3279124672
 31
0.0
  0
LINE
  5
113
  8
0
  6
CONTINUOUS
 62
     7
 10
1298.6007412875
 20
1478.3279124672
 30
0.0
 11
618.600734135
 21
1478.3279124672
 31
0.0
  0
LINE
  5
114
  8
0
  6
CONTINUOUS
 62
     7
 10
598.6007234061
 20
1478.3279124672
 30
0.0
 11
591.6007241214
 21
1478.3279124672
 31
0.0
  0
POLYLINE
  5
115
  8
0
  6
CONTINUOUS
 62
     7
 66
     1
 10
0.0
 20
0.0
 30
0.0
  0
VERTEX
  5
61E
  8
0
  6
CONTINUOUS
 62
     7
 10
1405.6007346118
 20
1438.3278910095
 30
0.0
  0
VERTEX
  5
61F
  8
0
  6
CONTINUOUS
 62
     7
 10
1405.5520078147
 20
1439.7238913948
 30
0.0
  0
VERTEX
  5
620
  8
0
  6
CONTINUOUS
 62
     7
 10
1405.4058572257
 20
1441.1181632454
 30
0.0
  0
VERTEX
  5
621
  8
0
  6
CONTINUOUS
 62
     7
 10
1405.1624914611
 20
1442.5090376312
 30
0.0
  0
VERTEX
  5
622
  8
0
  6
CONTINUOUS
 62
     7
 10
1404.8221787418
 20
1443.8948456223
 30
0.0
  0
VERTEX
  5
623
  8
0
  6
CONTINUOUS
 62
     7
 10
1404.3853661025
 20
1445.2738586838
 30
0.0
  0
VERTEX
  5
624
  8
0
  6
CONTINUOUS
 62
     7
 10
1403.8525601829
 20
1446.6444078858
 30
0.0
  0
VERTEX
  5
625
  8
0
  6
CONTINUOUS
 62
     7
 10
1403.2243868316
 20
1448.0047646935
 30
0.0
  0
VERTEX
  5
626
  8
0
  6
CONTINUOUS
 62
     7
 10
1402.5016805137
 20
1449.3534389908
 30
0.0
  0
VERTEX
  5
627
  8
0
  6
CONTINUOUS
 62
     7
 10
1401.6852458919
 20
1450.6885830338
 30
0.0
  0
VERTEX
  5
628
  8
0
  6
CONTINUOUS
 62
     7
 10
1400.7761558498
 20
1452.0087067062
 30
0.0
  0
VERTEX
  5
629
  8
0
  6
CONTINUOUS
 62
     7
 10
1399.7754534686
 20
1453.3122006828
 30
0.0
  0
VERTEX
  5
62A
  8
0
  6
CONTINUOUS
 62
     7
 10
1398.6843606437
 20
1454.5973960335
 30
0.0
  0
VERTEX
  5
62B
  8
0
  6
CONTINUOUS
 62
     7
 10
1397.5042482818
 20
1455.8627430374
 30
0.0
  0
VERTEX
  5
62C
  8
0
  6
CONTINUOUS
 62
     7
 10
1396.2365468944
 20
1457.1067515785
 30
0.0
  0
VERTEX
  5
62D
  8
0
  6
CONTINUOUS
 62
     7
 10
1394.8827763999
 20
1458.3279315407
 30
0.0
  0
VERTEX
  5
62E
  8
0
  6
CONTINUOUS
 62
     7
 10
1393.4445759261
 20
1459.5246735985
 30
0.0
  0
VERTEX
  5
62F
  8
0
  6
CONTINUOUS
 62
     7
 10
1391.9237336124
 20
1460.6956068451
 30
0.0
  0
VERTEX
  5
630
  8
0
  6
CONTINUOUS
 62
     7
 10
1390.3220972026
 20
1461.8393007691
 30
0.0
  0
VERTEX
  5
631
  8
0
  6
CONTINUOUS
 62
     7
 10
1388.6416038478
 20
1462.9543844635
 30
0.0
  0
VERTEX
  5
632
  8
0
  6
CONTINUOUS
 62
     7
 10
1386.8842801059
 20
1464.039427417
 30
0.0
  0
VERTEX
  5
633
  8
0
  6
CONTINUOUS
 62
     7
 10
1385.0523313487
 20
1465.0931183273
 30
0.0
  0
VERTEX
  5
634
  8
0
  6
CONTINUOUS
 62
     7
 10
1383.1479331458
 20
1466.1142651016
 30
0.0
  0
VERTEX
  5
635
  8
0
  6
CONTINUOUS
 62
     7
 10
1381.1734100784
 20
1467.101496833
 30
0.0
  0
VERTEX
  5
636
  8
0
  6
CONTINUOUS
 62
     7
 10
1379.1311761344
 20
1468.0536810333
 30
0.0
  0
VERTEX
  5
637
  8
0
  6
CONTINUOUS
 62
     7
 10
1377.0237347091
 20
1468.9696852142
 30
0.0
  0
VERTEX
  5
638
  8
0
  6
CONTINUOUS
 62
     7
 10
1374.8536488021
 20
1469.8483172829
 30
0.0
  0
VERTEX
  5
639
  8
0
  6
CONTINUOUS
 62
     7
 10
1372.6235708202
 20
1470.6886235649
 30
0.0
  0
VERTEX
  5
63A
  8
0
  6
CONTINUOUS
 62
     7
 10
1370.3361829723
 20
1471.4894119675
 30
0.0
  0
VERTEX
  5
63B
  8
0
  6
CONTINUOUS
 62
     7
 10
1367.9942866767
 20
1472.2498480255
 30
0.0
  0
VERTEX
  5
63C
  8
0
  6
CONTINUOUS
 62
     7
 10
1365.6007429565
 20
1472.9689184601
 30
0.0
  0
VERTEX
  5
63D
  8
0
  6
CONTINUOUS
 62
     7
 10
1363.1584724391
 20
1473.6458484108
 30
0.0
  0
VERTEX
  5
63E
  8
0
  6
CONTINUOUS
 62
     7
 10
1360.6704255546
 20
1474.2796842033
 30
0.0
  0
VERTEX
  5
63F
  8
0
  6
CONTINUOUS
 62
     7
 10
1358.1396719421
 20
1474.869710582
 30
0.0
  0
VERTEX
  5
640
  8
0
  6
CONTINUOUS
 62
     7
 10
1355.5692514384
 20
1475.4152718956
 30
0.0
  0
VERTEX
  5
641
  8
0
  6
CONTINUOUS
 62
     7
 10
1352.9623528922
 20
1475.9155932839
 30
0.0
  0
VERTEX
  5
642
  8
0
  6
CONTINUOUS
 62
     7
 10
1350.3221055473
 20
1476.3701979096
 30
0.0
  0
VERTEX
  5
643
  8
0
  6
CONTINUOUS
 62
     7
 10
1347.6517280543
 20
1476.778370517
 30
0.0
  0
VERTEX
  5
644
  8
0
  6
CONTINUOUS
 62
     7
 10
1344.954498669
 20
1477.1397534783
 30
0.0
  0
VERTEX
  5
645
  8
0
  6
CONTINUOUS
 62
     7
 10
1342.2336658443
 20
1477.4538103516
 30
0.0
  0
VERTEX
  5
646
  8
0
  6
CONTINUOUS
 62
     7
 10
1339.4925972427
 20
1477.7202431137
 30
0.0
  0
VERTEX
  5
647
  8
0
  6
CONTINUOUS
 62
     7
 10
1336.7345711196
 20
1477.9386345322
 30
0.0
  0
VERTEX
  5
648
  8
0
  6
CONTINUOUS
 62
     7
 10
1333.9630147422
 20
1478.108805793
 30
0.0
  0
VERTEX
  5
649
  8
0
  6
CONTINUOUS
 62
     7
 10
1331.1812659705
 20
1478.230458873
 30
0.0
  0
VERTEX
  5
64A
  8
0
  6
CONTINUOUS
 62
     7
 10
1328.392692467
 20
1478.3035341675
 30
0.0
  0
VERTEX
  5
64B
  8
0
  6
CONTINUOUS
 62
     7
 10
1325.6007513011
 20
1478.3279124672
 30
0.0
  0
SEQEND
  5
B60
  8
0
  6
CONTINUOUS
 62
     7
  0
LINE
  5
116
  8
0
  6
CONTINUOUS
 62
     7
 10
1405.6007346118
 20
1293.327910083
 30
0.0
 11
1405.6007346118
 21
1355.8875147278
 31
0.0
  0
LINE
  5
117
  8
0
  6
CONTINUOUS
 62
     7
 10
1405.6007346118
 20
1395.8875361855
 30
0.0
 11
1405.6007346118
 21
1438.3278910095
 31
0.0
  0
POLYLINE
  5
118
  8
0
  6
CONTINUOUS
 62
     7
 66
     1
 10
0.0
 20
0.0
 30
0.0
  0
VERTEX
  5
64C
  8
0
  6
CONTINUOUS
 62
     7
 10
1325.6007513011
 20
1253.3279184277
 30
0.0
  0
VERTEX
  5
64D
  8
0
  6
CONTINUOUS
 62
     7
 10
1328.392692467
 20
1253.3522967274
 30
0.0
  0
VERTEX
  5
64E
  8
0
  6
CONTINUOUS
 62
     7
 10
1331.1812659705
 20
1253.4253422196
 30
0.0
  0
VERTEX
  5
64F
  8
0
  6
CONTINUOUS
 62
     7
 10
1333.9630147422
 20
1253.5470549042
 30
0.0
  0
VERTEX
  5
650
  8
0
  6
CONTINUOUS
 62
     7
 10
1336.7345711196
 20
1253.7171963627
 30
0.0
  0
VERTEX
  5
651
  8
0
  6
CONTINUOUS
 62
     7
 10
1339.4925972427
 20
1253.9356175835
 30
0.0
  0
VERTEX
  5
652
  8
0
  6
CONTINUOUS
 62
     7
 10
1342.2336658443
 20
1254.2020205433
 30
0.0
  0
VERTEX
  5
653
  8
0
  6
CONTINUOUS
 62
     7
 10
1344.954498669
 20
1254.5160774166
 30
0.0
  0
VERTEX
  5
654
  8
0
  6
CONTINUOUS
 62
     7
 10
1347.6517280543
 20
1254.8774603779
 30
0.0
  0
VERTEX
  5
655
  8
0
  6
CONTINUOUS
 62
     7
 10
1350.3221055473
 20
1255.2856627876
 30
0.0
  0
VERTEX
  5
656
  8
0
  6
CONTINUOUS
 62
     7
 10
1352.9623528922
 20
1255.7402078087
 30
0.0
  0
VERTEX
  5
657
  8
0
  6
CONTINUOUS
 62
     7
 10
1355.5692514384
 20
1256.2405589993
 30
0.0
  0
VERTEX
  5
658
  8
0
  6
CONTINUOUS
 62
     7
 10
1358.1396719421
 20
1256.7860905106
 30
0.0
  0
VERTEX
  5
659
  8
0
  6
CONTINUOUS
 62
     7
 10
1360.6704255546
 20
1257.3761466915
 30
0.0
  0
VERTEX
  5
65A
  8
0
  6
CONTINUOUS
 62
     7
 10
1363.1584724391
 20
1258.0100122864
 30
0.0
  0
VERTEX
  5
65B
  8
0
  6
CONTINUOUS
 62
     7
 10
1365.6007429565
 20
1258.6869124348
 30
0.0
  0
VERTEX
  5
65C
  8
0
  6
CONTINUOUS
 62
     7
 10
1367.9942866767
 20
1259.4059828693
 30
0.0
  0
VERTEX
  5
65D
  8
0
  6
CONTINUOUS
 62
     7
 10
1370.3361829723
 20
1260.1664189274
 30
0.0
  0
VERTEX
  5
65E
  8
0
  6
CONTINUOUS
 62
     7
 10
1372.6235708202
 20
1260.9672371323
 30
0.0
  0
VERTEX
  5
65F
  8
0
  6
CONTINUOUS
 62
     7
 10
1374.8536488021
 20
1261.8074838097
 30
0.0
  0
VERTEX
  5
660
  8
0
  6
CONTINUOUS
 62
     7
 10
1377.0237347091
 20
1262.6861456806
 30
0.0
  0
VERTEX
  5
661
  8
0
  6
CONTINUOUS
 62
     7
 10
1379.1311761344
 20
1263.6021200592
 30
0.0
  0
VERTEX
  5
662
  8
0
  6
CONTINUOUS
 62
     7
 10
1381.1734100784
 20
1264.5543340618
 30
0.0
  0
VERTEX
  5
663
  8
0
  6
CONTINUOUS
 62
     7
 10
1383.1479331458
 20
1265.5415955956
 30
0.0
  0
VERTEX
  5
664
  8
0
  6
CONTINUOUS
 62
     7
 10
1385.0523313487
 20
1266.5626827652
 30
0.0
  0
VERTEX
  5
665
  8
0
  6
CONTINUOUS
 62
     7
 10
1386.8842801059
 20
1267.6164034779
 30
0.0
  0
VERTEX
  5
666
  8
0
  6
CONTINUOUS
 62
     7
 10
1388.6416038478
 20
1268.7014464314
 30
0.0
  0
VERTEX
  5
667
  8
0
  6
CONTINUOUS
 62
     7
 10
1390.3220972026
 20
1269.8165003235
 30
0.0
  0
VERTEX
  5
668
  8
0
  6
CONTINUOUS
 62
     7
 10
1391.9237336124
 20
1270.9601942474
 30
0.0
  0
VERTEX
  5
669
  8
0
  6
CONTINUOUS
 62
     7
 10
1393.4445759261
 20
1272.1311572964
 30
0.0
  0
VERTEX
  5
66A
  8
0
  6
CONTINUOUS
 62
     7
 10
1394.8827763999
 20
1273.3279291565
 30
0.0
  0
VERTEX
  5
66B
  8
0
  6
CONTINUOUS
 62
     7
 10
1396.2365468944
 20
1274.549049514
 30
0.0
  0
VERTEX
  5
66C
  8
0
  6
CONTINUOUS
 62
     7
 10
1397.5042482818
 20
1275.7930580551
 30
0.0
  0
VERTEX
  5
66D
  8
0
  6
CONTINUOUS
 62
     7
 10
1398.6843606437
 20
1277.0584646637
 30
0.0
  0
VERTEX
  5
66E
  8
0
  6
CONTINUOUS
 62
     7
 10
1399.7754534686
 20
1278.3436600144
 30
0.0
  0
VERTEX
  5
66F
  8
0
  6
CONTINUOUS
 62
     7
 10
1400.7761558498
 20
1279.6471241886
 30
0.0
  0
VERTEX
  5
670
  8
0
  6
CONTINUOUS
 62
     7
 10
1401.6852458919
 20
1280.9672478611
 30
0.0
  0
VERTEX
  5
671
  8
0
  6
CONTINUOUS
 62
     7
 10
1402.5016805137
 20
1282.3024217064
 30
0.0
  0
VERTEX
  5
672
  8
0
  6
CONTINUOUS
 62
     7
 10
1403.2243868316
 20
1283.6510363991
 30
0.0
  0
VERTEX
  5
673
  8
0
  6
CONTINUOUS
 62
     7
 10
1403.8525601829
 20
1285.0114528114
 30
0.0
  0
VERTEX
  5
674
  8
0
  6
CONTINUOUS
 62
     7
 10
1404.3853661025
 20
1286.3820020134
 30
0.0
  0
VERTEX
  5
675
  8
0
  6
CONTINUOUS
 62
     7
 10
1404.8221787418
 20
1287.7609852726
 30
0.0
  0
VERTEX
  5
676
  8
0
  6
CONTINUOUS
 62
     7
 10
1405.1624914611
 20
1289.1467634613
 30
0.0
  0
VERTEX
  5
677
  8
0
  6
CONTINUOUS
 62
     7
 10
1405.4058572257
 20
1290.5376676495
 30
0.0
  0
VERTEX
  5
678
  8
0
  6
CONTINUOUS
 62
     7
 10
1405.5520078147
 20
1291.9319395001
 30
0.0
  0
VERTEX
  5
679
  8
0
  6
CONTINUOUS
 62
     7
 10
1405.6007346118
 20
1293.327910083
 30
0.0
  0
SEQEND
  5
B5F
  8
0
  6
CONTINUOUS
 62
     7
  0
LINE
  5
119
  8
0
  6
CONTINUOUS
 62
     7
 10
1405.6007346118
 20
1293.327910083
 30
0.0
 11
1405.6007346118
 21
1267.3471394951
 31
0.0
  0
LINE
  5
11A
  8
0
  6
CONTINUOUS
 62
     7
 10
1258.6007496322
 20
1331.38750233
 30
0.0
 11
1258.6007496322
 21
1276.8279138977
 31
0.0
  0
LINE
  5
11B
  8
0
  6
CONTINUOUS
 62
     7
 10
658.6007257903
 20
1331.38750233
 30
0.0
 11
658.6007257903
 21
1276.8279138977
 31
0.0
  0
LINE
  5
11C
  8
0
  6
CONTINUOUS
 62
     7
 10
511.6007408107
 20
1234.4381932194
 30
0.0
 11
511.6007408107
 21
1267.3471394951
 31
0.0
  0
POLYLINE
  5
11D
  8
0
  6
CONTINUOUS
 62
     7
 66
     1
 10
0.0
 20
0.0
 30
0.0
  0
VERTEX
  5
67A
  8
0
  6
CONTINUOUS
 62
     7
 10
511.6007408107
 20
1234.4381932194
 30
0.0
  0
VERTEX
  5
67B
  8
0
  6
CONTINUOUS
 62
     7
 10
511.6494676078
 20
1233.0422226364
 30
0.0
  0
VERTEX
  5
67C
  8
0
  6
CONTINUOUS
 62
     7
 10
511.7956181968
 20
1231.6479209835
 30
0.0
  0
VERTEX
  5
67D
  8
0
  6
CONTINUOUS
 62
     7
 10
512.0389839614
 20
1230.2570465977
 30
0.0
  0
VERTEX
  5
67E
  8
0
  6
CONTINUOUS
 62
     7
 10
512.3792966808
 20
1228.871268409
 30
0.0
  0
VERTEX
  5
67F
  8
0
  6
CONTINUOUS
 62
     7
 10
512.81610932
 20
1227.4922553475
 30
0.0
  0
VERTEX
  5
680
  8
0
  6
CONTINUOUS
 62
     7
 10
513.3489152396
 20
1226.1217061455
 30
0.0
  0
VERTEX
  5
681
  8
0
  6
CONTINUOUS
 62
     7
 10
513.9770885909
 20
1224.7613195355
 30
0.0
  0
VERTEX
  5
682
  8
0
  6
CONTINUOUS
 62
     7
 10
514.6997949088
 20
1223.4127048428
 30
0.0
  0
VERTEX
  5
683
  8
0
  6
CONTINUOUS
 62
     7
 10
515.5162295306
 20
1222.0775011952
 30
0.0
  0
VERTEX
  5
684
  8
0
  6
CONTINUOUS
 62
     7
 10
516.4253195728
 20
1220.7573775227
 30
0.0
  0
VERTEX
  5
685
  8
0
  6
CONTINUOUS
 62
     7
 10
517.4260219539
 20
1219.4539133484
 30
0.0
  0
VERTEX
  5
686
  8
0
  6
CONTINUOUS
 62
     7
 10
518.5171147788
 20
1218.1687179978
 30
0.0
  0
VERTEX
  5
687
  8
0
  6
CONTINUOUS
 62
     7
 10
519.6972271407
 20
1216.9033411915
 30
0.0
  0
VERTEX
  5
688
  8
0
  6
CONTINUOUS
 62
     7
 10
520.9649285281
 20
1215.6593326504
 30
0.0
  0
VERTEX
  5
689
  8
0
  6
CONTINUOUS
 62
     7
 10
522.3186990226
 20
1214.4381824905
 30
0.0
  0
VERTEX
  5
68A
  8
0
  6
CONTINUOUS
 62
     7
 10
523.7568994964
 20
1213.2414106304
 30
0.0
  0
VERTEX
  5
68B
  8
0
  6
CONTINUOUS
 62
     7
 10
525.2777418101
 20
1212.0704773838
 30
0.0
  0
VERTEX
  5
68C
  8
0
  6
CONTINUOUS
 62
     7
 10
526.8793782199
 20
1210.9267834599
 30
0.0
  0
VERTEX
  5
68D
  8
0
  6
CONTINUOUS
 62
     7
 10
528.5598715747
 20
1209.8117295677
 30
0.0
  0
VERTEX
  5
68E
  8
0
  6
CONTINUOUS
 62
     7
 10
530.3171953166
 20
1208.7266866142
 30
0.0
  0
VERTEX
  5
68F
  8
0
  6
CONTINUOUS
 62
     7
 10
532.1491440738
 20
1207.6729659016
 30
0.0
  0
VERTEX
  5
690
  8
0
  6
CONTINUOUS
 62
     7
 10
534.0535422767
 20
1206.6518489296
 30
0.0
  0
VERTEX
  5
691
  8
0
  6
CONTINUOUS
 62
     7
 10
536.0280653442
 20
1205.6645873959
 30
0.0
  0
VERTEX
  5
692
  8
0
  6
CONTINUOUS
 62
     7
 10
538.0702992881
 20
1204.7124031956
 30
0.0
  0
VERTEX
  5
693
  8
0
  6
CONTINUOUS
 62
     7
 10
540.1777407134
 20
1203.7963990147
 30
0.0
  0
VERTEX
  5
694
  8
0
  6
CONTINUOUS
 62
     7
 10
542.3478266204
 20
1202.917766946
 30
0.0
  0
VERTEX
  5
695
  8
0
  6
CONTINUOUS
 62
     7
 10
544.5779046024
 20
1202.0775202686
 30
0.0
  0
VERTEX
  5
696
  8
0
  6
CONTINUOUS
 62
     7
 10
546.8652924503
 20
1201.2766722614
 30
0.0
  0
VERTEX
  5
697
  8
0
  6
CONTINUOUS
 62
     7
 10
549.2071887458
 20
1200.5162660057
 30
0.0
  0
VERTEX
  5
698
  8
0
  6
CONTINUOUS
 62
     7
 10
551.600732466
 20
1199.7971657688
 30
0.0
  0
VERTEX
  5
699
  8
0
  6
CONTINUOUS
 62
     7
 10
554.0430029834
 20
1199.1202954228
 30
0.0
  0
VERTEX
  5
69A
  8
0
  6
CONTINUOUS
 62
     7
 10
556.5310498679
 20
1198.4864298279
 30
0.0
  0
VERTEX
  5
69B
  8
0
  6
CONTINUOUS
 62
     7
 10
559.0618034805
 20
1197.8963736469
 30
0.0
  0
VERTEX
  5
69C
  8
0
  6
CONTINUOUS
 62
     7
 10
561.6322239841
 20
1197.3508421356
 30
0.0
  0
VERTEX
  5
69D
  8
0
  6
CONTINUOUS
 62
     7
 10
564.2391225303
 20
1196.8504909451
 30
0.0
  0
VERTEX
  5
69E
  8
0
  6
CONTINUOUS
 62
     7
 10
566.8793698753
 20
1196.3959161217
 30
0.0
  0
VERTEX
  5
69F
  8
0
  6
CONTINUOUS
 62
     7
 10
569.5497473682
 20
1195.9877137119
 30
0.0
  0
VERTEX
  5
6A0
  8
0
  6
CONTINUOUS
 62
     7
 10
572.2469767535
 20
1195.626360553
 30
0.0
  0
VERTEX
  5
6A1
  8
0
  6
CONTINUOUS
 62
     7
 10
574.9678095782
 20
1195.3122738773
 30
0.0
  0
VERTEX
  5
6A2
  8
0
  6
CONTINUOUS
 62
     7
 10
577.7088781799
 20
1195.0458709175
 30
0.0
  0
VERTEX
  5
6A3
  8
0
  6
CONTINUOUS
 62
     7
 10
580.4669043029
 20
1194.8274794991
 30
0.0
  0
VERTEX
  5
6A4
  8
0
  6
CONTINUOUS
 62
     7
 10
583.2384606803
 20
1194.6573082382
 30
0.0
  0
VERTEX
  5
6A5
  8
0
  6
CONTINUOUS
 62
     7
 10
586.020209452
 20
1194.5356253559
 30
0.0
  0
VERTEX
  5
6A6
  8
0
  6
CONTINUOUS
 62
     7
 10
588.8087829555
 20
1194.4625500614
 30
0.0
  0
VERTEX
  5
6A7
  8
0
  6
CONTINUOUS
 62
     7
 10
591.6007241214
 20
1194.438201564
 30
0.0
  0
SEQEND
  5
B5E
  8
0
  6
CONTINUOUS
 62
     7
  0
LINE
  5
11E
  8
0
  6
CONTINUOUS
 62
     7
 10
1325.6007513011
 20
1194.438201564
 30
0.0
 11
1234.0154727901
 21
1194.438201564
 31
0.0
  0
LINE
  5
11F
  8
0
  6
CONTINUOUS
 62
     7
 10
1137.5059565509
 20
1194.438201564
 30
0.0
 11
1108.8386407102
 21
1194.438201564
 31
0.0
  0
LINE
  5
120
  8
0
  6
CONTINUOUS
 62
     7
 10
808.3628347123
 20
1194.438201564
 30
0.0
 11
779.6955188716
 21
1194.438201564
 31
0.0
  0
LINE
  5
121
  8
0
  6
CONTINUOUS
 62
     7
 10
683.1860026324
 20
1194.438201564
 30
0.0
 11
591.6007241214
 21
1194.438201564
 31
0.0
  0
LINE
  5
122
  8
0
  6
CONTINUOUS
 62
     7
 10
1405.6007346118
 20
1234.4381932194
 30
0.0
 11
1405.6007346118
 21
1267.3471394951
 31
0.0
  0
POLYLINE
  5
123
  8
0
  6
CONTINUOUS
 62
     7
 66
     1
 10
0.0
 20
0.0
 30
0.0
  0
VERTEX
  5
6A8
  8
0
  6
CONTINUOUS
 62
     7
 10
1325.6007513011
 20
1194.438201564
 30
0.0
  0
VERTEX
  5
6A9
  8
0
  6
CONTINUOUS
 62
     7
 10
1328.392692467
 20
1194.4625500614
 30
0.0
  0
VERTEX
  5
6AA
  8
0
  6
CONTINUOUS
 62
     7
 10
1331.1812659705
 20
1194.5356253559
 30
0.0
  0
VERTEX
  5
6AB
  8
0
  6
CONTINUOUS
 62
     7
 10
1333.9630147422
 20
1194.6573082382
 30
0.0
  0
VERTEX
  5
6AC
  8
0
  6
CONTINUOUS
 62
     7
 10
1336.7345711196
 20
1194.8274794991
 30
0.0
  0
VERTEX
  5
6AD
  8
0
  6
CONTINUOUS
 62
     7
 10
1339.4925972427
 20
1195.0458709175
 30
0.0
  0
VERTEX
  5
6AE
  8
0
  6
CONTINUOUS
 62
     7
 10
1342.2336658443
 20
1195.3122738773
 30
0.0
  0
VERTEX
  5
6AF
  8
0
  6
CONTINUOUS
 62
     7
 10
1344.954498669
 20
1195.626360553
 30
0.0
  0
VERTEX
  5
6B0
  8
0
  6
CONTINUOUS
 62
     7
 10
1347.6517280543
 20
1195.9877137119
 30
0.0
  0
VERTEX
  5
6B1
  8
0
  6
CONTINUOUS
 62
     7
 10
1350.3221055473
 20
1196.3959161217
 30
0.0
  0
VERTEX
  5
6B2
  8
0
  6
CONTINUOUS
 62
     7
 10
1352.9623528922
 20
1196.8504909451
 30
0.0
  0
VERTEX
  5
6B3
  8
0
  6
CONTINUOUS
 62
     7
 10
1355.5692514384
 20
1197.3508421356
 30
0.0
  0
VERTEX
  5
6B4
  8
0
  6
CONTINUOUS
 62
     7
 10
1358.1396719421
 20
1197.8963736469
 30
0.0
  0
VERTEX
  5
6B5
  8
0
  6
CONTINUOUS
 62
     7
 10
1360.6704255546
 20
1198.4864298279
 30
0.0
  0
VERTEX
  5
6B6
  8
0
  6
CONTINUOUS
 62
     7
 10
1363.1584724391
 20
1199.1202954228
 30
0.0
  0
VERTEX
  5
6B7
  8
0
  6
CONTINUOUS
 62
     7
 10
1365.6007429565
 20
1199.7971657688
 30
0.0
  0
VERTEX
  5
6B8
  8
0
  6
CONTINUOUS
 62
     7
 10
1367.9942866767
 20
1200.5162660057
 30
0.0
  0
VERTEX
  5
6B9
  8
0
  6
CONTINUOUS
 62
     7
 10
1370.3361829723
 20
1201.2766722614
 30
0.0
  0
VERTEX
  5
6BA
  8
0
  6
CONTINUOUS
 62
     7
 10
1372.6235708202
 20
1202.0775202686
 30
0.0
  0
VERTEX
  5
6BB
  8
0
  6
CONTINUOUS
 62
     7
 10
1374.8536488021
 20
1202.917766946
 30
0.0
  0
VERTEX
  5
6BC
  8
0
  6
CONTINUOUS
 62
     7
 10
1377.0237347091
 20
1203.7963990147
 30
0.0
  0
VERTEX
  5
6BD
  8
0
  6
CONTINUOUS
 62
     7
 10
1379.1311761344
 20
1204.7124031956
 30
0.0
  0
VERTEX
  5
6BE
  8
0
  6
CONTINUOUS
 62
     7
 10
1381.1734100784
 20
1205.6645873959
 30
0.0
  0
VERTEX
  5
6BF
  8
0
  6
CONTINUOUS
 62
     7
 10
1383.1479331458
 20
1206.6518489296
 30
0.0
  0
VERTEX
  5
6C0
  8
0
  6
CONTINUOUS
 62
     7
 10
1385.0523313487
 20
1207.6729659016
 30
0.0
  0
VERTEX
  5
6C1
  8
0
  6
CONTINUOUS
 62
     7
 10
1386.8842801059
 20
1208.7266866142
 30
0.0
  0
VERTEX
  5
6C2
  8
0
  6
CONTINUOUS
 62
     7
 10
1388.6416038478
 20
1209.8117295677
 30
0.0
  0
VERTEX
  5
6C3
  8
0
  6
CONTINUOUS
 62
     7
 10
1390.3220972026
 20
1210.9267834599
 30
0.0
  0
VERTEX
  5
6C4
  8
0
  6
CONTINUOUS
 62
     7
 10
1391.9237336124
 20
1212.0704773838
 30
0.0
  0
VERTEX
  5
6C5
  8
0
  6
CONTINUOUS
 62
     7
 10
1393.4445759261
 20
1213.2414106304
 30
0.0
  0
VERTEX
  5
6C6
  8
0
  6
CONTINUOUS
 62
     7
 10
1394.8827763999
 20
1214.4381824905
 30
0.0
  0
VERTEX
  5
6C7
  8
0
  6
CONTINUOUS
 62
     7
 10
1396.2365468944
 20
1215.6593326504
 30
0.0
  0
VERTEX
  5
6C8
  8
0
  6
CONTINUOUS
 62
     7
 10
1397.5042482818
 20
1216.9033411915
 30
0.0
  0
VERTEX
  5
6C9
  8
0
  6
CONTINUOUS
 62
     7
 10
1398.6843606437
 20
1218.1687179978
 30
0.0
  0
VERTEX
  5
6CA
  8
0
  6
CONTINUOUS
 62
     7
 10
1399.7754534686
 20
1219.4539133484
 30
0.0
  0
VERTEX
  5
6CB
  8
0
  6
CONTINUOUS
 62
     7
 10
1400.7761558498
 20
1220.7573775227
 30
0.0
  0
VERTEX
  5
6CC
  8
0
  6
CONTINUOUS
 62
     7
 10
1401.6852458919
 20
1222.0775011952
 30
0.0
  0
VERTEX
  5
6CD
  8
0
  6
CONTINUOUS
 62
     7
 10
1402.5016805137
 20
1223.4127048428
 30
0.0
  0
VERTEX
  5
6CE
  8
0
  6
CONTINUOUS
 62
     7
 10
1403.2243868316
 20
1224.7613195355
 30
0.0
  0
VERTEX
  5
6CF
  8
0
  6
CONTINUOUS
 62
     7
 10
1403.8525601829
 20
1226.1217061455
 30
0.0
  0
VERTEX
  5
6D0
  8
0
  6
CONTINUOUS
 62
     7
 10
1404.3853661025
 20
1227.4922553475
 30
0.0
  0
VERTEX
  5
6D1
  8
0
  6
CONTINUOUS
 62
     7
 10
1404.8221787418
 20
1228.871268409
 30
0.0
  0
VERTEX
  5
6D2
  8
0
  6
CONTINUOUS
 62
     7
 10
1405.1624914611
 20
1230.2570465977
 30
0.0
  0
VERTEX
  5
6D3
  8
0
  6
CONTINUOUS
 62
     7
 10
1405.4058572257
 20
1231.6479209835
 30
0.0
  0
VERTEX
  5
6D4
  8
0
  6
CONTINUOUS
 62
     7
 10
1405.5520078147
 20
1233.0422226364
 30
0.0
  0
VERTEX
  5
6D5
  8
0
  6
CONTINUOUS
 62
     7
 10
1405.6007346118
 20
1234.4381932194
 30
0.0
  0
SEQEND
  5
B5D
  8
0
  6
CONTINUOUS
 62
     7
  0
LINE
  5
124
  8
0
  6
CONTINUOUS
 62
     7
 10
577.6007255519
 20
1435.8874980385
 30
0.0
 11
577.6007255519
 21
1345.8875242645
 31
0.0
  0
LINE
  5
125
  8
0
  6
CONTINUOUS
 62
     7
 10
1339.6007498706
 20
1435.8874980385
 30
0.0
 11
1339.6007498706
 21
1345.8875242645
 31
0.0
  0
LINE
  5
126
  8
0
  6
CONTINUOUS
 62
     7
 10
577.6007255519
 20
1345.8875242645
 30
0.0
 11
577.6007255519
 21
1291.3279060299
 31
0.0
  0
LINE
  5
127
  8
0
  6
CONTINUOUS
 62
     7
 10
1339.6007498706
 20
1345.8875242645
 30
0.0
 11
1339.6007498706
 21
1291.3279060299
 31
0.0
  0
LINE
  5
128
  8
0
  6
CONTINUOUS
 62
     7
 10
568.6007520164
 20
1425.8875075752
 30
0.0
 11
568.6007520164
 21
1350.8875194962
 31
0.0
  0
LINE
  5
129
  8
0
  6
CONTINUOUS
 62
     7
 10
1348.6007234061
 20
1425.8875075752
 30
0.0
 11
1348.6007234061
 21
1350.8875194962
 31
0.0
  0
ARC
  5
12A
  8
0
  6
CONTINUOUS
 62
     7
 10
1310.5259543487
 20
1396.5356611653
 30
0.0
 40
58.07899776860009
 50
0.6905308411
 51
19.5656710833
  0
ARC
  5
12B
  8
0
  6
CONTINUOUS
 62
     7
 10
1309.4182429027
 20
1398.1333792785
 30
0.0
 40
59.18930013246499
 50
340.6129389727
 51
359.1309221626
  0
LINE
  5
12C
  8
0
  6
CONTINUOUS
 62
     7
 10
1348.6007234061
 20
1378.4856025154
 30
0.0
 11
1365.2513703311
 21
1378.4856025154
 31
0.0
  0
LINE
  5
12D
  8
0
  6
CONTINUOUS
 62
     7
 10
1348.6007234061
 20
1415.9855667526
 30
0.0
 11
1365.2513703311
 21
1415.9855667526
 31
0.0
  0
ARC
  5
12E
  8
0
  6
CONTINUOUS
 62
     7
 10
1310.5253583252
 20
1359.0355926838
 30
0.0
 40
58.07959428683964
 50
0.6905677889
 51
19.5655710758
  0
ARC
  5
12F
  8
0
  6
CONTINUOUS
 62
     7
 10
1309.4176136533
 20
1360.6334678411
 30
0.0
 40
59.18993101452332
 50
340.6130385288
 51
359.1308226066
  0
LINE
  5
130
  8
0
  6
CONTINUOUS
 62
     7
 10
1348.6007234061
 20
1340.9855786736
 30
0.0
 11
1365.2513703311
 21
1340.9855786736
 31
0.0
  0
LINE
  5
131
  8
0
  6
CONTINUOUS
 62
     7
 10
1368.600734135
 20
1359.7355905945
 30
0.0
 11
1368.600734135
 21
1397.2356144363
 31
0.0
  0
ARC
  5
132
  8
0
  6
CONTINUOUS
 62
     7
 10
603.6742721738
 20
1395.337205261
 30
0.0
 40
58.07773705865623
 50
180.6902936689
 51
199.5658767255
  0
ARC
  5
133
  8
0
  6
CONTINUOUS
 62
     7
 10
604.7816506148
 20
1356.2400328492
 30
0.0
 40
59.18770527956085
 50
160.6126872881
 51
179.1311738472
  0
LINE
  5
134
  8
0
  6
CONTINUOUS
 62
     7
 10
545.600750109
 20
1394.6375075752
 30
0.0
 11
545.600750109
 21
1357.1375135357
 31
0.0
  0
LINE
  5
135
  8
0
  6
CONTINUOUS
 62
     7
 10
568.6007520164
 20
1350.8875194962
 30
0.0
 11
568.6007520164
 21
1296.3279012615
 31
0.0
  0
LINE
  5
136
  8
0
  6
CONTINUOUS
 62
     7
 10
568.6007520164
 20
1375.8875254566
 30
0.0
 11
548.9501139129
 21
1375.8875254566
 31
0.0
  0
ARC
  5
137
  8
0
  6
CONTINUOUS
 62
     7
 10
604.7810214261
 20
1393.7401392823
 30
0.0
 40
59.18707445897385
 50
160.6125877342
 51
179.1312734012
  0
LINE
  5
138
  8
0
  6
CONTINUOUS
 62
     7
 10
568.6007520164
 20
1413.3875194962
 30
0.0
 11
548.9501139129
 21
1413.3875194962
 31
0.0
  0
LINE
  5
139
  8
0
  6
CONTINUOUS
 62
     7
 10
568.6007520164
 20
1338.3875016148
 30
0.0
 11
548.9501139129
 21
1338.3875016148
 31
0.0
  0
ARC
  5
13A
  8
0
  6
CONTINUOUS
 62
     7
 10
603.6750110945
 20
1357.8373123024
 30
0.0
 40
58.07847714366144
 50
180.6903845981
 51
199.5657542665
  0
LINE
  5
13B
  8
0
  6
CONTINUOUS
 62
     7
 10
1348.6007234061
 20
1350.8875194962
 30
0.0
 11
1348.6007234061
 21
1296.3279012615
 31
0.0
  0
LINE
  5
13C
  8
0
  6
CONTINUOUS
 62
     7
 10
1358.6007436717
 20
1197.9998771126
 30
0.0
 11
1358.6007436717
 21
1005.4096404488
 31
0.0
  0
LINE
  5
13D
  8
0
  6
CONTINUOUS
 62
     7
 10
558.6007317508
 20
1005.4096404488
 30
0.0
 11
558.6007317508
 21
1197.9998771126
 31
0.0
  0
LINE
  5
13E
  8
0
  6
CONTINUOUS
 62
     7
 10
1531.6007515395
 20
1393.3875385697
 30
0.0
 11
1531.6007515395
 21
1410.8875218804
 31
0.0
  0
LINE
  5
13F
  8
0
  6
CONTINUOUS
 62
     7
 10
1531.6007515395
 20
1340.8875290329
 30
0.0
 11
1531.6007515395
 21
1393.3875385697
 31
0.0
  0
LINE
  5
140
  8
0
  6
CONTINUOUS
 62
     7
 10
1481.6007396186
 20
1393.3875385697
 30
0.0
 11
1481.6007396186
 21
1410.8875218804
 31
0.0
  0
LINE
  5
141
  8
0
  6
CONTINUOUS
 62
     7
 10
1481.6007396186
 20
1340.8875290329
 30
0.0
 11
1481.6007396186
 21
1393.3875385697
 31
0.0
  0
LINE
  5
142
  8
0
  6
CONTINUOUS
 62
     7
 10
1365.2513703311
 20
1415.9855667526
 30
0.0
 11
1368.600734135
 21
1415.9855667526
 31
0.0
  0
LINE
  5
143
  8
0
  6
CONTINUOUS
 62
     7
 10
1368.600734135
 20
1397.2356144363
 30
0.0
 11
1368.600734135
 21
1415.9855667526
 31
0.0
  0
LINE
  5
144
  8
0
  6
CONTINUOUS
 62
     7
 10
1368.600734135
 20
1340.9855786736
 30
0.0
 11
1365.2513703311
 21
1340.9855786736
 31
0.0
  0
LINE
  5
145
  8
0
  6
CONTINUOUS
 62
     7
 10
1368.600734135
 20
1340.9855786736
 30
0.0
 11
1368.600734135
 21
1359.7355905945
 31
0.0
  0
LINE
  5
146
  8
0
  6
CONTINUOUS
 62
     7
 10
545.600750109
 20
1413.3875194962
 30
0.0
 11
548.9501139129
 21
1413.3875194962
 31
0.0
  0
LINE
  5
147
  8
0
  6
CONTINUOUS
 62
     7
 10
545.600750109
 20
1394.6375075752
 30
0.0
 11
545.600750109
 21
1413.3875194962
 31
0.0
  0
LINE
  5
148
  8
0
  6
CONTINUOUS
 62
     7
 10
548.9501139129
 20
1338.3875016148
 30
0.0
 11
545.600750109
 21
1338.3875016148
 31
0.0
  0
LINE
  5
149
  8
0
  6
CONTINUOUS
 62
     7
 10
545.600750109
 20
1357.1375135357
 30
0.0
 11
545.600750109
 21
1338.3875016148
 31
0.0
  0
POLYLINE
  5
14A
  8
0
  6
CONTINUOUS
 62
     7
 66
     1
 10
0.0
 20
0.0
 30
0.0
  0
VERTEX
  5
6D6
  8
0
  6
CONTINUOUS
 62
     7
 10
1478.7257095779
 20
1392.7587095673
 30
0.0
  0
VERTEX
  5
6D7
  8
0
  6
CONTINUOUS
 62
     7
 10
1477.8996488059
 20
1393.2730976517
 30
0.0
  0
VERTEX
  5
6D8
  8
0
  6
CONTINUOUS
 62
     7
 10
1477.1502396072
 20
1393.7442723686
 30
0.0
  0
VERTEX
  5
6D9
  8
0
  6
CONTINUOUS
 62
     7
 10
1476.4793297256
 20
1394.1711012299
 30
0.0
  0
VERTEX
  5
6DA
  8
0
  6
CONTINUOUS
 62
     7
 10
1475.8885880912
 20
1394.5524517471
 30
0.0
  0
VERTEX
  5
6DB
  8
0
  6
CONTINUOUS
 62
     7
 10
1475.3794452155
 20
1394.8873702461
 30
0.0
  0
VERTEX
  5
6DC
  8
0
  6
CONTINUOUS
 62
     7
 10
1474.9532720054
 20
1395.1750222618
 30
0.0
  0
VERTEX
  5
6DD
  8
0
  6
CONTINUOUS
 62
     7
 10
1474.6110221351
 20
1395.4148117478
 30
0.0
  0
VERTEX
  5
6DE
  8
0
  6
CONTINUOUS
 62
     7
 10
1474.3535896743
 20
1395.6059638435
 30
0.0
  0
VERTEX
  5
6DF
  8
0
  6
CONTINUOUS
 62
     7
 10
1474.1815706695
 20
1395.748180526
 30
0.0
  0
VERTEX
  5
6E0
  8
0
  6
CONTINUOUS
 62
     7
 10
1474.0955015624
 20
1395.8409253533
 30
0.0
  0
VERTEX
  5
6E1
  8
0
  6
CONTINUOUS
 62
     7
 10
1474.0955015624
 20
1395.8841387207
 30
0.0
  0
VERTEX
  5
6E2
  8
0
  6
CONTINUOUS
 62
     7
 10
1474.1815706695
 20
1395.8775822098
 30
0.0
  0
VERTEX
  5
6E3
  8
0
  6
CONTINUOUS
 62
     7
 10
1474.3535896743
 20
1395.8213750298
 30
0.0
  0
VERTEX
  5
6E4
  8
0
  6
CONTINUOUS
 62
     7
 10
1474.6110221351
 20
1395.7155767853
 30
0.0
  0
VERTEX
  5
6E5
  8
0
  6
CONTINUOUS
 62
     7
 10
1474.9532720054
 20
1395.5604854996
 30
0.0
  0
VERTEX
  5
6E6
  8
0
  6
CONTINUOUS
 62
     7
 10
1475.3794452155
 20
1395.3565184052
 30
0.0
  0
VERTEX
  5
6E7
  8
0
  6
CONTINUOUS
 62
     7
 10
1475.8885880912
 20
1395.1041523392
 30
0.0
  0
VERTEX
  5
6E8
  8
0
  6
CONTINUOUS
 62
     7
 10
1476.4793297256
 20
1394.8039833481
 30
0.0
  0
VERTEX
  5
6E9
  8
0
  6
CONTINUOUS
 62
     7
 10
1477.1502396072
 20
1394.4567862923
 30
0.0
  0
VERTEX
  5
6EA
  8
0
  6
CONTINUOUS
 62
     7
 10
1477.8996488059
 20
1394.0633956368
 30
0.0
  0
VERTEX
  5
6EB
  8
0
  6
CONTINUOUS
 62
     7
 10
1478.7257095779
 20
1393.6248246605
 30
0.0
  0
SEQEND
  5
B5C
  8
0
  6
CONTINUOUS
 62
     7
  0
POLYLINE
  5
14B
  8
0
  6
CONTINUOUS
 62
     7
 66
     1
 10
0.0
 20
0.0
 30
0.0
  0
VERTEX
  5
6EC
  8
0
  6
CONTINUOUS
 62
     7
 10
1478.7257095779
 20
1375.0213805611
 30
0.0
  0
VERTEX
  5
6ED
  8
0
  6
CONTINUOUS
 62
     7
 10
1477.8996488059
 20
1376.0184470589
 30
0.0
  0
VERTEX
  5
6EE
  8
0
  6
CONTINUOUS
 62
     7
 10
1477.1502396072
 20
1377.0151857311
 30
0.0
  0
VERTEX
  5
6EF
  8
0
  6
CONTINUOUS
 62
     7
 10
1476.4793297256
 20
1378.0091229851
 30
0.0
  0
VERTEX
  5
6F0
  8
0
  6
CONTINUOUS
 62
     7
 10
1475.8885880912
 20
1378.997785228
 30
0.0
  0
VERTEX
  5
6F1
  8
0
  6
CONTINUOUS
 62
     7
 10
1475.3794452155
 20
1379.978698867
 30
0.0
  0
VERTEX
  5
6F2
  8
0
  6
CONTINUOUS
 62
     7
 10
1474.9532720054
 20
1380.9494201119
 30
0.0
  0
VERTEX
  5
6F3
  8
0
  6
CONTINUOUS
 62
     7
 10
1474.6110221351
 20
1381.9076243813
 30
0.0
  0
VERTEX
  5
6F4
  8
0
  6
CONTINUOUS
 62
     7
 10
1474.3535896743
 20
1382.8508082802
 30
0.0
  0
VERTEX
  5
6F5
  8
0
  6
CONTINUOUS
 62
     7
 10
1474.1815706695
 20
1383.7767068321
 30
0.0
  0
VERTEX
  5
6F6
  8
0
  6
CONTINUOUS
 62
     7
 10
1474.0955015624
 20
1384.6829358513
 30
0.0
  0
VERTEX
  5
6F7
  8
0
  6
CONTINUOUS
 62
     7
 10
1474.0955015624
 20
1385.5673495705
 30
0.0
  0
VERTEX
  5
6F8
  8
0
  6
CONTINUOUS
 62
     7
 10
1474.1815706695
 20
1386.4276830132
 30
0.0
  0
VERTEX
  5
6F9
  8
0
  6
CONTINUOUS
 62
     7
 10
1474.3535896743
 20
1387.2618500168
 30
0.0
  0
VERTEX
  5
6FA
  8
0
  6
CONTINUOUS
 62
     7
 10
1474.6110221351
 20
1388.0677048142
 30
0.0
  0
VERTEX
  5
6FB
  8
0
  6
CONTINUOUS
 62
     7
 10
1474.9532720054
 20
1388.843280452
 30
0.0
  0
VERTEX
  5
6FC
  8
0
  6
CONTINUOUS
 62
     7
 10
1475.3794452155
 20
1389.5866695816
 30
0.0
  0
VERTEX
  5
6FD
  8
0
  6
CONTINUOUS
 62
     7
 10
1475.8885880912
 20
1390.2959648544
 30
0.0
  0
VERTEX
  5
6FE
  8
0
  6
CONTINUOUS
 62
     7
 10
1476.4793297256
 20
1390.9694377358
 30
0.0
  0
VERTEX
  5
6FF
  8
0
  6
CONTINUOUS
 62
     7
 10
1477.1502396072
 20
1391.6054192955
 30
0.0
  0
VERTEX
  5
700
  8
0
  6
CONTINUOUS
 62
     7
 10
1477.8996488059
 20
1392.2023598129
 30
0.0
  0
VERTEX
  5
701
  8
0
  6
CONTINUOUS
 62
     7
 10
1478.7257095779
 20
1392.7587095673
 30
0.0
  0
SEQEND
  5
B5B
  8
0
  6
CONTINUOUS
 62
     7
  0
POLYLINE
  5
14C
  8
0
  6
CONTINUOUS
 62
     7
 66
     1
 10
0.0
 20
0.0
 30
0.0
  0
VERTEX
  5
702
  8
0
  6
CONTINUOUS
 62
     7
 10
1478.7257095779
 20
1358.1501964504
 30
0.0
  0
VERTEX
  5
703
  8
0
  6
CONTINUOUS
 62
     7
 10
1477.8996488059
 20
1358.6328450615
 30
0.0
  0
VERTEX
  5
704
  8
0
  6
CONTINUOUS
 62
     7
 10
1477.1502396072
 20
1359.1583792145
 30
0.0
  0
VERTEX
  5
705
  8
0
  6
CONTINUOUS
 62
     7
 10
1476.4793297256
 20
1359.7255174095
 30
0.0
  0
VERTEX
  5
706
  8
0
  6
CONTINUOUS
 62
     7
 10
1475.8885880912
 20
1360.3328589375
 30
0.0
  0
VERTEX
  5
707
  8
0
  6
CONTINUOUS
 62
     7
 10
1475.3794452155
 20
1360.9788540775
 30
0.0
  0
VERTEX
  5
708
  8
0
  6
CONTINUOUS
 62
     7
 10
1474.9532720054
 20
1361.6618935043
 30
0.0
  0
VERTEX
  5
709
  8
0
  6
CONTINUOUS
 62
     7
 10
1474.6110221351
 20
1362.3803380901
 30
0.0
  0
VERTEX
  5
70A
  8
0
  6
CONTINUOUS
 62
     7
 10
1474.3535896743
 20
1363.132340091
 30
0.0
  0
VERTEX
  5
70B
  8
0
  6
CONTINUOUS
 62
     7
 10
1474.1815706695
 20
1363.9160517628
 30
0.0
  0
VERTEX
  5
70C
  8
0
  6
CONTINUOUS
 62
     7
 10
1474.0955015624
 20
1364.7295359547
 30
0.0
  0
VERTEX
  5
70D
  8
0
  6
CONTINUOUS
 62
     7
 10
1474.0955015624
 20
1365.5707363064
 30
0.0
  0
VERTEX
  5
70E
  8
0
  6
CONTINUOUS
 62
     7
 10
1474.1815706695
 20
1366.43762626
 30
0.0
  0
VERTEX
  5
70F
  8
0
  6
CONTINUOUS
 62
     7
 10
1474.3535896743
 20
1367.3279706413
 30
0.0
  0
VERTEX
  5
710
  8
0
  6
CONTINUOUS
 62
     7
 10
1474.6110221351
 20
1368.2396236832
 30
0.0
  0
VERTEX
  5
711
  8
0
  6
CONTINUOUS
 62
     7
 10
1474.9532720054
 20
1369.1702906067
 30
0.0
  0
VERTEX
  5
712
  8
0
  6
CONTINUOUS
 62
     7
 10
1475.3794452155
 20
1370.1176468308
 30
0.0
  0
VERTEX
  5
713
  8
0
  6
CONTINUOUS
 62
     7
 10
1475.8885880912
 20
1371.0793379719
 30
0.0
  0
VERTEX
  5
714
  8
0
  6
CONTINUOUS
 62
     7
 10
1476.4793297256
 20
1372.0530096466
 30
0.0
  0
VERTEX
  5
715
  8
0
  6
CONTINUOUS
 62
     7
 10
1477.1502396072
 20
1373.0361882622
 30
0.0
  0
VERTEX
  5
716
  8
0
  6
CONTINUOUS
 62
     7
 10
1477.8996488059
 20
1374.0264598305
 30
0.0
  0
VERTEX
  5
717
  8
0
  6
CONTINUOUS
 62
     7
 10
1478.7257095779
 20
1375.0213805611
 30
0.0
  0
SEQEND
  5
B5A
  8
0
  6
CONTINUOUS
 62
     7
  0
ARC
  5
14D
  8
0
  6
CONTINUOUS
 62
     7
 10
1461.385245404
 20
1387.6438189466
 30
0.0
 40
34.21352752511118
 50
291.8471703676
 51
300.4529501359
  0
LINE
  5
14E
  8
0
  6
CONTINUOUS
 62
     7
 10
1478.7257095779
 20
1392.7587095673
 30
0.0
 11
1480.6007524932
 21
1391.7042437965
 31
0.0
  0
LINE
  5
14F
  8
0
  6
CONTINUOUS
 62
     7
 10
1480.6007524932
 20
1391.7042437965
 30
0.0
 11
1480.6007524932
 21
1375.0755015785
 31
0.0
  0
LINE
  5
150
  8
0
  6
CONTINUOUS
 62
     7
 10
1480.6007524932
 20
1375.0755015785
 30
0.0
 11
1478.7257095779
 21
1375.0213805611
 31
0.0
  0
LINE
  5
151
  8
0
  6
CONTINUOUS
 62
     7
 10
1480.6007524932
 20
1375.0755015785
 30
0.0
 11
1480.6007524932
 21
1359.2587832386
 31
0.0
  0
LINE
  5
152
  8
0
  6
CONTINUOUS
 62
     7
 10
1478.7257095779
 20
1358.1501964504
 30
0.0
 11
1480.6007524932
 21
1359.2587832386
 31
0.0
  0
LINE
  5
153
  8
0
  6
CONTINUOUS
 62
     7
 10
1480.6007524932
 20
1359.2587832386
 30
0.0
 11
1481.6007396186
 21
1359.2898074562
 31
0.0
  0
LINE
  5
154
  8
0
  6
CONTINUOUS
 62
     7
 10
1480.6007524932
 20
1375.0755015785
 30
0.0
 11
1481.6007396186
 21
1375.077021497
 31
0.0
  0
LINE
  5
155
  8
0
  6
CONTINUOUS
 62
     7
 10
1480.6007524932
 20
1391.7042437965
 30
0.0
 11
1481.6007396186
 21
1391.6747394974
 31
0.0
  0
LINE
  5
156
  8
0
  6
CONTINUOUS
 62
     7
 10
1478.7257095779
 20
1393.6248246605
 30
0.0
 11
1480.6007524932
 21
1392.5162378723
 31
0.0
  0
LINE
  5
157
  8
0
  6
CONTINUOUS
 62
     7
 10
1480.6007524932
 20
1392.5162378723
 30
0.0
 11
1480.6007524932
 21
1391.7042437965
 31
0.0
  0
LINE
  5
158
  8
0
  6
CONTINUOUS
 62
     7
 10
1480.6007524932
 20
1392.5162378723
 30
0.0
 11
1481.6007396186
 21
1392.485243457
 31
0.0
  0
LINE
  5
159
  8
0
  6
CONTINUOUS
 62
     7
 10
1494.1007276977
 20
1144.7368685181
 30
0.0
 11
1494.1007276977
 21
1340.8875290329
 31
0.0
  0
LINE
  5
15A
  8
0
  6
CONTINUOUS
 62
     7
 10
1519.1007634605
 20
1144.7368685181
 30
0.0
 11
1519.1007634605
 21
1340.8875290329
 31
0.0
  0
LINE
  5
15B
  8
0
  6
CONTINUOUS
 62
     7
 10
1519.1007634605
 20
1144.7368685181
 30
0.0
 11
1494.1007276977
 21
1144.7368685181
 31
0.0
  0
LINE
  5
15C
  8
0
  6
CONTINUOUS
 62
     7
 10
598.6007234061
 20
1504.3086830551
 30
0.0
 11
598.6007234061
 21
1444.3086806709
 31
0.0
  0
LINE
  5
15D
  8
0
  6
CONTINUOUS
 62
     7
 10
618.600734135
 20
1504.3086830551
 30
0.0
 11
618.600734135
 21
1444.3086806709
 31
0.0
  0
LINE
  5
15E
  8
0
  6
CONTINUOUS
 62
     7
 10
1318.6007520164
 20
1504.3086830551
 30
0.0
 11
1318.6007520164
 21
1444.3086806709
 31
0.0
  0
LINE
  5
15F
  8
0
  6
CONTINUOUS
 62
     7
 10
1298.6007412875
 20
1504.3086830551
 30
0.0
 11
1298.6007412875
 21
1444.3086806709
 31
0.0
  0
LINE
  5
160
  8
0
  6
CONTINUOUS
 62
     7
 10
598.6007234061
 20
1444.3086806709
 30
0.0
 11
598.6007234061
 21
1435.8874980385
 31
0.0
  0
LINE
  5
161
  8
0
  6
CONTINUOUS
 62
     7
 10
618.600734135
 20
1444.3086806709
 30
0.0
 11
618.600734135
 21
1435.8874980385
 31
0.0
  0
LINE
  5
162
  8
0
  6
CONTINUOUS
 62
     7
 10
1318.6007520164
 20
1444.3086806709
 30
0.0
 11
1318.6007520164
 21
1435.8874980385
 31
0.0
  0
LINE
  5
163
  8
0
  6
CONTINUOUS
 62
     7
 10
1298.6007412875
 20
1444.3086806709
 30
0.0
 11
1298.6007412875
 21
1435.8874980385
 31
0.0
  0
LINE
  5
164
  8
0
  6
CONTINUOUS
 62
     7
 10
1557.6007148231
 20
1079.3519590075
 30
0.0
 11
1557.6007148231
 21
1045.2013287718
 31
0.0
  0
LINE
  5
165
  8
0
  6
CONTINUOUS
 62
     7
 10
1455.6007465327
 20
1079.3519590075
 30
0.0
 11
1455.6007465327
 21
1045.2013287718
 31
0.0
  0
LINE
  5
166
  8
0
  6
CONTINUOUS
 62
     7
 10
1557.6007148231
 20
1256.0211543018
 30
0.0
 11
1557.6007148231
 21
1079.3519590075
 31
0.0
  0
LINE
  5
167
  8
0
  6
CONTINUOUS
 62
     7
 10
1455.6007465327
 20
1256.0211543018
 30
0.0
 11
1455.6007465327
 21
1079.3519590075
 31
0.0
  0
LINE
  5
168
  8
0
  6
CONTINUOUS
 62
     7
 10
1557.6007148231
 20
1045.2013287718
 30
0.0
 11
1557.6007148231
 21
1019.2013207848
 31
0.0
  0
LINE
  5
169
  8
0
  6
CONTINUOUS
 62
     7
 10
1455.6007465327
 20
1045.2013287718
 30
0.0
 11
1455.6007465327
 21
1019.2013207848
 31
0.0
  0
LINE
  5
16A
  8
0
  6
CONTINUOUS
 62
     7
 10
1557.6007148231
 20
1019.2013207848
 30
0.0
 11
1557.6007148231
 21
1015.8519569809
 31
0.0
  0
LINE
  5
16B
  8
0
  6
CONTINUOUS
 62
     7
 10
1455.6007465327
 20
1019.2013207848
 30
0.0
 11
1455.6007465327
 21
1015.8519569809
 31
0.0
  0
LINE
  5
16C
  8
0
  6
CONTINUOUS
 62
     7
 10
1557.6007148231
 20
1015.8519569809
 30
0.0
 11
1557.6007148231
 21
994.2013297255
 31
0.0
  0
LINE
  5
16D
  8
0
  6
CONTINUOUS
 62
     7
 10
1455.6007465327
 20
1015.8519569809
 30
0.0
 11
1455.6007465327
 21
994.2013297255
 31
0.0
  0
LINE
  5
16E
  8
0
  6
CONTINUOUS
 62
     7
 10
1557.6007148231
 20
994.2013297255
 30
0.0
 11
1557.6007148231
 21
968.201329189
 31
0.0
  0
LINE
  5
16F
  8
0
  6
CONTINUOUS
 62
     7
 10
1455.6007465327
 20
994.2013297255
 30
0.0
 11
1455.6007465327
 21
968.201329189
 31
0.0
  0
LINE
  5
170
  8
0
  6
CONTINUOUS
 62
     7
 10
1557.6007148231
 20
1268.5211423809
 30
0.0
 11
1557.6007148231
 21
1256.0211543018
 31
0.0
  0
LINE
  5
171
  8
0
  6
CONTINUOUS
 62
     7
 10
1455.6007465327
 20
1268.5211423809
 30
0.0
 11
1455.6007465327
 21
1256.0211543018
 31
0.0
  0
LINE
  5
172
  8
0
  6
CONTINUOUS
 62
     7
 10
1557.6007148231
 20
968.201329189
 30
0.0
 11
1557.6007148231
 21
964.8519653852
 31
0.0
  0
LINE
  5
173
  8
0
  6
CONTINUOUS
 62
     7
 10
1455.6007465327
 20
968.201329189
 30
0.0
 11
1455.6007465327
 21
964.8519653852
 31
0.0
  0
LINE
  5
174
  8
0
  6
CONTINUOUS
 62
     7
 10
1557.6007148231
 20
964.8519653852
 30
0.0
 11
1557.6007148231
 21
943.2013306791
 31
0.0
  0
LINE
  5
175
  8
0
  6
CONTINUOUS
 62
     7
 10
1455.6007465327
 20
964.8519653852
 30
0.0
 11
1455.6007465327
 21
943.2013306791
 31
0.0
  0
LINE
  5
176
  8
0
  6
CONTINUOUS
 62
     7
 10
1557.6007148231
 20
943.2013306791
 30
0.0
 11
1557.6007148231
 21
917.2013264174
 31
0.0
  0
LINE
  5
177
  8
0
  6
CONTINUOUS
 62
     7
 10
1455.6007465327
 20
943.2013306791
 30
0.0
 11
1455.6007465327
 21
917.2013264174
 31
0.0
  0
LINE
  5
178
  8
0
  6
CONTINUOUS
 62
     7
 10
1557.6007148231
 20
917.2013264174
 30
0.0
 11
1557.6007148231
 21
913.8519626135
 31
0.0
  0
LINE
  5
179
  8
0
  6
CONTINUOUS
 62
     7
 10
1455.6007465327
 20
917.2013264174
 30
0.0
 11
1455.6007465327
 21
913.8519626135
 31
0.0
  0
LINE
  5
17A
  8
0
  6
CONTINUOUS
 62
     7
 10
1258.6007496322
 20
1331.38750233
 30
0.0
 11
658.6007257903
 21
1331.38750233
 31
0.0
  0
LINE
  5
17B
  8
0
  6
CONTINUOUS
 62
     7
 10
591.6007241214
 20
1253.3279184277
 30
0.0
 11
591.6007241214
 21
1227.3471478397
 31
0.0
  0
POLYLINE
  5
17C
  8
0
  6
CONTINUOUS
 62
     7
 66
     1
 10
0.0
 20
0.0
 30
0.0
  0
VERTEX
  5
718
  8
0
  6
CONTINUOUS
 62
     7
 10
591.6007241214
 20
1227.3471478397
 30
0.0
  0
VERTEX
  5
719
  8
0
  6
CONTINUOUS
 62
     7
 10
588.8087829555
 20
1227.3715261395
 30
0.0
  0
VERTEX
  5
71A
  8
0
  6
CONTINUOUS
 62
     7
 10
586.020209452
 20
1227.444601434
 30
0.0
  0
VERTEX
  5
71B
  8
0
  6
CONTINUOUS
 62
     7
 10
583.2384606803
 20
1227.5662843163
 30
0.0
  0
VERTEX
  5
71C
  8
0
  6
CONTINUOUS
 62
     7
 10
580.4669043029
 20
1227.7364257748
 30
0.0
  0
VERTEX
  5
71D
  8
0
  6
CONTINUOUS
 62
     7
 10
577.7088781799
 20
1227.9548469956
 30
0.0
  0
VERTEX
  5
71E
  8
0
  6
CONTINUOUS
 62
     7
 10
574.9678095782
 20
1228.2212499554
 30
0.0
  0
VERTEX
  5
71F
  8
0
  6
CONTINUOUS
 62
     7
 10
572.2469767535
 20
1228.535336631
 30
0.0
  0
VERTEX
  5
720
  8
0
  6
CONTINUOUS
 62
     7
 10
569.5497473682
 20
1228.89668979
 30
0.0
  0
VERTEX
  5
721
  8
0
  6
CONTINUOUS
 62
     7
 10
566.8793698753
 20
1229.3048921997
 30
0.0
  0
VERTEX
  5
722
  8
0
  6
CONTINUOUS
 62
     7
 10
564.2391225303
 20
1229.7594372208
 30
0.0
  0
VERTEX
  5
723
  8
0
  6
CONTINUOUS
 62
     7
 10
561.6322239841
 20
1230.2597884113
 30
0.0
  0
VERTEX
  5
724
  8
0
  6
CONTINUOUS
 62
     7
 10
559.0618034805
 20
1230.805349725
 30
0.0
  0
VERTEX
  5
725
  8
0
  6
CONTINUOUS
 62
     7
 10
556.5310498679
 20
1231.3954059059
 30
0.0
  0
VERTEX
  5
726
  8
0
  6
CONTINUOUS
 62
     7
 10
554.0430029834
 20
1232.0292416985
 30
0.0
  0
VERTEX
  5
727
  8
0
  6
CONTINUOUS
 62
     7
 10
551.600732466
 20
1232.7061418469
 30
0.0
  0
VERTEX
  5
728
  8
0
  6
CONTINUOUS
 62
     7
 10
549.2071887458
 20
1233.4252420837
 30
0.0
  0
VERTEX
  5
729
  8
0
  6
CONTINUOUS
 62
     7
 10
546.8652924503
 20
1234.1856483395
 30
0.0
  0
VERTEX
  5
72A
  8
0
  6
CONTINUOUS
 62
     7
 10
544.5779046024
 20
1234.9864665444
 30
0.0
  0
VERTEX
  5
72B
  8
0
  6
CONTINUOUS
 62
     7
 10
542.3478266204
 20
1235.8267132218
 30
0.0
  0
VERTEX
  5
72C
  8
0
  6
CONTINUOUS
 62
     7
 10
540.1777407134
 20
1236.7053750927
 30
0.0
  0
VERTEX
  5
72D
  8
0
  6
CONTINUOUS
 62
     7
 10
538.0702992881
 20
1237.6213494713
 30
0.0
  0
VERTEX
  5
72E
  8
0
  6
CONTINUOUS
 62
     7
 10
536.0280653442
 20
1238.5735634739
 30
0.0
  0
VERTEX
  5
72F
  8
0
  6
CONTINUOUS
 62
     7
 10
534.0535422767
 20
1239.5608250076
 30
0.0
  0
VERTEX
  5
730
  8
0
  6
CONTINUOUS
 62
     7
 10
532.1491440738
 20
1240.5819419796
 30
0.0
  0
VERTEX
  5
731
  8
0
  6
CONTINUOUS
 62
     7
 10
530.3171953166
 20
1241.6356626923
 30
0.0
  0
VERTEX
  5
732
  8
0
  6
CONTINUOUS
 62
     7
 10
528.5598715747
 20
1242.7207056458
 30
0.0
  0
VERTEX
  5
733
  8
0
  6
CONTINUOUS
 62
     7
 10
526.8793782199
 20
1243.8357297356
 30
0.0
  0
VERTEX
  5
734
  8
0
  6
CONTINUOUS
 62
     7
 10
525.2777418101
 20
1244.9794236595
 30
0.0
  0
VERTEX
  5
735
  8
0
  6
CONTINUOUS
 62
     7
 10
523.7568994964
 20
1246.1503867085
 30
0.0
  0
VERTEX
  5
736
  8
0
  6
CONTINUOUS
 62
     7
 10
522.3186990226
 20
1247.3471585686
 30
0.0
  0
VERTEX
  5
737
  8
0
  6
CONTINUOUS
 62
     7
 10
520.9649285281
 20
1248.5682789261
 30
0.0
  0
VERTEX
  5
738
  8
0
  6
CONTINUOUS
 62
     7
 10
519.6972271407
 20
1249.8123172695
 30
0.0
  0
VERTEX
  5
739
  8
0
  6
CONTINUOUS
 62
     7
 10
518.5171147788
 20
1251.0776940758
 30
0.0
  0
VERTEX
  5
73A
  8
0
  6
CONTINUOUS
 62
     7
 10
517.4260219539
 20
1252.3628894264
 30
0.0
  0
VERTEX
  5
73B
  8
0
  6
CONTINUOUS
 62
     7
 10
516.4253195728
 20
1253.6663536007
 30
0.0
  0
VERTEX
  5
73C
  8
0
  6
CONTINUOUS
 62
     7
 10
515.5162295306
 20
1254.9864772732
 30
0.0
  0
VERTEX
  5
73D
  8
0
  6
CONTINUOUS
 62
     7
 10
514.6997949088
 20
1256.3216511185
 30
0.0
  0
VERTEX
  5
73E
  8
0
  6
CONTINUOUS
 62
     7
 10
513.9770885909
 20
1257.6702658112
 30
0.0
  0
VERTEX
  5
73F
  8
0
  6
CONTINUOUS
 62
     7
 10
513.3489152396
 20
1259.0306822235
 30
0.0
  0
VERTEX
  5
740
  8
0
  6
CONTINUOUS
 62
     7
 10
512.81610932
 20
1260.4012314255
 30
0.0
  0
VERTEX
  5
741
  8
0
  6
CONTINUOUS
 62
     7
 10
512.3792966808
 20
1261.780244487
 30
0.0
  0
VERTEX
  5
742
  8
0
  6
CONTINUOUS
 62
     7
 10
512.0389839614
 20
1263.1660226757
 30
0.0
  0
VERTEX
  5
743
  8
0
  6
CONTINUOUS
 62
     7
 10
511.7956181968
 20
1264.5568970615
 30
0.0
  0
VERTEX
  5
744
  8
0
  6
CONTINUOUS
 62
     7
 10
511.6494676078
 20
1265.9511689121
 30
0.0
  0
VERTEX
  5
745
  8
0
  6
CONTINUOUS
 62
     7
 10
511.6007408107
 20
1267.3471394951
 30
0.0
  0
SEQEND
  5
B59
  8
0
  6
CONTINUOUS
 62
     7
  0
LINE
  5
17D
  8
0
  6
CONTINUOUS
 62
     7
 10
1325.6007513011
 20
1253.3279184277
 30
0.0
 11
1325.6007513011
 21
1227.3471478397
 31
0.0
  0
LINE
  5
17E
  8
0
  6
CONTINUOUS
 62
     7
 10
1325.6007513011
 20
1227.3471478397
 30
0.0
 11
1190.7644798959
 21
1227.3471478397
 31
0.0
  0
LINE
  5
17F
  8
0
  6
CONTINUOUS
 62
     7
 10
1028.5617714728
 20
1227.3471478397
 30
0.0
 11
1002.0546955968
 21
1227.3471478397
 31
0.0
  0
LINE
  5
180
  8
0
  6
CONTINUOUS
 62
     7
 10
915.1467798258
 20
1227.3471478397
 30
0.0
 11
888.6397039498
 21
1227.3471478397
 31
0.0
  0
LINE
  5
181
  8
0
  6
CONTINUOUS
 62
     7
 10
726.4369955266
 20
1227.3471478397
 30
0.0
 11
591.6007241214
 21
1227.3471478397
 31
0.0
  0
POLYLINE
  5
182
  8
0
  6
CONTINUOUS
 62
     7
 66
     1
 10
0.0
 20
0.0
 30
0.0
  0
VERTEX
  5
746
  8
0
  6
CONTINUOUS
 62
     7
 10
1405.6007346118
 20
1267.3471394951
 30
0.0
  0
VERTEX
  5
747
  8
0
  6
CONTINUOUS
 62
     7
 10
1405.5520078147
 20
1265.9511689121
 30
0.0
  0
VERTEX
  5
748
  8
0
  6
CONTINUOUS
 62
     7
 10
1405.4058572257
 20
1264.5568970615
 30
0.0
  0
VERTEX
  5
749
  8
0
  6
CONTINUOUS
 62
     7
 10
1405.1624914611
 20
1263.1660226757
 30
0.0
  0
VERTEX
  5
74A
  8
0
  6
CONTINUOUS
 62
     7
 10
1404.8221787418
 20
1261.780244487
 30
0.0
  0
VERTEX
  5
74B
  8
0
  6
CONTINUOUS
 62
     7
 10
1404.3853661025
 20
1260.4012314255
 30
0.0
  0
VERTEX
  5
74C
  8
0
  6
CONTINUOUS
 62
     7
 10
1403.8525601829
 20
1259.0306822235
 30
0.0
  0
VERTEX
  5
74D
  8
0
  6
CONTINUOUS
 62
     7
 10
1403.2243868316
 20
1257.6702658112
 30
0.0
  0
VERTEX
  5
74E
  8
0
  6
CONTINUOUS
 62
     7
 10
1402.5016805137
 20
1256.3216511185
 30
0.0
  0
VERTEX
  5
74F
  8
0
  6
CONTINUOUS
 62
     7
 10
1401.6852458919
 20
1254.9864772732
 30
0.0
  0
VERTEX
  5
750
  8
0
  6
CONTINUOUS
 62
     7
 10
1400.7761558498
 20
1253.6663536007
 30
0.0
  0
VERTEX
  5
751
  8
0
  6
CONTINUOUS
 62
     7
 10
1399.7754534686
 20
1252.3628894264
 30
0.0
  0
VERTEX
  5
752
  8
0
  6
CONTINUOUS
 62
     7
 10
1398.6843606437
 20
1251.0776940758
 30
0.0
  0
VERTEX
  5
753
  8
0
  6
CONTINUOUS
 62
     7
 10
1397.5042482818
 20
1249.8123172695
 30
0.0
  0
VERTEX
  5
754
  8
0
  6
CONTINUOUS
 62
     7
 10
1396.2365468944
 20
1248.5682789261
 30
0.0
  0
VERTEX
  5
755
  8
0
  6
CONTINUOUS
 62
     7
 10
1394.8827763999
 20
1247.3471585686
 30
0.0
  0
VERTEX
  5
756
  8
0
  6
CONTINUOUS
 62
     7
 10
1393.4445759261
 20
1246.1503867085
 30
0.0
  0
VERTEX
  5
757
  8
0
  6
CONTINUOUS
 62
     7
 10
1391.9237336124
 20
1244.9794236595
 30
0.0
  0
VERTEX
  5
758
  8
0
  6
CONTINUOUS
 62
     7
 10
1390.3220972026
 20
1243.8357297356
 30
0.0
  0
VERTEX
  5
759
  8
0
  6
CONTINUOUS
 62
     7
 10
1388.6416038478
 20
1242.7207056458
 30
0.0
  0
VERTEX
  5
75A
  8
0
  6
CONTINUOUS
 62
     7
 10
1386.8842801059
 20
1241.6356626923
 30
0.0
  0
VERTEX
  5
75B
  8
0
  6
CONTINUOUS
 62
     7
 10
1385.0523313487
 20
1240.5819419796
 30
0.0
  0
VERTEX
  5
75C
  8
0
  6
CONTINUOUS
 62
     7
 10
1383.1479331458
 20
1239.5608250076
 30
0.0
  0
VERTEX
  5
75D
  8
0
  6
CONTINUOUS
 62
     7
 10
1381.1734100784
 20
1238.5735634739
 30
0.0
  0
VERTEX
  5
75E
  8
0
  6
CONTINUOUS
 62
     7
 10
1379.1311761344
 20
1237.6213494713
 30
0.0
  0
VERTEX
  5
75F
  8
0
  6
CONTINUOUS
 62
     7
 10
1377.0237347091
 20
1236.7053750927
 30
0.0
  0
VERTEX
  5
760
  8
0
  6
CONTINUOUS
 62
     7
 10
1374.8536488021
 20
1235.8267132218
 30
0.0
  0
VERTEX
  5
761
  8
0
  6
CONTINUOUS
 62
     7
 10
1372.6235708202
 20
1234.9864665444
 30
0.0
  0
VERTEX
  5
762
  8
0
  6
CONTINUOUS
 62
     7
 10
1370.3361829723
 20
1234.1856483395
 30
0.0
  0
VERTEX
  5
763
  8
0
  6
CONTINUOUS
 62
     7
 10
1367.9942866767
 20
1233.4252420837
 30
0.0
  0
VERTEX
  5
764
  8
0
  6
CONTINUOUS
 62
     7
 10
1365.6007429565
 20
1232.7061418469
 30
0.0
  0
VERTEX
  5
765
  8
0
  6
CONTINUOUS
 62
     7
 10
1363.1584724391
 20
1232.0292416985
 30
0.0
  0
VERTEX
  5
766
  8
0
  6
CONTINUOUS
 62
     7
 10
1360.6704255546
 20
1231.3954059059
 30
0.0
  0
VERTEX
  5
767
  8
0
  6
CONTINUOUS
 62
     7
 10
1358.1396719421
 20
1230.805349725
 30
0.0
  0
VERTEX
  5
768
  8
0
  6
CONTINUOUS
 62
     7
 10
1355.5692514384
 20
1230.2597884113
 30
0.0
  0
VERTEX
  5
769
  8
0
  6
CONTINUOUS
 62
     7
 10
1352.9623528922
 20
1229.7594372208
 30
0.0
  0
VERTEX
  5
76A
  8
0
  6
CONTINUOUS
 62
     7
 10
1350.3221055473
 20
1229.3048921997
 30
0.0
  0
VERTEX
  5
76B
  8
0
  6
CONTINUOUS
 62
     7
 10
1347.6517280543
 20
1228.89668979
 30
0.0
  0
VERTEX
  5
76C
  8
0
  6
CONTINUOUS
 62
     7
 10
1344.954498669
 20
1228.535336631
 30
0.0
  0
VERTEX
  5
76D
  8
0
  6
CONTINUOUS
 62
     7
 10
1342.2336658443
 20
1228.2212499554
 30
0.0
  0
VERTEX
  5
76E
  8
0
  6
CONTINUOUS
 62
     7
 10
1339.4925972427
 20
1227.9548469956
 30
0.0
  0
VERTEX
  5
76F
  8
0
  6
CONTINUOUS
 62
     7
 10
1336.7345711196
 20
1227.7364257748
 30
0.0
  0
VERTEX
  5
770
  8
0
  6
CONTINUOUS
 62
     7
 10
1333.9630147422
 20
1227.5662843163
 30
0.0
  0
VERTEX
  5
771
  8
0
  6
CONTINUOUS
 62
     7
 10
1331.1812659705
 20
1227.444601434
 30
0.0
  0
VERTEX
  5
772
  8
0
  6
CONTINUOUS
 62
     7
 10
1328.392692467
 20
1227.3715261395
 30
0.0
  0
VERTEX
  5
773
  8
0
  6
CONTINUOUS
 62
     7
 10
1325.6007513011
 20
1227.3471478397
 30
0.0
  0
SEQEND
  5
B58
  8
0
  6
CONTINUOUS
 62
     7
  0
LINE
  5
183
  8
0
  6
CONTINUOUS
 62
     7
 10
591.6007241214
 20
1194.438201564
 30
0.0
 11
591.6007241214
 21
1227.3471478397
 31
0.0
  0
LINE
  5
184
  8
0
  6
CONTINUOUS
 62
     7
 10
1325.6007513011
 20
1194.438201564
 30
0.0
 11
1325.6007513011
 21
1227.3471478397
 31
0.0
  0
LINE
  5
185
  8
0
  6
CONTINUOUS
 62
     7
 10
577.6007255519
 20
1345.8875242645
 30
0.0
 11
658.6007257903
 21
1345.8875242645
 31
0.0
  0
LINE
  5
186
  8
0
  6
CONTINUOUS
 62
     7
 10
1339.6007498706
 20
1345.8875242645
 30
0.0
 11
1258.6007496322
 21
1345.8875242645
 31
0.0
  0
LINE
  5
187
  8
0
  6
CONTINUOUS
 62
     7
 10
568.6007520164
 20
1350.8875194962
 30
0.0
 11
577.6007255519
 21
1350.8875194962
 31
0.0
  0
LINE
  5
188
  8
0
  6
CONTINUOUS
 62
     7
 10
1348.6007234061
 20
1350.8875194962
 30
0.0
 11
1339.6007498706
 21
1350.8875194962
 31
0.0
  0
LINE
  5
189
  8
0
  6
CONTINUOUS
 62
     7
 10
598.6007234061
 20
1444.3086806709
 30
0.0
 11
618.600734135
 21
1444.3086806709
 31
0.0
  0
LINE
  5
18A
  8
0
  6
CONTINUOUS
 62
     7
 10
1318.6007520164
 20
1444.3086806709
 30
0.0
 11
1298.6007412875
 21
1444.3086806709
 31
0.0
  0
LINE
  5
18B
  8
0
  6
CONTINUOUS
 62
     7
 10
1557.6007148231
 20
1079.3519590075
 30
0.0
 11
1455.6007465327
 21
1079.3519590075
 31
0.0
  0
LINE
  5
18C
  8
0
  6
CONTINUOUS
 62
     7
 10
1557.6007148231
 20
1045.2013287718
 30
0.0
 11
1455.6007465327
 21
1045.2013287718
 31
0.0
  0
LINE
  5
18D
  8
0
  6
CONTINUOUS
 62
     7
 10
1557.6007148231
 20
1256.0211543018
 30
0.0
 11
1519.1007634605
 21
1256.0211543018
 31
0.0
  0
LINE
  5
18E
  8
0
  6
CONTINUOUS
 62
     7
 10
1494.1007276977
 20
1256.0211543018
 30
0.0
 11
1455.6007465327
 21
1256.0211543018
 31
0.0
  0
LINE
  5
18F
  8
0
  6
CONTINUOUS
 62
     7
 10
1557.6007148231
 20
1019.2013207848
 30
0.0
 11
1455.6007465327
 21
1019.2013207848
 31
0.0
  0
LINE
  5
190
  8
0
  6
CONTINUOUS
 62
     7
 10
1557.6007148231
 20
994.2013297255
 30
0.0
 11
1455.6007465327
 21
994.2013297255
 31
0.0
  0
LINE
  5
191
  8
0
  6
CONTINUOUS
 62
     7
 10
1557.6007148231
 20
968.201329189
 30
0.0
 11
1455.6007465327
 21
968.201329189
 31
0.0
  0
LINE
  5
192
  8
0
  6
CONTINUOUS
 62
     7
 10
1557.6007148231
 20
943.2013306791
 30
0.0
 11
1455.6007465327
 21
943.2013306791
 31
0.0
  0
LINE
  5
193
  8
0
  6
CONTINUOUS
 62
     7
 10
1557.6007148231
 20
917.2013264174
 30
0.0
 11
1455.6007465327
 21
917.2013264174
 31
0.0
  0
INSERT
  5
19F
  8
FORMAT
  2
SW_CENTERMARKSYMBOL_0
 10
958.6007377113
 20
877.3471538002
 30
0.0
  0
LINE
  5
1A0
  8
0
  6
CONTINUOUS
 62
     7
 10
-688.9144590703
 20
107.4323656211
 30
0.0
 11
-688.9144590703
 21
87.4323548923
 31
0.0
  0
LINE
  5
1A1
  8
0
  6
CONTINUOUS
 62
     7
 10
-688.9144590703
 20
-592.5676522603
 30
0.0
 11
-688.9144590703
 21
-612.5676629891
 31
0.0
  0
LINE
  5
1A2
  8
0
  6
CONTINUOUS
 62
     7
 10
-957.0644310323
 20
47.432363237
 30
0.0
 11
-957.0644310323
 21
-552.5676606049
 31
0.0
  0
LINE
  5
1A3
  8
0
  6
CONTINUOUS
 62
     7
 10
-928.0643871633
 20
128.4323634754
 30
0.0
 11
-928.0643871633
 21
47.432363237
 31
0.0
  0
LINE
  5
1A4
  8
0
  6
CONTINUOUS
 62
     7
 10
-928.0643871633
 20
-552.5676606049
 30
0.0
 11
-928.0643871633
 21
-633.5676608433
 31
0.0
  0
LINE
  5
1A5
  8
0
  6
CONTINUOUS
 62
     7
 10
-918.0643967
 20
137.4323370109
 30
0.0
 11
-918.0643967
 21
128.4323634754
 31
0.0
  0
LINE
  5
1A6
  8
0
  6
CONTINUOUS
 62
     7
 10
-918.0643967
 20
-633.5676608433
 30
0.0
 11
-918.0643967
 21
-642.5676343789
 31
0.0
  0
LINE
  5
1A7
  8
0
  6
CONTINUOUS
 62
     7
 10
-833.064358553
 20
-788.0676386704
 30
0.0
 11
-833.064358553
 21
-775.5676505913
 31
0.0
  0
LINE
  5
1A8
  8
0
  6
CONTINUOUS
 62
     7
 10
-833.064358553
 20
-825.5676625123
 30
0.0
 11
-833.064358553
 21
-813.0676744332
 31
0.0
  0
LINE
  5
1A9
  8
0
  6
CONTINUOUS
 62
     7
 10
-903.0643514005
 20
-775.5676505913
 30
0.0
 11
-903.0643514005
 21
-825.5676625123
 31
0.0
  0
POLYLINE
  5
1AA
  8
0
  6
CONTINUOUS
 62
     7
 66
     1
 10
0.0
 20
0.0
 30
0.0
  0
VERTEX
  5
774
  8
0
  6
CONTINUOUS
 62
     7
 10
-433.7603262273
 20
-652.5662837376
 30
0.0
  0
VERTEX
  5
775
  8
0
  6
CONTINUOUS
 62
     7
 10
-400.9296706525
 20
-646.2970970025
 30
0.0
  0
VERTEX
  5
776
  8
0
  6
CONTINUOUS
 62
     7
 10
-366.5333500711
 20
-639.7289631714
 30
0.0
  0
VERTEX
  5
777
  8
0
  6
CONTINUOUS
 62
     7
 10
-332.1370592919
 20
-633.1608293404
 30
0.0
  0
VERTEX
  5
778
  8
0
  6
CONTINUOUS
 62
     7
 10
-297.7407387105
 20
-626.5926955094
 30
0.0
  0
VERTEX
  5
779
  8
0
  6
CONTINUOUS
 62
     7
 10
-263.3444181291
 20
-620.024531876
 30
0.0
  0
VERTEX
  5
77A
  8
0
  6
CONTINUOUS
 62
     7
 10
-232.7277174798
 20
-614.1781506886
 30
0.0
  0
SEQEND
  5
B57
  8
0
  6
CONTINUOUS
 62
     7
  0
POLYLINE
  5
1AB
  8
0
  6
CONTINUOUS
 62
     7
 66
     1
 10
0.0
 20
0.0
 30
0.0
  0
VERTEX
  5
77B
  8
0
  6
CONTINUOUS
 62
     7
 10
-232.6929679719
 20
109.0362074028
 30
0.0
  0
VERTEX
  5
77C
  8
0
  6
CONTINUOUS
 62
     7
 10
-332.1370592919
 20
128.0255319725
 30
0.0
  0
VERTEX
  5
77D
  8
0
  6
CONTINUOUS
 62
     7
 10
-433.7564519254
 20
147.4302413116
 30
0.0
  0
SEQEND
  5
B56
  8
0
  6
CONTINUOUS
 62
     7
  0
LINE
  5
1AC
  8
0
  6
CONTINUOUS
 62
     7
 10
-832.0643714276
 20
-662.5676451077
 30
0.0
 11
-826.2631109563
 21
-659.2182813038
 31
0.0
  0
LINE
  5
1AD
  8
0
  6
CONTINUOUS
 62
     7
 10
-912.8656199781
 20
-659.2182813038
 30
0.0
 11
-907.0643595067
 21
-662.5676451077
 31
0.0
  0
LINE
  5
1AE
  8
0
  6
CONTINUOUS
 62
     7
 10
-888.0643657056
 20
-662.5676451077
 30
0.0
 11
-888.0643657056
 21
-771.9706890931
 31
0.0
  0
LINE
  5
1AF
  8
0
  6
CONTINUOUS
 62
     7
 10
-848.0644038526
 20
-771.9706890931
 30
0.0
 11
-848.0644038526
 21
-662.5676451077
 31
0.0
  0
LINE
  5
1B0
  8
0
  6
CONTINUOUS
 62
     7
 10
-905.5643490163
 20
160.4323389183
 30
0.0
 11
-911.3656690923
 21
157.0829751144
 31
0.0
  0
LINE
  5
1B1
  8
0
  6
CONTINUOUS
 62
     7
 10
-824.7631004659
 20
157.0829751144
 30
0.0
 11
-830.5643609372
 21
160.4323389183
 31
0.0
  0
POLYLINE
  5
1B2
  8
0
  6
CONTINUOUS
 62
     7
 66
     1
 10
0.0
 20
0.0
 30
0.0
  0
VERTEX
  5
77E
  8
0
  6
CONTINUOUS
 62
     7
 10
-14.8957258669
 20
70.4278947959
 30
0.0
  0
VERTEX
  5
77F
  8
0
  6
CONTINUOUS
 62
     7
 10
-22.7058714834
 20
71.8123914848
 30
0.0
  0
VERTEX
  5
780
  8
0
  6
CONTINUOUS
 62
     7
 10
-32.1998185125
 20
73.49532863
 30
0.0
  0
VERTEX
  5
781
  8
0
  6
CONTINUOUS
 62
     7
 10
-41.4098984209
 20
75.1278998504
 30
0.0
  0
VERTEX
  5
782
  8
0
  6
CONTINUOUS
 62
     7
 10
-50.3361186591
 20
76.7101349483
 30
0.0
  0
VERTEX
  5
783
  8
0
  6
CONTINUOUS
 62
     7
 10
-58.9784792272
 20
78.241974319
 30
0.0
  0
VERTEX
  5
784
  8
0
  6
CONTINUOUS
 62
     7
 10
-67.3369875756
 20
79.7234775672
 30
0.0
  0
VERTEX
  5
785
  8
0
  6
CONTINUOUS
 62
     7
 10
-75.4116437045
 20
81.1546148906
 30
0.0
  0
VERTEX
  5
786
  8
0
  6
CONTINUOUS
 62
     7
 10
-82.5640669671
 20
82.4222268711
 30
0.0
  0
VERTEX
  5
787
  8
0
  6
CONTINUOUS
 62
     7
 10
-89.4779822436
 20
83.647549356
 30
0.0
  0
VERTEX
  5
788
  8
0
  6
CONTINUOUS
 62
     7
 10
-96.1533746329
 20
84.8305823455
 30
0.0
  0
VERTEX
  5
789
  8
0
  6
CONTINUOUS
 62
     7
 10
-102.590244135
 20
85.9712960372
 30
0.0
  0
VERTEX
  5
78A
  8
0
  6
CONTINUOUS
 62
     7
 10
-108.7885758487
 20
87.0696904312
 30
0.0
  0
VERTEX
  5
78B
  8
0
  6
CONTINUOUS
 62
     7
 10
-114.7483846751
 20
88.1257655273
 30
0.0
  0
VERTEX
  5
78C
  8
0
  6
CONTINUOUS
 62
     7
 10
-120.469640812
 20
89.139551128
 30
0.0
  0
VERTEX
  5
78D
  8
0
  6
CONTINUOUS
 62
     7
 10
-125.9523442594
 20
90.1110472332
 30
0.0
  0
VERTEX
  5
78E
  8
0
  6
CONTINUOUS
 62
     7
 10
-131.1964652148
 20
91.0402240406
 30
0.0
  0
VERTEX
  5
78F
  8
0
  6
CONTINUOUS
 62
     7
 10
-136.2020036784
 20
91.9270815502
 30
0.0
  0
VERTEX
  5
790
  8
0
  6
CONTINUOUS
 62
     7
 10
-140.968944749
 20
92.771619762
 30
0.0
  0
VERTEX
  5
791
  8
0
  6
CONTINUOUS
 62
     7
 10
-145.4972586242
 20
93.5738684784
 30
0.0
  0
VERTEX
  5
792
  8
0
  6
CONTINUOUS
 62
     7
 10
-149.5482436029
 20
94.2915382038
 30
0.0
  0
VERTEX
  5
793
  8
0
  6
CONTINUOUS
 62
     7
 10
-153.3870658485
 20
94.971567596
 30
0.0
  0
VERTEX
  5
794
  8
0
  6
CONTINUOUS
 62
     7
 10
-157.013725361
 20
95.6139566551
 30
0.0
  0
VERTEX
  5
795
  8
0
  6
CONTINUOUS
 62
     7
 10
-160.4281625358
 20
96.2187351833
 30
0.0
  0
VERTEX
  5
796
  8
0
  6
CONTINUOUS
 62
     7
 10
-163.630392274
 20
96.7859031807
 30
0.0
  0
VERTEX
  5
797
  8
0
  6
CONTINUOUS
 62
     7
 10
-166.3515827266
 20
97.2678067337
 30
0.0
  0
VERTEX
  5
798
  8
0
  6
CONTINUOUS
 62
     7
 10
-168.8981166688
 20
97.7187456737
 30
0.0
  0
VERTEX
  5
799
  8
0
  6
CONTINUOUS
 62
     7
 10
-171.2699642983
 20
98.1386901985
 30
0.0
  0
VERTEX
  5
79A
  8
0
  6
CONTINUOUS
 62
     7
 10
-173.4684518186
 20
98.5279085289
 30
0.0
  0
VERTEX
  5
79B
  8
0
  6
CONTINUOUS
 62
     7
 10
-175.6095102635
 20
98.906934465
 30
0.0
  0
VERTEX
  5
79C
  8
0
  6
CONTINUOUS
 62
     7
 10
-184.1890326348
 20
100.4262568603
 30
0.0
  0
VERTEX
  5
79D
  8
0
  6
CONTINUOUS
 62
     7
 10
-192.0758596269
 20
101.8236877571
 30
0.0
  0
VERTEX
  5
79E
  8
0
  6
CONTINUOUS
 62
     7
 10
-200.1764884797
 20
103.2599510799
 30
0.0
  0
VERTEX
  5
79F
  8
0
  6
CONTINUOUS
 62
     7
 10
-205.698292574
 20
104.2395832191
 30
0.0
  0
VERTEX
  5
7A0
  8
0
  6
CONTINUOUS
 62
     7
 10
-211.3492599336
 20
105.242669786
 30
0.0
  0
VERTEX
  5
7A1
  8
0
  6
CONTINUOUS
 62
     7
 10
-217.1388378945
 20
106.270909513
 30
0.0
  0
VERTEX
  5
7A2
  8
0
  6
CONTINUOUS
 62
     7
 10
-218.6904064027
 20
106.5466107975
 30
0.0
  0
VERTEX
  5
7A3
  8
0
  6
CONTINUOUS
 62
     7
 10
-220.2516606656
 20
106.8240704189
 30
0.0
  0
VERTEX
  5
7A4
  8
0
  6
CONTINUOUS
 62
     7
 10
-221.8286505548
 20
107.1043612609
 30
0.0
  0
VERTEX
  5
7A5
  8
0
  6
CONTINUOUS
 62
     7
 10
-223.4900406209
 20
107.3995830665
 30
0.0
  0
VERTEX
  5
7A6
  8
0
  6
CONTINUOUS
 62
     7
 10
-225.255142769
 20
107.7132227073
 30
0.0
  0
VERTEX
  5
7A7
  8
0
  6
CONTINUOUS
 62
     7
 10
-227.0898035375
 20
108.0393197189
 30
0.0
  0
VERTEX
  5
7A8
  8
0
  6
CONTINUOUS
 62
     7
 10
-229.0247193185
 20
108.3835067401
 30
0.0
  0
VERTEX
  5
7A9
  8
0
  6
CONTINUOUS
 62
     7
 10
-231.0600987283
 20
108.7459327827
 30
0.0
  0
VERTEX
  5
7AA
  8
0
  6
CONTINUOUS
 62
     7
 10
-232.7708712426
 20
109.0510787616
 30
0.0
  0
SEQEND
  5
B55
  8
0
  6
CONTINUOUS
 62
     7
  0
POLYLINE
  5
1B3
  8
0
  6
CONTINUOUS
 62
     7
 66
     1
 10
0.0
 20
0.0
 30
0.0
  0
VERTEX
  5
7AB
  8
0
  6
CONTINUOUS
 62
     7
 10
-232.7659538594
 20
-614.1855118622
 30
0.0
  0
VERTEX
  5
7AC
  8
0
  6
CONTINUOUS
 62
     7
 10
-230.9959045259
 20
-613.8697860589
 30
0.0
  0
VERTEX
  5
7AD
  8
0
  6
CONTINUOUS
 62
     7
 10
-228.9026192037
 20
-613.4970782151
 30
0.0
  0
VERTEX
  5
7AE
  8
0
  6
CONTINUOUS
 62
     7
 10
-226.916055998
 20
-613.1437418808
 30
0.0
  0
VERTEX
  5
7AF
  8
0
  6
CONTINUOUS
 62
     7
 10
-225.0360062924
 20
-612.8095982422
 30
0.0
  0
VERTEX
  5
7B0
  8
0
  6
CONTINUOUS
 62
     7
 10
-223.2624104825
 20
-612.494438683
 30
0.0
  0
VERTEX
  5
7B1
  8
0
  6
CONTINUOUS
 62
     7
 10
-221.5950599519
 20
-612.1981439938
 30
0.0
  0
VERTEX
  5
7B2
  8
0
  6
CONTINUOUS
 62
     7
 10
-220.0040033666
 20
-611.9153497567
 30
0.0
  0
VERTEX
  5
7B3
  8
0
  6
CONTINUOUS
 62
     7
 10
-218.4250167218
 20
-611.6347310891
 30
0.0
  0
VERTEX
  5
7B4
  8
0
  6
CONTINUOUS
 62
     7
 10
-213.5269752351
 20
-610.764652287
 30
0.0
  0
VERTEX
  5
7B5
  8
0
  6
CONTINUOUS
 62
     7
 10
-208.7267449704
 20
-609.9123952736
 30
0.0
  0
VERTEX
  5
7B6
  8
0
  6
CONTINUOUS
 62
     7
 10
-203.1392863599
 20
-608.9208422055
 30
0.0
  0
VERTEX
  5
7B7
  8
0
  6
CONTINUOUS
 62
     7
 10
-197.6639142839
 20
-607.9496441235
 30
0.0
  0
VERTEX
  5
7B8
  8
0
  6
CONTINUOUS
 62
     7
 10
-192.2835520116
 20
-606.9957909932
 30
0.0
  0
VERTEX
  5
7B9
  8
0
  6
CONTINUOUS
 62
     7
 10
-184.3911817876
 20
-605.5973766198
 30
0.0
  0
VERTEX
  5
7BA
  8
0
  6
CONTINUOUS
 62
     7
 10
-176.7125240174
 20
-604.2375264515
 30
0.0
  0
VERTEX
  5
7BB
  8
0
  6
CONTINUOUS
 62
     7
 10
-174.3433883992
 20
-603.8180885663
 30
0.0
  0
VERTEX
  5
7BC
  8
0
  6
CONTINUOUS
 62
     7
 10
-171.9635537473
 20
-603.396802937
 30
0.0
  0
VERTEX
  5
7BD
  8
0
  6
CONTINUOUS
 62
     7
 10
-169.3981102315
 20
-602.9425857415
 30
0.0
  0
VERTEX
  5
7BE
  8
0
  6
CONTINUOUS
 62
     7
 10
-166.6203847734
 20
-602.4506984105
 30
0.0
  0
VERTEX
  5
7BF
  8
0
  6
CONTINUOUS
 62
     7
 10
-163.630392274
 20
-601.9212005486
 30
0.0
  0
VERTEX
  5
7C0
  8
0
  6
CONTINUOUS
 62
     7
 10
-159.9060556499
 20
-601.2615559449
 30
0.0
  0
VERTEX
  5
7C1
  8
0
  6
CONTINUOUS
 62
     7
 10
-155.8976283876
 20
-600.5515752186
 30
0.0
  0
VERTEX
  5
7C2
  8
0
  6
CONTINUOUS
 62
     7
 10
-151.6051253882
 20
-599.7911987652
 30
0.0
  0
VERTEX
  5
7C3
  8
0
  6
CONTINUOUS
 62
     7
 10
-147.0286062566
 20
-598.980456387
 30
0.0
  0
VERTEX
  5
7C4
  8
0
  6
CONTINUOUS
 62
     7
 10
-142.1680709926
 20
-598.1193778862
 30
0.0
  0
VERTEX
  5
7C5
  8
0
  6
CONTINUOUS
 62
     7
 10
-137.0235493985
 20
-597.2079334607
 30
0.0
  0
VERTEX
  5
7C6
  8
0
  6
CONTINUOUS
 62
     7
 10
-131.5950712768
 20
-596.2461231102
 30
0.0
  0
VERTEX
  5
7C7
  8
0
  6
CONTINUOUS
 62
     7
 10
-126.3695469705
 20
-595.3202543606
 30
0.0
  0
VERTEX
  5
7C8
  8
0
  6
CONTINUOUS
 62
     7
 10
-120.9054401723
 20
-594.3520663132
 30
0.0
  0
VERTEX
  5
7C9
  8
0
  6
CONTINUOUS
 62
     7
 10
-115.2027657834
 20
-593.3415887703
 30
0.0
  0
VERTEX
  5
7CA
  8
0
  6
CONTINUOUS
 62
     7
 10
-109.2615536061
 20
-592.2887919297
 30
0.0
  0
VERTEX
  5
7CB
  8
0
  6
CONTINUOUS
 62
     7
 10
-103.0818036405
 20
-591.1937055935
 30
0.0
  0
VERTEX
  5
7CC
  8
0
  6
CONTINUOUS
 62
     7
 10
-96.6635158864
 20
-590.0562701573
 30
0.0
  0
VERTEX
  5
7CD
  8
0
  6
CONTINUOUS
 62
     7
 10
-90.0067052451
 20
-588.8765750279
 30
0.0
  0
VERTEX
  5
7CE
  8
0
  6
CONTINUOUS
 62
     7
 10
-83.1113866178
 20
-587.6545307984
 30
0.0
  0
VERTEX
  5
7CF
  8
0
  6
CONTINUOUS
 62
     7
 10
-75.9775451032
 20
-586.3901970734
 30
0.0
  0
VERTEX
  5
7D0
  8
0
  6
CONTINUOUS
 62
     7
 10
-68.6051956025
 20
-585.0835440506
 30
0.0
  0
VERTEX
  5
7D1
  8
0
  6
CONTINUOUS
 62
     7
 10
-60.9943381158
 20
-583.7345717301
 30
0.0
  0
VERTEX
  5
7D2
  8
0
  6
CONTINUOUS
 62
     7
 10
-53.144972643
 20
-582.3433099141
 30
0.0
  0
VERTEX
  5
7D3
  8
0
  6
CONTINUOUS
 62
     7
 10
-45.525681099
 20
-580.9927580704
 30
0.0
  0
VERTEX
  5
7D4
  8
0
  6
CONTINUOUS
 62
     7
 10
-37.6943385807
 20
-579.6045956959
 30
0.0
  0
VERTEX
  5
7D5
  8
0
  6
CONTINUOUS
 62
     7
 10
-29.6509599892
 20
-578.1788227906
 30
0.0
  0
VERTEX
  5
7D6
  8
0
  6
CONTINUOUS
 62
     7
 10
-21.3955304233
 20
-576.715409552
 30
0.0
  0
VERTEX
  5
7D7
  8
0
  6
CONTINUOUS
 62
     7
 10
-14.8971787301
 20
-575.5634603848
 30
0.0
  0
SEQEND
  5
B54
  8
0
  6
CONTINUOUS
 62
     7
  0
LINE
  5
1B4
  8
0
  6
CONTINUOUS
 62
     7
 10
-1211.9437864629
 20
-672.567635571
 30
0.0
 11
-1180.9438875524
 21
-672.567635571
 31
0.0
  0
LINE
  5
1B5
  8
0
  6
CONTINUOUS
 62
     7
 10
-1180.9438875524
 20
167.432338203
 30
0.0
 11
-1211.9437864629
 21
167.432338203
 31
0.0
  0
LINE
  5
1B6
  8
0
  6
CONTINUOUS
 62
     7
 10
78.0561707335
 20
167.432338203
 30
0.0
 11
47.0561721715
 21
167.432338203
 31
0.0
  0
LINE
  5
1B7
  8
0
  6
CONTINUOUS
 62
     7
 10
47.0561721715
 20
-672.567635571
 30
0.0
 11
78.0561707335
 21
-672.567635571
 31
0.0
  0
LINE
  5
1B8
  8
0
  6
CONTINUOUS
 62
     7
 10
-361.7657831517
 20
-851.5676257958
 30
0.0
 11
-361.7657831517
 21
-749.5676575055
 31
0.0
  0
LINE
  5
1B9
  8
0
  6
CONTINUOUS
 62
     7
 10
83.0561706218
 20
88.4323420177
 30
0.0
 11
78.0561707335
 21
88.4323420177
 31
0.0
  0
LINE
  5
1BA
  8
0
  6
CONTINUOUS
 62
     7
 10
78.0561707335
 20
-593.5676393856
 30
0.0
 11
83.0561706218
 21
-593.5676393856
 31
0.0
  0
LINE
  5
1BB
  8
0
  6
CONTINUOUS
 62
     7
 10
-1216.9437816945
 20
-593.5676393856
 30
0.0
 11
-1211.9437864629
 21
-593.5676393856
 31
0.0
  0
LINE
  5
1BC
  8
0
  6
CONTINUOUS
 62
     7
 10
-1211.9437864629
 20
88.4323420177
 30
0.0
 11
-1216.9437816945
 21
88.4323420177
 31
0.0
  0
LINE
  5
1BD
  8
0
  6
CONTINUOUS
 62
     7
 10
-1180.9438875524
 20
-575.5676625123
 30
0.0
 11
-954.3438366262
 21
-575.5676625123
 31
0.0
  0
LINE
  5
1BE
  8
0
  6
CONTINUOUS
 62
     7
 10
-954.3438366262
 20
70.4323651443
 30
0.0
 11
-1180.9438875524
 21
70.4323651443
 31
0.0
  0
LINE
  5
1BF
  8
0
  6
CONTINUOUS
 62
     7
 10
-14.9387306181
 20
-575.5676625123
 30
0.0
 11
47.0561721715
 21
-575.5676625123
 31
0.0
  0
LINE
  5
1C0
  8
0
  6
CONTINUOUS
 62
     7
 10
47.0561721715
 20
70.4323651443
 30
0.0
 11
-14.9367711154
 21
70.4323651443
 31
0.0
  0
LINE
  5
1C1
  8
0
  6
CONTINUOUS
 62
     7
 10
-273.4311929551
 20
-851.5676257958
 30
0.0
 11
-273.4311929551
 21
-749.5676575055
 31
0.0
  0
LINE
  5
1C2
  8
0
  6
CONTINUOUS
 62
     7
 10
-185.0966027585
 20
-851.5676257958
 30
0.0
 11
-185.0966027585
 21
-749.5676575055
 31
0.0
  0
LINE
  5
1C3
  8
0
  6
CONTINUOUS
 62
     7
 10
-558.7990692464
 20
-749.5676575055
 30
0.0
 11
-558.7990692464
 21
-788.0676386704
 31
0.0
  0
LINE
  5
1C4
  8
0
  6
CONTINUOUS
 62
     7
 10
-558.7990692464
 20
-813.0676744332
 30
0.0
 11
-558.7990692464
 21
-851.5676257958
 31
0.0
  0
LINE
  5
1C5
  8
0
  6
CONTINUOUS
 62
     7
 10
-614.2734101621
 20
107.4323656211
 30
0.0
 11
-688.9144590703
 21
107.4323656211
 31
0.0
  0
LINE
  5
1C6
  8
0
  6
CONTINUOUS
 62
     7
 10
-614.2734101621
 20
87.4323548923
 30
0.0
 11
-688.9144590703
 21
87.4323548923
 31
0.0
  0
LINE
  5
1C7
  8
0
  6
CONTINUOUS
 62
     7
 10
-614.2734101621
 20
-592.5676522603
 30
0.0
 11
-688.9144590703
 21
-592.5676522603
 31
0.0
  0
LINE
  5
1C8
  8
0
  6
CONTINUOUS
 62
     7
 10
-614.2734101621
 20
-612.5676629891
 30
0.0
 11
-688.9144590703
 21
-612.5676629891
 31
0.0
  0
LINE
  5
1C9
  8
0
  6
CONTINUOUS
 62
     7
 10
-599.2734244672
 20
107.4323656211
 30
0.0
 11
-599.2734244672
 21
87.4323548923
 31
0.0
  0
LINE
  5
1CA
  8
0
  6
CONTINUOUS
 62
     7
 10
-599.2734244672
 20
107.4323656211
 30
0.0
 11
-614.2734101621
 21
107.4323656211
 31
0.0
  0
LINE
  5
1CB
  8
0
  6
CONTINUOUS
 62
     7
 10
-599.2734244672
 20
87.4323548923
 30
0.0
 11
-614.2734101621
 21
87.4323548923
 31
0.0
  0
LINE
  5
1CC
  8
0
  6
CONTINUOUS
 62
     7
 10
-599.2734244672
 20
-592.5676522603
 30
0.0
 11
-599.2734244672
 21
-612.5676629891
 31
0.0
  0
LINE
  5
1CD
  8
0
  6
CONTINUOUS
 62
     7
 10
-599.2734244672
 20
-592.5676522603
 30
0.0
 11
-614.2734101621
 21
-592.5676522603
 31
0.0
  0
LINE
  5
1CE
  8
0
  6
CONTINUOUS
 62
     7
 10
-599.2734244672
 20
-612.5676629891
 30
0.0
 11
-614.2734101621
 21
-612.5676629891
 31
0.0
  0
LINE
  5
1CF
  8
0
  6
CONTINUOUS
 62
     7
 10
-793.2631185857
 20
-642.5676343789
 30
0.0
 11
-793.2631185857
 21
-633.5676608433
 31
0.0
  0
LINE
  5
1D0
  8
0
  6
CONTINUOUS
 62
     7
 10
-784.602861723
 20
-633.5676608433
 30
0.0
 11
-784.602861723
 21
-552.5676606049
 31
0.0
  0
LINE
  5
1D1
  8
0
  6
CONTINUOUS
 62
     7
 10
-759.4169786779
 20
-552.5676606049
 30
0.0
 11
-627.374630293
 21
-464.539393579
 31
0.0
  0
LINE
  5
1D2
  8
0
  6
CONTINUOUS
 62
     7
 10
-627.374630293
 20
-437.9812775006
 30
0.0
 11
-627.374630293
 21
-464.539393579
 31
0.0
  0
LINE
  5
1D3
  8
0
  6
CONTINUOUS
 62
     7
 10
-627.374630293
 20
-437.9812775006
 30
0.0
 11
-625.2541950551
 21
-436.5676490416
 31
0.0
  0
LINE
  5
1D4
  8
0
  6
CONTINUOUS
 62
     7
 10
-625.2541950551
 20
-436.5676490416
 30
0.0
 11
-625.2541950551
 21
-68.5676483263
 31
0.0
  0
LINE
  5
1D5
  8
0
  6
CONTINUOUS
 62
     7
 10
-625.2541950551
 20
-68.5676483263
 30
0.0
 11
-627.374630293
 21
-67.1540198674
 31
0.0
  0
LINE
  5
1D6
  8
0
  6
CONTINUOUS
 62
     7
 10
-627.374630293
 20
-40.595903789
 30
0.0
 11
-627.374630293
 21
-67.1540198674
 31
0.0
  0
LINE
  5
1D7
  8
0
  6
CONTINUOUS
 62
     7
 10
-759.4169786779
 20
47.432363237
 30
0.0
 11
-627.374630293
 21
-40.595903789
 31
0.0
  0
LINE
  5
1D8
  8
0
  6
CONTINUOUS
 62
     7
 10
-784.602861723
 20
128.4323634754
 30
0.0
 11
-784.602861723
 21
47.432363237
 31
0.0
  0
LINE
  5
1D9
  8
0
  6
CONTINUOUS
 62
     7
 10
-793.2631185857
 20
137.4323370109
 30
0.0
 11
-793.2631185857
 21
128.4323634754
 31
0.0
  0
LINE
  5
1DA
  8
0
  6
CONTINUOUS
 62
     7
 10
-954.3438366262
 20
114.4323649059
 30
0.0
 11
-954.3438366262
 21
47.432363237
 31
0.0
  0
LINE
  5
1DB
  8
0
  6
CONTINUOUS
 62
     7
 10
-954.3438366262
 20
-552.5676606049
 30
0.0
 11
-954.3438366262
 21
-619.5676622738
 31
0.0
  0
POLYLINE
  5
1DC
  8
0
  6
CONTINUOUS
 62
     7
 66
     1
 10
0.0
 20
0.0
 30
0.0
  0
VERTEX
  5
7D8
  8
0
  6
CONTINUOUS
 62
     7
 10
-885.061781725
 20
194.4323482166
 30
0.0
  0
VERTEX
  5
7D9
  8
0
  6
CONTINUOUS
 62
     7
 10
-887.479703745
 20
194.3836214195
 30
0.0
  0
VERTEX
  5
7DA
  8
0
  6
CONTINUOUS
 62
     7
 10
-889.8946455327
 20
194.2374708305
 30
0.0
  0
VERTEX
  5
7DB
  8
0
  6
CONTINUOUS
 62
     7
 10
-892.3037460652
 20
193.9941050659
 30
0.0
  0
VERTEX
  5
7DC
  8
0
  6
CONTINUOUS
 62
     7
 10
-894.7039655057
 20
193.6537923465
 30
0.0
  0
VERTEX
  5
7DD
  8
0
  6
CONTINUOUS
 62
     7
 10
-897.0925024358
 20
193.2169797073
 30
0.0
  0
VERTEX
  5
7DE
  8
0
  6
CONTINUOUS
 62
     7
 10
-899.4663170186
 20
192.6841737876
 30
0.0
  0
VERTEX
  5
7DF
  8
0
  6
CONTINUOUS
 62
     7
 10
-901.8226674405
 20
192.0560004364
 30
0.0
  0
VERTEX
  5
7E0
  8
0
  6
CONTINUOUS
 62
     7
 10
-904.1585138646
 20
191.3332941185
 30
0.0
  0
VERTEX
  5
7E1
  8
0
  6
CONTINUOUS
 62
     7
 10
-906.4711144773
 20
190.5168594966
 30
0.0
  0
VERTEX
  5
7E2
  8
0
  6
CONTINUOUS
 62
     7
 10
-908.7576678601
 20
189.6077694545
 30
0.0
  0
VERTEX
  5
7E3
  8
0
  6
CONTINUOUS
 62
     7
 10
-911.0153129903
 20
188.6070670734
 30
0.0
  0
VERTEX
  5
7E4
  8
0
  6
CONTINUOUS
 62
     7
 10
-913.2413676587
 20
187.5159742485
 30
0.0
  0
VERTEX
  5
7E5
  8
0
  6
CONTINUOUS
 62
     7
 10
-915.4330304471
 20
186.3358618866
 30
0.0
  0
VERTEX
  5
7E6
  8
0
  6
CONTINUOUS
 62
     7
 10
-917.5877979604
 20
185.0681604991
 30
0.0
  0
VERTEX
  5
7E7
  8
0
  6
CONTINUOUS
 62
     7
 10
-919.7028091756
 20
183.7143900047
 30
0.0
  0
VERTEX
  5
7E8
  8
0
  6
CONTINUOUS
 62
     7
 10
-921.7757395116
 20
182.2761895309
 30
0.0
  0
VERTEX
  5
7E9
  8
0
  6
CONTINUOUS
 62
     7
 10
-923.8038471547
 20
180.7553472171
 30
0.0
  0
VERTEX
  5
7EA
  8
0
  6
CONTINUOUS
 62
     7
 10
-925.7847479192
 20
179.1537108074
 30
0.0
  0
VERTEX
  5
7EB
  8
0
  6
CONTINUOUS
 62
     7
 10
-927.7160576192
 20
177.4732174526
 30
0.0
  0
VERTEX
  5
7EC
  8
0
  6
CONTINUOUS
 62
     7
 10
-929.595392069
 20
175.7158937107
 30
0.0
  0
VERTEX
  5
7ED
  8
0
  6
CONTINUOUS
 62
     7
 10
-931.420486292
 20
173.8839449535
 30
0.0
  0
VERTEX
  5
7EE
  8
0
  6
CONTINUOUS
 62
     7
 10
-933.1891945211
 20
171.9795467506
 30
0.0
  0
VERTEX
  5
7EF
  8
0
  6
CONTINUOUS
 62
     7
 10
-934.8991325704
 20
170.0050236831
 30
0.0
  0
VERTEX
  5
7F0
  8
0
  6
CONTINUOUS
 62
     7
 10
-936.5483930913
 20
167.9627897392
 30
0.0
  0
VERTEX
  5
7F1
  8
0
  6
CONTINUOUS
 62
     7
 10
-938.1349495259
 20
165.8553483139
 30
0.0
  0
VERTEX
  5
7F2
  8
0
  6
CONTINUOUS
 62
     7
 10
-939.6567753163
 20
163.6852624069
 30
0.0
  0
VERTEX
  5
7F3
  8
0
  6
CONTINUOUS
 62
     7
 10
-941.1120823232
 20
161.4551844249
 30
0.0
  0
VERTEX
  5
7F4
  8
0
  6
CONTINUOUS
 62
     7
 10
-942.4992016164
 20
159.167796577
 30
0.0
  0
VERTEX
  5
7F5
  8
0
  6
CONTINUOUS
 62
     7
 10
-943.8163450566
 20
156.8259002815
 30
0.0
  0
VERTEX
  5
7F6
  8
0
  6
CONTINUOUS
 62
     7
 10
-945.0618437139
 20
154.4323565612
 30
0.0
  0
VERTEX
  5
7F7
  8
0
  6
CONTINUOUS
 62
     7
 10
-946.2341478673
 20
151.9900860439
 30
0.0
  0
VERTEX
  5
7F8
  8
0
  6
CONTINUOUS
 62
     7
 10
-947.3320654241
 20
149.5020391594
 30
0.0
  0
VERTEX
  5
7F9
  8
0
  6
CONTINUOUS
 62
     7
 10
-948.3540466634
 20
146.9712855468
 30
0.0
  0
VERTEX
  5
7FA
  8
0
  6
CONTINUOUS
 62
     7
 10
-949.2990187017
 20
144.4008650432
 30
0.0
  0
VERTEX
  5
7FB
  8
0
  6
CONTINUOUS
 62
     7
 10
-950.1656702367
 20
141.793966497
 30
0.0
  0
VERTEX
  5
7FC
  8
0
  6
CONTINUOUS
 62
     7
 10
-950.9529283849
 20
139.153719152
 30
0.0
  0
VERTEX
  5
7FD
  8
0
  6
CONTINUOUS
 62
     7
 10
-951.6599586812
 20
136.4833416591
 30
0.0
  0
VERTEX
  5
7FE
  8
0
  6
CONTINUOUS
 62
     7
 10
-952.2858074513
 20
133.7861122737
 30
0.0
  0
VERTEX
  5
7FF
  8
0
  6
CONTINUOUS
 62
     7
 10
-952.8298786489
 20
131.065279449
 30
0.0
  0
VERTEX
  5
800
  8
0
  6
CONTINUOUS
 62
     7
 10
-953.2913378087
 20
128.3242108474
 30
0.0
  0
VERTEX
  5
801
  8
0
  6
CONTINUOUS
 62
     7
 10
-953.6695888845
 20
125.5661847244
 30
0.0
  0
VERTEX
  5
802
  8
0
  6
CONTINUOUS
 62
     7
 10
-953.9642742482
 20
122.794628347
 30
0.0
  0
VERTEX
  5
803
  8
0
  6
CONTINUOUS
 62
     7
 10
-954.1750362722
 20
120.0128795753
 30
0.0
  0
VERTEX
  5
804
  8
0
  6
CONTINUOUS
 62
     7
 10
-954.3016365377
 20
117.2243060718
 30
0.0
  0
VERTEX
  5
805
  8
0
  6
CONTINUOUS
 62
     7
 10
-954.3438366262
 20
114.4323649059
 30
0.0
  0
SEQEND
  5
B53
  8
0
  6
CONTINUOUS
 62
     7
  0
LINE
  5
1DD
  8
0
  6
CONTINUOUS
 62
     7
 10
-633.9144519177
 20
194.4323482166
 30
0.0
 11
-885.061781725
 21
194.4323482166
 31
0.0
  0
POLYLINE
  5
1DE
  8
0
  6
CONTINUOUS
 62
     7
 66
     1
 10
0.0
 20
0.0
 30
0.0
  0
VERTEX
  5
806
  8
0
  6
CONTINUOUS
 62
     7
 10
-564.6323970166
 20
114.4323649059
 30
0.0
  0
VERTEX
  5
807
  8
0
  6
CONTINUOUS
 62
     7
 10
-564.6745971051
 20
117.2243060718
 30
0.0
  0
VERTEX
  5
808
  8
0
  6
CONTINUOUS
 62
     7
 10
-564.801137766
 20
120.0128795753
 30
0.0
  0
VERTEX
  5
809
  8
0
  6
CONTINUOUS
 62
     7
 10
-565.0119593946
 20
122.794628347
 30
0.0
  0
VERTEX
  5
80A
  8
0
  6
CONTINUOUS
 62
     7
 10
-565.3066447583
 20
125.5661847244
 30
0.0
  0
VERTEX
  5
80B
  8
0
  6
CONTINUOUS
 62
     7
 10
-565.6849554387
 20
128.3242108474
 30
0.0
  0
VERTEX
  5
80C
  8
0
  6
CONTINUOUS
 62
     7
 10
-566.1463549939
 20
131.065279449
 30
0.0
  0
VERTEX
  5
80D
  8
0
  6
CONTINUOUS
 62
     7
 10
-566.6903665868
 20
133.7861122737
 30
0.0
  0
VERTEX
  5
80E
  8
0
  6
CONTINUOUS
 62
     7
 10
-567.3162749616
 20
136.4833416591
 30
0.0
  0
VERTEX
  5
80F
  8
0
  6
CONTINUOUS
 62
     7
 10
-568.0233052579
 20
139.153719152
 30
0.0
  0
VERTEX
  5
810
  8
0
  6
CONTINUOUS
 62
     7
 10
-568.8106230107
 20
141.793966497
 30
0.0
  0
VERTEX
  5
811
  8
0
  6
CONTINUOUS
 62
     7
 10
-569.6772745458
 20
144.4008650432
 30
0.0
  0
VERTEX
  5
812
  8
0
  6
CONTINUOUS
 62
     7
 10
-570.6221273748
 20
146.9712855468
 30
0.0
  0
VERTEX
  5
813
  8
0
  6
CONTINUOUS
 62
     7
 10
-571.6441682187
 20
149.5020391594
 30
0.0
  0
VERTEX
  5
814
  8
0
  6
CONTINUOUS
 62
     7
 10
-572.7420261708
 20
151.9900860439
 30
0.0
  0
VERTEX
  5
815
  8
0
  6
CONTINUOUS
 62
     7
 10
-573.9144495336
 20
154.4323565612
 30
0.0
  0
VERTEX
  5
816
  8
0
  6
CONTINUOUS
 62
     7
 10
-575.1599481908
 20
156.8259002815
 30
0.0
  0
VERTEX
  5
817
  8
0
  6
CONTINUOUS
 62
     7
 10
-576.4770320264
 20
159.167796577
 30
0.0
  0
VERTEX
  5
818
  8
0
  6
CONTINUOUS
 62
     7
 10
-577.864091715
 20
161.4551844249
 30
0.0
  0
VERTEX
  5
819
  8
0
  6
CONTINUOUS
 62
     7
 10
-579.3194583264
 20
163.6852624069
 30
0.0
  0
VERTEX
  5
81A
  8
0
  6
CONTINUOUS
 62
     7
 10
-580.8413437215
 20
165.8553483139
 30
0.0
  0
VERTEX
  5
81B
  8
0
  6
CONTINUOUS
 62
     7
 10
-582.4278405515
 20
167.9627897392
 30
0.0
  0
VERTEX
  5
81C
  8
0
  6
CONTINUOUS
 62
     7
 10
-584.0771010724
 20
170.0050236831
 30
0.0
  0
VERTEX
  5
81D
  8
0
  6
CONTINUOUS
 62
     7
 10
-585.7870987264
 20
171.9795467506
 30
0.0
  0
VERTEX
  5
81E
  8
0
  6
CONTINUOUS
 62
     7
 10
-587.5556877461
 20
173.8839449535
 30
0.0
  0
VERTEX
  5
81F
  8
0
  6
CONTINUOUS
 62
     7
 10
-589.3807819692
 20
175.7158937107
 30
0.0
  0
VERTEX
  5
820
  8
0
  6
CONTINUOUS
 62
     7
 10
-591.2601760236
 20
177.4732174526
 30
0.0
  0
VERTEX
  5
821
  8
0
  6
CONTINUOUS
 62
     7
 10
-593.1914857236
 20
179.1537108074
 30
0.0
  0
VERTEX
  5
822
  8
0
  6
CONTINUOUS
 62
     7
 10
-595.1723864881
 20
180.7553472171
 30
0.0
  0
VERTEX
  5
823
  8
0
  6
CONTINUOUS
 62
     7
 10
-597.2005537358
 20
182.2761895309
 30
0.0
  0
VERTEX
  5
824
  8
0
  6
CONTINUOUS
 62
     7
 10
-599.2734244672
 20
183.7143900047
 30
0.0
  0
VERTEX
  5
825
  8
0
  6
CONTINUOUS
 62
     7
 10
-601.388495287
 20
185.0681604991
 30
0.0
  0
VERTEX
  5
826
  8
0
  6
CONTINUOUS
 62
     7
 10
-603.5432031957
 20
186.3358618866
 30
0.0
  0
VERTEX
  5
827
  8
0
  6
CONTINUOUS
 62
     7
 10
-605.7348659841
 20
187.5159742485
 30
0.0
  0
VERTEX
  5
828
  8
0
  6
CONTINUOUS
 62
     7
 10
-607.9609206525
 20
188.6070670734
 30
0.0
  0
VERTEX
  5
829
  8
0
  6
CONTINUOUS
 62
     7
 10
-610.2185657826
 20
189.6077694545
 30
0.0
  0
VERTEX
  5
82A
  8
0
  6
CONTINUOUS
 62
     7
 10
-612.5051191655
 20
190.5168594966
 30
0.0
  0
VERTEX
  5
82B
  8
0
  6
CONTINUOUS
 62
     7
 10
-614.8177197782
 20
191.3332941185
 30
0.0
  0
VERTEX
  5
82C
  8
0
  6
CONTINUOUS
 62
     7
 10
-617.1535662023
 20
192.0560004364
 30
0.0
  0
VERTEX
  5
82D
  8
0
  6
CONTINUOUS
 62
     7
 10
-619.5098570195
 20
192.6841737876
 30
0.0
  0
VERTEX
  5
82E
  8
0
  6
CONTINUOUS
 62
     7
 10
-621.883731207
 20
193.2169797073
 30
0.0
  0
VERTEX
  5
82F
  8
0
  6
CONTINUOUS
 62
     7
 10
-624.2722085324
 20
193.6537923465
 30
0.0
  0
VERTEX
  5
830
  8
0
  6
CONTINUOUS
 62
     7
 10
-626.6724875775
 20
193.9941050659
 30
0.0
  0
VERTEX
  5
831
  8
0
  6
CONTINUOUS
 62
     7
 10
-629.0815881101
 20
194.2374708305
 30
0.0
  0
VERTEX
  5
832
  8
0
  6
CONTINUOUS
 62
     7
 10
-631.4965298978
 20
194.3836214195
 30
0.0
  0
VERTEX
  5
833
  8
0
  6
CONTINUOUS
 62
     7
 10
-633.9144519177
 20
194.4323482166
 30
0.0
  0
SEQEND
  5
B52
  8
0
  6
CONTINUOUS
 62
     7
  0
LINE
  5
1DF
  8
0
  6
CONTINUOUS
 62
     7
 10
-564.6323970166
 20
-619.5676622738
 30
0.0
 11
-564.6323970166
 21
114.4323649059
 31
0.0
  0
POLYLINE
  5
1E0
  8
0
  6
CONTINUOUS
 62
     7
 66
     1
 10
0.0
 20
0.0
 30
0.0
  0
VERTEX
  5
834
  8
0
  6
CONTINUOUS
 62
     7
 10
-633.9144519177
 20
-699.5676455845
 30
0.0
  0
VERTEX
  5
835
  8
0
  6
CONTINUOUS
 62
     7
 10
-631.4965298978
 20
-699.5189187874
 30
0.0
  0
VERTEX
  5
836
  8
0
  6
CONTINUOUS
 62
     7
 10
-629.0815881101
 20
-699.3727681984
 30
0.0
  0
VERTEX
  5
837
  8
0
  6
CONTINUOUS
 62
     7
 10
-626.6724875775
 20
-699.1294024338
 30
0.0
  0
VERTEX
  5
838
  8
0
  6
CONTINUOUS
 62
     7
 10
-624.2722085324
 20
-698.7890897145
 30
0.0
  0
VERTEX
  5
839
  8
0
  6
CONTINUOUS
 62
     7
 10
-621.883731207
 20
-698.3522770752
 30
0.0
  0
VERTEX
  5
83A
  8
0
  6
CONTINUOUS
 62
     7
 10
-619.5098570195
 20
-697.8194711556
 30
0.0
  0
VERTEX
  5
83B
  8
0
  6
CONTINUOUS
 62
     7
 10
-617.1535662023
 20
-697.1912978043
 30
0.0
  0
VERTEX
  5
83C
  8
0
  6
CONTINUOUS
 62
     7
 10
-614.8177197782
 20
-696.4685914864
 30
0.0
  0
VERTEX
  5
83D
  8
0
  6
CONTINUOUS
 62
     7
 10
-612.5051191655
 20
-695.6521568646
 30
0.0
  0
VERTEX
  5
83E
  8
0
  6
CONTINUOUS
 62
     7
 10
-610.2185657826
 20
-694.7430668225
 30
0.0
  0
VERTEX
  5
83F
  8
0
  6
CONTINUOUS
 62
     7
 10
-607.9609206525
 20
-693.7423644413
 30
0.0
  0
VERTEX
  5
840
  8
0
  6
CONTINUOUS
 62
     7
 10
-605.7348659841
 20
-692.6512716164
 30
0.0
  0
VERTEX
  5
841
  8
0
  6
CONTINUOUS
 62
     7
 10
-603.5432031957
 20
-691.4711592545
 30
0.0
  0
VERTEX
  5
842
  8
0
  6
CONTINUOUS
 62
     7
 10
-601.388495287
 20
-690.2034578671
 30
0.0
  0
VERTEX
  5
843
  8
0
  6
CONTINUOUS
 62
     7
 10
-599.2734244672
 20
-688.8496873726
 30
0.0
  0
VERTEX
  5
844
  8
0
  6
CONTINUOUS
 62
     7
 10
-597.2005537358
 20
-687.4114868988
 30
0.0
  0
VERTEX
  5
845
  8
0
  6
CONTINUOUS
 62
     7
 10
-595.1723864881
 20
-685.8906445851
 30
0.0
  0
VERTEX
  5
846
  8
0
  6
CONTINUOUS
 62
     7
 10
-593.1914857236
 20
-684.2890081753
 30
0.0
  0
VERTEX
  5
847
  8
0
  6
CONTINUOUS
 62
     7
 10
-591.2601760236
 20
-682.6085148205
 30
0.0
  0
VERTEX
  5
848
  8
0
  6
CONTINUOUS
 62
     7
 10
-589.3807819692
 20
-680.8511910786
 30
0.0
  0
VERTEX
  5
849
  8
0
  6
CONTINUOUS
 62
     7
 10
-587.5556877461
 20
-679.0192423214
 30
0.0
  0
VERTEX
  5
84A
  8
0
  6
CONTINUOUS
 62
     7
 10
-585.7870987264
 20
-677.1148441185
 30
0.0
  0
VERTEX
  5
84B
  8
0
  6
CONTINUOUS
 62
     7
 10
-584.0771010724
 20
-675.1403210511
 30
0.0
  0
VERTEX
  5
84C
  8
0
  6
CONTINUOUS
 62
     7
 10
-582.4278405515
 20
-673.0980871071
 30
0.0
  0
VERTEX
  5
84D
  8
0
  6
CONTINUOUS
 62
     7
 10
-580.8413437215
 20
-670.9906456818
 30
0.0
  0
VERTEX
  5
84E
  8
0
  6
CONTINUOUS
 62
     7
 10
-579.3194583264
 20
-668.8205597748
 30
0.0
  0
VERTEX
  5
84F
  8
0
  6
CONTINUOUS
 62
     7
 10
-577.864091715
 20
-666.5904817929
 30
0.0
  0
VERTEX
  5
850
  8
0
  6
CONTINUOUS
 62
     7
 10
-576.4770320264
 20
-664.303093945
 30
0.0
  0
VERTEX
  5
851
  8
0
  6
CONTINUOUS
 62
     7
 10
-575.1599481908
 20
-661.9611976494
 30
0.0
  0
VERTEX
  5
852
  8
0
  6
CONTINUOUS
 62
     7
 10
-573.9144495336
 20
-659.5676539292
 30
0.0
  0
VERTEX
  5
853
  8
0
  6
CONTINUOUS
 62
     7
 10
-572.7420261708
 20
-657.1253834118
 30
0.0
  0
VERTEX
  5
854
  8
0
  6
CONTINUOUS
 62
     7
 10
-571.6441682187
 20
-654.6373365273
 30
0.0
  0
VERTEX
  5
855
  8
0
  6
CONTINUOUS
 62
     7
 10
-570.6221273748
 20
-652.1065829148
 30
0.0
  0
VERTEX
  5
856
  8
0
  6
CONTINUOUS
 62
     7
 10
-569.6772745458
 20
-649.5361624112
 30
0.0
  0
VERTEX
  5
857
  8
0
  6
CONTINUOUS
 62
     7
 10
-568.8106230107
 20
-646.9292638649
 30
0.0
  0
VERTEX
  5
858
  8
0
  6
CONTINUOUS
 62
     7
 10
-568.0233052579
 20
-644.28901652
 30
0.0
  0
VERTEX
  5
859
  8
0
  6
CONTINUOUS
 62
     7
 10
-567.3162749616
 20
-641.6186390271
 30
0.0
  0
VERTEX
  5
85A
  8
0
  6
CONTINUOUS
 62
     7
 10
-566.6903665868
 20
-638.9214096417
 30
0.0
  0
VERTEX
  5
85B
  8
0
  6
CONTINUOUS
 62
     7
 10
-566.1463549939
 20
-636.200576817
 30
0.0
  0
VERTEX
  5
85C
  8
0
  6
CONTINUOUS
 62
     7
 10
-565.6849554387
 20
-633.4595082154
 30
0.0
  0
VERTEX
  5
85D
  8
0
  6
CONTINUOUS
 62
     7
 10
-565.3066447583
 20
-630.7014820923
 30
0.0
  0
VERTEX
  5
85E
  8
0
  6
CONTINUOUS
 62
     7
 10
-565.0119593946
 20
-627.9299257149
 30
0.0
  0
VERTEX
  5
85F
  8
0
  6
CONTINUOUS
 62
     7
 10
-564.801137766
 20
-625.1481769432
 30
0.0
  0
VERTEX
  5
860
  8
0
  6
CONTINUOUS
 62
     7
 10
-564.6745971051
 20
-622.3596034398
 30
0.0
  0
VERTEX
  5
861
  8
0
  6
CONTINUOUS
 62
     7
 10
-564.6323970166
 20
-619.5676622738
 30
0.0
  0
SEQEND
  5
B51
  8
0
  6
CONTINUOUS
 62
     7
  0
LINE
  5
1E1
  8
0
  6
CONTINUOUS
 62
     7
 10
-848.0644038526
 20
-699.5676455845
 30
0.0
 11
-633.9144519177
 21
-699.5676455845
 31
0.0
  0
POLYLINE
  5
1E2
  8
0
  6
CONTINUOUS
 62
     7
 66
     1
 10
0.0
 20
0.0
 30
0.0
  0
VERTEX
  5
862
  8
0
  6
CONTINUOUS
 62
     7
 10
-954.3438366262
 20
-619.5676622738
 30
0.0
  0
VERTEX
  5
863
  8
0
  6
CONTINUOUS
 62
     7
 10
-954.3016365377
 20
-622.3596034398
 30
0.0
  0
VERTEX
  5
864
  8
0
  6
CONTINUOUS
 62
     7
 10
-954.1750362722
 20
-625.1481769432
 30
0.0
  0
VERTEX
  5
865
  8
0
  6
CONTINUOUS
 62
     7
 10
-953.9642742482
 20
-627.9299257149
 30
0.0
  0
VERTEX
  5
866
  8
0
  6
CONTINUOUS
 62
     7
 10
-953.6695888845
 20
-630.7014820923
 30
0.0
  0
VERTEX
  5
867
  8
0
  6
CONTINUOUS
 62
     7
 10
-953.2913378087
 20
-633.4595082154
 30
0.0
  0
VERTEX
  5
868
  8
0
  6
CONTINUOUS
 62
     7
 10
-952.8298786489
 20
-636.200576817
 30
0.0
  0
VERTEX
  5
869
  8
0
  6
CONTINUOUS
 62
     7
 10
-952.2858074513
 20
-638.9214096417
 30
0.0
  0
VERTEX
  5
86A
  8
0
  6
CONTINUOUS
 62
     7
 10
-951.6599586812
 20
-641.6186390271
 30
0.0
  0
VERTEX
  5
86B
  8
0
  6
CONTINUOUS
 62
     7
 10
-950.9529283849
 20
-644.28901652
 30
0.0
  0
VERTEX
  5
86C
  8
0
  6
CONTINUOUS
 62
     7
 10
-950.1656702367
 20
-646.9292638649
 30
0.0
  0
VERTEX
  5
86D
  8
0
  6
CONTINUOUS
 62
     7
 10
-949.2990187017
 20
-649.5361624112
 30
0.0
  0
VERTEX
  5
86E
  8
0
  6
CONTINUOUS
 62
     7
 10
-948.3540466634
 20
-652.1065829148
 30
0.0
  0
VERTEX
  5
86F
  8
0
  6
CONTINUOUS
 62
     7
 10
-947.3320654241
 20
-654.6373365273
 30
0.0
  0
VERTEX
  5
870
  8
0
  6
CONTINUOUS
 62
     7
 10
-946.2341478673
 20
-657.1253834118
 30
0.0
  0
VERTEX
  5
871
  8
0
  6
CONTINUOUS
 62
     7
 10
-945.0618437139
 20
-659.5676539292
 30
0.0
  0
VERTEX
  5
872
  8
0
  6
CONTINUOUS
 62
     7
 10
-943.8163450566
 20
-661.9611976494
 30
0.0
  0
VERTEX
  5
873
  8
0
  6
CONTINUOUS
 62
     7
 10
-942.4992016164
 20
-664.303093945
 30
0.0
  0
VERTEX
  5
874
  8
0
  6
CONTINUOUS
 62
     7
 10
-941.1120823232
 20
-666.5904817929
 30
0.0
  0
VERTEX
  5
875
  8
0
  6
CONTINUOUS
 62
     7
 10
-939.6567753163
 20
-668.8205597748
 30
0.0
  0
VERTEX
  5
876
  8
0
  6
CONTINUOUS
 62
     7
 10
-938.1349495259
 20
-670.9906456818
 30
0.0
  0
VERTEX
  5
877
  8
0
  6
CONTINUOUS
 62
     7
 10
-936.5483930913
 20
-673.0980871071
 30
0.0
  0
VERTEX
  5
878
  8
0
  6
CONTINUOUS
 62
     7
 10
-934.8991325704
 20
-675.1403210511
 30
0.0
  0
VERTEX
  5
879
  8
0
  6
CONTINUOUS
 62
     7
 10
-933.1891945211
 20
-677.1148441185
 30
0.0
  0
VERTEX
  5
87A
  8
0
  6
CONTINUOUS
 62
     7
 10
-931.420486292
 20
-679.0192423214
 30
0.0
  0
VERTEX
  5
87B
  8
0
  6
CONTINUOUS
 62
     7
 10
-929.595392069
 20
-680.8511910786
 30
0.0
  0
VERTEX
  5
87C
  8
0
  6
CONTINUOUS
 62
     7
 10
-927.7160576192
 20
-682.6085148205
 30
0.0
  0
VERTEX
  5
87D
  8
0
  6
CONTINUOUS
 62
     7
 10
-925.7847479192
 20
-684.2890081753
 30
0.0
  0
VERTEX
  5
87E
  8
0
  6
CONTINUOUS
 62
     7
 10
-923.8038471547
 20
-685.8906445851
 30
0.0
  0
VERTEX
  5
87F
  8
0
  6
CONTINUOUS
 62
     7
 10
-921.7757395116
 20
-687.4114868988
 30
0.0
  0
VERTEX
  5
880
  8
0
  6
CONTINUOUS
 62
     7
 10
-919.7028091756
 20
-688.8496873726
 30
0.0
  0
VERTEX
  5
881
  8
0
  6
CONTINUOUS
 62
     7
 10
-917.5877979604
 20
-690.2034578671
 30
0.0
  0
VERTEX
  5
882
  8
0
  6
CONTINUOUS
 62
     7
 10
-915.4330304471
 20
-691.4711592545
 30
0.0
  0
VERTEX
  5
883
  8
0
  6
CONTINUOUS
 62
     7
 10
-913.2413676587
 20
-692.6512716164
 30
0.0
  0
VERTEX
  5
884
  8
0
  6
CONTINUOUS
 62
     7
 10
-911.0153129903
 20
-693.7423644413
 30
0.0
  0
VERTEX
  5
885
  8
0
  6
CONTINUOUS
 62
     7
 10
-908.7576678601
 20
-694.7430668225
 30
0.0
  0
VERTEX
  5
886
  8
0
  6
CONTINUOUS
 62
     7
 10
-906.4711144773
 20
-695.6521568646
 30
0.0
  0
VERTEX
  5
887
  8
0
  6
CONTINUOUS
 62
     7
 10
-904.1585138646
 20
-696.4685914864
 30
0.0
  0
VERTEX
  5
888
  8
0
  6
CONTINUOUS
 62
     7
 10
-901.8226674405
 20
-697.1912978043
 30
0.0
  0
VERTEX
  5
889
  8
0
  6
CONTINUOUS
 62
     7
 10
-899.4663170186
 20
-697.8194711556
 30
0.0
  0
VERTEX
  5
88A
  8
0
  6
CONTINUOUS
 62
     7
 10
-897.0925024358
 20
-698.3522770752
 30
0.0
  0
VERTEX
  5
88B
  8
0
  6
CONTINUOUS
 62
     7
 10
-894.7039655057
 20
-698.7890897145
 30
0.0
  0
VERTEX
  5
88C
  8
0
  6
CONTINUOUS
 62
     7
 10
-892.3037460652
 20
-699.1294024338
 30
0.0
  0
VERTEX
  5
88D
  8
0
  6
CONTINUOUS
 62
     7
 10
-889.8946455327
 20
-699.3727681984
 30
0.0
  0
VERTEX
  5
88E
  8
0
  6
CONTINUOUS
 62
     7
 10
-888.0643657056
 20
-699.4924841275
 30
0.0
  0
SEQEND
  5
B50
  8
0
  6
CONTINUOUS
 62
     7
  0
LINE
  5
1E3
  8
0
  6
CONTINUOUS
 62
     7
 10
-633.9144519177
 20
194.4323482166
 30
0.0
 11
-618.9144066182
 21
194.4323482166
 31
0.0
  0
LINE
  5
1E4
  8
0
  6
CONTINUOUS
 62
     7
 10
-633.9144519177
 20
-699.5676455845
 30
0.0
 11
-618.9144066182
 21
-699.5676455845
 31
0.0
  0
LINE
  5
1E5
  8
0
  6
CONTINUOUS
 62
     7
 10
-859.5266750661
 20
-552.5676606049
 30
0.0
 11
-957.0644310323
 21
-552.5676606049
 31
0.0
  0
LINE
  5
1E6
  8
0
  6
CONTINUOUS
 62
     7
 10
-859.5266750661
 20
47.432363237
 30
0.0
 11
-957.0644310323
 21
47.432363237
 31
0.0
  0
ARC
  5
1E7
  8
0
  6
CONTINUOUS
 62
     7
 10
-751.1817083319
 20
-217.4116280241
 30
0.0
 40
15.43925971535576
 50
2.2159574191
 51
89.867041355
  0
LINE
  5
1E8
  8
0
  6
CONTINUOUS
 62
     7
 10
-751.1458805409
 20
-210.5973956932
 30
0.0
 11
-751.1458805409
 21
-223.9330539306
 31
0.0
  0
LINE
  5
1E9
  8
0
  6
CONTINUOUS
 62
     7
 10
-751.1458805409
 20
-223.9330539306
 30
0.0
 11
-708.9307716695
 21
-241.2002727215
 31
0.0
  0
LINE
  5
1EA
  8
0
  6
CONTINUOUS
 62
     7
 10
-708.9307716695
 20
-193.0438389828
 30
0.0
 11
-727.5402954427
 21
-207.1320896794
 31
0.0
  0
LINE
  5
1EB
  8
0
  6
CONTINUOUS
 62
     7
 10
-751.1458805409
 20
-190.067648684
 30
0.0
 11
-751.1458805409
 21
-201.9724098792
 31
0.0
  0
LINE
  5
1EC
  8
0
  6
CONTINUOUS
 62
     7
 10
-708.9307716695
 20
-263.9350246464
 30
0.0
 11
-751.1458805409
 21
-281.2022434374
 31
0.0
  0
LINE
  5
1ED
  8
0
  6
CONTINUOUS
 62
     7
 10
-751.1458805409
 20
-281.2022434374
 30
0.0
 11
-751.1458805409
 21
-315.067648684
 31
0.0
  0
LINE
  5
1EE
  8
0
  6
CONTINUOUS
 62
     7
 10
-739.1041329709
 20
-303.4314995458
 30
0.0
 11
-708.9307716695
 21
-315.067648684
 31
0.0
  0
LINE
  5
1EF
  8
0
  6
CONTINUOUS
 62
     7
 10
-627.374630293
 20
-464.539393579
 30
0.0
 11
-813.8043692914
 21
-552.5676606049
 31
0.0
  0
LINE
  5
1F0
  8
0
  6
CONTINUOUS
 62
     7
 10
-627.374630293
 20
-40.595903789
 30
0.0
 11
-813.8043692914
 21
47.432363237
 31
0.0
  0
LINE
  5
1F1
  8
0
  6
CONTINUOUS
 62
     7
 10
-768.1800535527
 20
-190.067648684
 30
0.0
 11
-768.1800535527
 21
-235.6033621182
 31
0.0
  0
LINE
  5
1F2
  8
0
  6
CONTINUOUS
 62
     7
 10
-768.1800535527
 20
-235.6033621182
 30
0.0
 11
-726.7055323926
 21
-252.567648684
 31
0.0
  0
LINE
  5
1F3
  8
0
  6
CONTINUOUS
 62
     7
 10
-726.7055323926
 20
-252.567648684
 30
0.0
 11
-768.1800535527
 21
-269.5319352498
 31
0.0
  0
LINE
  5
1F4
  8
0
  6
CONTINUOUS
 62
     7
 10
-768.1800535527
 20
-269.5319352498
 30
0.0
 11
-768.1800535527
 21
-315.067648684
 31
0.0
  0
LINE
  5
1F5
  8
0
  6
CONTINUOUS
 62
     7
 10
-813.8043692914
 20
-552.5676606049
 30
0.0
 11
-859.5266750661
 21
-552.5676606049
 31
0.0
  0
LINE
  5
1F6
  8
0
  6
CONTINUOUS
 62
     7
 10
-813.8043692914
 20
47.432363237
 30
0.0
 11
-859.5266750661
 21
47.432363237
 31
0.0
  0
LINE
  5
1F7
  8
0
  6
CONTINUOUS
 62
     7
 10
-759.4169786779
 20
47.432363237
 30
0.0
 11
-813.8043692914
 21
47.432363237
 31
0.0
  0
LINE
  5
1F8
  8
0
  6
CONTINUOUS
 62
     7
 10
-813.8043692914
 20
-552.5676606049
 30
0.0
 11
-759.4169786779
 21
-552.5676606049
 31
0.0
  0
LINE
  5
1F9
  8
0
  6
CONTINUOUS
 62
     7
 10
-767.9881862012
 20
-269.5319352498
 30
0.0
 11
-767.9881862012
 21
-315.067648684
 31
0.0
  0
LINE
  5
1FA
  8
0
  6
CONTINUOUS
 62
     7
 10
-726.5136650411
 20
-252.567648684
 30
0.0
 11
-767.9881862012
 21
-269.5319352498
 31
0.0
  0
LINE
  5
1FB
  8
0
  6
CONTINUOUS
 62
     7
 10
-767.9881862012
 20
-235.6033621182
 30
0.0
 11
-726.5136650411
 21
-252.567648684
 31
0.0
  0
LINE
  5
1FC
  8
0
  6
CONTINUOUS
 62
     7
 10
-767.9881862012
 20
-190.067648684
 30
0.0
 11
-767.9881862012
 21
-235.6033621182
 31
0.0
  0
LINE
  5
1FD
  8
0
  6
CONTINUOUS
 62
     7
 10
-755.6939533559
 20
-190.067648684
 30
0.0
 11
-767.9881862012
 21
-190.067648684
 31
0.0
  0
LINE
  5
1FE
  8
0
  6
CONTINUOUS
 62
     7
 10
-755.6939533559
 20
-227.1357362916
 30
0.0
 11
-755.6939533559
 21
-190.067648684
 31
0.0
  0
LINE
  5
1FF
  8
0
  6
CONTINUOUS
 62
     7
 10
-708.738904318
 20
-246.3417302643
 30
0.0
 11
-755.6939533559
 21
-227.1357362916
 31
0.0
  0
LINE
  5
200
  8
0
  6
CONTINUOUS
 62
     7
 10
-708.738904318
 20
-258.7935671036
 30
0.0
 11
-708.738904318
 21
-246.3417302643
 31
0.0
  0
LINE
  5
201
  8
0
  6
CONTINUOUS
 62
     7
 10
-755.6939533559
 20
-277.9995610764
 30
0.0
 11
-708.738904318
 21
-258.7935671036
 31
0.0
  0
LINE
  5
202
  8
0
  6
CONTINUOUS
 62
     7
 10
-755.6939533559
 20
-315.067648684
 30
0.0
 11
-755.6939533559
 21
-277.9995610764
 31
0.0
  0
LINE
  5
203
  8
0
  6
CONTINUOUS
 62
     7
 10
-767.9881862012
 20
-315.067648684
 30
0.0
 11
-755.6939533559
 21
-315.067648684
 31
0.0
  0
LINE
  5
204
  8
0
  6
CONTINUOUS
 62
     7
 10
-767.9881862012
 20
-190.067648684
 30
0.0
 11
-768.1800535527
 21
-190.067648684
 31
0.0
  0
LINE
  5
205
  8
0
  6
CONTINUOUS
 62
     7
 10
-767.9881862012
 20
-235.6033621182
 30
0.0
 11
-768.1800535527
 21
-235.6033621182
 31
0.0
  0
LINE
  5
206
  8
0
  6
CONTINUOUS
 62
     7
 10
-726.5136650411
 20
-252.567648684
 30
0.0
 11
-726.7055323926
 21
-252.567648684
 31
0.0
  0
LINE
  5
207
  8
0
  6
CONTINUOUS
 62
     7
 10
-767.9881862012
 20
-269.5319352498
 30
0.0
 11
-768.1800535527
 21
-269.5319352498
 31
0.0
  0
LINE
  5
208
  8
0
  6
CONTINUOUS
 62
     7
 10
-767.9881862012
 20
-315.067648684
 30
0.0
 11
-768.1800535527
 21
-315.067648684
 31
0.0
  0
LINE
  5
209
  8
0
  6
CONTINUOUS
 62
     7
 10
-739.1041329709
 20
-190.067648684
 30
0.0
 11
-750.9540131894
 21
-190.067648684
 31
0.0
  0
LINE
  5
20A
  8
0
  6
CONTINUOUS
 62
     7
 10
-739.1041329709
 20
-193.6390770425
 30
0.0
 11
-739.1041329709
 21
-190.067648684
 31
0.0
  0
ARC
  5
20B
  8
0
  6
CONTINUOUS
 62
     7
 10
-745.8376117369
 20
-211.1117957411
 30
0.0
 40
18.72526728816127
 50
11.8798663412
 51
68.9247849116
  0
LINE
  5
20C
  8
0
  6
CONTINUOUS
 62
     7
 10
-708.738904318
 20
-193.0438389828
 30
0.0
 11
-727.5134137479
 21
-207.2570061137
 31
0.0
  0
LINE
  5
20D
  8
0
  6
CONTINUOUS
 62
     7
 10
-708.738904318
 20
-208.5092065682
 30
0.0
 11
-708.738904318
 21
-193.0438389828
 31
0.0
  0
LINE
  5
20E
  8
0
  6
CONTINUOUS
 62
     7
 10
-725.3376653997
 20
-221.0752328684
 30
0.0
 11
-708.738904318
 21
-208.5092065682
 31
0.0
  0
LINE
  5
20F
  8
0
  6
CONTINUOUS
 62
     7
 10
-708.738904318
 20
-227.8646172782
 30
0.0
 11
-725.3376653997
 21
-221.0752328684
 31
0.0
  0
LINE
  5
210
  8
0
  6
CONTINUOUS
 62
     7
 10
-708.738904318
 20
-241.2002727215
 30
0.0
 11
-708.738904318
 21
-227.8646172782
 31
0.0
  0
LINE
  5
211
  8
0
  6
CONTINUOUS
 62
     7
 10
-750.9540131894
 20
-223.9330539306
 30
0.0
 11
-708.738904318
 21
-241.2002727215
 31
0.0
  0
LINE
  5
212
  8
0
  6
CONTINUOUS
 62
     7
 10
-750.9540131894
 20
-210.5973956932
 30
0.0
 11
-750.9540131894
 21
-223.9330539306
 31
0.0
  0
LINE
  5
213
  8
0
  6
CONTINUOUS
 62
     7
 10
-735.5590871183
 20
-216.8943768193
 30
0.0
 11
-750.9540131894
 21
-210.5973956932
 31
0.0
  0
ARC
  5
214
  8
0
  6
CONTINUOUS
 62
     7
 10
-750.9899842899
 20
-217.4119425096
 30
0.0
 40
15.43957453320638
 50
1.9210300328
 51
89.8665122473
  0
LINE
  5
215
  8
0
  6
CONTINUOUS
 62
     7
 10
-750.9540131894
 20
-190.067648684
 30
0.0
 11
-750.9540131894
 21
-201.9724098792
 31
0.0
  0
LINE
  5
216
  8
0
  6
CONTINUOUS
 62
     7
 10
-750.9540131894
 20
-190.067648684
 30
0.0
 11
-751.1458805409
 21
-190.067648684
 31
0.0
  0
LINE
  5
217
  8
0
  6
CONTINUOUS
 62
     7
 10
-750.9540131894
 20
-201.9724098792
 30
0.0
 11
-751.1458805409
 21
-201.9724098792
 31
0.0
  0
LINE
  5
218
  8
0
  6
CONTINUOUS
 62
     7
 10
-750.9540131894
 20
-223.9330539306
 30
0.0
 11
-751.1458805409
 21
-223.9330539306
 31
0.0
  0
LINE
  5
219
  8
0
  6
CONTINUOUS
 62
     7
 10
-708.738904318
 20
-241.2002727215
 30
0.0
 11
-708.9307716695
 21
-241.2002727215
 31
0.0
  0
LINE
  5
21A
  8
0
  6
CONTINUOUS
 62
     7
 10
-741.2582448331
 20
-290.5720544805
 30
0.0
 11
-726.5136650411
 21
-296.2581923058
 31
0.0
  0
LINE
  5
21B
  8
0
  6
CONTINUOUS
 62
     7
 10
-726.5136650411
 20
-296.2581923058
 30
0.0
 11
-726.5136650411
 21
-284.5410888841
 31
0.0
  0
LINE
  5
21C
  8
0
  6
CONTINUOUS
 62
     7
 10
-726.5136650411
 20
-284.5410888841
 30
0.0
 11
-741.2582448331
 21
-290.5720544805
 31
0.0
  0
LINE
  5
21D
  8
0
  6
CONTINUOUS
 62
     7
 10
-739.1041329709
 20
-315.067648684
 30
0.0
 11
-739.1041329709
 21
-303.3575115551
 31
0.0
  0
LINE
  5
21E
  8
0
  6
CONTINUOUS
 62
     7
 10
-750.9540131894
 20
-315.067648684
 30
0.0
 11
-739.1041329709
 21
-315.067648684
 31
0.0
  0
LINE
  5
21F
  8
0
  6
CONTINUOUS
 62
     7
 10
-750.9540131894
 20
-281.2022434374
 30
0.0
 11
-750.9540131894
 21
-315.067648684
 31
0.0
  0
LINE
  5
220
  8
0
  6
CONTINUOUS
 62
     7
 10
-708.738904318
 20
-263.9350246464
 30
0.0
 11
-750.9540131894
 21
-281.2022434374
 31
0.0
  0
LINE
  5
221
  8
0
  6
CONTINUOUS
 62
     7
 10
-708.738904318
 20
-277.2706800898
 30
0.0
 11
-708.738904318
 21
-263.9350246464
 31
0.0
  0
LINE
  5
222
  8
0
  6
CONTINUOUS
 62
     7
 10
-715.2563145963
 20
-279.9364978274
 30
0.0
 11
-708.738904318
 21
-277.2706800898
 31
0.0
  0
LINE
  5
223
  8
0
  6
CONTINUOUS
 62
     7
 10
-715.2563145963
 20
-299.3243371894
 30
0.0
 11
-715.2563145963
 21
-279.9364978274
 31
0.0
  0
LINE
  5
224
  8
0
  6
CONTINUOUS
 62
     7
 10
-708.738904318
 20
-301.8377346744
 30
0.0
 11
-715.2563145963
 21
-299.3243371894
 31
0.0
  0
LINE
  5
225
  8
0
  6
CONTINUOUS
 62
     7
 10
-708.738904318
 20
-315.067648684
 30
0.0
 11
-708.738904318
 21
-301.8377346744
 31
0.0
  0
LINE
  5
226
  8
0
  6
CONTINUOUS
 62
     7
 10
-739.1041329709
 20
-303.3575115551
 30
0.0
 11
-708.738904318
 21
-315.067648684
 31
0.0
  0
LINE
  5
227
  8
0
  6
CONTINUOUS
 62
     7
 10
-750.9540131894
 20
-210.5973956932
 30
0.0
 11
-751.1458805409
 21
-210.5973956932
 31
0.0
  0
LINE
  5
228
  8
0
  6
CONTINUOUS
 62
     7
 10
-708.738904318
 20
-263.9350246464
 30
0.0
 11
-708.9307716695
 21
-263.9350246464
 31
0.0
  0
LINE
  5
229
  8
0
  6
CONTINUOUS
 62
     7
 10
-750.9540131894
 20
-281.2022434374
 30
0.0
 11
-751.1458805409
 21
-281.2022434374
 31
0.0
  0
LINE
  5
22A
  8
0
  6
CONTINUOUS
 62
     7
 10
-750.9540131894
 20
-315.067648684
 30
0.0
 11
-751.1458805409
 21
-315.067648684
 31
0.0
  0
LINE
  5
22B
  8
0
  6
CONTINUOUS
 62
     7
 10
-708.738904318
 20
-315.067648684
 30
0.0
 11
-708.9307716695
 21
-315.067648684
 31
0.0
  0
LINE
  5
22C
  8
0
  6
CONTINUOUS
 62
     7
 10
-708.738904318
 20
-193.0438389828
 30
0.0
 11
-708.9307716695
 21
-193.0438389828
 31
0.0
  0
LINE
  5
22D
  8
0
  6
CONTINUOUS
 62
     7
 10
-726.7055323926
 20
-296.1842005898
 30
0.0
 11
-726.7055323926
 21
-284.6195658495
 31
0.0
  0
LINE
  5
22E
  8
0
  6
CONTINUOUS
 62
     7
 10
-439.7309830991
 20
147.4323572765
 30
0.0
 11
-536.8014386502
 21
147.4323572765
 31
0.0
  0
ARC
  5
22F
  8
0
  6
CONTINUOUS
 62
     7
 10
-438.7018713723
 20
79.3229931744
 30
0.0
 40
68.11713844059551
 50
90.8656558872
 51
131.3593009946
  0
POLYLINE
  5
230
  8
0
  6
CONTINUOUS
 62
     7
 66
     1
 10
0.0
 20
0.0
 30
0.0
  0
VERTEX
  5
88F
  8
0
  6
CONTINUOUS
 62
     7
 10
-483.7122371999
 20
130.4503979335
 30
0.0
  0
VERTEX
  5
890
  8
0
  6
CONTINUOUS
 62
     7
 10
-486.9088939038
 20
127.5891067634
 30
0.0
  0
VERTEX
  5
891
  8
0
  6
CONTINUOUS
 62
     7
 10
-490.0520256368
 20
124.4880261074
 30
0.0
  0
VERTEX
  5
892
  8
0
  6
CONTINUOUS
 62
     7
 10
-493.1322148648
 20
121.1453976284
 30
0.0
  0
VERTEX
  5
893
  8
0
  6
CONTINUOUS
 62
     7
 10
-496.1401036588
 20
117.5595523963
 30
0.0
  0
VERTEX
  5
894
  8
0
  6
CONTINUOUS
 62
     7
 10
-498.5576680509
 20
114.4203843723
 30
0.0
  0
VERTEX
  5
895
  8
0
  6
CONTINUOUS
 62
     7
 10
-500.9199193326
 20
111.1059190879
 30
0.0
  0
VERTEX
  5
896
  8
0
  6
CONTINUOUS
 62
     7
 10
-503.2194069234
 20
107.6170804153
 30
0.0
  0
VERTEX
  5
897
  8
0
  6
CONTINUOUS
 62
     7
 10
-505.4485014287
 20
103.9548220287
 30
0.0
  0
VERTEX
  5
898
  8
0
  6
CONTINUOUS
 62
     7
 10
-507.5997522679
 20
100.1200678001
 30
0.0
  0
VERTEX
  5
899
  8
0
  6
CONTINUOUS
 62
     7
 10
-509.6741131154
 20
96.0971715103
 30
0.0
  0
VERTEX
  5
89A
  8
0
  6
CONTINUOUS
 62
     7
 10
-511.6594246236
 20
91.8949248443
 30
0.0
  0
VERTEX
  5
89B
  8
0
  6
CONTINUOUS
 62
     7
 10
-513.5460904447
 20
87.5187220226
 30
0.0
  0
VERTEX
  5
89C
  8
0
  6
CONTINUOUS
 62
     7
 10
-515.3618863431
 20
82.8736426483
 30
0.0
  0
VERTEX
  5
89D
  8
0
  6
CONTINUOUS
 62
     7
 10
-517.0597246495
 20
78.0490638862
 30
0.0
  0
VERTEX
  5
89E
  8
0
  6
CONTINUOUS
 62
     7
 10
-518.6282804814
 20
73.0575027118
 30
0.0
  0
SEQEND
  5
B4F
  8
0
  6
CONTINUOUS
 62
     7
  0
POLYLINE
  5
231
  8
0
  6
CONTINUOUS
 62
     7
 66
     1
 10
0.0
 20
0.0
 30
0.0
  0
VERTEX
  5
89F
  8
0
  6
CONTINUOUS
 62
     7
 10
-518.6281612722
 20
73.057979549
 30
0.0
  0
VERTEX
  5
8A0
  8
0
  6
CONTINUOUS
 62
     7
 10
-522.5124767629
 20
59.5751406799
 30
0.0
  0
VERTEX
  5
8A1
  8
0
  6
CONTINUOUS
 62
     7
 10
-526.2400916425
 20
45.9116699348
 30
0.0
  0
VERTEX
  5
8A2
  8
0
  6
CONTINUOUS
 62
     7
 10
-529.8067739812
 20
32.077580894
 30
0.0
  0
VERTEX
  5
8A3
  8
0
  6
CONTINUOUS
 62
     7
 10
-530.6324175206
 20
28.6806227813
 30
0.0
  0
SEQEND
  5
B4E
  8
0
  6
CONTINUOUS
 62
     7
  0
POLYLINE
  5
232
  8
0
  6
CONTINUOUS
 62
     7
 66
     1
 10
0.0
 20
0.0
 30
0.0
  0
VERTEX
  5
8A4
  8
0
  6
CONTINUOUS
 62
     7
 10
-530.6324175206
 20
-533.8218210091
 30
0.0
  0
VERTEX
  5
8A5
  8
0
  6
CONTINUOUS
 62
     7
 10
-528.550367674
 20
-542.1769914975
 30
0.0
  0
VERTEX
  5
8A6
  8
0
  6
CONTINUOUS
 62
     7
 10
-525.3659299222
 20
-554.3195305218
 30
0.0
  0
VERTEX
  5
8A7
  8
0
  6
CONTINUOUS
 62
     7
 10
-522.0575741139
 20
-566.3272438397
 30
0.0
  0
VERTEX
  5
8A8
  8
0
  6
CONTINUOUS
 62
     7
 10
-518.6281612722
 20
-578.1932769169
 30
0.0
  0
SEQEND
  5
B4D
  8
0
  6
CONTINUOUS
 62
     7
  0
POLYLINE
  5
233
  8
0
  6
CONTINUOUS
 62
     7
 66
     1
 10
0.0
 20
0.0
 30
0.0
  0
VERTEX
  5
8A9
  8
0
  6
CONTINUOUS
 62
     7
 10
-518.6282804814
 20
-578.1928000798
 30
0.0
  0
VERTEX
  5
8AA
  8
0
  6
CONTINUOUS
 62
     7
 10
-517.1001962033
 20
-583.0627975811
 30
0.0
  0
VERTEX
  5
8AB
  8
0
  6
CONTINUOUS
 62
     7
 10
-515.4489091245
 20
-587.7740381112
 30
0.0
  0
VERTEX
  5
8AC
  8
0
  6
CONTINUOUS
 62
     7
 10
-513.684969267
 20
-592.3148689618
 30
0.0
  0
VERTEX
  5
8AD
  8
0
  6
CONTINUOUS
 62
     7
 10
-511.7742231694
 20
-596.7752931466
 30
0.0
  0
VERTEX
  5
8AE
  8
0
  6
CONTINUOUS
 62
     7
 10
-509.7610166875
 20
-601.056158339
 30
0.0
  0
VERTEX
  5
8AF
  8
0
  6
CONTINUOUS
 62
     7
 10
-507.6554826108
 20
-605.1516828885
 30
0.0
  0
VERTEX
  5
8B0
  8
0
  6
CONTINUOUS
 62
     7
 10
-505.2130630818
 20
-609.491169249
 30
0.0
  0
VERTEX
  5
8B1
  8
0
  6
CONTINUOUS
 62
     7
 10
-502.6720574704
 20
-613.6082408776
 30
0.0
  0
VERTEX
  5
8B2
  8
0
  6
CONTINUOUS
 62
     7
 10
-500.0436118451
 20
-617.5012586464
 30
0.0
  0
VERTEX
  5
8B3
  8
0
  6
CONTINUOUS
 62
     7
 10
-497.3389318791
 20
-621.1686132302
 30
0.0
  0
VERTEX
  5
8B4
  8
0
  6
CONTINUOUS
 62
     7
 10
-494.4838097898
 20
-624.7108278622
 30
0.0
  0
VERTEX
  5
8B5
  8
0
  6
CONTINUOUS
 62
     7
 10
-491.5588906613
 20
-628.0274687161
 30
0.0
  0
VERTEX
  5
8B6
  8
0
  6
CONTINUOUS
 62
     7
 10
-488.5728171674
 20
-631.1199066987
 30
0.0
  0
VERTEX
  5
8B7
  8
0
  6
CONTINUOUS
 62
     7
 10
-485.534291586
 20
-633.9895127167
 30
0.0
  0
VERTEX
  5
8B8
  8
0
  6
CONTINUOUS
 62
     7
 10
-483.7122371999
 20
-635.5856953015
 30
0.0
  0
SEQEND
  5
B4C
  8
0
  6
CONTINUOUS
 62
     7
  0
POLYLINE
  5
234
  8
0
  6
CONTINUOUS
 62
     7
 66
     1
 10
0.0
 20
0.0
 30
0.0
  0
VERTEX
  5
8B9
  8
0
  6
CONTINUOUS
 62
     7
 10
-483.7122371999
 20
-635.5856953015
 30
0.0
  0
VERTEX
  5
8BA
  8
0
  6
CONTINUOUS
 62
     7
 10
-479.8326900807
 20
-638.6638579716
 30
0.0
  0
VERTEX
  5
8BB
  8
0
  6
CONTINUOUS
 62
     7
 10
-475.8925846425
 20
-641.4174733509
 30
0.0
  0
VERTEX
  5
8BC
  8
0
  6
CONTINUOUS
 62
     7
 10
-471.8737414685
 20
-643.8676116814
 30
0.0
  0
VERTEX
  5
8BD
  8
0
  6
CONTINUOUS
 62
     7
 10
-467.8100756017
 20
-646.0021732201
 30
0.0
  0
VERTEX
  5
8BE
  8
0
  6
CONTINUOUS
 62
     7
 10
-464.3863252011
 20
-647.548079287
 30
0.0
  0
VERTEX
  5
8BF
  8
0
  6
CONTINUOUS
 62
     7
 10
-460.9402826634
 20
-648.8813159813
 30
0.0
  0
VERTEX
  5
8C0
  8
0
  6
CONTINUOUS
 62
     7
 10
-457.4625304547
 20
-650.008529221
 30
0.0
  0
VERTEX
  5
8C1
  8
0
  6
CONTINUOUS
 62
     7
 10
-453.969519457
 20
-650.9272752156
 30
0.0
  0
VERTEX
  5
8C2
  8
0
  6
CONTINUOUS
 62
     7
 10
-450.4263809529
 20
-651.6470013012
 30
0.0
  0
VERTEX
  5
8C3
  8
0
  6
CONTINUOUS
 62
     7
 10
-446.8741825429
 20
-652.1588859906
 30
0.0
  0
VERTEX
  5
8C4
  8
0
  6
CONTINUOUS
 62
     7
 10
-443.3040431348
 20
-652.4657903065
 30
0.0
  0
VERTEX
  5
8C5
  8
0
  6
CONTINUOUS
 62
     7
 10
-439.7309830991
 20
-652.5676546444
 30
0.0
  0
SEQEND
  5
B4B
  8
0
  6
CONTINUOUS
 62
     7
  0
LINE
  5
235
  8
0
  6
CONTINUOUS
 62
     7
 10
-439.7309830991
 20
-652.5676546444
 30
0.0
 11
-536.8014386502
 21
-652.5676546444
 31
0.0
  0
LINE
  5
236
  8
0
  6
CONTINUOUS
 62
     7
 10
-599.9144128171
 20
194.4323482166
 30
0.0
 11
-618.9144066182
 21
194.4323482166
 31
0.0
  0
POLYLINE
  5
237
  8
0
  6
CONTINUOUS
 62
     7
 66
     1
 10
0.0
 20
0.0
 30
0.0
  0
VERTEX
  5
8C6
  8
0
  6
CONTINUOUS
 62
     7
 10
-530.6324175206
 20
114.4323649059
 30
0.0
  0
VERTEX
  5
8C7
  8
0
  6
CONTINUOUS
 62
     7
 10
-530.6746176091
 20
117.2243060718
 30
0.0
  0
VERTEX
  5
8C8
  8
0
  6
CONTINUOUS
 62
     7
 10
-530.80115827
 20
120.0128795753
 30
0.0
  0
VERTEX
  5
8C9
  8
0
  6
CONTINUOUS
 62
     7
 10
-531.0119202939
 20
122.794628347
 30
0.0
  0
VERTEX
  5
8CA
  8
0
  6
CONTINUOUS
 62
     7
 10
-531.3066652623
 20
125.5661847244
 30
0.0
  0
VERTEX
  5
8CB
  8
0
  6
CONTINUOUS
 62
     7
 10
-531.6849759427
 20
128.3242108474
 30
0.0
  0
VERTEX
  5
8CC
  8
0
  6
CONTINUOUS
 62
     7
 10
-532.1463754979
 20
131.065279449
 30
0.0
  0
VERTEX
  5
8CD
  8
0
  6
CONTINUOUS
 62
     7
 10
-532.6903870908
 20
133.7861122737
 30
0.0
  0
VERTEX
  5
8CE
  8
0
  6
CONTINUOUS
 62
     7
 10
-533.3162954656
 20
136.4833416591
 30
0.0
  0
VERTEX
  5
8CF
  8
0
  6
CONTINUOUS
 62
     7
 10
-534.0233257619
 20
139.153719152
 30
0.0
  0
VERTEX
  5
8D0
  8
0
  6
CONTINUOUS
 62
     7
 10
-534.8106435147
 20
141.793966497
 30
0.0
  0
VERTEX
  5
8D1
  8
0
  6
CONTINUOUS
 62
     7
 10
-535.6772354451
 20
144.4008650432
 30
0.0
  0
VERTEX
  5
8D2
  8
0
  6
CONTINUOUS
 62
     7
 10
-536.6221478787
 20
146.9712855468
 30
0.0
  0
VERTEX
  5
8D3
  8
0
  6
CONTINUOUS
 62
     7
 10
-537.6441291181
 20
149.5020391594
 30
0.0
  0
VERTEX
  5
8D4
  8
0
  6
CONTINUOUS
 62
     7
 10
-538.7420466748
 20
151.9900860439
 30
0.0
  0
VERTEX
  5
8D5
  8
0
  6
CONTINUOUS
 62
     7
 10
-539.9144104329
 20
154.4323565612
 30
0.0
  0
VERTEX
  5
8D6
  8
0
  6
CONTINUOUS
 62
     7
 10
-541.1599090901
 20
156.8259002815
 30
0.0
  0
VERTEX
  5
8D7
  8
0
  6
CONTINUOUS
 62
     7
 10
-542.4769929257
 20
159.167796577
 30
0.0
  0
VERTEX
  5
8D8
  8
0
  6
CONTINUOUS
 62
     7
 10
-543.864112219
 20
161.4551844249
 30
0.0
  0
VERTEX
  5
8D9
  8
0
  6
CONTINUOUS
 62
     7
 10
-545.3194192258
 20
163.6852624069
 30
0.0
  0
VERTEX
  5
8DA
  8
0
  6
CONTINUOUS
 62
     7
 10
-546.8413046208
 20
165.8553483139
 30
0.0
  0
VERTEX
  5
8DB
  8
0
  6
CONTINUOUS
 62
     7
 10
-548.4278610555
 20
167.9627897392
 30
0.0
  0
VERTEX
  5
8DC
  8
0
  6
CONTINUOUS
 62
     7
 10
-550.0771215764
 20
170.0050236831
 30
0.0
  0
VERTEX
  5
8DD
  8
0
  6
CONTINUOUS
 62
     7
 10
-551.7870596257
 20
171.9795467506
 30
0.0
  0
VERTEX
  5
8DE
  8
0
  6
CONTINUOUS
 62
     7
 10
-553.5557082501
 20
173.8839449535
 30
0.0
  0
VERTEX
  5
8DF
  8
0
  6
CONTINUOUS
 62
     7
 10
-555.3808024732
 20
175.7158937107
 30
0.0
  0
VERTEX
  5
8E0
  8
0
  6
CONTINUOUS
 62
     7
 10
-557.2601369229
 20
177.4732174526
 30
0.0
  0
VERTEX
  5
8E1
  8
0
  6
CONTINUOUS
 62
     7
 10
-559.191446623
 20
179.1537108074
 30
0.0
  0
VERTEX
  5
8E2
  8
0
  6
CONTINUOUS
 62
     7
 10
-561.1724069921
 20
180.7553472171
 30
0.0
  0
VERTEX
  5
8E3
  8
0
  6
CONTINUOUS
 62
     7
 10
-563.2005742398
 20
182.2761895309
 30
0.0
  0
VERTEX
  5
8E4
  8
0
  6
CONTINUOUS
 62
     7
 10
-565.2733853665
 20
183.7143900047
 30
0.0
  0
VERTEX
  5
8E5
  8
0
  6
CONTINUOUS
 62
     7
 10
-567.388515791
 20
185.0681604991
 30
0.0
  0
VERTEX
  5
8E6
  8
0
  6
CONTINUOUS
 62
     7
 10
-569.543164095
 20
186.3358618866
 30
0.0
  0
VERTEX
  5
8E7
  8
0
  6
CONTINUOUS
 62
     7
 10
-571.7348864881
 20
187.5159742485
 30
0.0
  0
VERTEX
  5
8E8
  8
0
  6
CONTINUOUS
 62
     7
 10
-573.9609411565
 20
188.6070670734
 30
0.0
  0
VERTEX
  5
8E9
  8
0
  6
CONTINUOUS
 62
     7
 10
-576.2185862866
 20
189.6077694545
 30
0.0
  0
VERTEX
  5
8EA
  8
0
  6
CONTINUOUS
 62
     7
 10
-578.5050800649
 20
190.5168594966
 30
0.0
  0
VERTEX
  5
8EB
  8
0
  6
CONTINUOUS
 62
     7
 10
-580.8177402822
 20
191.3332941185
 30
0.0
  0
VERTEX
  5
8EC
  8
0
  6
CONTINUOUS
 62
     7
 10
-583.1535867063
 20
192.0560004364
 30
0.0
  0
VERTEX
  5
8ED
  8
0
  6
CONTINUOUS
 62
     7
 10
-585.5098775235
 20
192.6841737876
 30
0.0
  0
VERTEX
  5
8EE
  8
0
  6
CONTINUOUS
 62
     7
 10
-587.883751711
 20
193.2169797073
 30
0.0
  0
VERTEX
  5
8EF
  8
0
  6
CONTINUOUS
 62
     7
 10
-590.2722290364
 20
193.6537923465
 30
0.0
  0
VERTEX
  5
8F0
  8
0
  6
CONTINUOUS
 62
     7
 10
-592.6725080815
 20
193.9941050659
 30
0.0
  0
VERTEX
  5
8F1
  8
0
  6
CONTINUOUS
 62
     7
 10
-595.0815490094
 20
194.2374708305
 30
0.0
  0
VERTEX
  5
8F2
  8
0
  6
CONTINUOUS
 62
     7
 10
-597.4965504018
 20
194.3836214195
 30
0.0
  0
VERTEX
  5
8F3
  8
0
  6
CONTINUOUS
 62
     7
 10
-599.9144128171
 20
194.4323482166
 30
0.0
  0
SEQEND
  5
B4A
  8
0
  6
CONTINUOUS
 62
     7
  0
LINE
  5
238
  8
0
  6
CONTINUOUS
 62
     7
 10
-531.1542561856
 20
-265.5676489522
 30
0.0
 11
-531.1542561856
 21
-239.5676484158
 31
0.0
  0
LINE
  5
239
  8
0
  6
CONTINUOUS
 62
     7
 10
-530.6324175206
 20
-619.5676622738
 30
0.0
 11
-530.6324175206
 21
-265.5676489522
 31
0.0
  0
LINE
  5
23A
  8
0
  6
CONTINUOUS
 62
     7
 10
-530.6324175206
 20
-239.5676484158
 30
0.0
 11
-530.6324175206
 21
114.4323649059
 31
0.0
  0
LINE
  5
23B
  8
0
  6
CONTINUOUS
 62
     7
 10
-599.9144128171
 20
-699.5676455845
 30
0.0
 11
-618.9144066182
 21
-699.5676455845
 31
0.0
  0
POLYLINE
  5
23C
  8
0
  6
CONTINUOUS
 62
     7
 66
     1
 10
0.0
 20
0.0
 30
0.0
  0
VERTEX
  5
8F4
  8
0
  6
CONTINUOUS
 62
     7
 10
-599.9144128171
 20
-699.5676455845
 30
0.0
  0
VERTEX
  5
8F5
  8
0
  6
CONTINUOUS
 62
     7
 10
-597.4965504018
 20
-699.5189187874
 30
0.0
  0
VERTEX
  5
8F6
  8
0
  6
CONTINUOUS
 62
     7
 10
-595.0815490094
 20
-699.3727681984
 30
0.0
  0
VERTEX
  5
8F7
  8
0
  6
CONTINUOUS
 62
     7
 10
-592.6725080815
 20
-699.1294024338
 30
0.0
  0
VERTEX
  5
8F8
  8
0
  6
CONTINUOUS
 62
     7
 10
-590.2722290364
 20
-698.7890897145
 30
0.0
  0
VERTEX
  5
8F9
  8
0
  6
CONTINUOUS
 62
     7
 10
-587.883751711
 20
-698.3522770752
 30
0.0
  0
VERTEX
  5
8FA
  8
0
  6
CONTINUOUS
 62
     7
 10
-585.5098775235
 20
-697.8194711556
 30
0.0
  0
VERTEX
  5
8FB
  8
0
  6
CONTINUOUS
 62
     7
 10
-583.1535867063
 20
-697.1912978043
 30
0.0
  0
VERTEX
  5
8FC
  8
0
  6
CONTINUOUS
 62
     7
 10
-580.8177402822
 20
-696.4685914864
 30
0.0
  0
VERTEX
  5
8FD
  8
0
  6
CONTINUOUS
 62
     7
 10
-578.5050800649
 20
-695.6521568646
 30
0.0
  0
VERTEX
  5
8FE
  8
0
  6
CONTINUOUS
 62
     7
 10
-576.2185862866
 20
-694.7430668225
 30
0.0
  0
VERTEX
  5
8FF
  8
0
  6
CONTINUOUS
 62
     7
 10
-573.9609411565
 20
-693.7423644413
 30
0.0
  0
VERTEX
  5
900
  8
0
  6
CONTINUOUS
 62
     7
 10
-571.7348864881
 20
-692.6512716164
 30
0.0
  0
VERTEX
  5
901
  8
0
  6
CONTINUOUS
 62
     7
 10
-569.543164095
 20
-691.4711592545
 30
0.0
  0
VERTEX
  5
902
  8
0
  6
CONTINUOUS
 62
     7
 10
-567.388515791
 20
-690.2034578671
 30
0.0
  0
VERTEX
  5
903
  8
0
  6
CONTINUOUS
 62
     7
 10
-565.2733853665
 20
-688.8496873726
 30
0.0
  0
VERTEX
  5
904
  8
0
  6
CONTINUOUS
 62
     7
 10
-563.2005742398
 20
-687.4114868988
 30
0.0
  0
VERTEX
  5
905
  8
0
  6
CONTINUOUS
 62
     7
 10
-561.1724069921
 20
-685.8906445851
 30
0.0
  0
VERTEX
  5
906
  8
0
  6
CONTINUOUS
 62
     7
 10
-559.191446623
 20
-684.2890081753
 30
0.0
  0
VERTEX
  5
907
  8
0
  6
CONTINUOUS
 62
     7
 10
-557.2601369229
 20
-682.6085148205
 30
0.0
  0
VERTEX
  5
908
  8
0
  6
CONTINUOUS
 62
     7
 10
-555.3808024732
 20
-680.8511910786
 30
0.0
  0
VERTEX
  5
909
  8
0
  6
CONTINUOUS
 62
     7
 10
-553.5557082501
 20
-679.0192423214
 30
0.0
  0
VERTEX
  5
90A
  8
0
  6
CONTINUOUS
 62
     7
 10
-551.7870596257
 20
-677.1148441185
 30
0.0
  0
VERTEX
  5
90B
  8
0
  6
CONTINUOUS
 62
     7
 10
-550.0771215764
 20
-675.1403210511
 30
0.0
  0
VERTEX
  5
90C
  8
0
  6
CONTINUOUS
 62
     7
 10
-548.4278610555
 20
-673.0980871071
 30
0.0
  0
VERTEX
  5
90D
  8
0
  6
CONTINUOUS
 62
     7
 10
-546.8413046208
 20
-670.9906456818
 30
0.0
  0
VERTEX
  5
90E
  8
0
  6
CONTINUOUS
 62
     7
 10
-545.3194192258
 20
-668.8205597748
 30
0.0
  0
VERTEX
  5
90F
  8
0
  6
CONTINUOUS
 62
     7
 10
-543.864112219
 20
-666.5904817929
 30
0.0
  0
VERTEX
  5
910
  8
0
  6
CONTINUOUS
 62
     7
 10
-542.4769929257
 20
-664.303093945
 30
0.0
  0
VERTEX
  5
911
  8
0
  6
CONTINUOUS
 62
     7
 10
-541.1599090901
 20
-661.9611976494
 30
0.0
  0
VERTEX
  5
912
  8
0
  6
CONTINUOUS
 62
     7
 10
-539.9144104329
 20
-659.5676539292
 30
0.0
  0
VERTEX
  5
913
  8
0
  6
CONTINUOUS
 62
     7
 10
-538.7420466748
 20
-657.1253834118
 30
0.0
  0
VERTEX
  5
914
  8
0
  6
CONTINUOUS
 62
     7
 10
-537.6441291181
 20
-654.6373365273
 30
0.0
  0
VERTEX
  5
915
  8
0
  6
CONTINUOUS
 62
     7
 10
-536.6221478787
 20
-652.1065829148
 30
0.0
  0
VERTEX
  5
916
  8
0
  6
CONTINUOUS
 62
     7
 10
-535.6772354451
 20
-649.5361624112
 30
0.0
  0
VERTEX
  5
917
  8
0
  6
CONTINUOUS
 62
     7
 10
-534.8106435147
 20
-646.9292638649
 30
0.0
  0
VERTEX
  5
918
  8
0
  6
CONTINUOUS
 62
     7
 10
-534.0233257619
 20
-644.28901652
 30
0.0
  0
VERTEX
  5
919
  8
0
  6
CONTINUOUS
 62
     7
 10
-533.3162954656
 20
-641.6186390271
 30
0.0
  0
VERTEX
  5
91A
  8
0
  6
CONTINUOUS
 62
     7
 10
-532.6903870908
 20
-638.9214096417
 30
0.0
  0
VERTEX
  5
91B
  8
0
  6
CONTINUOUS
 62
     7
 10
-532.1463754979
 20
-636.200576817
 30
0.0
  0
VERTEX
  5
91C
  8
0
  6
CONTINUOUS
 62
     7
 10
-531.6849759427
 20
-633.4595082154
 30
0.0
  0
VERTEX
  5
91D
  8
0
  6
CONTINUOUS
 62
     7
 10
-531.3066652623
 20
-630.7014820923
 30
0.0
  0
VERTEX
  5
91E
  8
0
  6
CONTINUOUS
 62
     7
 10
-531.0119202939
 20
-627.9299257149
 30
0.0
  0
VERTEX
  5
91F
  8
0
  6
CONTINUOUS
 62
     7
 10
-530.80115827
 20
-625.1481769432
 30
0.0
  0
VERTEX
  5
920
  8
0
  6
CONTINUOUS
 62
     7
 10
-530.6746176091
 20
-622.3596034398
 30
0.0
  0
VERTEX
  5
921
  8
0
  6
CONTINUOUS
 62
     7
 10
-530.6324175206
 20
-619.5676622738
 30
0.0
  0
SEQEND
  5
B49
  8
0
  6
CONTINUOUS
 62
     7
  0
LINE
  5
23D
  8
0
  6
CONTINUOUS
 62
     7
 10
-816.1028436032
 20
128.4323634754
 30
0.0
 11
-928.0643871633
 21
128.4323634754
 31
0.0
  0
LINE
  5
23E
  8
0
  6
CONTINUOUS
 62
     7
 10
-816.1028436032
 20
-633.5676608433
 30
0.0
 11
-928.0643871633
 21
-633.5676608433
 31
0.0
  0
LINE
  5
23F
  8
0
  6
CONTINUOUS
 62
     7
 10
-824.7631004659
 20
137.4323370109
 30
0.0
 11
-918.0643967
 21
137.4323370109
 31
0.0
  0
LINE
  5
240
  8
0
  6
CONTINUOUS
 62
     7
 10
-824.7631004659
 20
-642.5676343789
 30
0.0
 11
-918.0643967
 21
-642.5676343789
 31
0.0
  0
LINE
  5
241
  8
0
  6
CONTINUOUS
 62
     7
 10
-71.3603159991
 20
-239.5676484158
 30
0.0
 11
-531.1542561856
 21
-239.5676484158
 31
0.0
  0
LINE
  5
242
  8
0
  6
CONTINUOUS
 62
     7
 10
-71.3603159991
 20
-239.5676484158
 30
0.0
 11
-71.3603159991
 21
-265.5676489522
 31
0.0
  0
LINE
  5
243
  8
0
  6
CONTINUOUS
 62
     7
 10
-71.3603159991
 20
-265.5676489522
 30
0.0
 11
-531.1542561856
 21
-265.5676489522
 31
0.0
  0
ARC
  5
244
  8
0
  6
CONTINUOUS
 62
     7
 10
-870.4359196666
 20
-585.2831155474
 30
0.0
 40
77.28944341974942
 50
270.6460873019
 51
286.9418312996
  0
ARC
  5
245
  8
0
  6
CONTINUOUS
 62
     7
 10
-868.7850496634
 20
-585.8793689895
 30
0.0
 40
76.69223607086892
 50
252.9942827982
 51
269.4177509372
  0
LINE
  5
246
  8
0
  6
CONTINUOUS
 62
     7
 10
-891.2150076238
 20
-642.5676343789
 30
0.0
 11
-891.2150076238
 21
-659.2182813038
 31
0.0
  0
LINE
  5
247
  8
0
  6
CONTINUOUS
 62
     7
 10
-847.9137233106
 20
-642.5676343789
 30
0.0
 11
-847.9137233106
 21
-659.2182813038
 31
0.0
  0
ARC
  5
248
  8
0
  6
CONTINUOUS
 62
     7
 10
-902.691838748
 20
-641.2932400317
 30
0.0
 40
21.2843782446545
 50
271.7540448233
 51
302.630136909
  0
ARC
  5
249
  8
0
  6
CONTINUOUS
 62
     7
 10
-901.2062950633
 20
-640.7034244724
 30
0.0
 40
21.88012296482476
 50
237.8002275473
 51
267.8154125599
  0
LINE
  5
24A
  8
0
  6
CONTINUOUS
 62
     7
 10
-912.8656199781
 20
-642.5676343789
 30
0.0
 11
-912.8656199781
 21
-659.2182813038
 31
0.0
  0
ARC
  5
24B
  8
0
  6
CONTINUOUS
 62
     7
 10
-837.7399420805
 20
-641.2932400317
 30
0.0
 40
21.2843782446545
 50
271.7540448233
 51
302.630136909
  0
ARC
  5
24C
  8
0
  6
CONTINUOUS
 62
     7
 10
-836.2543983958
 20
-640.7034244724
 30
0.0
 40
21.88012296482476
 50
237.8002275473
 51
267.8154125599
  0
LINE
  5
24D
  8
0
  6
CONTINUOUS
 62
     7
 10
-826.2631109563
 20
-642.5676343789
 30
0.0
 11
-826.2631109563
 21
-659.2182813038
 31
0.0
  0
LINE
  5
24E
  8
0
  6
CONTINUOUS
 62
     7
 10
-837.0884469358
 20
-662.5676451077
 30
0.0
 11
-869.5643952695
 21
-662.5676451077
 31
0.0
  0
LINE
  5
24F
  8
0
  6
CONTINUOUS
 62
     7
 10
-902.0403436032
 20
-662.5676451077
 30
0.0
 11
-869.5643952695
 21
-662.5676451077
 31
0.0
  0
ARC
  5
250
  8
0
  6
CONTINUOUS
 62
     7
 10
-834.9370544624
 20
139.1585038245
 30
0.0
 40
21.28380506588052
 50
91.7537873019
 51
122.6305725909
  0
ARC
  5
251
  8
0
  6
CONTINUOUS
 62
     7
 10
-868.8434675584
 20
83.7453625826
 30
0.0
 40
76.69093368501287
 50
72.9941439816
 51
89.4179374169
  0
LINE
  5
252
  8
0
  6
CONTINUOUS
 62
     7
 10
-835.5884364453
 20
160.4323389183
 30
0.0
 11
-868.0643847791
 21
160.4323389183
 31
0.0
  0
LINE
  5
253
  8
0
  6
CONTINUOUS
 62
     7
 10
-846.4137128202
 20
137.4323370109
 30
0.0
 11
-846.4137128202
 21
157.0829751144
 31
0.0
  0
ARC
  5
254
  8
0
  6
CONTINUOUS
 62
     7
 10
-836.4221939322
 20
138.5688514954
 30
0.0
 40
21.87937919221749
 50
57.7997172691
 51
87.8161009986
  0
LINE
  5
255
  8
0
  6
CONTINUOUS
 62
     7
 10
-824.7631004659
 20
137.4323370109
 30
0.0
 11
-824.7631004659
 21
157.0829751144
 31
0.0
  0
LINE
  5
256
  8
0
  6
CONTINUOUS
 62
     7
 10
-889.7149971334
 20
137.4323370109
 30
0.0
 11
-889.7149971334
 21
157.0829751144
 31
0.0
  0
ARC
  5
257
  8
0
  6
CONTINUOUS
 62
     7
 10
-867.1929942461
 20
83.1490754692
 30
0.0
 40
77.28817587960394
 50
90.6459986549
 51
106.9419676097
  0
ARC
  5
258
  8
0
  6
CONTINUOUS
 62
     7
 10
-901.3742512219
 20
138.5683323551
 30
0.0
 40
21.87990407669352
 50
57.8000857724
 51
87.8157324953
  0
LINE
  5
259
  8
0
  6
CONTINUOUS
 62
     7
 10
-900.5403331128
 20
160.4323389183
 30
0.0
 11
-868.0643847791
 21
160.4323389183
 31
0.0
  0
LINE
  5
25A
  8
0
  6
CONTINUOUS
 62
     7
 10
-911.3656690923
 20
137.4323370109
 30
0.0
 11
-911.3656690923
 21
157.0829751144
 31
0.0
  0
ARC
  5
25B
  8
0
  6
CONTINUOUS
 62
     7
 10
-899.8888501427
 20
139.1579731914
 30
0.0
 40
21.28433854130309
 50
91.7540153078
 51
122.6301664246
  0
LINE
  5
25C
  8
0
  6
CONTINUOUS
 62
     7
 10
-898.375253996
 20
-825.5676625123
 30
0.0
 11
-833.064358553
 21
-825.5676625123
 31
0.0
  0
LINE
  5
25D
  8
0
  6
CONTINUOUS
 62
     7
 10
-903.0643514005
 20
-825.5676625123
 30
0.0
 11
-898.375253996
 21
-825.5676625123
 31
0.0
  0
LINE
  5
25E
  8
0
  6
CONTINUOUS
 62
     7
 10
-898.375253996
 20
-775.5676505913
 30
0.0
 11
-833.064358553
 21
-775.5676505913
 31
0.0
  0
LINE
  5
25F
  8
0
  6
CONTINUOUS
 62
     7
 10
-903.0643514005
 20
-775.5676505913
 30
0.0
 11
-898.375253996
 21
-775.5676505913
 31
0.0
  0
LINE
  5
260
  8
0
  6
CONTINUOUS
 62
     7
 10
-834.3511632291
 20
-813.0676744332
 30
0.0
 11
-834.3511632291
 21
-788.0676386704
 31
0.0
  0
POLYLINE
  5
261
  8
0
  6
CONTINUOUS
 62
     7
 66
     1
 10
0.0
 20
0.0
 30
0.0
  0
VERTEX
  5
922
  8
0
  6
CONTINUOUS
 62
     7
 10
-428.2562545148
 20
-579.8045096745
 30
0.0
  0
VERTEX
  5
923
  8
0
  6
CONTINUOUS
 62
     7
 10
-428.2559564916
 20
-584.9439201703
 30
0.0
  0
VERTEX
  5
924
  8
0
  6
CONTINUOUS
 62
     7
 10
-428.2763412801
 20
-589.9687407364
 30
0.0
  0
VERTEX
  5
925
  8
0
  6
CONTINUOUS
 62
     7
 10
-428.3139518109
 20
-594.8624906887
 30
0.0
  0
VERTEX
  5
926
  8
0
  6
CONTINUOUS
 62
     7
 10
-428.3687284795
 20
-599.7081098904
 30
0.0
  0
VERTEX
  5
927
  8
0
  6
CONTINUOUS
 62
     7
 10
-428.4413865415
 20
-604.4010815968
 30
0.0
  0
VERTEX
  5
928
  8
0
  6
CONTINUOUS
 62
     7
 10
-428.5321048108
 20
-608.925878798
 30
0.0
  0
VERTEX
  5
929
  8
0
  6
CONTINUOUS
 62
     7
 10
-428.6289027539
 20
-612.8026543011
 30
0.0
  0
VERTEX
  5
92A
  8
0
  6
CONTINUOUS
 62
     7
 10
-428.7416747418
 20
-616.5370641102
 30
0.0
  0
VERTEX
  5
92B
  8
0
  6
CONTINUOUS
 62
     7
 10
-428.8707187978
 20
-620.1195118775
 30
0.0
  0
VERTEX
  5
92C
  8
0
  6
CONTINUOUS
 62
     7
 10
-429.0162733403
 20
-623.5404608597
 30
0.0
  0
VERTEX
  5
92D
  8
0
  6
CONTINUOUS
 62
     7
 10
-429.18412002
 20
-626.8892584195
 30
0.0
  0
VERTEX
  5
92E
  8
0
  6
CONTINUOUS
 62
     7
 10
-429.3707421628
 20
-630.0604341378
 30
0.0
  0
VERTEX
  5
92F
  8
0
  6
CONTINUOUS
 62
     7
 10
-429.5759013501
 20
-633.0451367249
 30
0.0
  0
VERTEX
  5
930
  8
0
  6
CONTINUOUS
 62
     7
 10
-429.7995379773
 20
-635.8344552865
 30
0.0
  0
VERTEX
  5
931
  8
0
  6
CONTINUOUS
 62
     7
 10
-430.0333669988
 20
-638.3410094132
 30
0.0
  0
VERTEX
  5
932
  8
0
  6
CONTINUOUS
 62
     7
 10
-430.2848985997
 20
-640.6597195019
 30
0.0
  0
VERTEX
  5
933
  8
0
  6
CONTINUOUS
 62
     7
 10
-430.5535367337
 20
-642.784148251
 30
0.0
  0
VERTEX
  5
934
  8
0
  6
CONTINUOUS
 62
     7
 10
-430.8388641683
 20
-644.7079179635
 30
0.0
  0
VERTEX
  5
935
  8
0
  6
CONTINUOUS
 62
     7
 10
-431.1499408094
 20
-646.4764473786
 30
0.0
  0
VERTEX
  5
936
  8
0
  6
CONTINUOUS
 62
     7
 10
-431.4776471463
 20
-648.027300631
 30
0.0
  0
VERTEX
  5
937
  8
0
  6
CONTINUOUS
 62
     7
 10
-431.8207314817
 20
-649.3557689537
 30
0.0
  0
VERTEX
  5
938
  8
0
  6
CONTINUOUS
 62
     7
 10
-432.1778229085
 20
-650.4571435799
 30
0.0
  0
VERTEX
  5
939
  8
0
  6
CONTINUOUS
 62
     7
 10
-432.573061308
 20
-651.3760683884
 30
0.0
  0
VERTEX
  5
93A
  8
0
  6
CONTINUOUS
 62
     7
 10
-432.9782536832
 20
-652.0351169457
 30
0.0
  0
VERTEX
  5
93B
  8
0
  6
CONTINUOUS
 62
     7
 10
-433.3042910901
 20
-652.3310242047
 30
0.0
  0
VERTEX
  5
93C
  8
0
  6
CONTINUOUS
 62
     7
 10
-433.6235931722
 20
-652.5084970345
 30
0.0
  0
VERTEX
  5
93D
  8
0
  6
CONTINUOUS
 62
     7
 10
-433.7606242505
 20
-652.5648234238
 30
0.0
  0
SEQEND
  5
B48
  8
0
  6
CONTINUOUS
 62
     7
  0
POLYLINE
  5
262
  8
0
  6
CONTINUOUS
 62
     7
 66
     1
 10
0.0
 20
0.0
 30
0.0
  0
VERTEX
  5
93E
  8
0
  6
CONTINUOUS
 62
     7
 10
-428.9008191434
 20
-265.5676489522
 30
0.0
  0
VERTEX
  5
93F
  8
0
  6
CONTINUOUS
 62
     7
 10
-428.9096406308
 20
-275.2234076907
 30
0.0
  0
VERTEX
  5
940
  8
0
  6
CONTINUOUS
 62
     7
 10
-428.9173892346
 20
-284.8758471956
 30
0.0
  0
VERTEX
  5
941
  8
0
  6
CONTINUOUS
 62
     7
 10
-428.9213827458
 20
-294.5292739024
 30
0.0
  0
VERTEX
  5
942
  8
0
  6
CONTINUOUS
 62
     7
 10
-428.9207866994
 20
-304.176449572
 30
0.0
  0
VERTEX
  5
943
  8
0
  6
CONTINUOUS
 62
     7
 10
-428.9175680486
 20
-320.00366578
 30
0.0
  0
VERTEX
  5
944
  8
0
  6
CONTINUOUS
 62
     7
 10
-428.9161375371
 20
-335.8088133683
 30
0.0
  0
VERTEX
  5
945
  8
0
  6
CONTINUOUS
 62
     7
 10
-428.9139917699
 20
-351.5823630442
 30
0.0
  0
VERTEX
  5
946
  8
0
  6
CONTINUOUS
 62
     7
 10
-428.9088657704
 20
-367.3147855153
 30
0.0
  0
VERTEX
  5
947
  8
0
  6
CONTINUOUS
 62
     7
 10
-428.8983157483
 20
-382.9965440382
 30
0.0
  0
VERTEX
  5
948
  8
0
  6
CONTINUOUS
 62
     7
 10
-428.8807919828
 20
-398.6261782994
 30
0.0
  0
VERTEX
  5
949
  8
0
  6
CONTINUOUS
 62
     7
 10
-428.8567117063
 20
-414.2018554558
 30
0.0
  0
VERTEX
  5
94A
  8
0
  6
CONTINUOUS
 62
     7
 10
-428.8267901746
 20
-429.7142473807
 30
0.0
  0
VERTEX
  5
94B
  8
0
  6
CONTINUOUS
 62
     7
 10
-428.7917426435
 20
-445.154025947
 30
0.0
  0
VERTEX
  5
94C
  8
0
  6
CONTINUOUS
 62
     7
 10
-428.752224764
 20
-460.5118332257
 30
0.0
  0
VERTEX
  5
94D
  8
0
  6
CONTINUOUS
 62
     7
 10
-428.7042430249
 20
-476.4226374974
 30
0.0
  0
VERTEX
  5
94E
  8
0
  6
CONTINUOUS
 62
     7
 10
-428.6481550542
 20
-492.2407416453
 30
0.0
  0
VERTEX
  5
94F
  8
0
  6
CONTINUOUS
 62
     7
 10
-428.5860470143
 20
-507.9560873856
 30
0.0
  0
VERTEX
  5
950
  8
0
  6
CONTINUOUS
 62
     7
 10
-428.5201242772
 20
-523.5586164345
 30
0.0
  0
VERTEX
  5
951
  8
0
  6
CONTINUOUS
 62
     7
 10
-428.4523537961
 20
-539.0382705082
 30
0.0
  0
VERTEX
  5
952
  8
0
  6
CONTINUOUS
 62
     7
 10
-428.40556415
 20
-549.3142900814
 30
0.0
  0
VERTEX
  5
953
  8
0
  6
CONTINUOUS
 62
     7
 10
-428.3564499227
 20
-559.5326123585
 30
0.0
  0
VERTEX
  5
954
  8
0
  6
CONTINUOUS
 62
     7
 10
-428.2995870915
 20
-569.6984527459
 30
0.0
  0
VERTEX
  5
955
  8
0
  6
CONTINUOUS
 62
     7
 10
-428.2562545148
 20
-579.8045096745
 30
0.0
  0
SEQEND
  5
B47
  8
0
  6
CONTINUOUS
 62
     7
  0
POLYLINE
  5
263
  8
0
  6
CONTINUOUS
 62
     7
 66
     1
 10
0.0
 20
0.0
 30
0.0
  0
VERTEX
  5
956
  8
0
  6
CONTINUOUS
 62
     7
 10
-228.2111457196
 20
-265.5676489522
 30
0.0
  0
VERTEX
  5
957
  8
0
  6
CONTINUOUS
 62
     7
 10
-228.1946948377
 20
-277.1462330421
 30
0.0
  0
VERTEX
  5
958
  8
0
  6
CONTINUOUS
 62
     7
 10
-228.1669190732
 20
-288.7180110266
 30
0.0
  0
VERTEX
  5
959
  8
0
  6
CONTINUOUS
 62
     7
 10
-228.128533682
 20
-300.2756198694
 30
0.0
  0
VERTEX
  5
95A
  8
0
  6
CONTINUOUS
 62
     7
 10
-228.080283722
 20
-311.8117002596
 30
0.0
  0
VERTEX
  5
95B
  8
0
  6
CONTINUOUS
 62
     7
 10
-228.0228844491
 20
-323.3188910236
 30
0.0
  0
VERTEX
  5
95C
  8
0
  6
CONTINUOUS
 62
     7
 10
-227.9381564466
 20
-337.6605359663
 30
0.0
  0
VERTEX
  5
95D
  8
0
  6
CONTINUOUS
 62
     7
 10
-227.8384974805
 20
-351.9502950658
 30
0.0
  0
VERTEX
  5
95E
  8
0
  6
CONTINUOUS
 62
     7
 10
-227.7241757718
 20
-366.1738781084
 30
0.0
  0
VERTEX
  5
95F
  8
0
  6
CONTINUOUS
 62
     7
 10
-227.5954297391
 20
-380.3170023312
 30
0.0
  0
VERTEX
  5
960
  8
0
  6
CONTINUOUS
 62
     7
 10
-227.4779787866
 20
-392.069935595
 30
0.0
  0
VERTEX
  5
961
  8
0
  6
CONTINUOUS
 62
     7
 10
-227.3526898233
 20
-403.7622062315
 30
0.0
  0
VERTEX
  5
962
  8
0
  6
CONTINUOUS
 62
     7
 10
-227.2195330468
 20
-415.3856484045
 30
0.0
  0
VERTEX
  5
963
  8
0
  6
CONTINUOUS
 62
     7
 10
-227.0785084573
 20
-426.9320962777
 30
0.0
  0
VERTEX
  5
964
  8
0
  6
CONTINUOUS
 62
     7
 10
-226.9296756593
 20
-438.3933542122
 30
0.0
  0
VERTEX
  5
965
  8
0
  6
CONTINUOUS
 62
     7
 10
-226.7879656163
 20
-448.8072840323
 30
0.0
  0
VERTEX
  5
966
  8
0
  6
CONTINUOUS
 62
     7
 10
-226.6424408761
 20
-459.147229587
 30
0.0
  0
VERTEX
  5
967
  8
0
  6
CONTINUOUS
 62
     7
 10
-226.4930120317
 20
-469.407141005
 30
0.0
  0
VERTEX
  5
968
  8
0
  6
CONTINUOUS
 62
     7
 10
-226.3396194783
 20
-479.5809535136
 30
0.0
  0
VERTEX
  5
969
  8
0
  6
CONTINUOUS
 62
     7
 10
-226.1806240884
 20
-489.7292701354
 30
0.0
  0
VERTEX
  5
96A
  8
0
  6
CONTINUOUS
 62
     7
 10
-226.0171881524
 20
-499.7860340228
 30
0.0
  0
VERTEX
  5
96B
  8
0
  6
CONTINUOUS
 62
     7
 10
-225.8505335656
 20
-509.7456572403
 30
0.0
  0
VERTEX
  5
96C
  8
0
  6
CONTINUOUS
 62
     7
 10
-225.6819120256
 20
-519.6025667538
 30
0.0
  0
VERTEX
  5
96D
  8
0
  6
CONTINUOUS
 62
     7
 10
-225.6441524831
 20
-521.9999251713
 30
0.0
  0
SEQEND
  5
B46
  8
0
  6
CONTINUOUS
 62
     7
  0
POLYLINE
  5
264
  8
0
  6
CONTINUOUS
 62
     7
 66
     1
 10
0.0
 20
0.0
 30
0.0
  0
VERTEX
  5
96E
  8
0
  6
CONTINUOUS
 62
     7
 10
-225.6441822854
 20
-521.9999251713
 30
0.0
  0
VERTEX
  5
96F
  8
0
  6
CONTINUOUS
 62
     7
 10
-225.5923262445
 20
-534.1155228962
 30
0.0
  0
VERTEX
  5
970
  8
0
  6
CONTINUOUS
 62
     7
 10
-225.6378939954
 20
-545.9011493077
 30
0.0
  0
VERTEX
  5
971
  8
0
  6
CONTINUOUS
 62
     7
 10
-225.7848194448
 20
-557.2151837697
 30
0.0
  0
VERTEX
  5
972
  8
0
  6
CONTINUOUS
 62
     7
 10
-226.036470255
 20
-567.910909449
 30
0.0
  0
VERTEX
  5
973
  8
0
  6
CONTINUOUS
 62
     7
 10
-226.4043203202
 20
-577.8316853394
 30
0.0
  0
VERTEX
  5
974
  8
0
  6
CONTINUOUS
 62
     7
 10
-226.8931082097
 20
-586.8172941555
 30
0.0
  0
VERTEX
  5
975
  8
0
  6
CONTINUOUS
 62
     7
 10
-227.5109401551
 20
-594.7189925065
 30
0.0
  0
VERTEX
  5
976
  8
0
  6
CONTINUOUS
 62
     7
 10
-228.2627931443
 20
-601.4021633019
 30
0.0
  0
VERTEX
  5
977
  8
0
  6
CONTINUOUS
 62
     7
 10
-229.1536739675
 20
-606.7548094143
 30
0.0
  0
VERTEX
  5
978
  8
0
  6
CONTINUOUS
 62
     7
 10
-230.1880529729
 20
-610.6947360386
 30
0.0
  0
VERTEX
  5
979
  8
0
  6
CONTINUOUS
 62
     7
 10
-231.3556781617
 20
-613.1690440525
 30
0.0
  0
VERTEX
  5
97A
  8
0
  6
CONTINUOUS
 62
     7
 10
-232.6432875005
 20
-614.1620276322
 30
0.0
  0
SEQEND
  5
B45
  8
0
  6
CONTINUOUS
 62
     7
  0
POLYLINE
  5
265
  8
0
  6
CONTINUOUS
 62
     7
 66
     1
 10
0.0
 20
0.0
 30
0.0
  0
VERTEX
  5
97B
  8
0
  6
CONTINUOUS
 62
     7
 10
-232.6432875005
 20
109.0267302642
 30
0.0
  0
VERTEX
  5
97C
  8
0
  6
CONTINUOUS
 62
     7
 10
-231.3542178479
 20
108.0332102428
 30
0.0
  0
VERTEX
  5
97D
  8
0
  6
CONTINUOUS
 62
     7
 10
-230.1893344728
 20
105.5602135311
 30
0.0
  0
VERTEX
  5
97E
  8
0
  6
CONTINUOUS
 62
     7
 10
-229.1534355489
 20
101.6194524417
 30
0.0
  0
VERTEX
  5
97F
  8
0
  6
CONTINUOUS
 62
     7
 10
-228.2584718076
 20
96.2635578762
 30
0.0
  0
VERTEX
  5
980
  8
0
  6
CONTINUOUS
 62
     7
 10
-227.5091222135
 20
89.5819368015
 30
0.0
  0
VERTEX
  5
981
  8
0
  6
CONTINUOUS
 62
     7
 10
-226.8918565122
 20
81.6807748924
 30
0.0
  0
VERTEX
  5
982
  8
0
  6
CONTINUOUS
 62
     7
 10
-226.4030686227
 20
72.6949276577
 30
0.0
  0
VERTEX
  5
983
  8
0
  6
CONTINUOUS
 62
     7
 10
-226.0370961038
 20
62.7758504997
 30
0.0
  0
VERTEX
  5
984
  8
0
  6
CONTINUOUS
 62
     7
 10
-225.7848790494
 20
52.0796777854
 30
0.0
  0
VERTEX
  5
985
  8
0
  6
CONTINUOUS
 62
     7
 10
-225.6381622163
 20
40.7658817421
 30
0.0
  0
VERTEX
  5
986
  8
0
  6
CONTINUOUS
 62
     7
 10
-225.5924752561
 20
28.9802553306
 30
0.0
  0
VERTEX
  5
987
  8
0
  6
CONTINUOUS
 62
     7
 10
-225.6441822854
 20
16.8646278034
 30
0.0
  0
SEQEND
  5
B44
  8
0
  6
CONTINUOUS
 62
     7
  0
POLYLINE
  5
266
  8
0
  6
CONTINUOUS
 62
     7
 66
     1
 10
0.0
 20
0.0
 30
0.0
  0
VERTEX
  5
988
  8
0
  6
CONTINUOUS
 62
     7
 10
-225.6441524831
 20
16.8646278034
 30
0.0
  0
VERTEX
  5
989
  8
0
  6
CONTINUOUS
 62
     7
 10
-225.8048466054
 20
4.6897234569
 30
0.0
  0
VERTEX
  5
98A
  8
0
  6
CONTINUOUS
 62
     7
 10
-226.0322681275
 20
-7.6301542868
 30
0.0
  0
VERTEX
  5
98B
  8
0
  6
CONTINUOUS
 62
     7
 10
-226.2549510804
 20
-20.0952736487
 30
0.0
  0
VERTEX
  5
98C
  8
0
  6
CONTINUOUS
 62
     7
 10
-226.4487853852
 20
-32.7707974066
 30
0.0
  0
VERTEX
  5
98D
  8
0
  6
CONTINUOUS
 62
     7
 10
-226.6360035745
 20
-45.581698214
 30
0.0
  0
VERTEX
  5
98E
  8
0
  6
CONTINUOUS
 62
     7
 10
-226.8177679387
 20
-58.5158614268
 30
0.0
  0
VERTEX
  5
98F
  8
0
  6
CONTINUOUS
 62
     7
 10
-226.9717267362
 20
-69.9529943814
 30
0.0
  0
VERTEX
  5
990
  8
0
  6
CONTINUOUS
 62
     7
 10
-227.1187117902
 20
-81.4795790066
 30
0.0
  0
VERTEX
  5
991
  8
0
  6
CONTINUOUS
 62
     7
 10
-227.2582760659
 20
-93.0875090708
 30
0.0
  0
VERTEX
  5
992
  8
0
  6
CONTINUOUS
 62
     7
 10
-227.3899725286
 20
-104.7686336388
 30
0.0
  0
VERTEX
  5
993
  8
0
  6
CONTINUOUS
 62
     7
 10
-227.5133839456
 20
-116.5147868742
 30
0.0
  0
VERTEX
  5
994
  8
0
  6
CONTINUOUS
 62
     7
 10
-227.628242096
 20
-128.3246723761
 30
0.0
  0
VERTEX
  5
995
  8
0
  6
CONTINUOUS
 62
     7
 10
-227.7341595498
 20
-140.1968298306
 30
0.0
  0
VERTEX
  5
996
  8
0
  6
CONTINUOUS
 62
     7
 10
-227.8304508534
 20
-152.1229369392
 30
0.0
  0
VERTEX
  5
997
  8
0
  6
CONTINUOUS
 62
     7
 10
-227.9163411466
 20
-164.0946565022
 30
0.0
  0
VERTEX
  5
998
  8
0
  6
CONTINUOUS
 62
     7
 10
-227.9911449758
 20
-176.1036438693
 30
0.0
  0
VERTEX
  5
999
  8
0
  6
CONTINUOUS
 62
     7
 10
-228.0585280267
 20
-188.7405959715
 30
0.0
  0
VERTEX
  5
99A
  8
0
  6
CONTINUOUS
 62
     7
 10
-228.1151524392
 20
-201.4152442862
 30
0.0
  0
VERTEX
  5
99B
  8
0
  6
CONTINUOUS
 62
     7
 10
-228.1601241437
 20
-214.117817377
 30
0.0
  0
VERTEX
  5
99C
  8
0
  6
CONTINUOUS
 62
     7
 10
-228.1924298612
 20
-226.8385419448
 30
0.0
  0
VERTEX
  5
99D
  8
0
  6
CONTINUOUS
 62
     7
 10
-228.2111457196
 20
-239.5676484158
 30
0.0
  0
SEQEND
  5
B43
  8
0
  6
CONTINUOUS
 62
     7
  0
POLYLINE
  5
267
  8
0
  6
CONTINUOUS
 62
     7
 66
     1
 10
0.0
 20
0.0
 30
0.0
  0
VERTEX
  5
99E
  8
0
  6
CONTINUOUS
 62
     7
 10
-428.2562545148
 20
74.6692123066
 30
0.0
  0
VERTEX
  5
99F
  8
0
  6
CONTINUOUS
 62
     7
 10
-428.299169859
 20
61.233937944
 30
0.0
  0
VERTEX
  5
9A0
  8
0
  6
CONTINUOUS
 62
     7
 10
-428.3606818524
 20
47.6902427326
 30
0.0
  0
VERTEX
  5
9A1
  8
0
  6
CONTINUOUS
 62
     7
 10
-428.4316113797
 20
34.0439381252
 30
0.0
  0
VERTEX
  5
9A2
  8
0
  6
CONTINUOUS
 62
     7
 10
-428.5026005117
 20
20.3008951793
 30
0.0
  0
VERTEX
  5
9A3
  8
0
  6
CONTINUOUS
 62
     7
 10
-428.5644701329
 20
6.4668955455
 30
0.0
  0
VERTEX
  5
9A4
  8
0
  6
CONTINUOUS
 62
     7
 10
-428.6193660108
 20
-7.5774637808
 30
0.0
  0
VERTEX
  5
9A5
  8
0
  6
CONTINUOUS
 62
     7
 10
-428.6728313771
 20
-21.7110065569
 30
0.0
  0
VERTEX
  5
9A6
  8
0
  6
CONTINUOUS
 62
     7
 10
-428.7220648137
 20
-35.9265057196
 30
0.0
  0
VERTEX
  5
9A7
  8
0
  6
CONTINUOUS
 62
     7
 10
-428.7643245069
 20
-50.2167044033
 30
0.0
  0
VERTEX
  5
9A8
  8
0
  6
CONTINUOUS
 62
     7
 10
-428.7967494336
 20
-64.5743308415
 30
0.0
  0
VERTEX
  5
9A9
  8
0
  6
CONTINUOUS
 62
     7
 10
-428.8248232213
 20
-78.8122413506
 30
0.0
  0
VERTEX
  5
9AA
  8
0
  6
CONTINUOUS
 62
     7
 10
-428.853910288
 20
-93.1114105334
 30
0.0
  0
VERTEX
  5
9AB
  8
0
  6
CONTINUOUS
 62
     7
 10
-428.8797787038
 20
-107.4647752394
 30
0.0
  0
VERTEX
  5
9AC
  8
0
  6
CONTINUOUS
 62
     7
 10
-428.8980773297
 20
-121.865242516
 30
0.0
  0
VERTEX
  5
9AD
  8
0
  6
CONTINUOUS
 62
     7
 10
-428.9046934453
 20
-136.3106144418
 30
0.0
  0
VERTEX
  5
9AE
  8
0
  6
CONTINUOUS
 62
     7
 10
-428.9033225385
 20
-150.798082148
 30
0.0
  0
VERTEX
  5
9AF
  8
0
  6
CONTINUOUS
 62
     7
 10
-428.9015343991
 20
-165.3199938883
 30
0.0
  0
VERTEX
  5
9B0
  8
0
  6
CONTINUOUS
 62
     7
 10
-428.9069584218
 20
-179.8687128176
 30
0.0
  0
VERTEX
  5
9B1
  8
0
  6
CONTINUOUS
 62
     7
 10
-428.9150646535
 20
-194.7666106572
 30
0.0
  0
VERTEX
  5
9B2
  8
0
  6
CONTINUOUS
 62
     7
 10
-428.9161971417
 20
-209.6877431323
 30
0.0
  0
VERTEX
  5
9B3
  8
0
  6
CONTINUOUS
 62
     7
 10
-428.9111903516
 20
-224.6240971436
 30
0.0
  0
VERTEX
  5
9B4
  8
0
  6
CONTINUOUS
 62
     7
 10
-428.9008191434
 20
-239.5676484158
 30
0.0
  0
SEQEND
  5
B42
  8
0
  6
CONTINUOUS
 62
     7
  0
POLYLINE
  5
268
  8
0
  6
CONTINUOUS
 62
     7
 66
     1
 10
0.0
 20
0.0
 30
0.0
  0
VERTEX
  5
9B5
  8
0
  6
CONTINUOUS
 62
     7
 10
-433.7572267858
 20
147.4263670097
 30
0.0
  0
VERTEX
  5
9B6
  8
0
  6
CONTINUOUS
 62
     7
 10
-433.6361697522
 20
147.3561527381
 30
0.0
  0
VERTEX
  5
9B7
  8
0
  6
CONTINUOUS
 62
     7
 10
-433.3166292516
 20
147.1277775417
 30
0.0
  0
VERTEX
  5
9B8
  8
0
  6
CONTINUOUS
 62
     7
 10
-432.9204371778
 20
146.7475297103
 30
0.0
  0
VERTEX
  5
9B9
  8
0
  6
CONTINUOUS
 62
     7
 10
-432.5592330304
 20
146.2156476627
 30
0.0
  0
VERTEX
  5
9BA
  8
0
  6
CONTINUOUS
 62
     7
 10
-432.1508816091
 20
145.2483238826
 30
0.0
  0
VERTEX
  5
9BB
  8
0
  6
CONTINUOUS
 62
     7
 10
-431.7599943486
 20
144.0035702835
 30
0.0
  0
VERTEX
  5
9BC
  8
0
  6
CONTINUOUS
 62
     7
 10
-431.386094412
 20
142.4862148414
 30
0.0
  0
VERTEX
  5
9BD
  8
0
  6
CONTINUOUS
 62
     7
 10
-431.0017040578
 20
140.5366661201
 30
0.0
  0
VERTEX
  5
9BE
  8
0
  6
CONTINUOUS
 62
     7
 10
-430.6416920034
 20
138.2759513507
 30
0.0
  0
VERTEX
  5
9BF
  8
0
  6
CONTINUOUS
 62
     7
 10
-430.3071311322
 20
135.7143225322
 30
0.0
  0
VERTEX
  5
9C0
  8
0
  6
CONTINUOUS
 62
     7
 10
-429.9912861196
 20
132.7813567768
 30
0.0
  0
VERTEX
  5
9C1
  8
0
  6
CONTINUOUS
 62
     7
 10
-429.7029784528
 20
129.5457186351
 30
0.0
  0
VERTEX
  5
9C2
  8
0
  6
CONTINUOUS
 62
     7
 10
-429.4423869458
 20
126.0217132221
 30
0.0
  0
VERTEX
  5
9C3
  8
0
  6
CONTINUOUS
 62
     7
 10
-429.1996172277
 20
122.0373513351
 30
0.0
  0
VERTEX
  5
9C4
  8
0
  6
CONTINUOUS
 62
     7
 10
-428.9867094365
 20
117.7561583171
 30
0.0
  0
VERTEX
  5
9C5
  8
0
  6
CONTINUOUS
 62
     7
 10
-428.8035443631
 20
113.197714294
 30
0.0
  0
VERTEX
  5
9C6
  8
0
  6
CONTINUOUS
 62
     7
 10
-428.6823085157
 20
109.4991566787
 30
0.0
  0
VERTEX
  5
9C7
  8
0
  6
CONTINUOUS
 62
     7
 10
-428.5772851316
 20
105.6450607429
 30
0.0
  0
VERTEX
  5
9C8
  8
0
  6
CONTINUOUS
 62
     7
 10
-428.4875205365
 20
101.6457082878
 30
0.0
  0
VERTEX
  5
9C9
  8
0
  6
CONTINUOUS
 62
     7
 10
-428.4118822423
 20
97.5115301261
 30
0.0
  0
VERTEX
  5
9CA
  8
0
  6
CONTINUOUS
 62
     7
 10
-428.3377936688
 20
92.1085776935
 30
0.0
  0
VERTEX
  5
9CB
  8
0
  6
CONTINUOUS
 62
     7
 10
-428.2889178601
 20
86.5130724559
 30
0.0
  0
VERTEX
  5
9CC
  8
0
  6
CONTINUOUS
 62
     7
 10
-428.2598903981
 20
80.6728901516
 30
0.0
  0
VERTEX
  5
9CD
  8
0
  6
CONTINUOUS
 62
     7
 10
-428.2562545148
 20
74.6692123066
 30
0.0
  0
SEQEND
  5
B41
  8
0
  6
CONTINUOUS
 62
     7
  0
LINE
  5
269
  8
0
  6
CONTINUOUS
 62
     7
 10
-784.602861723
 20
128.4323634754
 30
0.0
 11
-816.1028436032
 21
128.4323634754
 31
0.0
  0
LINE
  5
26A
  8
0
  6
CONTINUOUS
 62
     7
 10
-784.602861723
 20
-633.5676608433
 30
0.0
 11
-816.1028436032
 21
-633.5676608433
 31
0.0
  0
LINE
  5
26B
  8
0
  6
CONTINUOUS
 62
     7
 10
-793.2631185857
 20
137.4323370109
 30
0.0
 11
-824.7631004659
 21
137.4323370109
 31
0.0
  0
LINE
  5
26C
  8
0
  6
CONTINUOUS
 62
     7
 10
-793.2631185857
 20
-642.5676343789
 30
0.0
 11
-824.7631004659
 21
-642.5676343789
 31
0.0
  0
LINE
  5
26D
  8
0
  6
CONTINUOUS
 62
     7
 10
-837.0884469358
 20
-662.5676451077
 30
0.0
 11
-832.0643714276
 21
-662.5676451077
 31
0.0
  0
LINE
  5
26E
  8
0
  6
CONTINUOUS
 62
     7
 10
-907.0643595067
 20
-662.5676451077
 30
0.0
 11
-902.0403436032
 21
-662.5676451077
 31
0.0
  0
LINE
  5
26F
  8
0
  6
CONTINUOUS
 62
     7
 10
-848.083119711
 20
-772.6926205506
 30
0.0
 11
-848.0644038526
 21
-771.9706890931
 31
0.0
  0
POLYLINE
  5
270
  8
0
  6
CONTINUOUS
 62
     7
 66
     1
 10
0.0
 20
0.0
 30
0.0
  0
VERTEX
  5
9CE
  8
0
  6
CONTINUOUS
 62
     7
 10
-858.8238766995
 20
-772.6926205506
 30
0.0
  0
VERTEX
  5
9CF
  8
0
  6
CONTINUOUS
 62
     7
 10
-857.9512050954
 20
-771.8665597786
 30
0.0
  0
VERTEX
  5
9D0
  8
0
  6
CONTINUOUS
 62
     7
 10
-857.1036866513
 20
-771.1171505799
 30
0.0
  0
VERTEX
  5
9D1
  8
0
  6
CONTINUOUS
 62
     7
 10
-856.2834671346
 20
-770.4462406983
 30
0.0
  0
VERTEX
  5
9D2
  8
0
  6
CONTINUOUS
 62
     7
 10
-855.4925134984
 20
-769.8554990639
 30
0.0
  0
VERTEX
  5
9D3
  8
0
  6
CONTINUOUS
 62
     7
 10
-854.7327926961
 20
-769.3463561882
 30
0.0
  0
VERTEX
  5
9D4
  8
0
  6
CONTINUOUS
 62
     7
 10
-854.0062120763
 20
-768.9201829781
 30
0.0
  0
VERTEX
  5
9D5
  8
0
  6
CONTINUOUS
 62
     7
 10
-853.314619383
 20
-768.5779331078
 30
0.0
  0
VERTEX
  5
9D6
  8
0
  6
CONTINUOUS
 62
     7
 10
-852.6596835462
 20
-768.320500647
 30
0.0
  0
VERTEX
  5
9D7
  8
0
  6
CONTINUOUS
 62
     7
 10
-852.0430138913
 20
-768.1484816422
 30
0.0
  0
VERTEX
  5
9D8
  8
0
  6
CONTINUOUS
 62
     7
 10
-851.4662197438
 20
-768.0624125351
 30
0.0
  0
VERTEX
  5
9D9
  8
0
  6
CONTINUOUS
 62
     7
 10
-850.9306720105
 20
-768.0624125351
 30
0.0
  0
VERTEX
  5
9DA
  8
0
  6
CONTINUOUS
 62
     7
 10
-850.4376819936
 20
-768.1484816422
 30
0.0
  0
VERTEX
  5
9DB
  8
0
  6
CONTINUOUS
 62
     7
 10
-849.9885609952
 20
-768.320500647
 30
0.0
  0
VERTEX
  5
9DC
  8
0
  6
CONTINUOUS
 62
     7
 10
-849.584381899
 20
-768.5779331078
 30
0.0
  0
VERTEX
  5
9DD
  8
0
  6
CONTINUOUS
 62
     7
 10
-849.2261579839
 20
-768.9201829781
 30
0.0
  0
VERTEX
  5
9DE
  8
0
  6
CONTINUOUS
 62
     7
 10
-848.9147237149
 20
-769.3463561882
 30
0.0
  0
VERTEX
  5
9DF
  8
0
  6
CONTINUOUS
 62
     7
 10
-848.6509135572
 20
-769.8554990639
 30
0.0
  0
VERTEX
  5
9E0
  8
0
  6
CONTINUOUS
 62
     7
 10
-848.4353831616
 20
-770.4462406983
 30
0.0
  0
VERTEX
  5
9E1
  8
0
  6
CONTINUOUS
 62
     7
 10
-848.2686689702
 20
-771.1171505799
 30
0.0
  0
VERTEX
  5
9E2
  8
0
  6
CONTINUOUS
 62
     7
 10
-848.1511286107
 20
-771.8665597786
 30
0.0
  0
VERTEX
  5
9E3
  8
0
  6
CONTINUOUS
 62
     7
 10
-848.083119711
 20
-772.6926205506
 30
0.0
  0
SEQEND
  5
B40
  8
0
  6
CONTINUOUS
 62
     7
  0
POLYLINE
  5
271
  8
0
  6
CONTINUOUS
 62
     7
 66
     1
 10
0.0
 20
0.0
 30
0.0
  0
VERTEX
  5
9E4
  8
0
  6
CONTINUOUS
 62
     7
 10
-878.805082163
 20
-772.6926205506
 30
0.0
  0
VERTEX
  5
9E5
  8
0
  6
CONTINUOUS
 62
     7
 10
-877.9507687894
 20
-771.8665597786
 30
0.0
  0
VERTEX
  5
9E6
  8
0
  6
CONTINUOUS
 62
     7
 10
-877.0718983022
 20
-771.1171505799
 30
0.0
  0
VERTEX
  5
9E7
  8
0
  6
CONTINUOUS
 62
     7
 10
-876.1706164685
 20
-770.4462406983
 30
0.0
  0
VERTEX
  5
9E8
  8
0
  6
CONTINUOUS
 62
     7
 10
-875.2491882649
 20
-769.8554990639
 30
0.0
  0
VERTEX
  5
9E9
  8
0
  6
CONTINUOUS
 62
     7
 10
-874.3098786679
 20
-769.3463561882
 30
0.0
  0
VERTEX
  5
9EA
  8
0
  6
CONTINUOUS
 62
     7
 10
-873.3550122586
 20
-768.9201829781
 30
0.0
  0
VERTEX
  5
9EB
  8
0
  6
CONTINUOUS
 62
     7
 10
-872.3870328275
 20
-768.5779331078
 30
0.0
  0
VERTEX
  5
9EC
  8
0
  6
CONTINUOUS
 62
     7
 10
-871.4083245603
 20
-768.320500647
 30
0.0
  0
VERTEX
  5
9ED
  8
0
  6
CONTINUOUS
 62
     7
 10
-870.4212716428
 20
-768.1484816422
 30
0.0
  0
VERTEX
  5
9EE
  8
0
  6
CONTINUOUS
 62
     7
 10
-869.4283774701
 20
-768.0624125351
 30
0.0
  0
VERTEX
  5
9EF
  8
0
  6
CONTINUOUS
 62
     7
 10
-868.4320858327
 20
-768.0624125351
 30
0.0
  0
VERTEX
  5
9F0
  8
0
  6
CONTINUOUS
 62
     7
 10
-867.4349001256
 20
-768.1484816422
 30
0.0
  0
VERTEX
  5
9F1
  8
0
  6
CONTINUOUS
 62
     7
 10
-866.4392641393
 20
-768.320500647
 30
0.0
  0
VERTEX
  5
9F2
  8
0
  6
CONTINUOUS
 62
     7
 10
-865.4476216641
 20
-768.5779331078
 30
0.0
  0
VERTEX
  5
9F3
  8
0
  6
CONTINUOUS
 62
     7
 10
-864.4625356999
 20
-768.9201829781
 30
0.0
  0
VERTEX
  5
9F4
  8
0
  6
CONTINUOUS
 62
     7
 10
-863.4863904325
 20
-769.3463561882
 30
0.0
  0
VERTEX
  5
9F5
  8
0
  6
CONTINUOUS
 62
     7
 10
-862.5216296521
 20
-769.8554990639
 30
0.0
  0
VERTEX
  5
9F6
  8
0
  6
CONTINUOUS
 62
     7
 10
-861.5706971494
 20
-770.4462406983
 30
0.0
  0
VERTEX
  5
9F7
  8
0
  6
CONTINUOUS
 62
     7
 10
-860.6358579007
 20
-771.1171505799
 30
0.0
  0
VERTEX
  5
9F8
  8
0
  6
CONTINUOUS
 62
     7
 10
-859.7194960919
 20
-771.8665597786
 30
0.0
  0
VERTEX
  5
9F9
  8
0
  6
CONTINUOUS
 62
     7
 10
-858.8238766995
 20
-772.6926205506
 30
0.0
  0
SEQEND
  5
B3F
  8
0
  6
CONTINUOUS
 62
     7
  0
POLYLINE
  5
272
  8
0
  6
CONTINUOUS
 62
     7
 66
     1
 10
0.0
 20
0.0
 30
0.0
  0
VERTEX
  5
9FA
  8
0
  6
CONTINUOUS
 62
     7
 10
-888.0455902425
 20
-772.6926205506
 30
0.0
  0
VERTEX
  5
9FB
  8
0
  6
CONTINUOUS
 62
     7
 10
-888.0639484731
 20
-771.8665597786
 30
0.0
  0
VERTEX
  5
9FC
  8
0
  6
CONTINUOUS
 62
     7
 10
-888.0325368253
 20
-771.1171505799
 30
0.0
  0
VERTEX
  5
9FD
  8
0
  6
CONTINUOUS
 62
     7
 10
-887.951534113
 20
-770.4462406983
 30
0.0
  0
VERTEX
  5
9FE
  8
0
  6
CONTINUOUS
 62
     7
 10
-887.8210595456
 20
-769.8554990639
 30
0.0
  0
VERTEX
  5
9FF
  8
0
  6
CONTINUOUS
 62
     7
 10
-887.6414707509
 20
-769.3463561882
 30
0.0
  0
VERTEX
  5
A00
  8
0
  6
CONTINUOUS
 62
     7
 10
-887.4131849614
 20
-768.9201829781
 30
0.0
  0
VERTEX
  5
A01
  8
0
  6
CONTINUOUS
 62
     7
 10
-887.1368578282
 20
-768.5779331078
 30
0.0
  0
VERTEX
  5
A02
  8
0
  6
CONTINUOUS
 62
     7
 10
-886.8130257932
 20
-768.320500647
 30
0.0
  0
VERTEX
  5
A03
  8
0
  6
CONTINUOUS
 62
     7
 10
-886.4426425305
 20
-768.1484816422
 30
0.0
  0
VERTEX
  5
A04
  8
0
  6
CONTINUOUS
 62
     7
 10
-886.0265425054
 20
-768.0624125351
 30
0.0
  0
VERTEX
  5
A05
  8
0
  6
CONTINUOUS
 62
     7
 10
-885.5657986013
 20
-768.0624125351
 30
0.0
  0
VERTEX
  5
A06
  8
0
  6
CONTINUOUS
 62
     7
 10
-885.0615433065
 20
-768.1484816422
 30
0.0
  0
VERTEX
  5
A07
  8
0
  6
CONTINUOUS
 62
     7
 10
-884.5150283185
 20
-768.320500647
 30
0.0
  0
VERTEX
  5
A08
  8
0
  6
CONTINUOUS
 62
     7
 10
-883.9276245442
 20
-768.5779331078
 30
0.0
  0
VERTEX
  5
A09
  8
0
  6
CONTINUOUS
 62
     7
 10
-883.3007624951
 20
-768.9201829781
 30
0.0
  0
VERTEX
  5
A0A
  8
0
  6
CONTINUOUS
 62
     7
 10
-882.6360514966
 20
-769.3463561882
 30
0.0
  0
VERTEX
  5
A0B
  8
0
  6
CONTINUOUS
 62
     7
 10
-881.935100874
 20
-769.8554990639
 30
0.0
  0
VERTEX
  5
A0C
  8
0
  6
CONTINUOUS
 62
     7
 10
-881.1996391622
 20
-770.4462406983
 30
0.0
  0
VERTEX
  5
A0D
  8
0
  6
CONTINUOUS
 62
     7
 10
-880.4315737096
 20
-771.1171505799
 30
0.0
  0
VERTEX
  5
A0E
  8
0
  6
CONTINUOUS
 62
     7
 10
-879.6326926557
 20
-771.8665597786
 30
0.0
  0
VERTEX
  5
A0F
  8
0
  6
CONTINUOUS
 62
     7
 10
-878.805082163
 20
-772.6926205506
 30
0.0
  0
SEQEND
  5
B3E
  8
0
  6
CONTINUOUS
 62
     7
  0
LINE
  5
273
  8
0
  6
CONTINUOUS
 62
     7
 10
-858.8238766995
 20
-772.6926205506
 30
0.0
 11
-859.4013861028
 21
-774.5676634659
 31
0.0
  0
LINE
  5
274
  8
0
  6
CONTINUOUS
 62
     7
 10
-859.4013861028
 20
-774.5676634659
 30
0.0
 11
-878.1338146535
 21
-774.5676634659
 31
0.0
  0
LINE
  5
275
  8
0
  6
CONTINUOUS
 62
     7
 10
-878.805082163
 20
-772.6926205506
 30
0.0
 11
-878.1338146535
 21
-774.5676634659
 31
0.0
  0
LINE
  5
276
  8
0
  6
CONTINUOUS
 62
     7
 10
-900.5403331128
 20
160.4323389183
 30
0.0
 11
-905.5643490163
 21
160.4323389183
 31
0.0
  0
LINE
  5
277
  8
0
  6
CONTINUOUS
 62
     7
 10
-830.5643609372
 20
160.4323389183
 30
0.0
 11
-835.5884364453
 21
160.4323389183
 31
0.0
  0
LINE
  5
278
  8
0
  6
CONTINUOUS
 62
     7
 10
-848.083119711
 20
-772.6926205506
 30
0.0
 11
-849.3319562284
 21
-774.5676634659
 31
0.0
  0
LINE
  5
279
  8
0
  6
CONTINUOUS
 62
     7
 10
-849.3319562284
 20
-774.5676634659
 30
0.0
 11
-859.4013861028
 21
-774.5676634659
 31
0.0
  0
LINE
  5
27A
  8
0
  6
CONTINUOUS
 62
     7
 10
-878.1338146535
 20
-774.5676634659
 30
0.0
 11
-886.7968133298
 21
-774.5676634659
 31
0.0
  0
LINE
  5
27B
  8
0
  6
CONTINUOUS
 62
     7
 10
-886.7968133298
 20
-774.5676634659
 30
0.0
 11
-888.0455902425
 21
-772.6926205506
 31
0.0
  0
LINE
  5
27C
  8
0
  6
CONTINUOUS
 62
     7
 10
-878.1338146535
 20
-774.5676634659
 30
0.0
 11
-878.1149795857
 21
-775.5676505913
 31
0.0
  0
LINE
  5
27D
  8
0
  6
CONTINUOUS
 62
     7
 10
-859.4013861028
 20
-774.5676634659
 30
0.0
 11
-859.4175389615
 21
-775.5676505913
 31
0.0
  0
LINE
  5
27E
  8
0
  6
CONTINUOUS
 62
     7
 10
-849.3319562284
 20
-774.5676634659
 30
0.0
 11
-849.3669441548
 21
-775.5676505913
 31
0.0
  0
LINE
  5
27F
  8
0
  6
CONTINUOUS
 62
     7
 10
-886.7968133298
 20
-774.5676634659
 30
0.0
 11
-886.7618254033
 21
-775.5676505913
 31
0.0
  0
LINE
  5
280
  8
0
  6
CONTINUOUS
 62
     7
 10
-834.3511632291
 20
-813.0676744332
 30
0.0
 11
-492.6997235623
 21
-813.0676744332
 31
0.0
  0
LINE
  5
281
  8
0
  6
CONTINUOUS
 62
     7
 10
-834.3511632291
 20
-788.0676386704
 30
0.0
 11
-492.6997235623
 21
-788.0676386704
 31
0.0
  0
LINE
  5
282
  8
0
  6
CONTINUOUS
 62
     7
 10
-492.6997235623
 20
-788.0676386704
 30
0.0
 11
-492.6997235623
 21
-813.0676744332
 31
0.0
  0
POLYLINE
  5
283
  8
0
  6
CONTINUOUS
 62
     7
 66
     1
 10
0.0
 20
0.0
 30
0.0
  0
VERTEX
  5
A10
  8
0
  6
CONTINUOUS
 62
     7
 10
-11.7364040223
 20
-265.5676489522
 30
0.0
  0
VERTEX
  5
A11
  8
0
  6
CONTINUOUS
 62
     7
 10
-11.7364040223
 20
-265.9326938738
 30
0.0
  0
VERTEX
  5
A12
  8
0
  6
CONTINUOUS
 62
     7
 10
-11.736001691
 20
-274.8448306521
 30
0.0
  0
VERTEX
  5
A13
  8
0
  6
CONTINUOUS
 62
     7
 10
-11.7351672259
 20
-283.743347769
 30
0.0
  0
VERTEX
  5
A14
  8
0
  6
CONTINUOUS
 62
     7
 10
-11.7341241447
 20
-292.6180733194
 30
0.0
  0
VERTEX
  5
A15
  8
0
  6
CONTINUOUS
 62
     7
 10
-11.7331108657
 20
-301.4588316729
 30
0.0
  0
VERTEX
  5
A16
  8
0
  6
CONTINUOUS
 62
     7
 10
-11.7318591682
 20
-310.2621881117
 30
0.0
  0
VERTEX
  5
A17
  8
0
  6
CONTINUOUS
 62
     7
 10
-11.7301455346
 20
-319.0248308529
 30
0.0
  0
VERTEX
  5
A18
  8
0
  6
CONTINUOUS
 62
     7
 10
-11.7282232848
 20
-327.7367500414
 30
0.0
  0
VERTEX
  5
A19
  8
0
  6
CONTINUOUS
 62
     7
 10
-11.7263457385
 20
-336.3879469981
 30
0.0
  0
VERTEX
  5
A1A
  8
0
  6
CONTINUOUS
 62
     7
 10
-11.7241776196
 20
-345.4147724261
 30
0.0
  0
VERTEX
  5
A1B
  8
0
  6
CONTINUOUS
 62
     7
 10
-11.7215699163
 20
-354.3669951906
 30
0.0
  0
VERTEX
  5
A1C
  8
0
  6
CONTINUOUS
 62
     7
 10
-11.7187535969
 20
-363.2333276619
 30
0.0
  0
VERTEX
  5
A1D
  8
0
  6
CONTINUOUS
 62
     7
 10
-11.7159819809
 20
-372.0025045623
 30
0.0
  0
VERTEX
  5
A1E
  8
0
  6
CONTINUOUS
 62
     7
 10
-11.7132103649
 20
-380.2491573443
 30
0.0
  0
VERTEX
  5
A1F
  8
0
  6
CONTINUOUS
 62
     7
 10
-11.7101034728
 20
-388.4014187207
 30
0.0
  0
VERTEX
  5
A20
  8
0
  6
CONTINUOUS
 62
     7
 10
-11.7068177668
 20
-396.4500127186
 30
0.0
  0
VERTEX
  5
A21
  8
0
  6
CONTINUOUS
 62
     7
 10
-11.7035320607
 20
-404.3856559147
 30
0.0
  0
VERTEX
  5
A22
  8
0
  6
CONTINUOUS
 62
     7
 10
-11.7002091018
 20
-412.2051743617
 30
0.0
  0
VERTEX
  5
A23
  8
0
  6
CONTINUOUS
 62
     7
 10
-11.6967147795
 20
-419.9057219376
 30
0.0
  0
VERTEX
  5
A24
  8
0
  6
CONTINUOUS
 62
     7
 10
-11.6930863467
 20
-427.4785665621
 30
0.0
  0
VERTEX
  5
A25
  8
0
  6
CONTINUOUS
 62
     7
 10
-11.6893461553
 20
-434.9149463524
 30
0.0
  0
VERTEX
  5
A26
  8
0
  6
CONTINUOUS
 62
     7
 10
-11.6854122487
 20
-442.5832031121
 30
0.0
  0
VERTEX
  5
A27
  8
0
  6
CONTINUOUS
 62
     7
 10
-11.6815155951
 20
-450.0942228188
 30
0.0
  0
VERTEX
  5
A28
  8
0
  6
CONTINUOUS
 62
     7
 10
-11.6775742379
 20
-457.4386028399
 30
0.0
  0
VERTEX
  5
A29
  8
0
  6
CONTINUOUS
 62
     7
 10
-11.6734913198
 20
-464.6069405426
 30
0.0
  0
VERTEX
  5
A2A
  8
0
  6
CONTINUOUS
 62
     7
 10
-11.6696170178
 20
-471.2583569636
 30
0.0
  0
VERTEX
  5
A2B
  8
0
  6
CONTINUOUS
 62
     7
 10
-11.6658991781
 20
-477.7452645649
 30
0.0
  0
VERTEX
  5
A2C
  8
0
  6
CONTINUOUS
 62
     7
 10
-11.6621813384
 20
-484.0603021731
 30
0.0
  0
VERTEX
  5
A2D
  8
0
  6
CONTINUOUS
 62
     7
 10
-11.6583442894
 20
-490.196168219
 30
0.0
  0
VERTEX
  5
A2E
  8
0
  6
CONTINUOUS
 62
     7
 10
-11.6546264497
 20
-496.1502549996
 30
0.0
  0
VERTEX
  5
A2F
  8
0
  6
CONTINUOUS
 62
     7
 10
-11.6512066332
 20
-501.9205359568
 30
0.0
  0
VERTEX
  5
A30
  8
0
  6
CONTINUOUS
 62
     7
 10
-11.6478836742
 20
-507.5004992833
 30
0.0
  0
VERTEX
  5
A31
  8
0
  6
CONTINUOUS
 62
     7
 10
-11.6444340554
 20
-512.8836927762
 30
0.0
  0
VERTEX
  5
A32
  8
0
  6
CONTINUOUS
 62
     7
 10
-11.6424223987
 20
-518.3288750996
 30
0.0
  0
VERTEX
  5
A33
  8
0
  6
CONTINUOUS
 62
     7
 10
-11.6460433808
 20
-523.5518811097
 30
0.0
  0
VERTEX
  5
A34
  8
0
  6
CONTINUOUS
 62
     7
 10
-11.658493301
 20
-528.546303307
 30
0.0
  0
VERTEX
  5
A35
  8
0
  6
CONTINUOUS
 62
     7
 10
-11.6829610077
 20
-533.3055851807
 30
0.0
  0
VERTEX
  5
A36
  8
0
  6
CONTINUOUS
 62
     7
 10
-11.7189920155
 20
-537.6114843239
 30
0.0
  0
VERTEX
  5
A37
  8
0
  6
CONTINUOUS
 62
     7
 10
-11.7680913416
 20
-541.7012868275
 30
0.0
  0
VERTEX
  5
A38
  8
0
  6
CONTINUOUS
 62
     7
 10
-11.831771454
 20
-545.5704329361
 30
0.0
  0
VERTEX
  5
A39
  8
0
  6
CONTINUOUS
 62
     7
 10
-11.911552271
 20
-549.2143628945
 30
0.0
  0
VERTEX
  5
A3A
  8
0
  6
CONTINUOUS
 62
     7
 10
-12.0080372897
 20
-552.6313779702
 30
0.0
  0
VERTEX
  5
A3B
  8
0
  6
CONTINUOUS
 62
     7
 10
-12.12199392
 20
-555.8204648842
 30
0.0
  0
VERTEX
  5
A3C
  8
0
  6
CONTINUOUS
 62
     7
 10
-12.255158147
 20
-558.7781069626
 30
0.0
  0
VERTEX
  5
A3D
  8
0
  6
CONTINUOUS
 62
     7
 10
-12.409265956
 20
-561.500757729
 30
0.0
  0
VERTEX
  5
A3E
  8
0
  6
CONTINUOUS
 62
     7
 10
-12.5934741107
 20
-564.1090867867
 30
0.0
  0
VERTEX
  5
A3F
  8
0
  6
CONTINUOUS
 62
     7
 10
-12.7994230596
 20
-566.455304419
 30
0.0
  0
VERTEX
  5
A40
  8
0
  6
CONTINUOUS
 62
     7
 10
-13.0282005874
 20
-568.5366688122
 30
0.0
  0
VERTEX
  5
A41
  8
0
  6
CONTINUOUS
 62
     7
 10
-13.2808795777
 20
-570.3504083504
 30
0.0
  0
VERTEX
  5
A42
  8
0
  6
CONTINUOUS
 62
     7
 10
-13.5653576461
 20
-571.9367561688
 30
0.0
  0
VERTEX
  5
A43
  8
0
  6
CONTINUOUS
 62
     7
 10
-13.8610562888
 20
-573.2379553666
 30
0.0
  0
VERTEX
  5
A44
  8
0
  6
CONTINUOUS
 62
     7
 10
-14.1497364846
 20
-574.252366816
 30
0.0
  0
VERTEX
  5
A45
  8
0
  6
CONTINUOUS
 62
     7
 10
-14.4257730452
 20
-574.9837456097
 30
0.0
  0
VERTEX
  5
A46
  8
0
  6
CONTINUOUS
 62
     7
 10
-14.689866325
 20
-575.4223761906
 30
0.0
  0
VERTEX
  5
A47
  8
0
  6
CONTINUOUS
 62
     7
 10
-14.9006357995
 20
-575.5447445263
 30
0.0
  0
SEQEND
  5
B3D
  8
0
  6
CONTINUOUS
 62
     7
  0
POLYLINE
  5
284
  8
0
  6
CONTINUOUS
 62
     7
 66
     1
 10
0.0
 20
0.0
 30
0.0
  0
VERTEX
  5
A48
  8
0
  6
CONTINUOUS
 62
     7
 10
-14.8997268287
 20
70.4045893798
 30
0.0
  0
VERTEX
  5
A49
  8
0
  6
CONTINUOUS
 62
     7
 10
-14.8454642502
 20
70.4114737163
 30
0.0
  0
VERTEX
  5
A4A
  8
0
  6
CONTINUOUS
 62
     7
 10
-14.5996770469
 20
70.1693596492
 30
0.0
  0
VERTEX
  5
A4B
  8
0
  6
CONTINUOUS
 62
     7
 10
-14.3424755541
 20
69.6558954368
 30
0.0
  0
VERTEX
  5
A4C
  8
0
  6
CONTINUOUS
 62
     7
 10
-14.0738895742
 20
68.8715877185
 30
0.0
  0
VERTEX
  5
A4D
  8
0
  6
CONTINUOUS
 62
     7
 10
-13.805609068
 20
67.8752960811
 30
0.0
  0
VERTEX
  5
A4E
  8
0
  6
CONTINUOUS
 62
     7
 10
-13.5327390042
 20
66.6353704582
 30
0.0
  0
VERTEX
  5
A4F
  8
0
  6
CONTINUOUS
 62
     7
 10
-13.2711491195
 20
65.1531817565
 30
0.0
  0
VERTEX
  5
A50
  8
0
  6
CONTINUOUS
 62
     7
 10
-13.030569872
 20
63.4164812217
 30
0.0
  0
VERTEX
  5
A51
  8
0
  6
CONTINUOUS
 62
     7
 10
-12.8121337501
 20
61.4358784805
 30
0.0
  0
VERTEX
  5
A52
  8
0
  6
CONTINUOUS
 62
     7
 10
-12.6136651841
 20
59.2136385093
 30
0.0
  0
VERTEX
  5
A53
  8
0
  6
CONTINUOUS
 62
     7
 10
-12.4032458869
 20
56.2458040367
 30
0.0
  0
VERTEX
  5
A54
  8
0
  6
CONTINUOUS
 62
     7
 10
-12.2224724499
 20
52.9356898914
 30
0.0
  0
VERTEX
  5
A55
  8
0
  6
CONTINUOUS
 62
     7
 10
-12.0698324052
 20
49.2892267356
 30
0.0
  0
VERTEX
  5
A56
  8
0
  6
CONTINUOUS
 62
     7
 10
-11.943813285
 20
45.3124942432
 30
0.0
  0
VERTEX
  5
A57
  8
0
  6
CONTINUOUS
 62
     7
 10
-11.8428877202
 20
41.0114528785
 30
0.0
  0
VERTEX
  5
A58
  8
0
  6
CONTINUOUS
 62
     7
 10
-11.7749011723
 20
37.0654167781
 30
0.0
  0
VERTEX
  5
A59
  8
0
  6
CONTINUOUS
 62
     7
 10
-11.7224565354
 20
32.8816773544
 30
0.0
  0
VERTEX
  5
A5A
  8
0
  6
CONTINUOUS
 62
     7
 10
-11.6841903535
 20
28.4656884323
 30
0.0
  0
VERTEX
  5
A5B
  8
0
  6
CONTINUOUS
 62
     7
 10
-11.6587391702
 20
23.8229932437
 30
0.0
  0
VERTEX
  5
A5C
  8
0
  6
CONTINUOUS
 62
     7
 10
-11.6447469798
 20
18.9590158115
 30
0.0
  0
VERTEX
  5
A5D
  8
0
  6
CONTINUOUS
 62
     7
 10
-11.6408503262
 20
13.8793291698
 30
0.0
  0
VERTEX
  5
A5E
  8
0
  6
CONTINUOUS
 62
     7
 10
-11.642772576
 20
7.6768698345
 30
0.0
  0
VERTEX
  5
A5F
  8
0
  6
CONTINUOUS
 62
     7
 10
-11.6464531628
 20
1.1824371467
 30
0.0
  0
VERTEX
  5
A60
  8
0
  6
CONTINUOUS
 62
     7
 10
-11.6512513367
 20
-5.5927483191
 30
0.0
  0
VERTEX
  5
A61
  8
0
  6
CONTINUOUS
 62
     7
 10
-11.6565263477
 20
-12.6375404944
 30
0.0
  0
VERTEX
  5
A62
  8
0
  6
CONTINUOUS
 62
     7
 10
-11.6616150943
 20
-19.9407784094
 30
0.0
  0
VERTEX
  5
A63
  8
0
  6
CONTINUOUS
 62
     7
 10
-11.665705463
 20
-26.4073012223
 30
0.0
  0
VERTEX
  5
A64
  8
0
  6
CONTINUOUS
 62
     7
 10
-11.6697585789
 20
-33.0624131312
 30
0.0
  0
VERTEX
  5
A65
  8
0
  6
CONTINUOUS
 62
     7
 10
-11.6737446395
 20
-39.8977396836
 30
0.0
  0
VERTEX
  5
A66
  8
0
  6
CONTINUOUS
 62
     7
 10
-11.6776412932
 20
-46.9049064269
 30
0.0
  0
VERTEX
  5
A67
  8
0
  6
CONTINUOUS
 62
     7
 10
-11.6814187375
 20
-54.0754942049
 30
0.0
  0
VERTEX
  5
A68
  8
0
  6
CONTINUOUS
 62
     7
 10
-11.6850546208
 20
-61.4011285653
 30
0.0
  0
VERTEX
  5
A69
  8
0
  6
CONTINUOUS
 62
     7
 10
-11.6886830536
 20
-68.6681566586
 30
0.0
  0
VERTEX
  5
A6A
  8
0
  6
CONTINUOUS
 62
     7
 10
-11.6924903003
 20
-76.0784296145
 30
0.0
  0
VERTEX
  5
A6B
  8
0
  6
CONTINUOUS
 62
     7
 10
-11.6962379423
 20
-83.6234090676
 30
0.0
  0
VERTEX
  5
A6C
  8
0
  6
CONTINUOUS
 62
     7
 10
-11.6997024623
 20
-91.2945268502
 30
0.0
  0
VERTEX
  5
A6D
  8
0
  6
CONTINUOUS
 62
     7
 10
-11.7030328718
 20
-99.0889964451
 30
0.0
  0
VERTEX
  5
A6E
  8
0
  6
CONTINUOUS
 62
     7
 10
-11.7064452377
 20
-107.0037035098
 30
0.0
  0
VERTEX
  5
A6F
  8
0
  6
CONTINUOUS
 62
     7
 10
-11.7097532955
 20
-115.0294838299
 30
0.0
  0
VERTEX
  5
A70
  8
0
  6
CONTINUOUS
 62
     7
 10
-11.7127856818
 20
-123.1572476973
 30
0.0
  0
VERTEX
  5
A71
  8
0
  6
CONTINUOUS
 62
     7
 10
-11.7157808152
 20
-131.8096367468
 30
0.0
  0
VERTEX
  5
A72
  8
0
  6
CONTINUOUS
 62
     7
 10
-11.7187237946
 20
-140.5676675786
 30
0.0
  0
VERTEX
  5
A73
  8
0
  6
CONTINUOUS
 62
     7
 10
-11.7215028611
 20
-149.4201866736
 30
0.0
  0
VERTEX
  5
A74
  8
0
  6
CONTINUOUS
 62
     7
 10
-11.7239988056
 20
-158.3560479631
 30
0.0
  0
VERTEX
  5
A75
  8
0
  6
CONTINUOUS
 62
     7
 10
-11.726479849
 20
-168.1940777053
 30
0.0
  0
VERTEX
  5
A76
  8
0
  6
CONTINUOUS
 62
     7
 10
-11.7287969795
 20
-178.1218422403
 30
0.0
  0
VERTEX
  5
A77
  8
0
  6
CONTINUOUS
 62
     7
 10
-11.7308235375
 20
-188.1243211975
 30
0.0
  0
VERTEX
  5
A78
  8
0
  6
CONTINUOUS
 62
     7
 10
-11.732447764
 20
-198.1865202834
 30
0.0
  0
VERTEX
  5
A79
  8
0
  6
CONTINUOUS
 62
     7
 10
-11.7338410226
 20
-208.4712235083
 30
0.0
  0
VERTEX
  5
A7A
  8
0
  6
CONTINUOUS
 62
     7
 10
-11.735077819
 20
-218.8070526173
 30
0.0
  0
VERTEX
  5
A7B
  8
0
  6
CONTINUOUS
 62
     7
 10
-11.7359942404
 20
-229.177899455
 30
0.0
  0
VERTEX
  5
A7C
  8
0
  6
CONTINUOUS
 62
     7
 10
-11.7364040223
 20
-239.5676484158
 30
0.0
  0
SEQEND
  5
B3C
  8
0
  6
CONTINUOUS
 62
     7
  0
LINE
  5
285
  8
0
  6
CONTINUOUS
 62
     7
 10
-439.7309830991
 20
147.4323572765
 30
0.0
 11
-433.7675383893
 21
147.4323572765
 31
0.0
  0
LINE
  5
286
  8
0
  6
CONTINUOUS
 62
     7
 10
-433.7675383893
 20
-652.5676546444
 30
0.0
 11
-439.7309830991
 21
-652.5676546444
 31
0.0
  0
LINE
  5
287
  8
0
  6
CONTINUOUS
 62
     7
 10
-1211.9437864629
 20
-672.567635571
 30
0.0
 11
-1211.9437864629
 21
167.432338203
 31
0.0
  0
LINE
  5
288
  8
0
  6
CONTINUOUS
 62
     7
 10
-1180.9438875524
 20
-672.567635571
 30
0.0
 11
-1180.9438875524
 21
167.432338203
 31
0.0
  0
LINE
  5
289
  8
0
  6
CONTINUOUS
 62
     7
 10
78.0561707335
 20
-672.567635571
 30
0.0
 11
78.0561707335
 21
167.432338203
 31
0.0
  0
LINE
  5
28A
  8
0
  6
CONTINUOUS
 62
     7
 10
47.0561721715
 20
-672.567635571
 30
0.0
 11
47.0561721715
 21
167.432338203
 31
0.0
  0
LINE
  5
28B
  8
0
  6
CONTINUOUS
 62
     7
 10
-419.2991069165
 20
-851.5676257958
 30
0.0
 11
-453.4497073499
 21
-851.5676257958
 31
0.0
  0
LINE
  5
28C
  8
0
  6
CONTINUOUS
 62
     7
 10
-419.2991069165
 20
-749.5676575055
 30
0.0
 11
-453.4497073499
 21
-749.5676575055
 31
0.0
  0
LINE
  5
28D
  8
0
  6
CONTINUOUS
 62
     7
 10
-374.2657712308
 20
-851.5676257958
 30
0.0
 11
-419.2991069165
 21
-851.5676257958
 31
0.0
  0
LINE
  5
28E
  8
0
  6
CONTINUOUS
 62
     7
 10
-374.2657712308
 20
-749.5676575055
 30
0.0
 11
-419.2991069165
 21
-749.5676575055
 31
0.0
  0
LINE
  5
28F
  8
0
  6
CONTINUOUS
 62
     7
 10
-453.4497073499
 20
-851.5676257958
 30
0.0
 11
-555.4497054425
 21
-851.5676257958
 31
0.0
  0
LINE
  5
290
  8
0
  6
CONTINUOUS
 62
     7
 10
-453.4497073499
 20
-749.5676575055
 30
0.0
 11
-555.4497054425
 21
-749.5676575055
 31
0.0
  0
LINE
  5
291
  8
0
  6
CONTINUOUS
 62
     7
 10
47.0561721715
 20
-239.5676484158
 30
0.0
 11
-71.3603159991
 21
-239.5676484158
 31
0.0
  0
LINE
  5
292
  8
0
  6
CONTINUOUS
 62
     7
 10
47.0561721715
 20
-265.5676489522
 30
0.0
 11
-71.3603159991
 21
-265.5676489522
 31
0.0
  0
LINE
  5
293
  8
0
  6
CONTINUOUS
 62
     7
 10
-361.7657831517
 20
-851.5676257958
 30
0.0
 11
-374.2657712308
 21
-851.5676257958
 31
0.0
  0
LINE
  5
294
  8
0
  6
CONTINUOUS
 62
     7
 10
-361.7657831517
 20
-749.5676575055
 30
0.0
 11
-374.2657712308
 21
-749.5676575055
 31
0.0
  0
LINE
  5
295
  8
0
  6
CONTINUOUS
 62
     7
 10
83.0561706218
 20
88.4323420177
 30
0.0
 11
83.0561706218
 21
-593.5676393856
 31
0.0
  0
LINE
  5
296
  8
0
  6
CONTINUOUS
 62
     7
 10
-1216.9437816945
 20
-593.5676393856
 30
0.0
 11
-1216.9437816945
 21
88.4323420177
 31
0.0
  0
LINE
  5
297
  8
0
  6
CONTINUOUS
 62
     7
 10
-330.9645167199
 20
-851.5676257958
 30
0.0
 11
-361.7657831517
 21
-851.5676257958
 31
0.0
  0
LINE
  5
298
  8
0
  6
CONTINUOUS
 62
     7
 10
-330.9645167199
 20
-749.5676575055
 30
0.0
 11
-361.7657831517
 21
-749.5676575055
 31
0.0
  0
LINE
  5
299
  8
0
  6
CONTINUOUS
 62
     7
 10
-285.9311810342
 20
-851.5676257958
 30
0.0
 11
-330.9645167199
 21
-851.5676257958
 31
0.0
  0
LINE
  5
29A
  8
0
  6
CONTINUOUS
 62
     7
 10
-285.9311810342
 20
-749.5676575055
 30
0.0
 11
-330.9645167199
 21
-749.5676575055
 31
0.0
  0
LINE
  5
29B
  8
0
  6
CONTINUOUS
 62
     7
 10
-273.4311929551
 20
-851.5676257958
 30
0.0
 11
-285.9311810342
 21
-851.5676257958
 31
0.0
  0
LINE
  5
29C
  8
0
  6
CONTINUOUS
 62
     7
 10
-273.4311929551
 20
-749.5676575055
 30
0.0
 11
-285.9311810342
 21
-749.5676575055
 31
0.0
  0
LINE
  5
29D
  8
0
  6
CONTINUOUS
 62
     7
 10
-430.7297876683
 20
147.4323572765
 30
0.0
 11
-430.7297876683
 21
146.8522848735
 31
0.0
  0
LINE
  5
29E
  8
0
  6
CONTINUOUS
 62
     7
 10
-430.7297876683
 20
147.4323572765
 30
0.0
 11
-433.7675383893
 21
147.4323572765
 31
0.0
  0
LINE
  5
29F
  8
0
  6
CONTINUOUS
 62
     7
 10
-430.7297876683
 20
-651.9875822415
 30
0.0
 11
-430.7297876683
 21
-652.5676546444
 31
0.0
  0
LINE
  5
2A0
  8
0
  6
CONTINUOUS
 62
     7
 10
-430.7297876683
 20
-652.5676546444
 30
0.0
 11
-433.7675383893
 21
-652.5676546444
 31
0.0
  0
LINE
  5
2A1
  8
0
  6
CONTINUOUS
 62
     7
 10
-242.6299265233
 20
-851.5676257958
 30
0.0
 11
-273.4311929551
 21
-851.5676257958
 31
0.0
  0
LINE
  5
2A2
  8
0
  6
CONTINUOUS
 62
     7
 10
-242.6299265233
 20
-749.5676575055
 30
0.0
 11
-273.4311929551
 21
-749.5676575055
 31
0.0
  0
LINE
  5
2A3
  8
0
  6
CONTINUOUS
 62
     7
 10
-197.5965908376
 20
-851.5676257958
 30
0.0
 11
-242.6299265233
 21
-851.5676257958
 31
0.0
  0
LINE
  5
2A4
  8
0
  6
CONTINUOUS
 62
     7
 10
-197.5965908376
 20
-749.5676575055
 30
0.0
 11
-242.6299265233
 21
-749.5676575055
 31
0.0
  0
LINE
  5
2A5
  8
0
  6
CONTINUOUS
 62
     7
 10
-185.0966027585
 20
-851.5676257958
 30
0.0
 11
-197.5965908376
 21
-851.5676257958
 31
0.0
  0
LINE
  5
2A6
  8
0
  6
CONTINUOUS
 62
     7
 10
-185.0966027585
 20
-749.5676575055
 30
0.0
 11
-197.5965908376
 21
-749.5676575055
 31
0.0
  0
LINE
  5
2A7
  8
0
  6
CONTINUOUS
 62
     7
 10
-555.4497054425
 20
-851.5676257958
 30
0.0
 11
-558.7990692464
 21
-851.5676257958
 31
0.0
  0
LINE
  5
2A8
  8
0
  6
CONTINUOUS
 62
     7
 10
-555.4497054425
 20
-749.5676575055
 30
0.0
 11
-558.7990692464
 21
-749.5676575055
 31
0.0
  0
LINE
  5
2A9
  8
0
  6
CONTINUOUS
 62
     7
 10
-185.0966027585
 20
-788.0676386704
 30
0.0
 11
-184.3946984616
 21
-788.0676386704
 31
0.0
  0
LINE
  5
2AA
  8
0
  6
CONTINUOUS
 62
     7
 10
-184.3946984616
 20
-788.0676386704
 30
0.0
 11
-184.3946984616
 21
-813.0676744332
 31
0.0
  0
LINE
  5
2AB
  8
0
  6
CONTINUOUS
 62
     7
 10
-185.0966027585
 20
-813.0676744332
 30
0.0
 11
-184.3946984616
 21
-813.0676744332
 31
0.0
  0
LINE
  5
2AC
  8
0
  6
CONTINUOUS
 62
     7
 10
-614.2734101621
 20
107.4323656211
 30
0.0
 11
-614.2734101621
 21
87.4323548923
 31
0.0
  0
LINE
  5
2AD
  8
0
  6
CONTINUOUS
 62
     7
 10
-614.2734101621
 20
-612.5676629891
 30
0.0
 11
-614.2734101621
 21
-592.5676522603
 31
0.0
  0
LINE
  5
2AE
  8
0
  6
CONTINUOUS
 62
     7
 10
-564.6323970166
 20
114.4323649059
 30
0.0
 11
-549.6324113217
 21
114.4323649059
 31
0.0
  0
POLYLINE
  5
2AF
  8
0
  6
CONTINUOUS
 62
     7
 66
     1
 10
0.0
 20
0.0
 30
0.0
  0
VERTEX
  5
A7D
  8
0
  6
CONTINUOUS
 62
     7
 10
-618.9144066182
 20
194.4323482166
 30
0.0
  0
VERTEX
  5
A7E
  8
0
  6
CONTINUOUS
 62
     7
 10
-616.4965442029
 20
194.3836214195
 30
0.0
  0
VERTEX
  5
A7F
  8
0
  6
CONTINUOUS
 62
     7
 10
-614.0815428105
 20
194.2374708305
 30
0.0
  0
VERTEX
  5
A80
  8
0
  6
CONTINUOUS
 62
     7
 10
-611.6725018827
 20
193.9941050659
 30
0.0
  0
VERTEX
  5
A81
  8
0
  6
CONTINUOUS
 62
     7
 10
-609.2722228375
 20
193.6537923465
 30
0.0
  0
VERTEX
  5
A82
  8
0
  6
CONTINUOUS
 62
     7
 10
-606.8837455121
 20
193.2169797073
 30
0.0
  0
VERTEX
  5
A83
  8
0
  6
CONTINUOUS
 62
     7
 10
-604.5098713246
 20
192.6841737876
 30
0.0
  0
VERTEX
  5
A84
  8
0
  6
CONTINUOUS
 62
     7
 10
-602.1535805074
 20
192.0560004364
 30
0.0
  0
VERTEX
  5
A85
  8
0
  6
CONTINUOUS
 62
     7
 10
-599.8177340833
 20
191.3332941185
 30
0.0
  0
VERTEX
  5
A86
  8
0
  6
CONTINUOUS
 62
     7
 10
-597.5051334706
 20
190.5168594966
 30
0.0
  0
VERTEX
  5
A87
  8
0
  6
CONTINUOUS
 62
     7
 10
-595.2185800878
 20
189.6077694545
 30
0.0
  0
VERTEX
  5
A88
  8
0
  6
CONTINUOUS
 62
     7
 10
-592.9609349576
 20
188.6070670734
 30
0.0
  0
VERTEX
  5
A89
  8
0
  6
CONTINUOUS
 62
     7
 10
-590.7348802892
 20
187.5159742485
 30
0.0
  0
VERTEX
  5
A8A
  8
0
  6
CONTINUOUS
 62
     7
 10
-588.5431578961
 20
186.3358618866
 30
0.0
  0
VERTEX
  5
A8B
  8
0
  6
CONTINUOUS
 62
     7
 10
-586.3885095922
 20
185.0681604991
 30
0.0
  0
VERTEX
  5
A8C
  8
0
  6
CONTINUOUS
 62
     7
 10
-584.2734387723
 20
183.7143900047
 30
0.0
  0
VERTEX
  5
A8D
  8
0
  6
CONTINUOUS
 62
     7
 10
-582.2005680409
 20
182.2761895309
 30
0.0
  0
VERTEX
  5
A8E
  8
0
  6
CONTINUOUS
 62
     7
 10
-580.1724007932
 20
180.7553472171
 30
0.0
  0
VERTEX
  5
A8F
  8
0
  6
CONTINUOUS
 62
     7
 10
-578.1915000287
 20
179.1537108074
 30
0.0
  0
VERTEX
  5
A90
  8
0
  6
CONTINUOUS
 62
     7
 10
-576.2601307241
 20
177.4732174526
 30
0.0
  0
VERTEX
  5
A91
  8
0
  6
CONTINUOUS
 62
     7
 10
-574.3807962743
 20
175.7158937107
 30
0.0
  0
VERTEX
  5
A92
  8
0
  6
CONTINUOUS
 62
     7
 10
-572.5557020513
 20
173.8839449535
 30
0.0
  0
VERTEX
  5
A93
  8
0
  6
CONTINUOUS
 62
     7
 10
-570.7871130315
 20
171.9795467506
 30
0.0
  0
VERTEX
  5
A94
  8
0
  6
CONTINUOUS
 62
     7
 10
-569.0771153775
 20
170.0050236831
 30
0.0
  0
VERTEX
  5
A95
  8
0
  6
CONTINUOUS
 62
     7
 10
-567.4278548566
 20
167.9627897392
 30
0.0
  0
VERTEX
  5
A96
  8
0
  6
CONTINUOUS
 62
     7
 10
-565.841298422
 20
165.8553483139
 30
0.0
  0
VERTEX
  5
A97
  8
0
  6
CONTINUOUS
 62
     7
 10
-564.3194726316
 20
163.6852624069
 30
0.0
  0
VERTEX
  5
A98
  8
0
  6
CONTINUOUS
 62
     7
 10
-562.8641060201
 20
161.4551844249
 30
0.0
  0
VERTEX
  5
A99
  8
0
  6
CONTINUOUS
 62
     7
 10
-561.4770463315
 20
159.167796577
 30
0.0
  0
VERTEX
  5
A9A
  8
0
  6
CONTINUOUS
 62
     7
 10
-560.1599624959
 20
156.8259002815
 30
0.0
  0
VERTEX
  5
A9B
  8
0
  6
CONTINUOUS
 62
     7
 10
-558.914404234
 20
154.4323565612
 30
0.0
  0
VERTEX
  5
A9C
  8
0
  6
CONTINUOUS
 62
     7
 10
-557.7420404759
 20
151.9900860439
 30
0.0
  0
VERTEX
  5
A9D
  8
0
  6
CONTINUOUS
 62
     7
 10
-556.6441229192
 20
149.5020391594
 30
0.0
  0
VERTEX
  5
A9E
  8
0
  6
CONTINUOUS
 62
     7
 10
-555.6221416799
 20
146.9712855468
 30
0.0
  0
VERTEX
  5
A9F
  8
0
  6
CONTINUOUS
 62
     7
 10
-554.6772292462
 20
144.4008650432
 30
0.0
  0
VERTEX
  5
AA0
  8
0
  6
CONTINUOUS
 62
     7
 10
-553.8106373159
 20
141.793966497
 30
0.0
  0
VERTEX
  5
AA1
  8
0
  6
CONTINUOUS
 62
     7
 10
-553.023319563
 20
139.153719152
 30
0.0
  0
VERTEX
  5
AA2
  8
0
  6
CONTINUOUS
 62
     7
 10
-552.3162892667
 20
136.4833416591
 30
0.0
  0
VERTEX
  5
AA3
  8
0
  6
CONTINUOUS
 62
     7
 10
-551.6903808919
 20
133.7861122737
 30
0.0
  0
VERTEX
  5
AA4
  8
0
  6
CONTINUOUS
 62
     7
 10
-551.146369299
 20
131.065279449
 30
0.0
  0
VERTEX
  5
AA5
  8
0
  6
CONTINUOUS
 62
     7
 10
-550.6849697438
 20
128.3242108474
 30
0.0
  0
VERTEX
  5
AA6
  8
0
  6
CONTINUOUS
 62
     7
 10
-550.3066590634
 20
125.5661847244
 30
0.0
  0
VERTEX
  5
AA7
  8
0
  6
CONTINUOUS
 62
     7
 10
-550.011914095
 20
122.794628347
 30
0.0
  0
VERTEX
  5
AA8
  8
0
  6
CONTINUOUS
 62
     7
 10
-549.8011520711
 20
120.0128795753
 30
0.0
  0
VERTEX
  5
AA9
  8
0
  6
CONTINUOUS
 62
     7
 10
-549.6746114102
 20
117.2243060718
 30
0.0
  0
VERTEX
  5
AAA
  8
0
  6
CONTINUOUS
 62
     7
 10
-549.6324113217
 20
114.4323649059
 30
0.0
  0
SEQEND
  5
B3B
  8
0
  6
CONTINUOUS
 62
     7
  0
LINE
  5
2B0
  8
0
  6
CONTINUOUS
 62
     7
 10
-564.6323970166
 20
-619.5676622738
 30
0.0
 11
-549.6324113217
 21
-619.5676622738
 31
0.0
  0
LINE
  5
2B1
  8
0
  6
CONTINUOUS
 62
     7
 10
-549.6324113217
 20
-619.5676622738
 30
0.0
 11
-549.6324113217
 21
114.4323649059
 31
0.0
  0
POLYLINE
  5
2B2
  8
0
  6
CONTINUOUS
 62
     7
 66
     1
 10
0.0
 20
0.0
 30
0.0
  0
VERTEX
  5
AAB
  8
0
  6
CONTINUOUS
 62
     7
 10
-549.6324113217
 20
-619.5676622738
 30
0.0
  0
VERTEX
  5
AAC
  8
0
  6
CONTINUOUS
 62
     7
 10
-549.6746114102
 20
-622.3596034398
 30
0.0
  0
VERTEX
  5
AAD
  8
0
  6
CONTINUOUS
 62
     7
 10
-549.8011520711
 20
-625.1481769432
 30
0.0
  0
VERTEX
  5
AAE
  8
0
  6
CONTINUOUS
 62
     7
 10
-550.011914095
 20
-627.9299257149
 30
0.0
  0
VERTEX
  5
AAF
  8
0
  6
CONTINUOUS
 62
     7
 10
-550.3066590634
 20
-630.7014820923
 30
0.0
  0
VERTEX
  5
AB0
  8
0
  6
CONTINUOUS
 62
     7
 10
-550.6849697438
 20
-633.4595082154
 30
0.0
  0
VERTEX
  5
AB1
  8
0
  6
CONTINUOUS
 62
     7
 10
-551.146369299
 20
-636.200576817
 30
0.0
  0
VERTEX
  5
AB2
  8
0
  6
CONTINUOUS
 62
     7
 10
-551.6903808919
 20
-638.9214096417
 30
0.0
  0
VERTEX
  5
AB3
  8
0
  6
CONTINUOUS
 62
     7
 10
-552.3162892667
 20
-641.6186390271
 30
0.0
  0
VERTEX
  5
AB4
  8
0
  6
CONTINUOUS
 62
     7
 10
-553.023319563
 20
-644.28901652
 30
0.0
  0
VERTEX
  5
AB5
  8
0
  6
CONTINUOUS
 62
     7
 10
-553.8106373159
 20
-646.9292638649
 30
0.0
  0
VERTEX
  5
AB6
  8
0
  6
CONTINUOUS
 62
     7
 10
-554.6772292462
 20
-649.5361624112
 30
0.0
  0
VERTEX
  5
AB7
  8
0
  6
CONTINUOUS
 62
     7
 10
-555.6221416799
 20
-652.1065829148
 30
0.0
  0
VERTEX
  5
AB8
  8
0
  6
CONTINUOUS
 62
     7
 10
-556.6441229192
 20
-654.6373365273
 30
0.0
  0
VERTEX
  5
AB9
  8
0
  6
CONTINUOUS
 62
     7
 10
-557.7420404759
 20
-657.1253834118
 30
0.0
  0
VERTEX
  5
ABA
  8
0
  6
CONTINUOUS
 62
     7
 10
-558.914404234
 20
-659.5676539292
 30
0.0
  0
VERTEX
  5
ABB
  8
0
  6
CONTINUOUS
 62
     7
 10
-560.1599624959
 20
-661.9611976494
 30
0.0
  0
VERTEX
  5
ABC
  8
0
  6
CONTINUOUS
 62
     7
 10
-561.4770463315
 20
-664.303093945
 30
0.0
  0
VERTEX
  5
ABD
  8
0
  6
CONTINUOUS
 62
     7
 10
-562.8641060201
 20
-666.5904817929
 30
0.0
  0
VERTEX
  5
ABE
  8
0
  6
CONTINUOUS
 62
     7
 10
-564.3194726316
 20
-668.8205597748
 30
0.0
  0
VERTEX
  5
ABF
  8
0
  6
CONTINUOUS
 62
     7
 10
-565.841298422
 20
-670.9906456818
 30
0.0
  0
VERTEX
  5
AC0
  8
0
  6
CONTINUOUS
 62
     7
 10
-567.4278548566
 20
-673.0980871071
 30
0.0
  0
VERTEX
  5
AC1
  8
0
  6
CONTINUOUS
 62
     7
 10
-569.0771153775
 20
-675.1403210511
 30
0.0
  0
VERTEX
  5
AC2
  8
0
  6
CONTINUOUS
 62
     7
 10
-570.7871130315
 20
-677.1148441185
 30
0.0
  0
VERTEX
  5
AC3
  8
0
  6
CONTINUOUS
 62
     7
 10
-572.5557020513
 20
-679.0192423214
 30
0.0
  0
VERTEX
  5
AC4
  8
0
  6
CONTINUOUS
 62
     7
 10
-574.3807962743
 20
-680.8511910786
 30
0.0
  0
VERTEX
  5
AC5
  8
0
  6
CONTINUOUS
 62
     7
 10
-576.2601307241
 20
-682.6085148205
 30
0.0
  0
VERTEX
  5
AC6
  8
0
  6
CONTINUOUS
 62
     7
 10
-578.1915000287
 20
-684.2890081753
 30
0.0
  0
VERTEX
  5
AC7
  8
0
  6
CONTINUOUS
 62
     7
 10
-580.1724007932
 20
-685.8906445851
 30
0.0
  0
VERTEX
  5
AC8
  8
0
  6
CONTINUOUS
 62
     7
 10
-582.2005680409
 20
-687.4114868988
 30
0.0
  0
VERTEX
  5
AC9
  8
0
  6
CONTINUOUS
 62
     7
 10
-584.2734387723
 20
-688.8496873726
 30
0.0
  0
VERTEX
  5
ACA
  8
0
  6
CONTINUOUS
 62
     7
 10
-586.3885095922
 20
-690.2034578671
 30
0.0
  0
VERTEX
  5
ACB
  8
0
  6
CONTINUOUS
 62
     7
 10
-588.5431578961
 20
-691.4711592545
 30
0.0
  0
VERTEX
  5
ACC
  8
0
  6
CONTINUOUS
 62
     7
 10
-590.7348802892
 20
-692.6512716164
 30
0.0
  0
VERTEX
  5
ACD
  8
0
  6
CONTINUOUS
 62
     7
 10
-592.9609349576
 20
-693.7423644413
 30
0.0
  0
VERTEX
  5
ACE
  8
0
  6
CONTINUOUS
 62
     7
 10
-595.2185800878
 20
-694.7430668225
 30
0.0
  0
VERTEX
  5
ACF
  8
0
  6
CONTINUOUS
 62
     7
 10
-597.5051334706
 20
-695.6521568646
 30
0.0
  0
VERTEX
  5
AD0
  8
0
  6
CONTINUOUS
 62
     7
 10
-599.8177340833
 20
-696.4685914864
 30
0.0
  0
VERTEX
  5
AD1
  8
0
  6
CONTINUOUS
 62
     7
 10
-602.1535805074
 20
-697.1912978043
 30
0.0
  0
VERTEX
  5
AD2
  8
0
  6
CONTINUOUS
 62
     7
 10
-604.5098713246
 20
-697.8194711556
 30
0.0
  0
VERTEX
  5
AD3
  8
0
  6
CONTINUOUS
 62
     7
 10
-606.8837455121
 20
-698.3522770752
 30
0.0
  0
VERTEX
  5
AD4
  8
0
  6
CONTINUOUS
 62
     7
 10
-609.2722228375
 20
-698.7890897145
 30
0.0
  0
VERTEX
  5
AD5
  8
0
  6
CONTINUOUS
 62
     7
 10
-611.6725018827
 20
-699.1294024338
 30
0.0
  0
VERTEX
  5
AD6
  8
0
  6
CONTINUOUS
 62
     7
 10
-614.0815428105
 20
-699.3727681984
 30
0.0
  0
VERTEX
  5
AD7
  8
0
  6
CONTINUOUS
 62
     7
 10
-616.4965442029
 20
-699.5189187874
 30
0.0
  0
VERTEX
  5
AD8
  8
0
  6
CONTINUOUS
 62
     7
 10
-618.9144066182
 20
-699.5676455845
 30
0.0
  0
SEQEND
  5
B3A
  8
0
  6
CONTINUOUS
 62
     7
  0
LINE
  5
2B3
  8
0
  6
CONTINUOUS
 62
     7
 10
-859.5266750661
 20
-552.5676606049
 30
0.0
 11
-859.5266750661
 21
47.432363237
 31
0.0
  0
LINE
  5
2B4
  8
0
  6
CONTINUOUS
 62
     7
 10
-481.3369325009
 20
73.6986400734
 30
0.0
 11
-518.6282804814
 21
73.057979549
 31
0.0
  0
POLYLINE
  5
2B5
  8
0
  6
CONTINUOUS
 62
     7
 66
     1
 10
0.0
 20
0.0
 30
0.0
  0
VERTEX
  5
AD9
  8
0
  6
CONTINUOUS
 62
     7
 10
-481.2076500264
 20
73.6851694236
 30
0.0
  0
VERTEX
  5
ADA
  8
0
  6
CONTINUOUS
 62
     7
 10
-481.2230876294
 20
60.458719934
 30
0.0
  0
VERTEX
  5
ADB
  8
0
  6
CONTINUOUS
 62
     7
 10
-481.2246969548
 20
47.1288563858
 30
0.0
  0
VERTEX
  5
ADC
  8
0
  6
CONTINUOUS
 62
     7
 10
-481.2184384671
 20
33.7025525222
 30
0.0
  0
VERTEX
  5
ADD
  8
0
  6
CONTINUOUS
 62
     7
 10
-481.2102130261
 20
20.1866926799
 30
0.0
  0
VERTEX
  5
ADE
  8
0
  6
CONTINUOUS
 62
     7
 10
-481.2059214917
 20
6.5881909977
 30
0.0
  0
VERTEX
  5
ADF
  8
0
  6
CONTINUOUS
 62
     7
 10
-481.2055638639
 20
-7.2023717513
 30
0.0
  0
VERTEX
  5
AE0
  8
0
  6
CONTINUOUS
 62
     7
 10
-481.2052658406
 20
-21.0751144041
 30
0.0
  0
VERTEX
  5
AE1
  8
0
  6
CONTINUOUS
 62
     7
 10
-481.2049678174
 20
-35.0233165373
 30
0.0
  0
VERTEX
  5
AE2
  8
0
  6
CONTINUOUS
 62
     7
 10
-481.2046697942
 20
-49.0402726283
 30
0.0
  0
VERTEX
  5
AE3
  8
0
  6
CONTINUOUS
 62
     7
 10
-481.204371771
 20
-63.1192473521
 30
0.0
  0
VERTEX
  5
AE4
  8
0
  6
CONTINUOUS
 62
     7
 10
-481.2041333524
 20
-77.4847267022
 30
0.0
  0
VERTEX
  5
AE5
  8
0
  6
CONTINUOUS
 62
     7
 10
-481.2038353292
 20
-91.9106451621
 30
0.0
  0
VERTEX
  5
AE6
  8
0
  6
CONTINUOUS
 62
     7
 10
-481.2036565152
 20
-106.3897756686
 30
0.0
  0
VERTEX
  5
AE7
  8
0
  6
CONTINUOUS
 62
     7
 10
-481.2034180966
 20
-120.9149656643
 30
0.0
  0
VERTEX
  5
AE8
  8
0
  6
CONTINUOUS
 62
     7
 10
-481.2032392827
 20
-135.4837788095
 30
0.0
  0
VERTEX
  5
AE9
  8
0
  6
CONTINUOUS
 62
     7
 10
-481.2030604688
 20
-150.0938011159
 30
0.0
  0
VERTEX
  5
AEA
  8
0
  6
CONTINUOUS
 62
     7
 10
-481.2029412595
 20
-164.7377533664
 30
0.0
  0
VERTEX
  5
AEB
  8
0
  6
CONTINUOUS
 62
     7
 10
-481.2028220502
 20
-179.4083637943
 30
0.0
  0
VERTEX
  5
AEC
  8
0
  6
CONTINUOUS
 62
     7
 10
-481.2027028409
 20
-194.421950524
 30
0.0
  0
VERTEX
  5
AED
  8
0
  6
CONTINUOUS
 62
     7
 10
-481.2026432363
 20
-209.4582242717
 30
0.0
  0
VERTEX
  5
AEE
  8
0
  6
CONTINUOUS
 62
     7
 10
-481.2025836316
 20
-224.5093880047
 30
0.0
  0
VERTEX
  5
AEF
  8
0
  6
CONTINUOUS
 62
     7
 10
-481.202524027
 20
-239.5676484158
 30
0.0
  0
SEQEND
  5
B39
  8
0
  6
CONTINUOUS
 62
     7
  0
POLYLINE
  5
2B6
  8
0
  6
CONTINUOUS
 62
     7
 66
     1
 10
0.0
 20
0.0
 30
0.0
  0
VERTEX
  5
AF0
  8
0
  6
CONTINUOUS
 62
     7
 10
-481.202524027
 20
-265.5676489522
 30
0.0
  0
VERTEX
  5
AF1
  8
0
  6
CONTINUOUS
 62
     7
 10
-481.2025836316
 20
-282.3136484076
 30
0.0
  0
VERTEX
  5
AF2
  8
0
  6
CONTINUOUS
 62
     7
 10
-481.2026432363
 20
-299.050509726
 30
0.0
  0
VERTEX
  5
AF3
  8
0
  6
CONTINUOUS
 62
     7
 10
-481.2027624456
 20
-315.7675115218
 30
0.0
  0
VERTEX
  5
AF4
  8
0
  6
CONTINUOUS
 62
     7
 10
-481.2028816548
 20
-332.4539361348
 30
0.0
  0
VERTEX
  5
AF5
  8
0
  6
CONTINUOUS
 62
     7
 10
-481.2030008641
 20
-349.2213411083
 30
0.0
  0
VERTEX
  5
AF6
  8
0
  6
CONTINUOUS
 62
     7
 10
-481.2031796781
 20
-365.9504724493
 30
0.0
  0
VERTEX
  5
AF7
  8
0
  6
CONTINUOUS
 62
     7
 10
-481.2034180966
 20
-382.63045231
 30
0.0
  0
VERTEX
  5
AF8
  8
0
  6
CONTINUOUS
 62
     7
 10
-481.2036565152
 20
-399.2504177441
 30
0.0
  0
VERTEX
  5
AF9
  8
0
  6
CONTINUOUS
 62
     7
 10
-481.2038949338
 20
-414.5290998568
 30
0.0
  0
VERTEX
  5
AFA
  8
0
  6
CONTINUOUS
 62
     7
 10
-481.2041333524
 20
-429.7507701268
 30
0.0
  0
VERTEX
  5
AFB
  8
0
  6
CONTINUOUS
 62
     7
 10
-481.2044313756
 20
-444.9070093979
 30
0.0
  0
VERTEX
  5
AFC
  8
0
  6
CONTINUOUS
 62
     7
 10
-481.2047293988
 20
-459.9893985142
 30
0.0
  0
VERTEX
  5
AFD
  8
0
  6
CONTINUOUS
 62
     7
 10
-481.2050274221
 20
-474.9950764527
 30
0.0
  0
VERTEX
  5
AFE
  8
0
  6
CONTINUOUS
 62
     7
 10
-481.2053850499
 20
-489.9213461031
 30
0.0
  0
VERTEX
  5
AFF
  8
0
  6
CONTINUOUS
 62
     7
 10
-481.2057426778
 20
-504.7599373211
 30
0.0
  0
VERTEX
  5
B00
  8
0
  6
CONTINUOUS
 62
     7
 10
-481.2061003057
 20
-519.5026097645
 30
0.0
  0
VERTEX
  5
B01
  8
0
  6
CONTINUOUS
 62
     7
 10
-481.211583933
 20
-534.5006583085
 30
0.0
  0
VERTEX
  5
B02
  8
0
  6
CONTINUOUS
 62
     7
 10
-481.2205246297
 20
-549.3926999917
 30
0.0
  0
VERTEX
  5
B03
  8
0
  6
CONTINUOUS
 62
     7
 10
-481.2226107923
 20
-564.1691682686
 30
0.0
  0
VERTEX
  5
B04
  8
0
  6
CONTINUOUS
 62
     7
 10
-481.2076500264
 20
-578.8204667916
 30
0.0
  0
SEQEND
  5
B38
  8
0
  6
CONTINUOUS
 62
     7
  0
LINE
  5
2B7
  8
0
  6
CONTINUOUS
 62
     7
 10
-518.6282804814
 20
-578.1932769169
 30
0.0
 11
-481.3369325009
 21
-578.8339374413
 31
0.0
  0
LINE
  5
2B8
  8
0
  6
CONTINUOUS
 62
     7
 10
-530.6324175206
 20
114.4323649059
 30
0.0
 11
-549.6324113217
 21
114.4323649059
 31
0.0
  0
LINE
  5
2B9
  8
0
  6
CONTINUOUS
 62
     7
 10
-530.6324175206
 20
-619.5676622738
 30
0.0
 11
-549.6324113217
 21
-619.5676622738
 31
0.0
  0
LINE
  5
2BA
  8
0
  6
CONTINUOUS
 62
     7
 10
-816.1028436032
 20
128.4323634754
 30
0.0
 11
-816.1028436032
 21
47.432363237
 31
0.0
  0
LINE
  5
2BB
  8
0
  6
CONTINUOUS
 62
     7
 10
-816.1028436032
 20
-633.5676608433
 30
0.0
 11
-816.1028436032
 21
-552.5676606049
 31
0.0
  0
LINE
  5
2BC
  8
0
  6
CONTINUOUS
 62
     7
 10
-824.7631004659
 20
137.4323370109
 30
0.0
 11
-824.7631004659
 21
128.4323634754
 31
0.0
  0
LINE
  5
2BD
  8
0
  6
CONTINUOUS
 62
     7
 10
-824.7631004659
 20
-642.5676343789
 30
0.0
 11
-824.7631004659
 21
-633.5676608433
 31
0.0
  0
POLYLINE
  5
2BE
  8
0
  6
CONTINUOUS
 62
     7
 66
     1
 10
0.0
 20
0.0
 30
0.0
  0
VERTEX
  5
B05
  8
0
  6
CONTINUOUS
 62
     7
 10
-232.6434067098
 20
-614.1620276322
 30
0.0
  0
VERTEX
  5
B06
  8
0
  6
CONTINUOUS
 62
     7
 10
-232.6851895658
 20
-614.1700146546
 30
0.0
  0
VERTEX
  5
B07
  8
0
  6
CONTINUOUS
 62
     7
 10
-232.7191940156
 20
-614.1765115609
 30
0.0
  0
VERTEX
  5
B08
  8
0
  6
CONTINUOUS
 62
     7
 10
-232.7277174798
 20
-614.1781506886
 30
0.0
  0
SEQEND
  5
B37
  8
0
  6
CONTINUOUS
 62
     7
  0
LINE
  5
2BF
  8
0
  6
CONTINUOUS
 62
     7
 10
-232.6929679719
 20
109.0362074028
 30
0.0
 11
-232.6430788842
 21
109.0266706596
 31
0.0
  0
POLYLINE
  5
2C0
  8
0
  6
CONTINUOUS
 62
     7
 66
     1
 10
0.0
 20
0.0
 30
0.0
  0
VERTEX
  5
B09
  8
0
  6
CONTINUOUS
 62
     7
 10
-481.2056830731
 20
-578.8047609677
 30
0.0
  0
VERTEX
  5
B0A
  8
0
  6
CONTINUOUS
 62
     7
 10
-472.3405054418
 20
-578.9624152531
 30
0.0
  0
VERTEX
  5
B0B
  8
0
  6
CONTINUOUS
 62
     7
 10
-463.478248438
 20
-579.1233179917
 30
0.0
  0
VERTEX
  5
B0C
  8
0
  6
CONTINUOUS
 62
     7
 10
-454.6223691312
 20
-579.287707602
 30
0.0
  0
VERTEX
  5
B0D
  8
0
  6
CONTINUOUS
 62
     7
 10
-445.8210280744
 20
-579.4556138863
 30
0.0
  0
VERTEX
  5
B0E
  8
0
  6
CONTINUOUS
 62
     7
 10
-437.023799738
 20
-579.6268282284
 30
0.0
  0
VERTEX
  5
B0F
  8
0
  6
CONTINUOUS
 62
     7
 10
-428.2562545148
 20
-579.8045096745
 30
0.0
  0
SEQEND
  5
B36
  8
0
  6
CONTINUOUS
 62
     7
  0
POLYLINE
  5
2C1
  8
0
  6
CONTINUOUS
 62
     7
 66
     1
 10
0.0
 20
0.0
 30
0.0
  0
VERTEX
  5
B10
  8
0
  6
CONTINUOUS
 62
     7
 10
-481.2056830731
 20
73.6694635997
 30
0.0
  0
VERTEX
  5
B11
  8
0
  6
CONTINUOUS
 62
     7
 10
-472.3405054418
 20
73.8271178852
 30
0.0
  0
VERTEX
  5
B12
  8
0
  6
CONTINUOUS
 62
     7
 10
-463.478248438
 20
73.9880206237
 30
0.0
  0
VERTEX
  5
B13
  8
0
  6
CONTINUOUS
 62
     7
 10
-454.6223691312
 20
74.152410234
 30
0.0
  0
VERTEX
  5
B14
  8
0
  6
CONTINUOUS
 62
     7
 10
-445.8210280744
 20
74.3203165184
 30
0.0
  0
VERTEX
  5
B15
  8
0
  6
CONTINUOUS
 62
     7
 10
-437.023799738
 20
74.4915308605
 30
0.0
  0
VERTEX
  5
B16
  8
0
  6
CONTINUOUS
 62
     7
 10
-428.2562545148
 20
74.6692123066
 30
0.0
  0
SEQEND
  5
B35
  8
0
  6
CONTINUOUS
 62
     7
  0
POLYLINE
  5
2C2
  8
0
  6
CONTINUOUS
 62
     7
 66
     1
 10
0.0
 20
0.0
 30
0.0
  0
VERTEX
  5
B17
  8
0
  6
CONTINUOUS
 62
     7
 10
-483.7122371999
 20
130.4503979335
 30
0.0
  0
VERTEX
  5
B18
  8
0
  6
CONTINUOUS
 62
     7
 10
-483.4484270421
 20
127.2184254776
 30
0.0
  0
VERTEX
  5
B19
  8
0
  6
CONTINUOUS
 62
     7
 10
-483.2102468816
 20
123.9648463378
 30
0.0
  0
VERTEX
  5
B1A
  8
0
  6
CONTINUOUS
 62
     7
 10
-482.9808286038
 20
120.4953791748
 30
0.0
  0
VERTEX
  5
B1B
  8
0
  6
CONTINUOUS
 62
     7
 10
-482.7607682553
 20
116.8213488708
 30
0.0
  0
VERTEX
  5
B1C
  8
0
  6
CONTINUOUS
 62
     7
 10
-482.5461915341
 20
112.8682794223
 30
0.0
  0
VERTEX
  5
B1D
  8
0
  6
CONTINUOUS
 62
     7
 10
-482.3419860211
 20
108.715266193
 30
0.0
  0
VERTEX
  5
B1E
  8
0
  6
CONTINUOUS
 62
     7
 10
-482.1486285535
 20
104.3763162742
 30
0.0
  0
VERTEX
  5
B1F
  8
0
  6
CONTINUOUS
 62
     7
 10
-481.9614699689
 20
99.7275712143
 30
0.0
  0
VERTEX
  5
B20
  8
0
  6
CONTINUOUS
 62
     7
 10
-481.7863515225
 20
94.8983432899
 30
0.0
  0
VERTEX
  5
B21
  8
0
  6
CONTINUOUS
 62
     7
 10
-481.6239884702
 20
89.9058582435
 30
0.0
  0
VERTEX
  5
B22
  8
0
  6
CONTINUOUS
 62
     7
 10
-481.4559629766
 20
84.6417846332
 30
0.0
  0
VERTEX
  5
B23
  8
0
  6
CONTINUOUS
 62
     7
 10
-481.3016465512
 20
79.2267026554
 30
0.0
  0
VERTEX
  5
B24
  8
0
  6
CONTINUOUS
 62
     7
 10
-481.2077692357
 20
73.6851694236
 30
0.0
  0
SEQEND
  5
B34
  8
0
  6
CONTINUOUS
 62
     7
  0
POLYLINE
  5
2C3
  8
0
  6
CONTINUOUS
 62
     7
 66
     1
 10
0.0
 20
0.0
 30
0.0
  0
VERTEX
  5
B25
  8
0
  6
CONTINUOUS
 62
     7
 10
-481.2077692357
 20
-578.8204667916
 30
0.0
  0
VERTEX
  5
B26
  8
0
  6
CONTINUOUS
 62
     7
 10
-481.299500784
 20
-584.2445490708
 30
0.0
  0
VERTEX
  5
B27
  8
0
  6
CONTINUOUS
 62
     7
 10
-481.4500621167
 20
-589.547902142
 30
0.0
  0
VERTEX
  5
B28
  8
0
  6
CONTINUOUS
 62
     7
 10
-481.6137364713
 20
-594.7072205891
 30
0.0
  0
VERTEX
  5
B29
  8
0
  6
CONTINUOUS
 62
     7
 10
-481.7789605466
 20
-599.8180208554
 30
0.0
  0
VERTEX
  5
B2A
  8
0
  6
CONTINUOUS
 62
     7
 10
-481.9574764577
 20
-604.7589776864
 30
0.0
  0
VERTEX
  5
B2B
  8
0
  6
CONTINUOUS
 62
     7
 10
-482.1486285535
 20
-609.5116136422
 30
0.0
  0
VERTEX
  5
B2C
  8
0
  6
CONTINUOUS
 62
     7
 10
-482.3380521146
 20
-613.7666700234
 30
0.0
  0
VERTEX
  5
B2D
  8
0
  6
CONTINUOUS
 62
     7
 10
-482.5379660932
 20
-617.8432104935
 30
0.0
  0
VERTEX
  5
B2E
  8
0
  6
CONTINUOUS
 62
     7
 10
-482.7477744428
 20
-621.7280028214
 30
0.0
  0
VERTEX
  5
B2F
  8
0
  6
CONTINUOUS
 62
     7
 10
-482.9717686978
 20
-625.4864333024
 30
0.0
  0
VERTEX
  5
B30
  8
0
  6
CONTINUOUS
 62
     7
 10
-483.2055381146
 20
-629.0323732247
 30
0.0
  0
VERTEX
  5
B31
  8
0
  6
CONTINUOUS
 62
     7
 10
-483.4484270421
 20
-632.3537228455
 30
0.0
  0
VERTEX
  5
B32
  8
0
  6
CONTINUOUS
 62
     7
 10
-483.7122371999
 20
-635.5856953015
 30
0.0
  0
SEQEND
  5
B33
  8
0
  6
CONTINUOUS
 62
     7
  0
LINE
  5
2C4
  8
0
  6
CONTINUOUS
 62
     7
 10
-419.2991069165
 20
-851.5676257958
 30
0.0
 11
-419.2991069165
 21
-749.5676575055
 31
0.0
  0
LINE
  5
2C5
  8
0
  6
CONTINUOUS
 62
     7
 10
-453.4497073499
 20
-851.5676257958
 30
0.0
 11
-453.4497073499
 21
-749.5676575055
 31
0.0
  0
LINE
  5
2C6
  8
0
  6
CONTINUOUS
 62
     7
 10
-374.2657712308
 20
-851.5676257958
 30
0.0
 11
-374.2657712308
 21
-749.5676575055
 31
0.0
  0
LINE
  5
2C7
  8
0
  6
CONTINUOUS
 62
     7
 10
-555.4497054425
 20
-851.5676257958
 30
0.0
 11
-555.4497054425
 21
-813.0676744332
 31
0.0
  0
LINE
  5
2C8
  8
0
  6
CONTINUOUS
 62
     7
 10
-555.4497054425
 20
-788.0676386704
 30
0.0
 11
-555.4497054425
 21
-749.5676575055
 31
0.0
  0
LINE
  5
2C9
  8
0
  6
CONTINUOUS
 62
     7
 10
-330.9645167199
 20
-851.5676257958
 30
0.0
 11
-330.9645167199
 21
-749.5676575055
 31
0.0
  0
LINE
  5
2CA
  8
0
  6
CONTINUOUS
 62
     7
 10
-285.9311810342
 20
-851.5676257958
 30
0.0
 11
-285.9311810342
 21
-749.5676575055
 31
0.0
  0
LINE
  5
2CB
  8
0
  6
CONTINUOUS
 62
     7
 10
-242.6299265233
 20
-851.5676257958
 30
0.0
 11
-242.6299265233
 21
-749.5676575055
 31
0.0
  0
LINE
  5
2CC
  8
0
  6
CONTINUOUS
 62
     7
 10
-197.5965908376
 20
-851.5676257958
 30
0.0
 11
-197.5965908376
 21
-749.5676575055
 31
0.0
  0
LINE
  5
2CD
  8
FORMAT
  6
CENTERX2
 10
106.5011606094
 20
-252.567648684
 30
0.0
 11
-1239.386709463
 21
-252.567648684
 31
0.0
  0
ENDSEC
  0
EOF
