  0
SECTION
  2
HEADER
  9
$ACADVER
  1
AC1009
  9
$DWGCODEPAGE
  3
ansi_1252
  9
$INSBASE
 10
0.0
 20
0.0
 30
0.0
  9
$EXTMIN
 10
0.0
 20
0.0
 30
0.0
  9
$EXTMAX
 10
6000.0
 20
4000.0
 30
0.0
  9
$LIMMIN
 10
0.0
 20
0.0
  9
$LIMMAX
 10
6000.0
 20
4000.0
  9
$ORTHOMODE
 70
     0
  9
$REGENMODE
 70
     1
  9
$FILLMODE
 70
     1
  9
$QTEXTMODE
 70
     0
  9
$MIRRTEXT
 70
     1
  9
$DRAGMODE
 70
     2
  9
$LTSCALE
 40
1.0
  9
$OSMODE
 70
    37
  9
$ATTMODE
 70
     1
  9
$TEXTSIZE
 40
3.5
  9
$TRACEWID
 40
1.0
  9
$TEXTSTYLE
  7
STANDARD
  9
$CLAYER
  8
0
  9
$CELTYPE
  6
BYLAYER
  9
$CECOLOR
 62
   256
  9
$DIMSCALE
 40
1.0
  9
$DIMASZ
 40
3.302
  9
$DIMEXO
 40
1.0
  9
$DIMDLI
 40
3.75
  9
$DIMRND
 40
0.0
  9
$DIMDLE
 40
0.0
  9
$DIMEXE
 40
1.0
  9
$DIMTP
 40
0.0
  9
$DIMTM
 40
0.0
  9
$DIMTXT
 40
3.5
  9
$DIMCEN
 40
2.5
  9
$DIMTSZ
 40
0.0
  9
$DIMTOL
 70
     0
  9
$DIMLIM
 70
     0
  9
$DIMTIH
 70
     1
  9
$DIMTOH
 70
     1
  9
$DIMSE1
 70
     0
  9
$DIMSE2
 70
     0
  9
$DIMTAD
 70
     1
  9
$DIMZIN
 70
     0
  9
$DIMBLK
  1

  9
$DIMASO
 70
     1
  9
$DIMSHO
 70
     1
  9
$DIMPOST
  1

  9
$DIMAPOST
  1

  9
$DIMALT
 70
     0
  9
$DIMALTD
 70
     3
  9
$DIMALTF
 40
0.0393700787
  9
$DIMLFAC
 40
1.0
  9
$DIMTOFL
 70
     1
  9
$DIMTVP
 40
0.0
  9
$DIMTIX
 70
     0
  9
$DIMSOXD
 70
     0
  9
$DIMSAH
 70
     0
  9
$DIMBLK1
  1

  9
$DIMBLK2
  1

  9
$DIMSTYLE
  2
ISO-25
  9
$DIMCLRD
 70
     0
  9
$DIMCLRE
 70
     0
  9
$DIMCLRT
 70
     0
  9
$DIMTFAC
 40
1.0
  9
$DIMGAP
 40
1.524
  9
$LUNITS
 70
     2
  9
$LUPREC
 70
     2
  9
$SKETCHINC
 40
1.0
  9
$FILLETRAD
 40
10.0
  9
$AUNITS
 70
     0
  9
$AUPREC
 70
     2
  9
$MENU
  1
.
  9
$ELEVATION
 40
0.0
  9
$PELEVATION
 40
0.0
  9
$THICKNESS
 40
0.0
  9
$LIMCHECK
 70
     0
  9
$CHAMFERA
 40
10.0
  9
$CHAMFERB
 40
10.0
  9
$SKPOLY
 70
     0
  9
$TDCREATE
 40
2458222.328818033
  9
$TDUPDATE
 40
2458222.328819653
  9
$TDINDWG
 40
0.0000000116
  9
$TDUSRTIMER
 40
0.0000000116
  9
$USRTIMER
 70
     1
  9
$ANGBASE
 50
0.0
  9
$ANGDIR
 70
     0
  9
$PDMODE
 70
     0
  9
$PDSIZE
 40
-1.0
  9
$PLINEWID
 40
0.0
  9
$COORDS
 70
     1
  9
$SPLFRAME
 70
     0
  9
$SPLINETYPE
 70
     6
  9
$SPLINESEGS
 70
     8
  9
$ATTDIA
 70
     0
  9
$ATTREQ
 70
     1
  9
$HANDLING
 70
     1
  9
$HANDSEED
  5
770
  9
$SURFTAB1
 70
     6
  9
$SURFTAB2
 70
     6
  9
$SURFTYPE
 70
     6
  9
$SURFU
 70
     6
  9
$SURFV
 70
     6
  9
$UCSNAME
  2

  9
$UCSORG
 10
0.0
 20
0.0
 30
0.0
  9
$UCSXDIR
 10
1.0
 20
0.0
 30
0.0
  9
$UCSYDIR
 10
0.0
 20
1.0
 30
0.0
  9
$PUCSNAME
  2

  9
$PUCSORG
 10
0.0
 20
0.0
 30
0.0
  9
$PUCSXDIR
 10
1.0
 20
0.0
 30
0.0
  9
$PUCSYDIR
 10
0.0
 20
1.0
 30
0.0
  9
$USERI1
 70
     0
  9
$USERI2
 70
     0
  9
$USERI3
 70
     0
  9
$USERI4
 70
     0
  9
$USERI5
 70
     0
  9
$USERR1
 40
0.0
  9
$USERR2
 40
0.0
  9
$USERR3
 40
0.0
  9
$USERR4
 40
0.0
  9
$USERR5
 40
0.0
  9
$WORLDVIEW
 70
     1
  9
$SHADEDGE
 70
     3
  9
$SHADEDIF
 70
    70
  9
$TILEMODE
 70
     1
  9
$MAXACTVP
 70
    64
  9
$PLIMCHECK
 70
     0
  9
$PEXTMIN
 10
1.0000000000E+20
 20
1.0000000000E+20
 30
1.0000000000E+20
  9
$PEXTMAX
 10
-1.0000000000E+20
 20
-1.0000000000E+20
 30
-1.0000000000E+20
  9
$PLIMMIN
 10
0.0
 20
0.0
  9
$PLIMMAX
 10
420.0
 20
297.0
  9
$UNITMODE
 70
     0
  9
$VISRETAIN
 70
     1
  9
$PLINEGEN
 70
     0
  9
$PSLTSCALE
 70
     1
  0
ENDSEC
  0
SECTION
  2
TABLES
  0
TABLE
  2
VPORT
 70
     1
  0
VPORT
  2
*ACTIVE
 70
     0
 10
0.0
 20
0.0
 11
1.0
 21
1.0
 12
3000.0
 22
2000.0
 13
0.0
 23
0.0
 14
10.0
 24
10.0
 15
10.0
 25
10.0
 16
0.0
 26
0.0
 36
1.0
 17
0.0
 27
0.0
 37
0.0
 40
4000.0
 41
1.5
 42
50.0
 43
0.0
 44
0.0
 50
0.0
 51
0.0
 71
     0
 72
  2000
 73
     1
 74
     3
 75
     0
 76
     0
 77
     0
 78
     0
  0
ENDTAB
  0
TABLE
  2
LTYPE
 70
     6
  0
LTYPE
  2
CONTINUOUS
 70
     0
  3
Solid line
 72
    65
 73
     0
 40
0.0
  0
LTYPE
  2
HIDDEN
 70
     0
  3
Hidden __ __ __ __ __ __ __ __ __ __ __ __ __ __
 72
    65
 73
     2
 40
1.905
 49
1.27
 49
-0.635
  0
LTYPE
  2
PHANTOM
 70
     0
  3
Phantom ______  __  __  ______  __  __  ______
 72
    65
 73
     6
 40
12.7
 49
6.35
 49
-1.27
 49
1.27
 49
-1.27
 49
1.27
 49
-1.27
  0
LTYPE
  2
CENTER
 70
     0
  3
Center ____ _ ____ _ ____ _ ____ _ ____ _ ____
 72
    65
 73
     4
 40
10.16
 49
6.35
 49
-1.27
 49
1.27
 49
-1.27
  0
LTYPE
  2
CENTERX2
 70
     0
  3
Center (2x) ________  __  ________  __  _____
 72
    65
 73
     4
 40
20.32
 49
12.7
 49
-2.54
 49
2.54
 49
-2.54
  0
LTYPE
  2
DOT2
 70
     0
  3
Dot (.5x) ........................................
 72
    65
 73
     2
 40
0.635
 49
0.0
 49
-0.635
  0
ENDTAB
  0
TABLE
  2
LAYER
 70
     3
  0
LAYER
  2
0
 70
     0
 62
     7
  6
CONTINUOUS
  0
LAYER
  2
FORMAT
 70
     0
 62
     7
  6
CONTINUOUS
  0
LAYER
  2
PROTOTYPE
 70
     0
 62
    -7
  6
CONTINUOUS
  0
ENDTAB
  0
TABLE
  2
STYLE
 70
     1
  0
STYLE
  2
STANDARD
 70
     0
 40
0.0
 41
1.0
 50
0.0
 71
     0
 42
3.5
  3
txt
  4

  0
ENDTAB
  0
TABLE
  2
VIEW
 70
     0
  0
ENDTAB
  0
TABLE
  2
UCS
 70
     0
  0
ENDTAB
  0
TABLE
  2
APPID
 70
     1
  0
APPID
  2
ACAD
 70
     0
  0
ENDTAB
  0
TABLE
  2
DIMSTYLE
 70
     1
  0
DIMSTYLE
  2
ISO-25
 70
     0
  3

  4

  5

  6

  7

 40
1.0
 41
2.5
 42
0.625
 43
3.75
 44
1.25
 45
0.0
 46
0.0
 47
0.0
 48
0.0
140
2.5
141
2.5
142
0.0
143
0.0393700787
144
1.0
145
0.0
146
1.0
147
0.625
 71
     0
 72
     0
 73
     0
 74
     0
 75
     0
 76
     0
 77
     1
 78
     8
170
     0
171
     3
172
     1
173
     0
174
     0
175
     0
176
     0
177
     0
178
     0
  0
ENDTAB
  0
ENDSEC
  0
SECTION
  2
BLOCKS
  0
BLOCK
  8
0
  2
$MODEL_SPACE
 70
     0
 10
0.0
 20
0.0
 30
0.0
  3
$MODEL_SPACE
  1

  0
ENDBLK
  5
21
  8
0
  0
BLOCK
 67
     1
  8
0
  2
$PAPER_SPACE
 70
     0
 10
0.0
 20
0.0
 30
0.0
  3
$PAPER_SPACE
  1

  0
ENDBLK
  5
1D
 67
     1
  8
0
  0
BLOCK
  8
0
  2
SW_CENTERMARKSYMBOL_0
 70
     0
 10
0.0
 20
0.0
 30
0.0
  3
SW_CENTERMARKSYMBOL_0
  1

  0
LINE
  5
145
  8
FORMAT
 62
     0
 10
0.0
 20
0.0
 30
0.0
 11
0.0
 21
2.5
 31
0.0
  0
LINE
  5
146
  8
FORMAT
 62
     0
 10
0.0
 20
0.0
 30
0.0
 11
-2.5
 21
0.0
 31
0.0
  0
LINE
  5
147
  8
FORMAT
 62
     0
 10
0.0
 20
0.0
 30
0.0
 11
0.0
 21
-2.5
 31
0.0
  0
LINE
  5
148
  8
FORMAT
 62
     0
 10
0.0
 20
0.0
 30
0.0
 11
2.5
 21
0.0
 31
0.0
  0
LINE
  5
149
  8
FORMAT
 62
     0
 10
0.0
 20
5.0
 30
0.0
 11
0.0
 21
767.5
 31
0.0
  0
LINE
  5
14A
  8
FORMAT
 62
     0
 10
-5.0
 20
0.0
 30
0.0
 11
-767.5
 21
0.0
 31
0.0
  0
LINE
  5
14B
  8
FORMAT
 62
     0
 10
0.0
 20
-5.0
 30
0.0
 11
0.0
 21
-767.5
 31
0.0
  0
LINE
  5
14C
  8
FORMAT
 62
     0
 10
5.0
 20
0.0
 30
0.0
 11
767.5
 21
0.0
 31
0.0
  0
ENDBLK
  5
144
  8
0
  0
BLOCK
  8
0
  2
SW_CENTERMARKSYMBOL_1
 70
     0
 10
0.0
 20
0.0
 30
0.0
  3
SW_CENTERMARKSYMBOL_1
  1

  0
LINE
  5
151
  8
FORMAT
 62
     0
 10
0.0
 20
0.0
 30
0.0
 11
0.0
 21
2.5
 31
0.0
  0
LINE
  5
152
  8
FORMAT
 62
     0
 10
0.0
 20
0.0
 30
0.0
 11
-2.5
 21
0.0
 31
0.0
  0
LINE
  5
153
  8
FORMAT
 62
     0
 10
0.0
 20
0.0
 30
0.0
 11
0.0
 21
-2.5
 31
0.0
  0
LINE
  5
154
  8
FORMAT
 62
     0
 10
0.0
 20
0.0
 30
0.0
 11
2.5
 21
0.0
 31
0.0
  0
LINE
  5
155
  8
FORMAT
 62
     0
 10
0.0
 20
5.0
 30
0.0
 11
0.0
 21
24.5
 31
0.0
  0
LINE
  5
156
  8
FORMAT
 62
     0
 10
-5.0
 20
0.0
 30
0.0
 11
-24.5
 21
0.0
 31
0.0
  0
LINE
  5
157
  8
FORMAT
 62
     0
 10
0.0
 20
-5.0
 30
0.0
 11
0.0
 21
-24.5
 31
0.0
  0
LINE
  5
158
  8
FORMAT
 62
     0
 10
5.0
 20
0.0
 30
0.0
 11
24.5
 21
0.0
 31
0.0
  0
ENDBLK
  5
150
  8
0
  0
BLOCK
  8
0
  2
SW_CENTERMARKSYMBOL_2
 70
     0
 10
0.0
 20
0.0
 30
0.0
  3
SW_CENTERMARKSYMBOL_2
  1

  0
LINE
  5
15D
  8
FORMAT
 62
     0
 10
0.0
 20
0.0
 30
0.0
 11
0.0
 21
2.5
 31
0.0
  0
LINE
  5
15E
  8
FORMAT
 62
     0
 10
0.0
 20
0.0
 30
0.0
 11
-2.5
 21
0.0
 31
0.0
  0
LINE
  5
15F
  8
FORMAT
 62
     0
 10
0.0
 20
0.0
 30
0.0
 11
0.0
 21
-2.5
 31
0.0
  0
LINE
  5
160
  8
FORMAT
 62
     0
 10
0.0
 20
0.0
 30
0.0
 11
2.5
 21
0.0
 31
0.0
  0
LINE
  5
161
  8
FORMAT
 62
     0
 10
0.0
 20
5.0
 30
0.0
 11
0.0
 21
24.5
 31
0.0
  0
LINE
  5
162
  8
FORMAT
 62
     0
 10
-5.0
 20
0.0
 30
0.0
 11
-24.5
 21
0.0
 31
0.0
  0
LINE
  5
163
  8
FORMAT
 62
     0
 10
0.0
 20
-5.0
 30
0.0
 11
0.0
 21
-24.5
 31
0.0
  0
LINE
  5
164
  8
FORMAT
 62
     0
 10
5.0
 20
0.0
 30
0.0
 11
24.5
 21
0.0
 31
0.0
  0
ENDBLK
  5
15C
  8
0
  0
BLOCK
  8
0
  2
SW_CENTERMARKSYMBOL_3
 70
     0
 10
0.0
 20
0.0
 30
0.0
  3
SW_CENTERMARKSYMBOL_3
  1

  0
LINE
  5
169
  8
FORMAT
 62
     0
 10
0.0
 20
0.0
 30
0.0
 11
0.0
 21
2.5
 31
0.0
  0
LINE
  5
16A
  8
FORMAT
 62
     0
 10
0.0
 20
0.0
 30
0.0
 11
-2.5
 21
0.0
 31
0.0
  0
LINE
  5
16B
  8
FORMAT
 62
     0
 10
0.0
 20
0.0
 30
0.0
 11
0.0
 21
-2.5
 31
0.0
  0
LINE
  5
16C
  8
FORMAT
 62
     0
 10
0.0
 20
0.0
 30
0.0
 11
2.5
 21
0.0
 31
0.0
  0
LINE
  5
16D
  8
FORMAT
 62
     0
 10
0.0
 20
5.0
 30
0.0
 11
0.0
 21
24.5
 31
0.0
  0
LINE
  5
16E
  8
FORMAT
 62
     0
 10
-5.0
 20
0.0
 30
0.0
 11
-24.5
 21
0.0
 31
0.0
  0
LINE
  5
16F
  8
FORMAT
 62
     0
 10
0.0
 20
-5.0
 30
0.0
 11
0.0
 21
-24.5
 31
0.0
  0
LINE
  5
170
  8
FORMAT
 62
     0
 10
5.0
 20
0.0
 30
0.0
 11
24.5
 21
0.0
 31
0.0
  0
ENDBLK
  5
168
  8
0
  0
BLOCK
  8
0
  2
SW_CENTERMARKSYMBOL_4
 70
     0
 10
0.0
 20
0.0
 30
0.0
  3
SW_CENTERMARKSYMBOL_4
  1

  0
LINE
  5
175
  8
FORMAT
 62
     0
 10
0.0
 20
0.0
 30
0.0
 11
0.0
 21
2.5
 31
0.0
  0
LINE
  5
176
  8
FORMAT
 62
     0
 10
0.0
 20
0.0
 30
0.0
 11
-2.5
 21
0.0
 31
0.0
  0
LINE
  5
177
  8
FORMAT
 62
     0
 10
0.0
 20
0.0
 30
0.0
 11
0.0
 21
-2.5
 31
0.0
  0
LINE
  5
178
  8
FORMAT
 62
     0
 10
0.0
 20
0.0
 30
0.0
 11
2.5
 21
0.0
 31
0.0
  0
LINE
  5
179
  8
FORMAT
 62
     0
 10
0.0
 20
5.0
 30
0.0
 11
0.0
 21
24.5
 31
0.0
  0
LINE
  5
17A
  8
FORMAT
 62
     0
 10
-5.0
 20
0.0
 30
0.0
 11
-24.5
 21
0.0
 31
0.0
  0
LINE
  5
17B
  8
FORMAT
 62
     0
 10
0.0
 20
-5.0
 30
0.0
 11
0.0
 21
-24.5
 31
0.0
  0
LINE
  5
17C
  8
FORMAT
 62
     0
 10
5.0
 20
0.0
 30
0.0
 11
24.5
 21
0.0
 31
0.0
  0
ENDBLK
  5
174
  8
0
  0
BLOCK
  8
0
  2
SW_CENTERMARKSYMBOL_5
 70
     0
 10
0.0
 20
0.0
 30
0.0
  3
SW_CENTERMARKSYMBOL_5
  1

  0
LINE
  5
181
  8
FORMAT
 62
     0
 10
0.0
 20
0.0
 30
0.0
 11
0.0
 21
2.5
 31
0.0
  0
LINE
  5
182
  8
FORMAT
 62
     0
 10
0.0
 20
0.0
 30
0.0
 11
-2.5
 21
0.0
 31
0.0
  0
LINE
  5
183
  8
FORMAT
 62
     0
 10
0.0
 20
0.0
 30
0.0
 11
0.0
 21
-2.5
 31
0.0
  0
LINE
  5
184
  8
FORMAT
 62
     0
 10
0.0
 20
0.0
 30
0.0
 11
2.5
 21
0.0
 31
0.0
  0
LINE
  5
185
  8
FORMAT
 62
     0
 10
0.0
 20
5.0
 30
0.0
 11
0.0
 21
24.5
 31
0.0
  0
LINE
  5
186
  8
FORMAT
 62
     0
 10
-5.0
 20
0.0
 30
0.0
 11
-24.5
 21
0.0
 31
0.0
  0
LINE
  5
187
  8
FORMAT
 62
     0
 10
0.0
 20
-5.0
 30
0.0
 11
0.0
 21
-24.5
 31
0.0
  0
LINE
  5
188
  8
FORMAT
 62
     0
 10
5.0
 20
0.0
 30
0.0
 11
24.5
 21
0.0
 31
0.0
  0
ENDBLK
  5
180
  8
0
  0
BLOCK
  8
0
  2
SW_CENTERMARKSYMBOL_6
 70
     0
 10
0.0
 20
0.0
 30
0.0
  3
SW_CENTERMARKSYMBOL_6
  1

  0
LINE
  5
18D
  8
FORMAT
 62
     0
 10
0.0
 20
0.0
 30
0.0
 11
0.0
 21
2.5
 31
0.0
  0
LINE
  5
18E
  8
FORMAT
 62
     0
 10
0.0
 20
0.0
 30
0.0
 11
-2.5
 21
0.0
 31
0.0
  0
LINE
  5
18F
  8
FORMAT
 62
     0
 10
0.0
 20
0.0
 30
0.0
 11
0.0
 21
-2.5
 31
0.0
  0
LINE
  5
190
  8
FORMAT
 62
     0
 10
0.0
 20
0.0
 30
0.0
 11
2.5
 21
0.0
 31
0.0
  0
LINE
  5
191
  8
FORMAT
 62
     0
 10
0.0
 20
5.0
 30
0.0
 11
0.0
 21
24.5
 31
0.0
  0
LINE
  5
192
  8
FORMAT
 62
     0
 10
-5.0
 20
0.0
 30
0.0
 11
-24.5
 21
0.0
 31
0.0
  0
LINE
  5
193
  8
FORMAT
 62
     0
 10
0.0
 20
-5.0
 30
0.0
 11
0.0
 21
-24.5
 31
0.0
  0
LINE
  5
194
  8
FORMAT
 62
     0
 10
5.0
 20
0.0
 30
0.0
 11
24.5
 21
0.0
 31
0.0
  0
ENDBLK
  5
18C
  8
0
  0
BLOCK
  8
0
  2
SW_CENTERMARKSYMBOL_7
 70
     0
 10
0.0
 20
0.0
 30
0.0
  3
SW_CENTERMARKSYMBOL_7
  1

  0
LINE
  5
199
  8
FORMAT
 62
     0
 10
0.0
 20
0.0
 30
0.0
 11
0.0
 21
2.5
 31
0.0
  0
LINE
  5
19A
  8
FORMAT
 62
     0
 10
0.0
 20
0.0
 30
0.0
 11
-2.5
 21
0.0
 31
0.0
  0
LINE
  5
19B
  8
FORMAT
 62
     0
 10
0.0
 20
0.0
 30
0.0
 11
0.0
 21
-2.5
 31
0.0
  0
LINE
  5
19C
  8
FORMAT
 62
     0
 10
0.0
 20
0.0
 30
0.0
 11
2.5
 21
0.0
 31
0.0
  0
LINE
  5
19D
  8
FORMAT
 62
     0
 10
0.0
 20
5.0
 30
0.0
 11
0.0
 21
24.5
 31
0.0
  0
LINE
  5
19E
  8
FORMAT
 62
     0
 10
-5.0
 20
0.0
 30
0.0
 11
-24.5
 21
0.0
 31
0.0
  0
LINE
  5
19F
  8
FORMAT
 62
     0
 10
0.0
 20
-5.0
 30
0.0
 11
0.0
 21
-24.5
 31
0.0
  0
LINE
  5
1A0
  8
FORMAT
 62
     0
 10
5.0
 20
0.0
 30
0.0
 11
24.5
 21
0.0
 31
0.0
  0
ENDBLK
  5
198
  8
0
  0
BLOCK
  8
0
  2
SW_CENTERMARKSYMBOL_8
 70
     0
 10
0.0
 20
0.0
 30
0.0
  3
SW_CENTERMARKSYMBOL_8
  1

  0
LINE
  5
1A5
  8
FORMAT
 62
     0
 10
0.0
 20
0.0
 30
0.0
 11
0.0
 21
2.5
 31
0.0
  0
LINE
  5
1A6
  8
FORMAT
 62
     0
 10
0.0
 20
0.0
 30
0.0
 11
-2.5
 21
0.0
 31
0.0
  0
LINE
  5
1A7
  8
FORMAT
 62
     0
 10
0.0
 20
0.0
 30
0.0
 11
0.0
 21
-2.5
 31
0.0
  0
LINE
  5
1A8
  8
FORMAT
 62
     0
 10
0.0
 20
0.0
 30
0.0
 11
2.5
 21
0.0
 31
0.0
  0
LINE
  5
1A9
  8
FORMAT
 62
     0
 10
0.0
 20
5.0
 30
0.0
 11
0.0
 21
24.5
 31
0.0
  0
LINE
  5
1AA
  8
FORMAT
 62
     0
 10
-5.0
 20
0.0
 30
0.0
 11
-24.5
 21
0.0
 31
0.0
  0
LINE
  5
1AB
  8
FORMAT
 62
     0
 10
0.0
 20
-5.0
 30
0.0
 11
0.0
 21
-24.5
 31
0.0
  0
LINE
  5
1AC
  8
FORMAT
 62
     0
 10
5.0
 20
0.0
 30
0.0
 11
24.5
 21
0.0
 31
0.0
  0
ENDBLK
  5
1A4
  8
0
  0
BLOCK
  8
0
  2
SW_CENTERMARKSYMBOL_9
 70
     0
 10
0.0
 20
0.0
 30
0.0
  3
SW_CENTERMARKSYMBOL_9
  1

  0
LINE
  5
1B1
  8
FORMAT
 62
     0
 10
0.0
 20
0.0
 30
0.0
 11
0.0
 21
2.5
 31
0.0
  0
LINE
  5
1B2
  8
FORMAT
 62
     0
 10
0.0
 20
0.0
 30
0.0
 11
-2.5
 21
0.0
 31
0.0
  0
LINE
  5
1B3
  8
FORMAT
 62
     0
 10
0.0
 20
0.0
 30
0.0
 11
0.0
 21
-2.5
 31
0.0
  0
LINE
  5
1B4
  8
FORMAT
 62
     0
 10
0.0
 20
0.0
 30
0.0
 11
2.5
 21
0.0
 31
0.0
  0
LINE
  5
1B5
  8
FORMAT
 62
     0
 10
0.0
 20
5.0
 30
0.0
 11
0.0
 21
24.5
 31
0.0
  0
LINE
  5
1B6
  8
FORMAT
 62
     0
 10
-5.0
 20
0.0
 30
0.0
 11
-24.5
 21
0.0
 31
0.0
  0
LINE
  5
1B7
  8
FORMAT
 62
     0
 10
0.0
 20
-5.0
 30
0.0
 11
0.0
 21
-24.5
 31
0.0
  0
LINE
  5
1B8
  8
FORMAT
 62
     0
 10
5.0
 20
0.0
 30
0.0
 11
24.5
 21
0.0
 31
0.0
  0
ENDBLK
  5
1B0
  8
0
  0
BLOCK
  8
0
  2
SW_CENTERMARKSYMBOL_10
 70
     0
 10
0.0
 20
0.0
 30
0.0
  3
SW_CENTERMARKSYMBOL_10
  1

  0
LINE
  5
1BD
  8
FORMAT
 62
     0
 10
0.0
 20
0.0
 30
0.0
 11
0.0
 21
2.5
 31
0.0
  0
LINE
  5
1BE
  8
FORMAT
 62
     0
 10
0.0
 20
0.0
 30
0.0
 11
-2.5
 21
0.0
 31
0.0
  0
LINE
  5
1BF
  8
FORMAT
 62
     0
 10
0.0
 20
0.0
 30
0.0
 11
0.0
 21
-2.5
 31
0.0
  0
LINE
  5
1C0
  8
FORMAT
 62
     0
 10
0.0
 20
0.0
 30
0.0
 11
2.5
 21
0.0
 31
0.0
  0
LINE
  5
1C1
  8
FORMAT
 62
     0
 10
0.0
 20
5.0
 30
0.0
 11
0.0
 21
24.5
 31
0.0
  0
LINE
  5
1C2
  8
FORMAT
 62
     0
 10
-5.0
 20
0.0
 30
0.0
 11
-24.5
 21
0.0
 31
0.0
  0
LINE
  5
1C3
  8
FORMAT
 62
     0
 10
0.0
 20
-5.0
 30
0.0
 11
0.0
 21
-24.5
 31
0.0
  0
LINE
  5
1C4
  8
FORMAT
 62
     0
 10
5.0
 20
0.0
 30
0.0
 11
24.5
 21
0.0
 31
0.0
  0
ENDBLK
  5
1BC
  8
0
  0
BLOCK
  8
0
  2
SW_CENTERMARKSYMBOL_11
 70
     0
 10
0.0
 20
0.0
 30
0.0
  3
SW_CENTERMARKSYMBOL_11
  1

  0
LINE
  5
1C9
  8
FORMAT
 62
     0
 10
0.0
 20
0.0
 30
0.0
 11
0.0
 21
2.5
 31
0.0
  0
LINE
  5
1CA
  8
FORMAT
 62
     0
 10
0.0
 20
0.0
 30
0.0
 11
-2.5
 21
0.0
 31
0.0
  0
LINE
  5
1CB
  8
FORMAT
 62
     0
 10
0.0
 20
0.0
 30
0.0
 11
0.0
 21
-2.5
 31
0.0
  0
LINE
  5
1CC
  8
FORMAT
 62
     0
 10
0.0
 20
0.0
 30
0.0
 11
2.5
 21
0.0
 31
0.0
  0
LINE
  5
1CD
  8
FORMAT
 62
     0
 10
0.0
 20
5.0
 30
0.0
 11
0.0
 21
24.5
 31
0.0
  0
LINE
  5
1CE
  8
FORMAT
 62
     0
 10
-5.0
 20
0.0
 30
0.0
 11
-24.5
 21
0.0
 31
0.0
  0
LINE
  5
1CF
  8
FORMAT
 62
     0
 10
0.0
 20
-5.0
 30
0.0
 11
0.0
 21
-24.5
 31
0.0
  0
LINE
  5
1D0
  8
FORMAT
 62
     0
 10
5.0
 20
0.0
 30
0.0
 11
24.5
 21
0.0
 31
0.0
  0
ENDBLK
  5
1C8
  8
0
  0
BLOCK
  8
0
  2
SW_CENTERMARKSYMBOL_12
 70
     0
 10
0.0
 20
0.0
 30
0.0
  3
SW_CENTERMARKSYMBOL_12
  1

  0
LINE
  5
1D5
  8
FORMAT
 62
     0
 10
0.0
 20
0.0
 30
0.0
 11
0.0
 21
2.5
 31
0.0
  0
LINE
  5
1D6
  8
FORMAT
 62
     0
 10
0.0
 20
0.0
 30
0.0
 11
-2.5
 21
0.0
 31
0.0
  0
LINE
  5
1D7
  8
FORMAT
 62
     0
 10
0.0
 20
0.0
 30
0.0
 11
0.0
 21
-2.5
 31
0.0
  0
LINE
  5
1D8
  8
FORMAT
 62
     0
 10
0.0
 20
0.0
 30
0.0
 11
2.5
 21
0.0
 31
0.0
  0
LINE
  5
1D9
  8
FORMAT
 62
     0
 10
0.0
 20
5.0
 30
0.0
 11
0.0
 21
24.5
 31
0.0
  0
LINE
  5
1DA
  8
FORMAT
 62
     0
 10
-5.0
 20
0.0
 30
0.0
 11
-24.5
 21
0.0
 31
0.0
  0
LINE
  5
1DB
  8
FORMAT
 62
     0
 10
0.0
 20
-5.0
 30
0.0
 11
0.0
 21
-24.5
 31
0.0
  0
LINE
  5
1DC
  8
FORMAT
 62
     0
 10
5.0
 20
0.0
 30
0.0
 11
24.5
 21
0.0
 31
0.0
  0
ENDBLK
  5
1D4
  8
0
  0
BLOCK
  8
0
  2
SW_CENTERMARKSYMBOL_13
 70
     0
 10
0.0
 20
0.0
 30
0.0
  3
SW_CENTERMARKSYMBOL_13
  1

  0
LINE
  5
1E1
  8
FORMAT
 62
     0
 10
0.0
 20
0.0
 30
0.0
 11
0.0
 21
2.5
 31
0.0
  0
LINE
  5
1E2
  8
FORMAT
 62
     0
 10
0.0
 20
0.0
 30
0.0
 11
-2.5
 21
0.0
 31
0.0
  0
LINE
  5
1E3
  8
FORMAT
 62
     0
 10
0.0
 20
0.0
 30
0.0
 11
0.0
 21
-2.5
 31
0.0
  0
LINE
  5
1E4
  8
FORMAT
 62
     0
 10
0.0
 20
0.0
 30
0.0
 11
2.5
 21
0.0
 31
0.0
  0
LINE
  5
1E5
  8
FORMAT
 62
     0
 10
0.0
 20
5.0
 30
0.0
 11
0.0
 21
24.5
 31
0.0
  0
LINE
  5
1E6
  8
FORMAT
 62
     0
 10
-5.0
 20
0.0
 30
0.0
 11
-24.5
 21
0.0
 31
0.0
  0
LINE
  5
1E7
  8
FORMAT
 62
     0
 10
0.0
 20
-5.0
 30
0.0
 11
0.0
 21
-24.5
 31
0.0
  0
LINE
  5
1E8
  8
FORMAT
 62
     0
 10
5.0
 20
0.0
 30
0.0
 11
24.5
 21
0.0
 31
0.0
  0
ENDBLK
  5
1E0
  8
0
  0
BLOCK
  8
0
  2
SW_CENTERMARKSYMBOL_14
 70
     0
 10
0.0
 20
0.0
 30
0.0
  3
SW_CENTERMARKSYMBOL_14
  1

  0
LINE
  5
1ED
  8
FORMAT
 62
     0
 10
0.0
 20
0.0
 30
0.0
 11
0.0
 21
2.5
 31
0.0
  0
LINE
  5
1EE
  8
FORMAT
 62
     0
 10
0.0
 20
0.0
 30
0.0
 11
-2.5
 21
0.0
 31
0.0
  0
LINE
  5
1EF
  8
FORMAT
 62
     0
 10
0.0
 20
0.0
 30
0.0
 11
0.0
 21
-2.5
 31
0.0
  0
LINE
  5
1F0
  8
FORMAT
 62
     0
 10
0.0
 20
0.0
 30
0.0
 11
2.5
 21
0.0
 31
0.0
  0
LINE
  5
1F1
  8
FORMAT
 62
     0
 10
0.0
 20
5.0
 30
0.0
 11
0.0
 21
24.5
 31
0.0
  0
LINE
  5
1F2
  8
FORMAT
 62
     0
 10
-5.0
 20
0.0
 30
0.0
 11
-24.5
 21
0.0
 31
0.0
  0
LINE
  5
1F3
  8
FORMAT
 62
     0
 10
0.0
 20
-5.0
 30
0.0
 11
0.0
 21
-24.5
 31
0.0
  0
LINE
  5
1F4
  8
FORMAT
 62
     0
 10
5.0
 20
0.0
 30
0.0
 11
24.5
 21
0.0
 31
0.0
  0
ENDBLK
  5
1EC
  8
0
  0
BLOCK
  8
0
  2
SW_CENTERMARKSYMBOL_15
 70
     0
 10
0.0
 20
0.0
 30
0.0
  3
SW_CENTERMARKSYMBOL_15
  1

  0
LINE
  5
1F9
  8
FORMAT
 62
     0
 10
0.0
 20
0.0
 30
0.0
 11
0.0
 21
2.5
 31
0.0
  0
LINE
  5
1FA
  8
FORMAT
 62
     0
 10
0.0
 20
0.0
 30
0.0
 11
-2.5
 21
0.0
 31
0.0
  0
LINE
  5
1FB
  8
FORMAT
 62
     0
 10
0.0
 20
0.0
 30
0.0
 11
0.0
 21
-2.5
 31
0.0
  0
LINE
  5
1FC
  8
FORMAT
 62
     0
 10
0.0
 20
0.0
 30
0.0
 11
2.5
 21
0.0
 31
0.0
  0
LINE
  5
1FD
  8
FORMAT
 62
     0
 10
0.0
 20
5.0
 30
0.0
 11
0.0
 21
24.5
 31
0.0
  0
LINE
  5
1FE
  8
FORMAT
 62
     0
 10
-5.0
 20
0.0
 30
0.0
 11
-24.5
 21
0.0
 31
0.0
  0
LINE
  5
1FF
  8
FORMAT
 62
     0
 10
0.0
 20
-5.0
 30
0.0
 11
0.0
 21
-24.5
 31
0.0
  0
LINE
  5
200
  8
FORMAT
 62
     0
 10
5.0
 20
0.0
 30
0.0
 11
24.5
 21
0.0
 31
0.0
  0
ENDBLK
  5
1F8
  8
0
  0
BLOCK
  8
0
  2
SW_CENTERMARKSYMBOL_16
 70
     0
 10
0.0
 20
0.0
 30
0.0
  3
SW_CENTERMARKSYMBOL_16
  1

  0
LINE
  5
205
  8
FORMAT
 62
     0
 10
0.0
 20
0.0
 30
0.0
 11
0.0
 21
2.5
 31
0.0
  0
LINE
  5
206
  8
FORMAT
 62
     0
 10
0.0
 20
0.0
 30
0.0
 11
-2.5
 21
0.0
 31
0.0
  0
LINE
  5
207
  8
FORMAT
 62
     0
 10
0.0
 20
0.0
 30
0.0
 11
0.0
 21
-2.5
 31
0.0
  0
LINE
  5
208
  8
FORMAT
 62
     0
 10
0.0
 20
0.0
 30
0.0
 11
2.5
 21
0.0
 31
0.0
  0
LINE
  5
209
  8
FORMAT
 62
     0
 10
0.0
 20
5.0
 30
0.0
 11
0.0
 21
24.5
 31
0.0
  0
LINE
  5
20A
  8
FORMAT
 62
     0
 10
-5.0
 20
0.0
 30
0.0
 11
-24.5
 21
0.0
 31
0.0
  0
LINE
  5
20B
  8
FORMAT
 62
     0
 10
0.0
 20
-5.0
 30
0.0
 11
0.0
 21
-24.5
 31
0.0
  0
LINE
  5
20C
  8
FORMAT
 62
     0
 10
5.0
 20
0.0
 30
0.0
 11
24.5
 21
0.0
 31
0.0
  0
ENDBLK
  5
204
  8
0
  0
BLOCK
  8
0
  2
SW_CENTERMARKSYMBOL_17
 70
     0
 10
0.0
 20
0.0
 30
0.0
  3
SW_CENTERMARKSYMBOL_17
  1

  0
LINE
  5
211
  8
FORMAT
 62
     0
 10
0.0
 20
0.0
 30
0.0
 11
0.0
 21
2.5
 31
0.0
  0
LINE
  5
212
  8
FORMAT
 62
     0
 10
0.0
 20
0.0
 30
0.0
 11
-2.5
 21
0.0
 31
0.0
  0
LINE
  5
213
  8
FORMAT
 62
     0
 10
0.0
 20
0.0
 30
0.0
 11
0.0
 21
-2.5
 31
0.0
  0
LINE
  5
214
  8
FORMAT
 62
     0
 10
0.0
 20
0.0
 30
0.0
 11
2.5
 21
0.0
 31
0.0
  0
LINE
  5
215
  8
FORMAT
 62
     0
 10
0.0
 20
5.0
 30
0.0
 11
0.0
 21
24.5
 31
0.0
  0
LINE
  5
216
  8
FORMAT
 62
     0
 10
-5.0
 20
0.0
 30
0.0
 11
-24.5
 21
0.0
 31
0.0
  0
LINE
  5
217
  8
FORMAT
 62
     0
 10
0.0
 20
-5.0
 30
0.0
 11
0.0
 21
-24.5
 31
0.0
  0
LINE
  5
218
  8
FORMAT
 62
     0
 10
5.0
 20
0.0
 30
0.0
 11
24.5
 21
0.0
 31
0.0
  0
ENDBLK
  5
210
  8
0
  0
BLOCK
  8
0
  2
SW_CENTERMARKSYMBOL_18
 70
     0
 10
0.0
 20
0.0
 30
0.0
  3
SW_CENTERMARKSYMBOL_18
  1

  0
LINE
  5
21D
  8
FORMAT
 62
     0
 10
0.0
 20
0.0
 30
0.0
 11
0.0
 21
2.5
 31
0.0
  0
LINE
  5
21E
  8
FORMAT
 62
     0
 10
0.0
 20
0.0
 30
0.0
 11
-2.5
 21
0.0
 31
0.0
  0
LINE
  5
21F
  8
FORMAT
 62
     0
 10
0.0
 20
0.0
 30
0.0
 11
0.0
 21
-2.5
 31
0.0
  0
LINE
  5
220
  8
FORMAT
 62
     0
 10
0.0
 20
0.0
 30
0.0
 11
2.5
 21
0.0
 31
0.0
  0
LINE
  5
221
  8
FORMAT
 62
     0
 10
0.0
 20
5.0
 30
0.0
 11
0.0
 21
24.5
 31
0.0
  0
LINE
  5
222
  8
FORMAT
 62
     0
 10
-5.0
 20
0.0
 30
0.0
 11
-24.5
 21
0.0
 31
0.0
  0
LINE
  5
223
  8
FORMAT
 62
     0
 10
0.0
 20
-5.0
 30
0.0
 11
0.0
 21
-24.5
 31
0.0
  0
LINE
  5
224
  8
FORMAT
 62
     0
 10
5.0
 20
0.0
 30
0.0
 11
24.5
 21
0.0
 31
0.0
  0
ENDBLK
  5
21C
  8
0
  0
BLOCK
  8
0
  2
SW_CENTERMARKSYMBOL_19
 70
     0
 10
0.0
 20
0.0
 30
0.0
  3
SW_CENTERMARKSYMBOL_19
  1

  0
LINE
  5
229
  8
FORMAT
 62
     0
 10
0.0
 20
0.0
 30
0.0
 11
0.0
 21
2.5
 31
0.0
  0
LINE
  5
22A
  8
FORMAT
 62
     0
 10
0.0
 20
0.0
 30
0.0
 11
-2.5
 21
0.0
 31
0.0
  0
LINE
  5
22B
  8
FORMAT
 62
     0
 10
0.0
 20
0.0
 30
0.0
 11
0.0
 21
-2.5
 31
0.0
  0
LINE
  5
22C
  8
FORMAT
 62
     0
 10
0.0
 20
0.0
 30
0.0
 11
2.5
 21
0.0
 31
0.0
  0
LINE
  5
22D
  8
FORMAT
 62
     0
 10
0.0
 20
5.0
 30
0.0
 11
0.0
 21
24.5
 31
0.0
  0
LINE
  5
22E
  8
FORMAT
 62
     0
 10
-5.0
 20
0.0
 30
0.0
 11
-24.5
 21
0.0
 31
0.0
  0
LINE
  5
22F
  8
FORMAT
 62
     0
 10
0.0
 20
-5.0
 30
0.0
 11
0.0
 21
-24.5
 31
0.0
  0
LINE
  5
230
  8
FORMAT
 62
     0
 10
5.0
 20
0.0
 30
0.0
 11
24.5
 21
0.0
 31
0.0
  0
ENDBLK
  5
228
  8
0
  0
BLOCK
  8
0
  2
SW_CENTERMARKSYMBOL_20
 70
     0
 10
0.0
 20
0.0
 30
0.0
  3
SW_CENTERMARKSYMBOL_20
  1

  0
LINE
  5
235
  8
FORMAT
 62
     0
 10
0.0
 20
0.0
 30
0.0
 11
0.0
 21
2.5
 31
0.0
  0
LINE
  5
236
  8
FORMAT
 62
     0
 10
0.0
 20
0.0
 30
0.0
 11
-2.5
 21
0.0
 31
0.0
  0
LINE
  5
237
  8
FORMAT
 62
     0
 10
0.0
 20
0.0
 30
0.0
 11
0.0
 21
-2.5
 31
0.0
  0
LINE
  5
238
  8
FORMAT
 62
     0
 10
0.0
 20
0.0
 30
0.0
 11
2.5
 21
0.0
 31
0.0
  0
LINE
  5
239
  8
FORMAT
 62
     0
 10
0.0
 20
5.0
 30
0.0
 11
0.0
 21
24.5
 31
0.0
  0
LINE
  5
23A
  8
FORMAT
 62
     0
 10
-5.0
 20
0.0
 30
0.0
 11
-24.5
 21
0.0
 31
0.0
  0
LINE
  5
23B
  8
FORMAT
 62
     0
 10
0.0
 20
-5.0
 30
0.0
 11
0.0
 21
-24.5
 31
0.0
  0
LINE
  5
23C
  8
FORMAT
 62
     0
 10
5.0
 20
0.0
 30
0.0
 11
24.5
 21
0.0
 31
0.0
  0
ENDBLK
  5
234
  8
0
  0
BLOCK
  8
0
  2
SW_CENTERMARKSYMBOL_21
 70
     0
 10
0.0
 20
0.0
 30
0.0
  3
SW_CENTERMARKSYMBOL_21
  1

  0
LINE
  5
241
  8
FORMAT
 62
     0
 10
0.0
 20
0.0
 30
0.0
 11
0.0
 21
2.5
 31
0.0
  0
LINE
  5
242
  8
FORMAT
 62
     0
 10
0.0
 20
0.0
 30
0.0
 11
-2.5
 21
0.0
 31
0.0
  0
LINE
  5
243
  8
FORMAT
 62
     0
 10
0.0
 20
0.0
 30
0.0
 11
0.0
 21
-2.5
 31
0.0
  0
LINE
  5
244
  8
FORMAT
 62
     0
 10
0.0
 20
0.0
 30
0.0
 11
2.5
 21
0.0
 31
0.0
  0
LINE
  5
245
  8
FORMAT
 62
     0
 10
0.0
 20
5.0
 30
0.0
 11
0.0
 21
24.5
 31
0.0
  0
LINE
  5
246
  8
FORMAT
 62
     0
 10
-5.0
 20
0.0
 30
0.0
 11
-24.5
 21
0.0
 31
0.0
  0
LINE
  5
247
  8
FORMAT
 62
     0
 10
0.0
 20
-5.0
 30
0.0
 11
0.0
 21
-24.5
 31
0.0
  0
LINE
  5
248
  8
FORMAT
 62
     0
 10
5.0
 20
0.0
 30
0.0
 11
24.5
 21
0.0
 31
0.0
  0
ENDBLK
  5
240
  8
0
  0
BLOCK
  8
0
  2
SW_CENTERMARKSYMBOL_22
 70
     0
 10
0.0
 20
0.0
 30
0.0
  3
SW_CENTERMARKSYMBOL_22
  1

  0
LINE
  5
24D
  8
FORMAT
 62
     0
 10
0.0
 20
0.0
 30
0.0
 11
0.0
 21
2.5
 31
0.0
  0
LINE
  5
24E
  8
FORMAT
 62
     0
 10
0.0
 20
0.0
 30
0.0
 11
-2.5
 21
0.0
 31
0.0
  0
LINE
  5
24F
  8
FORMAT
 62
     0
 10
0.0
 20
0.0
 30
0.0
 11
0.0
 21
-2.5
 31
0.0
  0
LINE
  5
250
  8
FORMAT
 62
     0
 10
0.0
 20
0.0
 30
0.0
 11
2.5
 21
0.0
 31
0.0
  0
LINE
  5
251
  8
FORMAT
 62
     0
 10
0.0
 20
5.0
 30
0.0
 11
0.0
 21
24.5
 31
0.0
  0
LINE
  5
252
  8
FORMAT
 62
     0
 10
-5.0
 20
0.0
 30
0.0
 11
-24.5
 21
0.0
 31
0.0
  0
LINE
  5
253
  8
FORMAT
 62
     0
 10
0.0
 20
-5.0
 30
0.0
 11
0.0
 21
-24.5
 31
0.0
  0
LINE
  5
254
  8
FORMAT
 62
     0
 10
5.0
 20
0.0
 30
0.0
 11
24.5
 21
0.0
 31
0.0
  0
ENDBLK
  5
24C
  8
0
  0
BLOCK
  8
0
  2
SW_CENTERMARKSYMBOL_23
 70
     0
 10
0.0
 20
0.0
 30
0.0
  3
SW_CENTERMARKSYMBOL_23
  1

  0
LINE
  5
259
  8
FORMAT
 62
     0
 10
0.0
 20
0.0
 30
0.0
 11
0.0
 21
2.5
 31
0.0
  0
LINE
  5
25A
  8
FORMAT
 62
     0
 10
0.0
 20
0.0
 30
0.0
 11
-2.5
 21
0.0
 31
0.0
  0
LINE
  5
25B
  8
FORMAT
 62
     0
 10
0.0
 20
0.0
 30
0.0
 11
0.0
 21
-2.5
 31
0.0
  0
LINE
  5
25C
  8
FORMAT
 62
     0
 10
0.0
 20
0.0
 30
0.0
 11
2.5
 21
0.0
 31
0.0
  0
LINE
  5
25D
  8
FORMAT
 62
     0
 10
0.0
 20
5.0
 30
0.0
 11
0.0
 21
24.5
 31
0.0
  0
LINE
  5
25E
  8
FORMAT
 62
     0
 10
-5.0
 20
0.0
 30
0.0
 11
-24.5
 21
0.0
 31
0.0
  0
LINE
  5
25F
  8
FORMAT
 62
     0
 10
0.0
 20
-5.0
 30
0.0
 11
0.0
 21
-24.5
 31
0.0
  0
LINE
  5
260
  8
FORMAT
 62
     0
 10
5.0
 20
0.0
 30
0.0
 11
24.5
 21
0.0
 31
0.0
  0
ENDBLK
  5
258
  8
0
  0
BLOCK
  8
0
  2
SW_CENTERMARKSYMBOL_24
 70
     0
 10
0.0
 20
0.0
 30
0.0
  3
SW_CENTERMARKSYMBOL_24
  1

  0
LINE
  5
265
  8
FORMAT
 62
     0
 10
0.0
 20
0.0
 30
0.0
 11
0.0
 21
2.5
 31
0.0
  0
LINE
  5
266
  8
FORMAT
 62
     0
 10
0.0
 20
0.0
 30
0.0
 11
-2.5
 21
0.0
 31
0.0
  0
LINE
  5
267
  8
FORMAT
 62
     0
 10
0.0
 20
0.0
 30
0.0
 11
0.0
 21
-2.5
 31
0.0
  0
LINE
  5
268
  8
FORMAT
 62
     0
 10
0.0
 20
0.0
 30
0.0
 11
2.5
 21
0.0
 31
0.0
  0
LINE
  5
269
  8
FORMAT
 62
     0
 10
0.0
 20
5.0
 30
0.0
 11
0.0
 21
24.5
 31
0.0
  0
LINE
  5
26A
  8
FORMAT
 62
     0
 10
-5.0
 20
0.0
 30
0.0
 11
-24.5
 21
0.0
 31
0.0
  0
LINE
  5
26B
  8
FORMAT
 62
     0
 10
0.0
 20
-5.0
 30
0.0
 11
0.0
 21
-24.5
 31
0.0
  0
LINE
  5
26C
  8
FORMAT
 62
     0
 10
5.0
 20
0.0
 30
0.0
 11
24.5
 21
0.0
 31
0.0
  0
ENDBLK
  5
264
  8
0
  0
BLOCK
  8
0
  2
SW_CENTERMARKSYMBOL_25
 70
     0
 10
0.0
 20
0.0
 30
0.0
  3
SW_CENTERMARKSYMBOL_25
  1

  0
LINE
  5
271
  8
FORMAT
 62
     0
 10
0.0
 20
0.0
 30
0.0
 11
0.0
 21
2.5
 31
0.0
  0
LINE
  5
272
  8
FORMAT
 62
     0
 10
0.0
 20
0.0
 30
0.0
 11
-2.5
 21
0.0
 31
0.0
  0
LINE
  5
273
  8
FORMAT
 62
     0
 10
0.0
 20
0.0
 30
0.0
 11
0.0
 21
-2.5
 31
0.0
  0
LINE
  5
274
  8
FORMAT
 62
     0
 10
0.0
 20
0.0
 30
0.0
 11
2.5
 21
0.0
 31
0.0
  0
LINE
  5
275
  8
FORMAT
 62
     0
 10
0.0
 20
5.0
 30
0.0
 11
0.0
 21
24.5
 31
0.0
  0
LINE
  5
276
  8
FORMAT
 62
     0
 10
-5.0
 20
0.0
 30
0.0
 11
-24.5
 21
0.0
 31
0.0
  0
LINE
  5
277
  8
FORMAT
 62
     0
 10
0.0
 20
-5.0
 30
0.0
 11
0.0
 21
-24.5
 31
0.0
  0
LINE
  5
278
  8
FORMAT
 62
     0
 10
5.0
 20
0.0
 30
0.0
 11
24.5
 21
0.0
 31
0.0
  0
ENDBLK
  5
270
  8
0
  0
BLOCK
  8
0
  2
SW_CENTERMARKSYMBOL_26
 70
     0
 10
0.0
 20
0.0
 30
0.0
  3
SW_CENTERMARKSYMBOL_26
  1

  0
LINE
  5
27D
  8
FORMAT
 62
     0
 10
0.0
 20
0.0
 30
0.0
 11
0.0
 21
2.5
 31
0.0
  0
LINE
  5
27E
  8
FORMAT
 62
     0
 10
0.0
 20
0.0
 30
0.0
 11
-2.5
 21
0.0
 31
0.0
  0
LINE
  5
27F
  8
FORMAT
 62
     0
 10
0.0
 20
0.0
 30
0.0
 11
0.0
 21
-2.5
 31
0.0
  0
LINE
  5
280
  8
FORMAT
 62
     0
 10
0.0
 20
0.0
 30
0.0
 11
2.5
 21
0.0
 31
0.0
  0
LINE
  5
281
  8
FORMAT
 62
     0
 10
0.0
 20
5.0
 30
0.0
 11
0.0
 21
24.5
 31
0.0
  0
LINE
  5
282
  8
FORMAT
 62
     0
 10
-5.0
 20
0.0
 30
0.0
 11
-24.5
 21
0.0
 31
0.0
  0
LINE
  5
283
  8
FORMAT
 62
     0
 10
0.0
 20
-5.0
 30
0.0
 11
0.0
 21
-24.5
 31
0.0
  0
LINE
  5
284
  8
FORMAT
 62
     0
 10
5.0
 20
0.0
 30
0.0
 11
24.5
 21
0.0
 31
0.0
  0
ENDBLK
  5
27C
  8
0
  0
BLOCK
  8
0
  2
SW_CENTERMARKSYMBOL_27
 70
     0
 10
0.0
 20
0.0
 30
0.0
  3
SW_CENTERMARKSYMBOL_27
  1

  0
LINE
  5
289
  8
FORMAT
 62
     0
 10
0.0
 20
0.0
 30
0.0
 11
0.0
 21
2.5
 31
0.0
  0
LINE
  5
28A
  8
FORMAT
 62
     0
 10
0.0
 20
0.0
 30
0.0
 11
-2.5
 21
0.0
 31
0.0
  0
LINE
  5
28B
  8
FORMAT
 62
     0
 10
0.0
 20
0.0
 30
0.0
 11
0.0
 21
-2.5
 31
0.0
  0
LINE
  5
28C
  8
FORMAT
 62
     0
 10
0.0
 20
0.0
 30
0.0
 11
2.5
 21
0.0
 31
0.0
  0
LINE
  5
28D
  8
FORMAT
 62
     0
 10
0.0
 20
5.0
 30
0.0
 11
0.0
 21
24.5
 31
0.0
  0
LINE
  5
28E
  8
FORMAT
 62
     0
 10
-5.0
 20
0.0
 30
0.0
 11
-24.5
 21
0.0
 31
0.0
  0
LINE
  5
28F
  8
FORMAT
 62
     0
 10
0.0
 20
-5.0
 30
0.0
 11
0.0
 21
-24.5
 31
0.0
  0
LINE
  5
290
  8
FORMAT
 62
     0
 10
5.0
 20
0.0
 30
0.0
 11
24.5
 21
0.0
 31
0.0
  0
ENDBLK
  5
288
  8
0
  0
BLOCK
  8
0
  2
SW_CENTERMARKSYMBOL_28
 70
     0
 10
0.0
 20
0.0
 30
0.0
  3
SW_CENTERMARKSYMBOL_28
  1

  0
LINE
  5
295
  8
FORMAT
 62
     0
 10
0.0
 20
0.0
 30
0.0
 11
0.0
 21
2.5
 31
0.0
  0
LINE
  5
296
  8
FORMAT
 62
     0
 10
0.0
 20
0.0
 30
0.0
 11
-2.5
 21
0.0
 31
0.0
  0
LINE
  5
297
  8
FORMAT
 62
     0
 10
0.0
 20
0.0
 30
0.0
 11
0.0
 21
-2.5
 31
0.0
  0
LINE
  5
298
  8
FORMAT
 62
     0
 10
0.0
 20
0.0
 30
0.0
 11
2.5
 21
0.0
 31
0.0
  0
LINE
  5
299
  8
FORMAT
 62
     0
 10
0.0
 20
5.0
 30
0.0
 11
0.0
 21
24.5
 31
0.0
  0
LINE
  5
29A
  8
FORMAT
 62
     0
 10
-5.0
 20
0.0
 30
0.0
 11
-24.5
 21
0.0
 31
0.0
  0
LINE
  5
29B
  8
FORMAT
 62
     0
 10
0.0
 20
-5.0
 30
0.0
 11
0.0
 21
-24.5
 31
0.0
  0
LINE
  5
29C
  8
FORMAT
 62
     0
 10
5.0
 20
0.0
 30
0.0
 11
24.5
 21
0.0
 31
0.0
  0
ENDBLK
  5
294
  8
0
  0
BLOCK
  8
0
  2
SW_CENTERMARKSYMBOL_29
 70
     0
 10
0.0
 20
0.0
 30
0.0
  3
SW_CENTERMARKSYMBOL_29
  1

  0
LINE
  5
2A1
  8
FORMAT
 62
     0
 10
0.0
 20
0.0
 30
0.0
 11
0.0
 21
2.5
 31
0.0
  0
LINE
  5
2A2
  8
FORMAT
 62
     0
 10
0.0
 20
0.0
 30
0.0
 11
-2.5
 21
0.0
 31
0.0
  0
LINE
  5
2A3
  8
FORMAT
 62
     0
 10
0.0
 20
0.0
 30
0.0
 11
0.0
 21
-2.5
 31
0.0
  0
LINE
  5
2A4
  8
FORMAT
 62
     0
 10
0.0
 20
0.0
 30
0.0
 11
2.5
 21
0.0
 31
0.0
  0
LINE
  5
2A5
  8
FORMAT
 62
     0
 10
0.0
 20
5.0
 30
0.0
 11
0.0
 21
24.5
 31
0.0
  0
LINE
  5
2A6
  8
FORMAT
 62
     0
 10
-5.0
 20
0.0
 30
0.0
 11
-24.5
 21
0.0
 31
0.0
  0
LINE
  5
2A7
  8
FORMAT
 62
     0
 10
0.0
 20
-5.0
 30
0.0
 11
0.0
 21
-24.5
 31
0.0
  0
LINE
  5
2A8
  8
FORMAT
 62
     0
 10
5.0
 20
0.0
 30
0.0
 11
24.5
 21
0.0
 31
0.0
  0
ENDBLK
  5
2A0
  8
0
  0
BLOCK
  8
0
  2
SW_CENTERMARKSYMBOL_30
 70
     0
 10
0.0
 20
0.0
 30
0.0
  3
SW_CENTERMARKSYMBOL_30
  1

  0
LINE
  5
2AD
  8
FORMAT
 62
     0
 10
0.0
 20
0.0
 30
0.0
 11
0.0
 21
2.5
 31
0.0
  0
LINE
  5
2AE
  8
FORMAT
 62
     0
 10
0.0
 20
0.0
 30
0.0
 11
-2.5
 21
0.0
 31
0.0
  0
LINE
  5
2AF
  8
FORMAT
 62
     0
 10
0.0
 20
0.0
 30
0.0
 11
0.0
 21
-2.5
 31
0.0
  0
LINE
  5
2B0
  8
FORMAT
 62
     0
 10
0.0
 20
0.0
 30
0.0
 11
2.5
 21
0.0
 31
0.0
  0
LINE
  5
2B1
  8
FORMAT
 62
     0
 10
0.0
 20
5.0
 30
0.0
 11
0.0
 21
24.5
 31
0.0
  0
LINE
  5
2B2
  8
FORMAT
 62
     0
 10
-5.0
 20
0.0
 30
0.0
 11
-24.5
 21
0.0
 31
0.0
  0
LINE
  5
2B3
  8
FORMAT
 62
     0
 10
0.0
 20
-5.0
 30
0.0
 11
0.0
 21
-24.5
 31
0.0
  0
LINE
  5
2B4
  8
FORMAT
 62
     0
 10
5.0
 20
0.0
 30
0.0
 11
24.5
 21
0.0
 31
0.0
  0
ENDBLK
  5
2AC
  8
0
  0
BLOCK
  8
0
  2
SW_CENTERMARKSYMBOL_31
 70
     0
 10
0.0
 20
0.0
 30
0.0
  3
SW_CENTERMARKSYMBOL_31
  1

  0
LINE
  5
2B9
  8
FORMAT
 62
     0
 10
0.0
 20
0.0
 30
0.0
 11
0.0
 21
2.5
 31
0.0
  0
LINE
  5
2BA
  8
FORMAT
 62
     0
 10
0.0
 20
0.0
 30
0.0
 11
-2.5
 21
0.0
 31
0.0
  0
LINE
  5
2BB
  8
FORMAT
 62
     0
 10
0.0
 20
0.0
 30
0.0
 11
0.0
 21
-2.5
 31
0.0
  0
LINE
  5
2BC
  8
FORMAT
 62
     0
 10
0.0
 20
0.0
 30
0.0
 11
2.5
 21
0.0
 31
0.0
  0
LINE
  5
2BD
  8
FORMAT
 62
     0
 10
0.0
 20
5.0
 30
0.0
 11
0.0
 21
24.5
 31
0.0
  0
LINE
  5
2BE
  8
FORMAT
 62
     0
 10
-5.0
 20
0.0
 30
0.0
 11
-24.5
 21
0.0
 31
0.0
  0
LINE
  5
2BF
  8
FORMAT
 62
     0
 10
0.0
 20
-5.0
 30
0.0
 11
0.0
 21
-24.5
 31
0.0
  0
LINE
  5
2C0
  8
FORMAT
 62
     0
 10
5.0
 20
0.0
 30
0.0
 11
24.5
 21
0.0
 31
0.0
  0
ENDBLK
  5
2B8
  8
0
  0
BLOCK
  8
0
  2
SW_CENTERMARKSYMBOL_32
 70
     0
 10
0.0
 20
0.0
 30
0.0
  3
SW_CENTERMARKSYMBOL_32
  1

  0
LINE
  5
2C5
  8
FORMAT
 62
     0
 10
0.0
 20
0.0
 30
0.0
 11
0.0
 21
2.5
 31
0.0
  0
LINE
  5
2C6
  8
FORMAT
 62
     0
 10
0.0
 20
0.0
 30
0.0
 11
-2.5
 21
0.0
 31
0.0
  0
LINE
  5
2C7
  8
FORMAT
 62
     0
 10
0.0
 20
0.0
 30
0.0
 11
0.0
 21
-2.5
 31
0.0
  0
LINE
  5
2C8
  8
FORMAT
 62
     0
 10
0.0
 20
0.0
 30
0.0
 11
2.5
 21
0.0
 31
0.0
  0
LINE
  5
2C9
  8
FORMAT
 62
     0
 10
0.0
 20
5.0
 30
0.0
 11
0.0
 21
24.5
 31
0.0
  0
LINE
  5
2CA
  8
FORMAT
 62
     0
 10
-5.0
 20
0.0
 30
0.0
 11
-24.5
 21
0.0
 31
0.0
  0
LINE
  5
2CB
  8
FORMAT
 62
     0
 10
0.0
 20
-5.0
 30
0.0
 11
0.0
 21
-24.5
 31
0.0
  0
LINE
  5
2CC
  8
FORMAT
 62
     0
 10
5.0
 20
0.0
 30
0.0
 11
24.5
 21
0.0
 31
0.0
  0
ENDBLK
  5
2C4
  8
0
  0
BLOCK
  8
0
  2
SW_CENTERMARKSYMBOL_33
 70
     0
 10
0.0
 20
0.0
 30
0.0
  3
SW_CENTERMARKSYMBOL_33
  1

  0
LINE
  5
2D1
  8
FORMAT
 62
     0
 10
0.0
 20
0.0
 30
0.0
 11
0.0
 21
2.5
 31
0.0
  0
LINE
  5
2D2
  8
FORMAT
 62
     0
 10
0.0
 20
0.0
 30
0.0
 11
-2.5
 21
0.0
 31
0.0
  0
LINE
  5
2D3
  8
FORMAT
 62
     0
 10
0.0
 20
0.0
 30
0.0
 11
0.0
 21
-2.5
 31
0.0
  0
LINE
  5
2D4
  8
FORMAT
 62
     0
 10
0.0
 20
0.0
 30
0.0
 11
2.5
 21
0.0
 31
0.0
  0
LINE
  5
2D5
  8
FORMAT
 62
     0
 10
0.0
 20
5.0
 30
0.0
 11
0.0
 21
24.5
 31
0.0
  0
LINE
  5
2D6
  8
FORMAT
 62
     0
 10
-5.0
 20
0.0
 30
0.0
 11
-24.5
 21
0.0
 31
0.0
  0
LINE
  5
2D7
  8
FORMAT
 62
     0
 10
0.0
 20
-5.0
 30
0.0
 11
0.0
 21
-24.5
 31
0.0
  0
LINE
  5
2D8
  8
FORMAT
 62
     0
 10
5.0
 20
0.0
 30
0.0
 11
24.5
 21
0.0
 31
0.0
  0
ENDBLK
  5
2D0
  8
0
  0
BLOCK
  8
0
  2
SW_CENTERMARKSYMBOL_34
 70
     0
 10
0.0
 20
0.0
 30
0.0
  3
SW_CENTERMARKSYMBOL_34
  1

  0
LINE
  5
2DD
  8
FORMAT
 62
     0
 10
0.0
 20
0.0
 30
0.0
 11
0.0
 21
2.5
 31
0.0
  0
LINE
  5
2DE
  8
FORMAT
 62
     0
 10
0.0
 20
0.0
 30
0.0
 11
-2.5
 21
0.0
 31
0.0
  0
LINE
  5
2DF
  8
FORMAT
 62
     0
 10
0.0
 20
0.0
 30
0.0
 11
0.0
 21
-2.5
 31
0.0
  0
LINE
  5
2E0
  8
FORMAT
 62
     0
 10
0.0
 20
0.0
 30
0.0
 11
2.5
 21
0.0
 31
0.0
  0
LINE
  5
2E1
  8
FORMAT
 62
     0
 10
0.0
 20
5.0
 30
0.0
 11
0.0
 21
24.5
 31
0.0
  0
LINE
  5
2E2
  8
FORMAT
 62
     0
 10
-5.0
 20
0.0
 30
0.0
 11
-24.5
 21
0.0
 31
0.0
  0
LINE
  5
2E3
  8
FORMAT
 62
     0
 10
0.0
 20
-5.0
 30
0.0
 11
0.0
 21
-24.5
 31
0.0
  0
LINE
  5
2E4
  8
FORMAT
 62
     0
 10
5.0
 20
0.0
 30
0.0
 11
24.5
 21
0.0
 31
0.0
  0
ENDBLK
  5
2DC
  8
0
  0
BLOCK
  8
0
  2
SW_CENTERMARKSYMBOL_35
 70
     0
 10
0.0
 20
0.0
 30
0.0
  3
SW_CENTERMARKSYMBOL_35
  1

  0
LINE
  5
2E9
  8
FORMAT
 62
     0
 10
0.0
 20
0.0
 30
0.0
 11
0.0
 21
2.5
 31
0.0
  0
LINE
  5
2EA
  8
FORMAT
 62
     0
 10
0.0
 20
0.0
 30
0.0
 11
-2.5
 21
0.0
 31
0.0
  0
LINE
  5
2EB
  8
FORMAT
 62
     0
 10
0.0
 20
0.0
 30
0.0
 11
0.0
 21
-2.5
 31
0.0
  0
LINE
  5
2EC
  8
FORMAT
 62
     0
 10
0.0
 20
0.0
 30
0.0
 11
2.5
 21
0.0
 31
0.0
  0
LINE
  5
2ED
  8
FORMAT
 62
     0
 10
0.0
 20
5.0
 30
0.0
 11
0.0
 21
24.5
 31
0.0
  0
LINE
  5
2EE
  8
FORMAT
 62
     0
 10
-5.0
 20
0.0
 30
0.0
 11
-24.5
 21
0.0
 31
0.0
  0
LINE
  5
2EF
  8
FORMAT
 62
     0
 10
0.0
 20
-5.0
 30
0.0
 11
0.0
 21
-24.5
 31
0.0
  0
LINE
  5
2F0
  8
FORMAT
 62
     0
 10
5.0
 20
0.0
 30
0.0
 11
24.5
 21
0.0
 31
0.0
  0
ENDBLK
  5
2E8
  8
0
  0
BLOCK
  8
0
  2
SW_CENTERMARKSYMBOL_36
 70
     0
 10
0.0
 20
0.0
 30
0.0
  3
SW_CENTERMARKSYMBOL_36
  1

  0
LINE
  5
2F5
  8
FORMAT
 62
     0
 10
0.0
 20
0.0
 30
0.0
 11
0.0
 21
2.5
 31
0.0
  0
LINE
  5
2F6
  8
FORMAT
 62
     0
 10
0.0
 20
0.0
 30
0.0
 11
-2.5
 21
0.0
 31
0.0
  0
LINE
  5
2F7
  8
FORMAT
 62
     0
 10
0.0
 20
0.0
 30
0.0
 11
0.0
 21
-2.5
 31
0.0
  0
LINE
  5
2F8
  8
FORMAT
 62
     0
 10
0.0
 20
0.0
 30
0.0
 11
2.5
 21
0.0
 31
0.0
  0
LINE
  5
2F9
  8
FORMAT
 62
     0
 10
0.0
 20
5.0
 30
0.0
 11
0.0
 21
24.5
 31
0.0
  0
LINE
  5
2FA
  8
FORMAT
 62
     0
 10
-5.0
 20
0.0
 30
0.0
 11
-24.5
 21
0.0
 31
0.0
  0
LINE
  5
2FB
  8
FORMAT
 62
     0
 10
0.0
 20
-5.0
 30
0.0
 11
0.0
 21
-24.5
 31
0.0
  0
LINE
  5
2FC
  8
FORMAT
 62
     0
 10
5.0
 20
0.0
 30
0.0
 11
24.5
 21
0.0
 31
0.0
  0
ENDBLK
  5
2F4
  8
0
  0
BLOCK
  8
0
  2
SW_CENTERMARKSYMBOL_37
 70
     0
 10
0.0
 20
0.0
 30
0.0
  3
SW_CENTERMARKSYMBOL_37
  1

  0
LINE
  5
492
  8
FORMAT
 62
     0
 10
0.0
 20
0.0
 30
0.0
 11
0.0
 21
2.5
 31
0.0
  0
LINE
  5
493
  8
FORMAT
 62
     0
 10
0.0
 20
0.0
 30
0.0
 11
-2.5
 21
0.0
 31
0.0
  0
LINE
  5
494
  8
FORMAT
 62
     0
 10
0.0
 20
0.0
 30
0.0
 11
0.0
 21
-2.5
 31
0.0
  0
LINE
  5
495
  8
FORMAT
 62
     0
 10
0.0
 20
0.0
 30
0.0
 11
2.5
 21
0.0
 31
0.0
  0
LINE
  5
496
  8
FORMAT
 62
     0
 10
0.0
 20
5.0
 30
0.0
 11
0.0
 21
64.5
 31
0.0
  0
LINE
  5
497
  8
FORMAT
 62
     0
 10
-5.0
 20
0.0
 30
0.0
 11
-64.5
 21
0.0
 31
0.0
  0
LINE
  5
498
  8
FORMAT
 62
     0
 10
0.0
 20
-5.0
 30
0.0
 11
0.0
 21
-64.5
 31
0.0
  0
LINE
  5
499
  8
FORMAT
 62
     0
 10
5.0
 20
0.0
 30
0.0
 11
64.5
 21
0.0
 31
0.0
  0
ENDBLK
  5
491
  8
0
  0
BLOCK
  8
0
  2
SW_CENTERMARKSYMBOL_38
 70
     0
 10
0.0
 20
0.0
 30
0.0
  3
SW_CENTERMARKSYMBOL_38
  1

  0
LINE
  5
58D
  8
FORMAT
 62
     0
 10
0.0
 20
0.0
 30
0.0
 11
0.0
 21
2.5
 31
0.0
  0
LINE
  5
58E
  8
FORMAT
 62
     0
 10
0.0
 20
0.0
 30
0.0
 11
-2.5
 21
0.0
 31
0.0
  0
LINE
  5
58F
  8
FORMAT
 62
     0
 10
0.0
 20
0.0
 30
0.0
 11
0.0
 21
-2.5
 31
0.0
  0
LINE
  5
590
  8
FORMAT
 62
     0
 10
0.0
 20
0.0
 30
0.0
 11
2.5
 21
0.0
 31
0.0
  0
LINE
  5
591
  8
FORMAT
 62
     0
 10
0.0
 20
5.0
 30
0.0
 11
0.0
 21
177.5
 31
0.0
  0
LINE
  5
592
  8
FORMAT
 62
     0
 10
-5.0
 20
0.0
 30
0.0
 11
-177.5
 21
0.0
 31
0.0
  0
LINE
  5
593
  8
FORMAT
 62
     0
 10
0.0
 20
-5.0
 30
0.0
 11
0.0
 21
-177.5
 31
0.0
  0
LINE
  5
594
  8
FORMAT
 62
     0
 10
5.0
 20
0.0
 30
0.0
 11
177.5
 21
0.0
 31
0.0
  0
ENDBLK
  5
58C
  8
0
  0
BLOCK
  8
0
  2
SW_CENTERMARKSYMBOL_39
 70
     0
 10
0.0
 20
0.0
 30
0.0
  3
SW_CENTERMARKSYMBOL_39
  1

  0
LINE
  5
599
  8
FORMAT
 62
     0
 10
0.0
 20
0.0
 30
0.0
 11
0.0
 21
2.5
 31
0.0
  0
LINE
  5
59A
  8
FORMAT
 62
     0
 10
0.0
 20
0.0
 30
0.0
 11
-2.5
 21
0.0
 31
0.0
  0
LINE
  5
59B
  8
FORMAT
 62
     0
 10
0.0
 20
0.0
 30
0.0
 11
0.0
 21
-2.5
 31
0.0
  0
LINE
  5
59C
  8
FORMAT
 62
     0
 10
0.0
 20
0.0
 30
0.0
 11
2.5
 21
0.0
 31
0.0
  0
LINE
  5
59D
  8
FORMAT
 62
     0
 10
0.0
 20
5.0
 30
0.0
 11
0.0
 21
25.0
 31
0.0
  0
LINE
  5
59E
  8
FORMAT
 62
     0
 10
-5.0
 20
0.0
 30
0.0
 11
-25.0
 21
0.0
 31
0.0
  0
LINE
  5
59F
  8
FORMAT
 62
     0
 10
0.0
 20
-5.0
 30
0.0
 11
0.0
 21
-25.0
 31
0.0
  0
LINE
  5
5A0
  8
FORMAT
 62
     0
 10
5.0
 20
0.0
 30
0.0
 11
25.0
 21
0.0
 31
0.0
  0
ENDBLK
  5
598
  8
0
  0
BLOCK
  8
0
  2
SW_CENTERMARKSYMBOL_40
 70
     0
 10
0.0
 20
0.0
 30
0.0
  3
SW_CENTERMARKSYMBOL_40
  1

  0
LINE
  5
5A5
  8
FORMAT
 62
     0
 10
0.0
 20
0.0
 30
0.0
 11
0.0
 21
2.5
 31
0.0
  0
LINE
  5
5A6
  8
FORMAT
 62
     0
 10
0.0
 20
0.0
 30
0.0
 11
-2.5
 21
0.0
 31
0.0
  0
LINE
  5
5A7
  8
FORMAT
 62
     0
 10
0.0
 20
0.0
 30
0.0
 11
0.0
 21
-2.5
 31
0.0
  0
LINE
  5
5A8
  8
FORMAT
 62
     0
 10
0.0
 20
0.0
 30
0.0
 11
2.5
 21
0.0
 31
0.0
  0
LINE
  5
5A9
  8
FORMAT
 62
     0
 10
0.0
 20
5.0
 30
0.0
 11
0.0
 21
25.0
 31
0.0
  0
LINE
  5
5AA
  8
FORMAT
 62
     0
 10
-5.0
 20
0.0
 30
0.0
 11
-25.0
 21
0.0
 31
0.0
  0
LINE
  5
5AB
  8
FORMAT
 62
     0
 10
0.0
 20
-5.0
 30
0.0
 11
0.0
 21
-25.0
 31
0.0
  0
LINE
  5
5AC
  8
FORMAT
 62
     0
 10
5.0
 20
0.0
 30
0.0
 11
25.0
 21
0.0
 31
0.0
  0
ENDBLK
  5
5A4
  8
0
  0
BLOCK
  8
0
  2
SW_CENTERMARKSYMBOL_41
 70
     0
 10
0.0
 20
0.0
 30
0.0
  3
SW_CENTERMARKSYMBOL_41
  1

  0
LINE
  5
5B1
  8
FORMAT
 62
     0
 10
0.0
 20
0.0
 30
0.0
 11
0.0
 21
2.5
 31
0.0
  0
LINE
  5
5B2
  8
FORMAT
 62
     0
 10
0.0
 20
0.0
 30
0.0
 11
-2.5
 21
0.0
 31
0.0
  0
LINE
  5
5B3
  8
FORMAT
 62
     0
 10
0.0
 20
0.0
 30
0.0
 11
0.0
 21
-2.5
 31
0.0
  0
LINE
  5
5B4
  8
FORMAT
 62
     0
 10
0.0
 20
0.0
 30
0.0
 11
2.5
 21
0.0
 31
0.0
  0
LINE
  5
5B5
  8
FORMAT
 62
     0
 10
0.0
 20
5.0
 30
0.0
 11
0.0
 21
25.0
 31
0.0
  0
LINE
  5
5B6
  8
FORMAT
 62
     0
 10
-5.0
 20
0.0
 30
0.0
 11
-25.0
 21
0.0
 31
0.0
  0
LINE
  5
5B7
  8
FORMAT
 62
     0
 10
0.0
 20
-5.0
 30
0.0
 11
0.0
 21
-25.0
 31
0.0
  0
LINE
  5
5B8
  8
FORMAT
 62
     0
 10
5.0
 20
0.0
 30
0.0
 11
25.0
 21
0.0
 31
0.0
  0
ENDBLK
  5
5B0
  8
0
  0
BLOCK
  8
0
  2
SW_CENTERMARKSYMBOL_42
 70
     0
 10
0.0
 20
0.0
 30
0.0
  3
SW_CENTERMARKSYMBOL_42
  1

  0
LINE
  5
5BD
  8
FORMAT
 62
     0
 10
0.0
 20
0.0
 30
0.0
 11
0.0
 21
2.5
 31
0.0
  0
LINE
  5
5BE
  8
FORMAT
 62
     0
 10
0.0
 20
0.0
 30
0.0
 11
-2.5
 21
0.0
 31
0.0
  0
LINE
  5
5BF
  8
FORMAT
 62
     0
 10
0.0
 20
0.0
 30
0.0
 11
0.0
 21
-2.5
 31
0.0
  0
LINE
  5
5C0
  8
FORMAT
 62
     0
 10
0.0
 20
0.0
 30
0.0
 11
2.5
 21
0.0
 31
0.0
  0
LINE
  5
5C1
  8
FORMAT
 62
     0
 10
0.0
 20
5.0
 30
0.0
 11
0.0
 21
25.0
 31
0.0
  0
LINE
  5
5C2
  8
FORMAT
 62
     0
 10
-5.0
 20
0.0
 30
0.0
 11
-25.0
 21
0.0
 31
0.0
  0
LINE
  5
5C3
  8
FORMAT
 62
     0
 10
0.0
 20
-5.0
 30
0.0
 11
0.0
 21
-25.0
 31
0.0
  0
LINE
  5
5C4
  8
FORMAT
 62
     0
 10
5.0
 20
0.0
 30
0.0
 11
25.0
 21
0.0
 31
0.0
  0
ENDBLK
  5
5BC
  8
0
  0
ENDSEC
  0
SECTION
  2
ENTITIES
  0
ARC
  5
46
  8
0
  6
CONTINUOUS
 62
     7
 10
738.5501187649
 20
3155.5510264455
 30
0.0
 40
12.5
 50
90.0
 51
270.0
  0
ARC
  5
47
  8
0
  6
CONTINUOUS
 62
     7
 10
1413.5501187649
 20
3155.5510264455
 30
0.0
 40
12.50000000000045
 50
270.0
 51
90.0
  0
LINE
  5
48
  8
0
  6
CONTINUOUS
 62
     7
 10
738.5500796642
 20
3143.0510068952
 30
0.0
 11
1413.5500915851
 21
3143.0510068952
 31
0.0
  0
LINE
  5
49
  8
0
  6
CONTINUOUS
 62
     7
 10
1413.5500915851
 20
3168.0510426579
 30
0.0
 11
738.5500796642
 21
3168.0510426579
 31
0.0
  0
LINE
  5
4A
  8
0
  6
CONTINUOUS
 62
     7
 10
1084.1119416561
 20
3069.8014880238
 30
0.0
 11
1084.4594367351
 21
3143.0510068952
 31
0.0
  0
LINE
  5
4B
  8
0
  6
CONTINUOUS
 62
     7
 10
1068.4592851009
 20
3143.0510068952
 30
0.0
 11
1068.1121476497
 21
3069.8832357942
 31
0.0
  0
LINE
  5
4C
  8
0
  6
CONTINUOUS
 62
     7
 10
1014.050138792
 20
2858.5510338364
 30
0.0
 11
1014.050138792
 21
2790.551030141
 31
0.0
  0
LINE
  5
4D
  8
0
  6
CONTINUOUS
 62
     7
 10
1138.050092062
 20
2790.551030141
 30
0.0
 11
1138.050092062
 21
2858.5510338364
 31
0.0
  0
ARC
  5
4E
  8
0
  6
CONTINUOUS
 62
     7
 10
1025.1514603773
 20
2792.0510264455
 30
0.0
 40
10.00000000000045
 50
188.6269265587
 51
270.0
  0
ARC
  5
4F
  8
0
  6
CONTINUOUS
 62
     7
 10
1126.9487771524
 20
2792.0510264455
 30
0.0
 40
10.00000000000045
 50
270.0
 51
351.3730734413
  0
ARC
  5
50
  8
0
  6
CONTINUOUS
 62
     7
 10
1125.2424735913
 20
2864.5510264455
 30
0.0
 40
5.999999999999695
 50
247.5205656029
 51
270.0
  0
ARC
  5
51
  8
0
  6
CONTINUOUS
 62
     7
 10
1026.8577639384
 20
2864.5510264455
 30
0.0
 40
6.0
 50
270.0
 51
292.4794343971
  0
LINE
  5
52
  8
0
  6
CONTINUOUS
 62
     7
 10
1122.9483612385
 20
2859.006919962
 30
0.0
 11
1101.7724402752
 21
2867.7693689881
 31
0.0
  0
LINE
  5
53
  8
0
  6
CONTINUOUS
 62
     7
 10
1050.3277905788
 20
2867.7693689881
 30
0.0
 11
1029.1519292202
 21
2859.006919962
 31
0.0
  0
LINE
  5
54
  8
0
  6
CONTINUOUS
 62
     7
 10
1121.0501321163
 20
3078.4023786603
 30
0.0
 11
1121.0501321163
 21
3085.0510383664
 31
0.0
  0
LINE
  5
55
  8
0
  6
CONTINUOUS
 62
     7
 10
1121.0501321163
 20
3011.7110396443
 30
0.0
 11
1121.0501321163
 21
3061.8191147862
 31
0.0
  0
LINE
  5
56
  8
0
  6
CONTINUOUS
 62
     7
 10
1031.0500987377
 20
3061.700024706
 30
0.0
 11
1031.0500987377
 21
3011.7110396443
 31
0.0
  0
LINE
  5
57
  8
0
  6
CONTINUOUS
 62
     7
 10
1031.0500987377
 20
3085.0510383664
 30
0.0
 11
1031.0500987377
 21
3078.3915008126
 31
0.0
  0
ARC
  5
58
  8
0
  6
CONTINUOUS
 62
     7
 10
1048.0336874731
 20
2873.3134775633
 30
0.0
 40
6.000000000000101
 50
292.4794343971
 51
357.0
  0
ARC
  5
59
  8
0
  6
CONTINUOUS
 62
     7
 10
1104.0665500566
 20
2873.3134775633
 30
0.0
 40
5.999999999999874
 50
183.0
 51
247.5205656029
  0
LINE
  5
5A
  8
0
  6
CONTINUOUS
 62
     7
 10
1098.0747469272
 20
2872.9994679509
 30
0.0
 11
1097.3481067028
 21
2886.8650282441
 31
0.0
  0
LINE
  5
5B
  8
0
  6
CONTINUOUS
 62
     7
 10
1054.7521241512
 20
2886.8650282441
 30
0.0
 11
1054.0254243221
 21
2872.9994679509
 31
0.0
  0
ARC
  5
5C
  8
0
  6
CONTINUOUS
 62
     7
 10
1060.7439061651
 20
2886.5510264455
 30
0.0
 40
6.00000000000028
 50
150.0
 51
177.0
  0
ARC
  5
5D
  8
0
  6
CONTINUOUS
 62
     7
 10
1091.3563313646
 20
2886.5510264455
 30
0.0
 40
6.000000000000053
 50
3.0
 51
30.0
  0
LINE
  5
5E
  8
0
  6
CONTINUOUS
 62
     7
 10
1066.0500653591
 20
3011.7110396443
 30
0.0
 11
1066.0500653591
 21
2889.5510221539
 31
0.0
  0
LINE
  5
5F
  8
0
  6
CONTINUOUS
 62
     7
 10
1086.0501058902
 20
2889.5510221539
 30
0.0
 11
1086.0501058902
 21
3011.7110396443
 31
0.0
  0
LINE
  5
60
  8
0
  6
CONTINUOUS
 62
     7
 10
1031.0860999431
 20
3078.3808613835
 30
0.0
 11
811.7373116817
 21
3143.0510068952
 31
0.0
  0
LINE
  5
61
  8
0
  6
CONTINUOUS
 62
     7
 10
755.1587947216
 20
3143.0510068952
 30
0.0
 11
1031.050217947
 21
3061.7105747281
 31
0.0
  0
LINE
  5
62
  8
0
  6
CONTINUOUS
 62
     7
 10
1121.0615166034
 20
3061.7139423905
 30
0.0
 11
1396.9413765278
 21
3143.0510068952
 31
0.0
  0
LINE
  5
63
  8
0
  6
CONTINUOUS
 62
     7
 10
1340.3629787769
 20
3143.0510068952
 30
0.0
 11
1121.0498340931
 21
3078.3914114056
 31
0.0
  0
LINE
  5
64
  8
0
  6
CONTINUOUS
 62
     7
 10
3035.0501068439
 20
2425.5510206042
 30
0.0
 11
3055.0501473751
 21
2425.5510206042
 31
0.0
  0
LINE
  5
65
  8
0
  6
CONTINUOUS
 62
     7
 10
3055.0501473751
 20
2775.5510295449
 30
0.0
 11
3035.0501068439
 21
2775.5510295449
 31
0.0
  0
LINE
  5
66
  8
0
  6
CONTINUOUS
 62
     7
 10
1135.0501306858
 20
2425.5510206042
 30
0.0
 11
1180.0501473751
 21
2425.5510206042
 31
0.0
  0
LINE
  5
67
  8
0
  6
CONTINUOUS
 62
     7
 10
1180.0501473751
 20
2775.5510295449
 30
0.0
 11
1135.0501306858
 21
2775.5510295449
 31
0.0
  0
LINE
  5
68
  8
0
  6
CONTINUOUS
 62
     7
 10
3035.0501068439
 20
2775.5510295449
 30
0.0
 11
2990.0500901546
 21
2775.5510295449
 31
0.0
  0
LINE
  5
69
  8
0
  6
CONTINUOUS
 62
     7
 10
2990.0500901546
 20
2425.5510206042
 30
0.0
 11
3035.0501068439
 21
2425.5510206042
 31
0.0
  0
LINE
  5
6A
  8
0
  6
CONTINUOUS
 62
     7
 10
1126.0565050449
 20
2430.551030737
 30
0.0
 11
1135.0501306858
 21
2430.551030737
 31
0.0
  0
LINE
  5
6B
  8
0
  6
CONTINUOUS
 62
     7
 10
1135.0501306858
 20
2770.5510194121
 30
0.0
 11
1126.0565050449
 21
2770.5510194121
 31
0.0
  0
POLYLINE
  5
6C
  8
0
  6
CONTINUOUS
 62
     7
 66
     1
 10
0.0
 20
0.0
 30
0.0
  0
VERTEX
  5
5C6
  8
0
  6
CONTINUOUS
 62
     7
 10
1027.2148974743
 20
2782.0521975575
 30
0.0
  0
VERTEX
  5
5C7
  8
0
  6
CONTINUOUS
 62
     7
 10
1029.8289187755
 20
2781.6638285933
 30
0.0
  0
VERTEX
  5
5C8
  8
0
  6
CONTINUOUS
 62
     7
 10
1030.3520091381
 20
2781.4286137639
 30
0.0
  0
SEQEND
  5
76F
  8
0
  6
CONTINUOUS
 62
     7
  0
LINE
  5
6D
  8
0
  6
CONTINUOUS
 62
     7
 10
1034.1529973354
 20
2779.0020639716
 30
0.0
 11
1034.5302947368
 21
2778.6759818612
 31
0.0
  0
LINE
  5
6E
  8
0
  6
CONTINUOUS
 62
     7
 10
1117.5699957218
 20
2778.6759818612
 30
0.0
 11
1117.9471739139
 21
2779.0020639716
 31
0.0
  0
POLYLINE
  5
6F
  8
0
  6
CONTINUOUS
 62
     7
 66
     1
 10
0.0
 20
0.0
 30
0.0
  0
VERTEX
  5
5C9
  8
0
  6
CONTINUOUS
 62
     7
 10
1121.7481621113
 20
2781.4286137639
 30
0.0
  0
VERTEX
  5
5CA
  8
0
  6
CONTINUOUS
 62
     7
 10
1122.2713120784
 20
2781.6638285933
 30
0.0
  0
VERTEX
  5
5CB
  8
0
  6
CONTINUOUS
 62
     7
 10
1124.8853929844
 20
2782.0521975575
 30
0.0
  0
SEQEND
  5
76E
  8
0
  6
CONTINUOUS
 62
     7
  0
LINE
  5
70
  8
0
  6
CONTINUOUS
 62
     7
 10
1067.6407941189
 20
3143.0510068952
 30
0.0
 11
1067.9159291591
 21
3085.0510383664
 31
0.0
  0
LINE
  5
71
  8
0
  6
CONTINUOUS
 62
     7
 10
1011.0501178112
 20
2515.5510241805
 30
0.0
 11
1016.0501130428
 21
2515.5510241805
 31
0.0
  0
LINE
  5
72
  8
0
  6
CONTINUOUS
 62
     7
 10
1016.0501130428
 20
2685.5510259686
 30
0.0
 11
1011.0501178112
 21
2685.5510259686
 31
0.0
  0
ARC
  5
73
  8
0
  6
CONTINUOUS
 62
     7
 10
1076.1027530158
 20
3069.6200493073
 30
0.0
 40
7.94003858206517
 50
178.1473902806
 51
1.2530277087
  0
CIRCLE
  5
74
  8
0
  6
CONTINUOUS
 62
     7
 10
2085.0501187649
 20
2597.5510264455
 30
0.0
 40
762.9999999999998
  0
CIRCLE
  5
75
  8
0
  6
CONTINUOUS
 62
     7
 10
2085.0501187649
 20
2597.5510264455
 30
0.0
 40
765.0
  0
CIRCLE
  5
76
  8
0
  6
CONTINUOUS
 62
     7
 10
2085.0501187649
 20
2597.5510264455
 30
0.0
 40
685.4999999999998
  0
LINE
  5
77
  8
0
  6
CONTINUOUS
 62
     7
 10
2525.0501163807
 20
3353.4652377187
 30
0.0
 11
2525.0501163807
 21
3435.0510026036
 31
0.0
  0
ARC
  5
78
  8
0
  6
CONTINUOUS
 62
     7
 10
2605.0501187649
 20
3353.4652080825
 30
0.0
 40
79.99999999999955
 50
180.0
 51
235.4755760091
  0
ARC
  5
79
  8
0
  6
CONTINUOUS
 62
     7
 10
2085.0501187649
 20
2597.5510264455
 30
0.0
 40
837.5000000000005
 50
304.5244239909
 51
55.4755760091
  0
ARC
  5
7A
  8
0
  6
CONTINUOUS
 62
     7
 10
2605.0501187649
 20
1841.6368448084
 30
0.0
 40
79.99999999999955
 50
124.5244239909
 51
180.0
  0
LINE
  5
7B
  8
0
  6
CONTINUOUS
 62
     7
 10
2525.0501163807
 20
1841.6368151723
 30
0.0
 11
2525.0501163807
 21
1760.0510502873
 31
0.0
  0
LINE
  5
7C
  8
0
  6
CONTINUOUS
 62
     7
 10
1645.050121149
 20
1760.0510502873
 30
0.0
 11
2525.0501163807
 21
1760.0510502873
 31
0.0
  0
LINE
  5
7D
  8
0
  6
CONTINUOUS
 62
     7
 10
1645.050121149
 20
1841.6368151723
 30
0.0
 11
1645.050121149
 21
1760.0510502873
 31
0.0
  0
ARC
  5
7E
  8
0
  6
CONTINUOUS
 62
     7
 10
1565.0501187649
 20
1841.6368448084
 30
0.0
 40
80.0
 50
0.0
 51
55.4755760091
  0
ARC
  5
7F
  8
0
  6
CONTINUOUS
 62
     7
 10
1565.0501187649
 20
3353.4652080825
 30
0.0
 40
80.0
 50
304.5244239909
 51
0.0
  0
LINE
  5
80
  8
0
  6
CONTINUOUS
 62
     7
 10
1645.050121149
 20
3435.0510026036
 30
0.0
 11
2080.0501188766
 21
3435.0510026036
 31
0.0
  0
LINE
  5
81
  8
0
  6
CONTINUOUS
 62
     7
 10
2085.0501187649
 20
3430.051007372
 30
0.0
 11
2080.0501188766
 21
3435.0510026036
 31
0.0
  0
LINE
  5
82
  8
0
  6
CONTINUOUS
 62
     7
 10
2090.0501186531
 20
3435.0510026036
 30
0.0
 11
2085.0501187649
 21
3430.051007372
 31
0.0
  0
CIRCLE
  5
83
  8
0
  6
CONTINUOUS
 62
     7
 10
2154.3389342492
 20
3389.5258114284
 30
0.0
 40
21.99999999999955
  0
CIRCLE
  5
84
  8
0
  6
CONTINUOUS
 62
     7
 10
2290.8112596214
 20
3365.4620583453
 30
0.0
 40
21.99999999999974
  0
CIRCLE
  5
85
  8
0
  6
CONTINUOUS
 62
     7
 10
2421.0316368487
 20
3318.0657171396
 30
0.0
 40
21.99999999999968
  0
CIRCLE
  5
86
  8
0
  6
CONTINUOUS
 62
     7
 10
2541.0433856639
 20
3248.7769016552
 30
0.0
 40
22.00000000000046
  0
CIRCLE
  5
87
  8
0
  6
CONTINUOUS
 62
     7
 10
2647.2000098082
 20
3159.7009174888
 30
0.0
 40
22.00000000000012
  0
CIRCLE
  5
88
  8
0
  6
CONTINUOUS
 62
     7
 10
2736.2759939746
 20
3053.5442933446
 30
0.0
 40
22.00000000000012
  0
CIRCLE
  5
89
  8
0
  6
CONTINUOUS
 62
     7
 10
2805.564809459
 20
2933.5325445293
 30
0.0
 40
22.0
  0
CIRCLE
  5
8A
  8
0
  6
CONTINUOUS
 62
     7
 10
2852.9611506647
 20
2803.312167302
 30
0.0
 40
22.00000000000011
  0
CIRCLE
  5
8B
  8
0
  6
CONTINUOUS
 62
     7
 10
2877.0249037478
 20
2666.8398419299
 30
0.0
 40
22.00000000000003
  0
CIRCLE
  5
8C
  8
0
  6
CONTINUOUS
 62
     7
 10
2877.0249037478
 20
2528.2622109611
 30
0.0
 40
22.0
  0
CIRCLE
  5
8D
  8
0
  6
CONTINUOUS
 62
     7
 10
2647.2000098082
 20
2035.4011354022
 30
0.0
 40
22.00000000000007
  0
CIRCLE
  5
8E
  8
0
  6
CONTINUOUS
 62
     7
 10
2541.0433856639
 20
1946.3251512357
 30
0.0
 40
22.00000000000027
  0
CIRCLE
  5
8F
  8
0
  6
CONTINUOUS
 62
     7
 10
2421.0316368487
 20
1877.0363357513
 30
0.0
 40
22.00000000000063
  0
CIRCLE
  5
90
  8
0
  6
CONTINUOUS
 62
     7
 10
2290.8112596214
 20
1829.6399945457
 30
0.0
 40
21.99999999999953
  0
CIRCLE
  5
91
  8
0
  6
CONTINUOUS
 62
     7
 10
2154.3389342492
 20
1805.5762414625
 30
0.0
 40
21.99999999999974
  0
CIRCLE
  5
92
  8
0
  6
CONTINUOUS
 62
     7
 10
2015.7613032805
 20
1805.5762414625
 30
0.0
 40
22.0
  0
CIRCLE
  5
93
  8
0
  6
CONTINUOUS
 62
     7
 10
1879.2889779083
 20
1829.6399945457
 30
0.0
 40
21.99999999999997
  0
CIRCLE
  5
94
  8
0
  6
CONTINUOUS
 62
     7
 10
1749.068600681
 20
1877.0363357513
 30
0.0
 40
22.00000000000011
  0
CIRCLE
  5
95
  8
0
  6
CONTINUOUS
 62
     7
 10
1629.0568518658
 20
1946.3251512357
 30
0.0
 40
22.00000000000015
  0
CIRCLE
  5
96
  8
0
  6
CONTINUOUS
 62
     7
 10
1522.9002277215
 20
2035.4011354022
 30
0.0
 40
21.99999999999963
  0
CIRCLE
  5
97
  8
0
  6
CONTINUOUS
 62
     7
 10
1433.8242435551
 20
2141.5577595464
 30
0.0
 40
22.00000000000012
  0
CIRCLE
  5
98
  8
0
  6
CONTINUOUS
 62
     7
 10
1364.5354280707
 20
2261.5695083616
 30
0.0
 40
21.99999999999972
  0
CIRCLE
  5
99
  8
0
  6
CONTINUOUS
 62
     7
 10
1293.0753337819
 20
2528.2622109611
 30
0.0
 40
22.00000000000015
  0
CIRCLE
  5
9A
  8
0
  6
CONTINUOUS
 62
     7
 10
1293.0753337819
 20
2666.8398419299
 30
0.0
 40
22.0
  0
CIRCLE
  5
9B
  8
0
  6
CONTINUOUS
 62
     7
 10
1317.139086865
 20
2803.312167302
 30
0.0
 40
21.99999999999929
  0
CIRCLE
  5
9C
  8
0
  6
CONTINUOUS
 62
     7
 10
1364.5354280707
 20
2933.5325445293
 30
0.0
 40
22.00000000000003
  0
CIRCLE
  5
9D
  8
0
  6
CONTINUOUS
 62
     7
 10
1433.8242435551
 20
3053.5442933446
 30
0.0
 40
21.99999999999995
  0
CIRCLE
  5
9E
  8
0
  6
CONTINUOUS
 62
     7
 10
1522.9002277215
 20
3159.7009174888
 30
0.0
 40
21.99999999999992
  0
CIRCLE
  5
9F
  8
0
  6
CONTINUOUS
 62
     7
 10
1629.0568518658
 20
3248.7769016552
 30
0.0
 40
22.00000000000012
  0
CIRCLE
  5
A0
  8
0
  6
CONTINUOUS
 62
     7
 10
1749.068600681
 20
3318.0657171396
 30
0.0
 40
22.00000000000003
  0
CIRCLE
  5
A1
  8
0
  6
CONTINUOUS
 62
     7
 10
1879.2889779084
 20
3365.4620583453
 30
0.0
 40
22.00000000000001
  0
CIRCLE
  5
A2
  8
0
  6
CONTINUOUS
 62
     7
 10
2015.7613032805
 20
3389.5258114284
 30
0.0
 40
22.00000000000011
  0
LINE
  5
A3
  8
0
  6
CONTINUOUS
 62
     7
 10
1645.050121149
 20
3353.4652377187
 30
0.0
 11
1645.050121149
 21
3435.0510026036
 31
0.0
  0
LINE
  5
A4
  8
0
  6
CONTINUOUS
 62
     7
 10
2090.0501186531
 20
3435.0510026036
 30
0.0
 11
2525.0501163807
 21
3435.0510026036
 31
0.0
  0
CIRCLE
  5
A5
  8
0
  6
CONTINUOUS
 62
     7
 10
2805.564809459
 20
2261.5695083616
 30
0.0
 40
22.00000000000038
  0
CIRCLE
  5
A6
  8
0
  6
CONTINUOUS
 62
     7
 10
2852.9611506647
 20
2391.789885589
 30
0.0
 40
22.00000000000011
  0
ARC
  5
A7
  8
0
  6
CONTINUOUS
 62
     7
 10
2085.0501187649
 20
2597.5510264455
 30
0.0
 40
837.5000000000001
 50
124.5244239909
 51
235.4755760091
  0
CIRCLE
  5
A8
  8
0
  6
CONTINUOUS
 62
     7
 10
2736.2759939746
 20
2141.5577595464
 30
0.0
 40
21.99999999999967
  0
CIRCLE
  5
A9
  8
0
  6
CONTINUOUS
 62
     7
 10
1317.139086865
 20
2391.789885589
 30
0.0
 40
22.00000000000031
  0
LINE
  5
AA
  8
0
  6
CONTINUOUS
 62
     7
 10
1014.050138792
 20
2790.551030141
 30
0.0
 11
1138.050092062
 21
2790.551030141
 31
0.0
  0
LINE
  5
AB
  8
0
  6
CONTINUOUS
 62
     7
 10
1014.050138792
 20
2858.5510338364
 30
0.0
 11
1138.050092062
 21
2858.5510338364
 31
0.0
  0
LINE
  5
AC
  8
0
  6
CONTINUOUS
 62
     7
 10
1125.0312455501
 20
2782.0510203658
 30
0.0
 11
1126.9487865772
 21
2782.0510203658
 31
0.0
  0
LINE
  5
AD
  8
0
  6
CONTINUOUS
 62
     7
 10
1123.6737497654
 20
2782.1652377664
 30
0.0
 11
1125.0312455501
 21
2782.0510203658
 31
0.0
  0
POLYLINE
  5
AE
  8
0
  6
CONTINUOUS
 62
     7
 66
     1
 10
0.0
 20
0.0
 30
0.0
  0
VERTEX
  5
5CC
  8
0
  6
CONTINUOUS
 62
     7
 10
1097.9212053623
 20
2782.1652377664
 30
0.0
  0
VERTEX
  5
5CD
  8
0
  6
CONTINUOUS
 62
     7
 10
1102.5971301403
 20
2782.366179925
 30
0.0
  0
VERTEX
  5
5CE
  8
0
  6
CONTINUOUS
 62
     7
 10
1106.9724686947
 20
2782.5709218799
 30
0.0
  0
VERTEX
  5
5CF
  8
0
  6
CONTINUOUS
 62
     7
 10
1111.0542543735
 20
2782.7217961369
 30
0.0
  0
VERTEX
  5
5D0
  8
0
  6
CONTINUOUS
 62
     7
 10
1114.6756537761
 20
2782.7763939916
 30
0.0
  0
VERTEX
  5
5D1
  8
0
  6
CONTINUOUS
 62
     7
 10
1117.81443437
 20
2782.722079259
 30
0.0
  0
VERTEX
  5
5D2
  8
0
  6
CONTINUOUS
 62
     7
 10
1120.4191573467
 20
2782.5708771764
 30
0.0
  0
VERTEX
  5
5D3
  8
0
  6
CONTINUOUS
 62
     7
 10
1122.3718055095
 20
2782.3661501227
 30
0.0
  0
VERTEX
  5
5D4
  8
0
  6
CONTINUOUS
 62
     7
 10
1123.6737497654
 20
2782.1652377664
 30
0.0
  0
SEQEND
  5
76D
  8
0
  6
CONTINUOUS
 62
     7
  0
LINE
  5
AF
  8
0
  6
CONTINUOUS
 62
     7
 10
1089.8892410602
 20
2782.0510203658
 30
0.0
 11
1097.9212053623
 21
2782.1652377664
 31
0.0
  0
LINE
  5
B0
  8
0
  6
CONTINUOUS
 62
     7
 10
1062.2110493984
 20
2782.0510203658
 30
0.0
 11
1089.8892410602
 21
2782.0510203658
 31
0.0
  0
LINE
  5
B1
  8
0
  6
CONTINUOUS
 62
     7
 10
1054.1790850963
 20
2782.1652377664
 30
0.0
 11
1062.2110493984
 21
2782.0510203658
 31
0.0
  0
POLYLINE
  5
B2
  8
0
  6
CONTINUOUS
 62
     7
 66
     1
 10
0.0
 20
0.0
 30
0.0
  0
VERTEX
  5
5D5
  8
0
  6
CONTINUOUS
 62
     7
 10
1028.4265406933
 20
2782.1652377664
 30
0.0
  0
VERTEX
  5
5D6
  8
0
  6
CONTINUOUS
 62
     7
 10
1029.728663763
 20
2782.366179925
 30
0.0
  0
VERTEX
  5
5D7
  8
0
  6
CONTINUOUS
 62
     7
 10
1031.6815503444
 20
2782.5709218799
 30
0.0
  0
VERTEX
  5
5D8
  8
0
  6
CONTINUOUS
 62
     7
 10
1034.2781670894
 20
2782.7217961369
 30
0.0
  0
VERTEX
  5
5D9
  8
0
  6
CONTINUOUS
 62
     7
 10
1037.406099638
 20
2782.7763939916
 30
0.0
  0
VERTEX
  5
5DA
  8
0
  6
CONTINUOUS
 62
     7
 10
1041.0357840862
 20
2782.722079259
 30
0.0
  0
VERTEX
  5
5DB
  8
0
  6
CONTINUOUS
 62
     7
 10
1045.1285966243
 20
2782.5708771764
 30
0.0
  0
VERTEX
  5
5DC
  8
0
  6
CONTINUOUS
 62
     7
 10
1049.5035775509
 20
2782.3661501227
 30
0.0
  0
VERTEX
  5
5DD
  8
0
  6
CONTINUOUS
 62
     7
 10
1054.1790850963
 20
2782.1652377664
 30
0.0
  0
SEQEND
  5
76C
  8
0
  6
CONTINUOUS
 62
     7
  0
LINE
  5
B3
  8
0
  6
CONTINUOUS
 62
     7
 10
1027.0689853039
 20
2782.0510203658
 30
0.0
 11
1028.4265406933
 21
2782.1652377664
 31
0.0
  0
LINE
  5
B4
  8
0
  6
CONTINUOUS
 62
     7
 10
1025.1515038814
 20
2782.0510203658
 30
0.0
 11
1027.0689853039
 21
2782.0510203658
 31
0.0
  0
LINE
  5
B5
  8
0
  6
CONTINUOUS
 62
     7
 10
1016.0501130428
 20
2718.0510247765
 30
0.0
 11
1016.0501130428
 21
2723.0510200082
 31
0.0
  0
LINE
  5
B6
  8
0
  6
CONTINUOUS
 62
     7
 10
1036.0500939693
 20
2723.0510200082
 30
0.0
 11
1016.0501130428
 21
2723.0510200082
 31
0.0
  0
LINE
  5
B7
  8
0
  6
CONTINUOUS
 62
     7
 10
1036.0500939693
 20
2718.0510247765
 30
0.0
 11
1036.0500939693
 21
2722.6726944266
 31
0.0
  0
LINE
  5
B8
  8
0
  6
CONTINUOUS
 62
     7
 10
1016.0501130428
 20
2718.0510247765
 30
0.0
 11
1036.0500939693
 21
2718.0510247765
 31
0.0
  0
LINE
  5
B9
  8
0
  6
CONTINUOUS
 62
     7
 10
1036.0500939693
 20
2483.0510253726
 30
0.0
 11
1016.0501130428
 21
2483.0510253726
 31
0.0
  0
LINE
  5
BA
  8
0
  6
CONTINUOUS
 62
     7
 10
1016.0501130428
 20
2483.0510253726
 30
0.0
 11
1016.0501130428
 21
2718.0510247765
 31
0.0
  0
LINE
  5
BB
  8
0
  6
CONTINUOUS
 62
     7
 10
1036.0500939693
 20
2718.0510247765
 30
0.0
 11
1036.0500939693
 21
2483.0510253726
 31
0.0
  0
LINE
  5
BC
  8
0
  6
CONTINUOUS
 62
     7
 10
1016.0501130428
 20
2478.051030141
 30
0.0
 11
1036.0500939693
 21
2478.051030141
 31
0.0
  0
LINE
  5
BD
  8
0
  6
CONTINUOUS
 62
     7
 10
1016.0501130428
 20
2478.051030141
 30
0.0
 11
1016.0501130428
 21
2483.0510253726
 31
0.0
  0
LINE
  5
BE
  8
0
  6
CONTINUOUS
 62
     7
 10
1036.0500939693
 20
2478.4293557225
 30
0.0
 11
1036.0500939693
 21
2483.0510253726
 31
0.0
  0
LINE
  5
BF
  8
0
  6
CONTINUOUS
 62
     7
 10
1082.7396043148
 20
2716.3794944702
 30
0.0
 11
1083.4829934444
 21
2714.6693925081
 31
0.0
  0
LINE
  5
C0
  8
0
  6
CONTINUOUS
 62
     7
 10
1083.4829934444
 20
2714.6693925081
 30
0.0
 11
1082.7396043148
 21
2714.6693925081
 31
0.0
  0
LINE
  5
C1
  8
0
  6
CONTINUOUS
 62
     7
 10
1082.7396043148
 20
2714.6693925081
 30
0.0
 11
1082.7396043148
 21
2716.3794944702
 31
0.0
  0
LINE
  5
C2
  8
0
  6
CONTINUOUS
 62
     7
 10
1083.4829934444
 20
2486.432657641
 30
0.0
 11
1082.7396043148
 21
2486.432657641
 31
0.0
  0
LINE
  5
C3
  8
0
  6
CONTINUOUS
 62
     7
 10
1083.4829934444
 20
2486.432657641
 30
0.0
 11
1082.7396043148
 21
2484.7225631295
 31
0.0
  0
LINE
  5
C4
  8
0
  6
CONTINUOUS
 62
     7
 10
1082.7396043148
 20
2484.7225631295
 30
0.0
 11
1082.7396043148
 21
2486.432657641
 31
0.0
  0
LINE
  5
C5
  8
0
  6
CONTINUOUS
 62
     7
 10
1082.7396043148
 20
2486.432657641
 30
0.0
 11
1082.7396043148
 21
2714.6693925081
 31
0.0
  0
LINE
  5
C6
  8
0
  6
CONTINUOUS
 62
     7
 10
1082.7396043148
 20
2486.432657641
 30
0.0
 11
1036.0500939693
 21
2486.432657641
 31
0.0
  0
LINE
  5
C7
  8
0
  6
CONTINUOUS
 62
     7
 10
1082.7396043148
 20
2714.6693925081
 30
0.0
 11
1036.0500939693
 21
2714.6693925081
 31
0.0
  0
LINE
  5
C8
  8
0
  6
CONTINUOUS
 62
     7
 10
1036.0500939693
 20
2716.3794944702
 30
0.0
 11
1082.7396043148
 21
2716.3794944702
 31
0.0
  0
LINE
  5
C9
  8
0
  6
CONTINUOUS
 62
     7
 10
1083.4829934444
 20
2486.432657641
 30
0.0
 11
1083.4829934444
 21
2714.6693925081
 31
0.0
  0
LINE
  5
CA
  8
0
  6
CONTINUOUS
 62
     7
 10
1082.7396043148
 20
2484.7225631295
 30
0.0
 11
1036.0500939693
 21
2484.7225631295
 31
0.0
  0
POLYLINE
  5
CB
  8
0
  6
CONTINUOUS
 62
     7
 66
     1
 10
0.0
 20
0.0
 30
0.0
  0
VERTEX
  5
5DE
  8
0
  6
CONTINUOUS
 62
     7
 10
1082.7396043148
 20
2716.3794944702
 30
0.0
  0
VERTEX
  5
5DF
  8
0
  6
CONTINUOUS
 62
     7
 10
1086.1411817875
 20
2718.1539694487
 30
0.0
  0
VERTEX
  5
5E0
  8
0
  6
CONTINUOUS
 62
     7
 10
1089.4826181736
 20
2720.642411214
 30
0.0
  0
VERTEX
  5
5E1
  8
0
  6
CONTINUOUS
 62
     7
 10
1092.7837022152
 20
2723.8711054145
 30
0.0
  0
VERTEX
  5
5E2
  8
0
  6
CONTINUOUS
 62
     7
 10
1095.9834583606
 20
2727.7971739589
 30
0.0
  0
VERTEX
  5
5E3
  8
0
  6
CONTINUOUS
 62
     7
 10
1100.057435831
 20
2734.069683653
 30
0.0
  0
VERTEX
  5
5E4
  8
0
  6
CONTINUOUS
 62
     7
 10
1103.8533576336
 20
2741.4267892657
 30
0.0
  0
VERTEX
  5
5E5
  8
0
  6
CONTINUOUS
 62
     7
 10
1107.3306330051
 20
2749.7611279307
 30
0.0
  0
SEQEND
  5
76B
  8
0
  6
CONTINUOUS
 62
     7
  0
ARC
  5
CC
  8
0
  6
CONTINUOUS
 62
     7
 10
1103.3111988543
 20
2737.2048225926
 30
0.0
 40
13.18395443854465
 50
55.3541909689
 51
72.249465558
  0
POLYLINE
  5
CD
  8
0
  6
CONTINUOUS
 62
     7
 66
     1
 10
0.0
 20
0.0
 30
0.0
  0
VERTEX
  5
5E6
  8
0
  6
CONTINUOUS
 62
     7
 10
1083.4829934444
 20
2714.6693925081
 30
0.0
  0
VERTEX
  5
5E7
  8
0
  6
CONTINUOUS
 62
     7
 10
1087.2511990871
 20
2716.4381677924
 30
0.0
  0
VERTEX
  5
5E8
  8
0
  6
CONTINUOUS
 62
     7
 10
1090.9751184787
 20
2718.9323092519
 30
0.0
  0
VERTEX
  5
5E9
  8
0
  6
CONTINUOUS
 62
     7
 10
1094.6242936458
 20
2722.1433455764
 30
0.0
  0
VERTEX
  5
5EA
  8
0
  6
CONTINUOUS
 62
     7
 10
1098.1982477512
 20
2726.0870719968
 30
0.0
  0
VERTEX
  5
5EB
  8
0
  6
CONTINUOUS
 62
     7
 10
1102.7033456173
 20
2732.3266650258
 30
0.0
  0
VERTEX
  5
5EC
  8
0
  6
CONTINUOUS
 62
     7
 10
1106.9131620731
 20
2739.6603162108
 30
0.0
  0
VERTEX
  5
5ED
  8
0
  6
CONTINUOUS
 62
     7
 10
1110.8062990513
 20
2748.0510259686
 30
0.0
  0
SEQEND
  5
76A
  8
0
  6
CONTINUOUS
 62
     7
  0
POLYLINE
  5
CE
  8
0
  6
CONTINUOUS
 62
     7
 66
     1
 10
0.0
 20
0.0
 30
0.0
  0
VERTEX
  5
5EE
  8
0
  6
CONTINUOUS
 62
     7
 10
1107.3306330051
 20
2451.3409222184
 30
0.0
  0
VERTEX
  5
5EF
  8
0
  6
CONTINUOUS
 62
     7
 10
1103.8534172382
 20
2459.6750224648
 30
0.0
  0
VERTEX
  5
5F0
  8
0
  6
CONTINUOUS
 62
     7
 10
1100.0576742496
 20
2467.031979066
 30
0.0
  0
VERTEX
  5
5F1
  8
0
  6
CONTINUOUS
 62
     7
 10
1095.9834583606
 20
2473.3048836409
 30
0.0
  0
VERTEX
  5
5F2
  8
0
  6
CONTINUOUS
 62
     7
 10
1092.7840002384
 20
2477.230564755
 30
0.0
  0
VERTEX
  5
5F3
  8
0
  6
CONTINUOUS
 62
     7
 10
1089.4826181736
 20
2480.4596463858
 30
0.0
  0
VERTEX
  5
5F4
  8
0
  6
CONTINUOUS
 62
     7
 10
1086.1413606014
 20
2482.9479987441
 30
0.0
  0
VERTEX
  5
5F5
  8
0
  6
CONTINUOUS
 62
     7
 10
1082.7396043148
 20
2484.7225631295
 30
0.0
  0
SEQEND
  5
769
  8
0
  6
CONTINUOUS
 62
     7
  0
POLYLINE
  5
CF
  8
0
  6
CONTINUOUS
 62
     7
 66
     1
 10
0.0
 20
0.0
 30
0.0
  0
VERTEX
  5
5F6
  8
0
  6
CONTINUOUS
 62
     7
 10
1110.8062990513
 20
2453.0510241805
 30
0.0
  0
VERTEX
  5
5F7
  8
0
  6
CONTINUOUS
 62
     7
 10
1107.9085000362
 20
2459.4594324647
 30
0.0
  0
VERTEX
  5
5F8
  8
0
  6
CONTINUOUS
 62
     7
 10
1104.8849352207
 20
2465.1757563172
 30
0.0
  0
VERTEX
  5
5F9
  8
0
  6
CONTINUOUS
 62
     7
 10
1101.5932091083
 20
2470.455312234
 30
0.0
  0
VERTEX
  5
5FA
  8
0
  6
CONTINUOUS
 62
     7
 10
1098.1982477512
 20
2475.0149856029
 30
0.0
  0
VERTEX
  5
5FB
  8
0
  6
CONTINUOUS
 62
     7
 10
1094.6242340412
 20
2478.9587492762
 30
0.0
  0
VERTEX
  5
5FC
  8
0
  6
CONTINUOUS
 62
     7
 10
1090.9751184787
 20
2482.1697483478
 30
0.0
  0
VERTEX
  5
5FD
  8
0
  6
CONTINUOUS
 62
     7
 10
1087.2511990871
 20
2484.6638972579
 30
0.0
  0
VERTEX
  5
5FE
  8
0
  6
CONTINUOUS
 62
     7
 10
1083.4829934444
 20
2486.432657641
 30
0.0
  0
SEQEND
  5
768
  8
0
  6
CONTINUOUS
 62
     7
  0
ARC
  5
D0
  8
0
  6
CONTINUOUS
 62
     7
 10
1103.310517588
 20
2463.8986121839
 30
0.0
 40
13.1854808496203
 50
287.7515195259
 51
304.6448239471
  0
LINE
  5
D1
  8
0
  6
CONTINUOUS
 62
     7
 10
1110.8062990513
 20
2748.0510259686
 30
0.0
 11
1126.0501273479
 21
2748.0510259686
 31
0.0
  0
LINE
  5
D2
  8
0
  6
CONTINUOUS
 62
     7
 10
1126.0501273479
 20
2748.0510259686
 30
0.0
 11
1126.0501273479
 21
2453.0510241805
 31
0.0
  0
LINE
  5
D3
  8
0
  6
CONTINUOUS
 62
     7
 10
1126.0501273479
 20
2453.0510241805
 30
0.0
 11
1110.8062990513
 21
2453.0510241805
 31
0.0
  0
LINE
  5
D4
  8
0
  6
CONTINUOUS
 62
     7
 10
1107.3306330051
 20
2749.7611279307
 30
0.0
 11
1036.0500939693
 21
2749.7611279307
 31
0.0
  0
LINE
  5
D5
  8
0
  6
CONTINUOUS
 62
     7
 10
1036.0500939693
 20
2749.7611279307
 30
0.0
 11
1036.0500939693
 21
2722.6726944266
 31
0.0
  0
LINE
  5
D6
  8
0
  6
CONTINUOUS
 62
     7
 10
1036.0500939693
 20
2451.3409222184
 30
0.0
 11
1107.3306330051
 21
2451.3409222184
 31
0.0
  0
LINE
  5
D7
  8
0
  6
CONTINUOUS
 62
     7
 10
1036.0500939693
 20
2478.4293557225
 30
0.0
 11
1036.0500939693
 21
2451.3409222184
 31
0.0
  0
LINE
  5
D8
  8
0
  6
CONTINUOUS
 62
     7
 10
1062.2110493984
 20
2782.0510203658
 30
0.0
 11
1062.2110493984
 21
2772.574388486
 31
0.0
  0
LINE
  5
D9
  8
0
  6
CONTINUOUS
 62
     7
 10
1089.8892410602
 20
2782.0510203658
 30
0.0
 11
1089.8892410602
 21
2772.574388486
 31
0.0
  0
LINE
  5
DA
  8
0
  6
CONTINUOUS
 62
     7
 10
1089.8892410602
 20
2772.574388486
 30
0.0
 11
1062.2110493984
 21
2772.574388486
 31
0.0
  0
POLYLINE
  5
DB
  8
0
  6
CONTINUOUS
 62
     7
 66
     1
 10
0.0
 20
0.0
 30
0.0
  0
VERTEX
  5
5FF
  8
0
  6
CONTINUOUS
 62
     7
 10
1097.9212053623
 20
2782.1652377664
 30
0.0
  0
VERTEX
  5
600
  8
0
  6
CONTINUOUS
 62
     7
 10
1097.9512461033
 20
2781.7838425456
 30
0.0
  0
VERTEX
  5
601
  8
0
  6
CONTINUOUS
 62
     7
 10
1097.9991682377
 20
2781.1198766051
 30
0.0
  0
VERTEX
  5
602
  8
0
  6
CONTINUOUS
 62
     7
 10
1098.0634220447
 20
2780.1930541812
 30
0.0
  0
VERTEX
  5
603
  8
0
  6
CONTINUOUS
 62
     7
 10
1098.1421597805
 20
2779.030942422
 30
0.0
  0
VERTEX
  5
604
  8
0
  6
CONTINUOUS
 62
     7
 10
1098.2330568638
 20
2777.6680971204
 30
0.0
  0
VERTEX
  5
605
  8
0
  6
CONTINUOUS
 62
     7
 10
1098.3333714809
 20
2776.1450345336
 30
0.0
  0
VERTEX
  5
606
  8
0
  6
CONTINUOUS
 62
     7
 10
1098.4401233997
 20
2774.5070243894
 30
0.0
  0
VERTEX
  5
607
  8
0
  6
CONTINUOUS
 62
     7
 10
1098.5500939693
 20
2772.8027934848
 30
0.0
  0
SEQEND
  5
767
  8
0
  6
CONTINUOUS
 62
     7
  0
LINE
  5
DC
  8
0
  6
CONTINUOUS
 62
     7
 10
1098.5500939693
 20
2772.8027934848
 30
0.0
 11
1089.8892410602
 21
2772.574388486
 31
0.0
  0
LINE
  5
DD
  8
0
  6
CONTINUOUS
 62
     7
 10
1062.2110493984
 20
2772.574388486
 30
0.0
 11
1053.5501368847
 21
2772.8027934848
 31
0.0
  0
POLYLINE
  5
DE
  8
0
  6
CONTINUOUS
 62
     7
 66
     1
 10
0.0
 20
0.0
 30
0.0
  0
VERTEX
  5
608
  8
0
  6
CONTINUOUS
 62
     7
 10
1054.1790850963
 20
2782.1652377664
 30
0.0
  0
VERTEX
  5
609
  8
0
  6
CONTINUOUS
 62
     7
 10
1054.1489251461
 20
2781.7838425456
 30
0.0
  0
VERTEX
  5
60A
  8
0
  6
CONTINUOUS
 62
     7
 10
1054.101122221
 20
2781.1198766051
 30
0.0
  0
VERTEX
  5
60B
  8
0
  6
CONTINUOUS
 62
     7
 10
1054.0367492046
 20
2780.1930541812
 30
0.0
  0
VERTEX
  5
60C
  8
0
  6
CONTINUOUS
 62
     7
 10
1053.9580710735
 20
2779.030942422
 30
0.0
  0
VERTEX
  5
60D
  8
0
  6
CONTINUOUS
 62
     7
 10
1053.8672335949
 20
2777.6680971204
 30
0.0
  0
VERTEX
  5
60E
  8
0
  6
CONTINUOUS
 62
     7
 10
1053.7668593731
 20
2776.1450345336
 30
0.0
  0
VERTEX
  5
60F
  8
0
  6
CONTINUOUS
 62
     7
 10
1053.6601670589
 20
2774.5070243894
 30
0.0
  0
VERTEX
  5
610
  8
0
  6
CONTINUOUS
 62
     7
 10
1053.5501368847
 20
2772.8027934848
 30
0.0
  0
SEQEND
  5
766
  8
0
  6
CONTINUOUS
 62
     7
  0
ARC
  5
DF
  8
0
  6
CONTINUOUS
 62
     7
 10
1125.0278024411
 20
2772.2725268981
 30
0.0
 40
9.984948020443506
 50
97.7938592261
 51
176.955784181
  0
POLYLINE
  5
E0
  8
0
  6
CONTINUOUS
 62
     7
 66
     1
 10
0.0
 20
0.0
 30
0.0
  0
VERTEX
  5
611
  8
0
  6
CONTINUOUS
 62
     7
 10
1115.0569446888
 20
2772.8027934848
 30
0.0
  0
VERTEX
  5
612
  8
0
  6
CONTINUOUS
 62
     7
 10
1115.0152810421
 20
2772.9453379928
 30
0.0
  0
VERTEX
  5
613
  8
0
  6
CONTINUOUS
 62
     7
 10
1114.8826607074
 20
2773.0991775809
 30
0.0
  0
VERTEX
  5
614
  8
0
  6
CONTINUOUS
 62
     7
 10
1114.5640142765
 20
2773.3144397555
 30
0.0
  0
VERTEX
  5
615
  8
0
  6
CONTINUOUS
 62
     7
 10
1114.2742164936
 20
2773.4517986594
 30
0.0
  0
VERTEX
  5
616
  8
0
  6
CONTINUOUS
 62
     7
 10
1113.8426192608
 20
2773.6063684045
 30
0.0
  0
VERTEX
  5
617
  8
0
  6
CONTINUOUS
 62
     7
 10
1113.1259926166
 20
2773.7851227342
 30
0.0
  0
VERTEX
  5
618
  8
0
  6
CONTINUOUS
 62
     7
 10
1112.3382576313
 20
2773.9110822497
 30
0.0
  0
VERTEX
  5
619
  8
0
  6
CONTINUOUS
 62
     7
 10
1110.2666385975
 20
2774.0251357375
 30
0.0
  0
VERTEX
  5
61A
  8
0
  6
CONTINUOUS
 62
     7
 10
1109.0758570041
 20
2773.9970321475
 30
0.0
  0
VERTEX
  5
61B
  8
0
  6
CONTINUOUS
 62
     7
 10
1107.7517398205
 20
2773.9127809821
 30
0.0
  0
VERTEX
  5
61C
  8
0
  6
CONTINUOUS
 62
     7
 10
1106.886161169
 20
2773.8345200835
 30
0.0
  0
VERTEX
  5
61D
  8
0
  6
CONTINUOUS
 62
     7
 10
1105.9283741321
 20
2773.7324322282
 30
0.0
  0
VERTEX
  5
61E
  8
0
  6
CONTINUOUS
 62
     7
 10
1104.8766501751
 20
2773.6065472184
 30
0.0
  0
VERTEX
  5
61F
  8
0
  6
CONTINUOUS
 62
     7
 10
1103.0608542766
 20
2773.3682329474
 30
0.0
  0
VERTEX
  5
620
  8
0
  6
CONTINUOUS
 62
     7
 10
1100.6358989086
 20
2773.0461592494
 30
0.0
  0
VERTEX
  5
621
  8
0
  6
CONTINUOUS
 62
     7
 10
1098.5500939693
 20
2772.8027934848
 30
0.0
  0
SEQEND
  5
765
  8
0
  6
CONTINUOUS
 62
     7
  0
POLYLINE
  5
E1
  8
0
  6
CONTINUOUS
 62
     7
 66
     1
 10
0.0
 20
0.0
 30
0.0
  0
VERTEX
  5
622
  8
0
  6
CONTINUOUS
 62
     7
 10
1053.5501368847
 20
2772.8027934848
 30
0.0
  0
VERTEX
  5
623
  8
0
  6
CONTINUOUS
 62
     7
 10
1052.2773393001
 20
2772.9453379928
 30
0.0
  0
VERTEX
  5
624
  8
0
  6
CONTINUOUS
 62
     7
 10
1051.0530598964
 20
2773.0991775809
 30
0.0
  0
VERTEX
  5
625
  8
0
  6
CONTINUOUS
 62
     7
 10
1049.4372971859
 20
2773.3144397555
 30
0.0
  0
VERTEX
  5
626
  8
0
  6
CONTINUOUS
 62
     7
 10
1048.416746458
 20
2773.4517986594
 30
0.0
  0
VERTEX
  5
627
  8
0
  6
CONTINUOUS
 62
     7
 10
1047.2250111904
 20
2773.6063684045
 30
0.0
  0
VERTEX
  5
628
  8
0
  6
CONTINUOUS
 62
     7
 10
1045.6938870754
 20
2773.7851227342
 30
0.0
  0
VERTEX
  5
629
  8
0
  6
CONTINUOUS
 62
     7
 10
1044.3694718685
 20
2773.9110822497
 30
0.0
  0
VERTEX
  5
62A
  8
0
  6
CONTINUOUS
 62
     7
 10
1041.8318637218
 20
2774.0251357375
 30
0.0
  0
VERTEX
  5
62B
  8
0
  6
CONTINUOUS
 62
     7
 10
1040.7534964885
 20
2773.9970321475
 30
0.0
  0
VERTEX
  5
62C
  8
0
  6
CONTINUOUS
 62
     7
 10
1039.7759803142
 20
2773.9127809821
 30
0.0
  0
VERTEX
  5
62D
  8
0
  6
CONTINUOUS
 62
     7
 10
1039.240253767
 20
2773.8345200835
 30
0.0
  0
VERTEX
  5
62E
  8
0
  6
CONTINUOUS
 62
     7
 10
1038.7296803798
 20
2773.7324322282
 30
0.0
  0
VERTEX
  5
62F
  8
0
  6
CONTINUOUS
 62
     7
 10
1038.2582076397
 20
2773.6065472184
 30
0.0
  0
VERTEX
  5
630
  8
0
  6
CONTINUOUS
 62
     7
 10
1037.6407035198
 20
2773.3682329474
 30
0.0
  0
VERTEX
  5
631
  8
0
  6
CONTINUOUS
 62
     7
 10
1037.162793478
 20
2773.0461443482
 30
0.0
  0
VERTEX
  5
632
  8
0
  6
CONTINUOUS
 62
     7
 10
1037.0433457699
 20
2772.8027934848
 30
0.0
  0
SEQEND
  5
764
  8
0
  6
CONTINUOUS
 62
     7
  0
ARC
  5
E2
  8
0
  6
CONTINUOUS
 62
     7
 10
1027.072322114
 20
2772.2723742075
 30
0.0
 40
9.985121799704649
 50
3.0450401832
 51
82.2053164097
  0
LINE
  5
E3
  8
0
  6
CONTINUOUS
 62
     7
 10
1076.1129983272
 20
3011.7110396443
 30
0.0
 11
1031.0500987377
 21
3011.7110396443
 31
0.0
  0
LINE
  5
E4
  8
0
  6
CONTINUOUS
 62
     7
 10
1121.0501321163
 20
3011.7110396443
 30
0.0
 11
1076.1129983272
 21
3011.7110396443
 31
0.0
  0
LINE
  5
E5
  8
0
  6
CONTINUOUS
 62
     7
 10
1031.0500987377
 20
3085.0510383664
 30
0.0
 11
1068.1841500606
 21
3085.0510383664
 31
0.0
  0
LINE
  5
E6
  8
0
  6
CONTINUOUS
 62
     7
 10
1084.1843016948
 20
3085.0510383664
 30
0.0
 11
1121.0501321163
 21
3085.0510383664
 31
0.0
  0
POLYLINE
  5
E7
  8
0
  6
CONTINUOUS
 62
     7
 66
     1
 10
0.0
 20
0.0
 30
0.0
  0
VERTEX
  5
633
  8
0
  6
CONTINUOUS
 62
     7
 10
1031.050217947
 20
3061.7105747281
 30
0.0
  0
VERTEX
  5
634
  8
0
  6
CONTINUOUS
 62
     7
 10
1031.1308034267
 20
3062.1516192971
 30
0.0
  0
VERTEX
  5
635
  8
0
  6
CONTINUOUS
 62
     7
 10
1031.3317902889
 20
3063.429721695
 30
0.0
  0
VERTEX
  5
636
  8
0
  6
CONTINUOUS
 62
     7
 10
1031.5668710079
 20
3065.4050792275
 30
0.0
  0
VERTEX
  5
637
  8
0
  6
CONTINUOUS
 62
     7
 10
1031.7367442455
 20
3067.8620720921
 30
0.0
  0
VERTEX
  5
638
  8
0
  6
CONTINUOUS
 62
     7
 10
1031.7725070324
 20
3070.574232441
 30
0.0
  0
VERTEX
  5
639
  8
0
  6
CONTINUOUS
 62
     7
 10
1031.6538937893
 20
3073.3239437161
 30
0.0
  0
VERTEX
  5
63A
  8
0
  6
CONTINUOUS
 62
     7
 10
1031.4189322796
 20
3075.8102024613
 30
0.0
  0
VERTEX
  5
63B
  8
0
  6
CONTINUOUS
 62
     7
 10
1031.1786063518
 20
3077.5953615724
 30
0.0
  0
VERTEX
  5
63C
  8
0
  6
CONTINUOUS
 62
     7
 10
1031.0565360393
 20
3078.3582712232
 30
0.0
  0
VERTEX
  5
63D
  8
0
  6
CONTINUOUS
 62
     7
 10
1031.0647614803
 20
3078.3001864968
 30
0.0
  0
SEQEND
  5
763
  8
0
  6
CONTINUOUS
 62
     7
  0
ARC
  5
E8
  8
0
  6
CONTINUOUS
 62
     7
 10
1172.0570469697
 20
3070.046026316
 30
0.0
 40
51.68518056961146
 50
170.7079507362
 51
189.1589269679
  0
LINE
  5
E9
  8
0
  6
CONTINUOUS
 62
     7
 10
1107.3306330051
 20
2750.0510300218
 30
0.0
 11
1110.5161436405
 21
2750.0510300218
 31
0.0
  0
ARC
  5
EA
  8
0
  6
CONTINUOUS
 62
     7
 10
1103.8841432068
 20
2748.0678270421
 30
0.0
 40
6.922176233715726
 50
359.8609351289
 51
16.6485272578
  0
LINE
  5
EB
  8
0
  6
CONTINUOUS
 62
     7
 10
1107.3306330051
 20
2749.7611279307
 30
0.0
 11
1107.3306330051
 21
2750.0510300218
 31
0.0
  0
LINE
  5
EC
  8
0
  6
CONTINUOUS
 62
     7
 10
1110.5161436405
 20
2451.0510201274
 30
0.0
 11
1107.3306330051
 21
2451.0510201274
 31
0.0
  0
LINE
  5
ED
  8
0
  6
CONTINUOUS
 62
     7
 10
1107.3306330051
 20
2451.0510201274
 30
0.0
 11
1107.3306330051
 21
2451.3409222184
 31
0.0
  0
ARC
  5
EE
  8
0
  6
CONTINUOUS
 62
     7
 10
1103.8841432068
 20
2453.034223107
 30
0.0
 40
6.922176233715726
 50
343.3514727422
 51
0.1390648711
  0
LINE
  5
EF
  8
0
  6
CONTINUOUS
 62
     7
 10
1036.0500939693
 20
2750.0510300218
 30
0.0
 11
1107.3306330051
 21
2750.0510300218
 31
0.0
  0
LINE
  5
F0
  8
0
  6
CONTINUOUS
 62
     7
 10
1036.0500939693
 20
2750.0510300218
 30
0.0
 11
1036.0500939693
 21
2749.7611279307
 31
0.0
  0
LINE
  5
F1
  8
0
  6
CONTINUOUS
 62
     7
 10
1107.3306330051
 20
2451.0510201274
 30
0.0
 11
1036.0500939693
 21
2451.0510201274
 31
0.0
  0
LINE
  5
F2
  8
0
  6
CONTINUOUS
 62
     7
 10
1036.0500939693
 20
2451.3409222184
 30
0.0
 11
1036.0500939693
 21
2451.0510201274
 31
0.0
  0
ARC
  5
F3
  8
0
  6
CONTINUOUS
 62
     7
 10
1121.0501187649
 20
2748.0510264455
 30
0.0
 40
5.0
 50
0.0
 51
23.5781784782
  0
LINE
  5
F4
  8
0
  6
CONTINUOUS
 62
     7
 10
1110.5161436405
 20
2750.0510300218
 30
0.0
 11
1125.6327160206
 21
2750.0510300218
 31
0.0
  0
ARC
  5
F5
  8
0
  6
CONTINUOUS
 62
     7
 10
1121.0501187649
 20
2453.0510264455
 30
0.0
 40
5.000000000000074
 50
336.4218215218
 51
0.0
  0
LINE
  5
F6
  8
0
  6
CONTINUOUS
 62
     7
 10
1125.6327160206
 20
2451.0510201274
 30
0.0
 11
1110.5161436405
 21
2451.0510201274
 31
0.0
  0
LINE
  5
F7
  8
0
  6
CONTINUOUS
 62
     7
 10
1098.5500939693
 20
2750.0510300218
 30
0.0
 11
1098.5500939693
 21
2772.8027934848
 31
0.0
  0
LINE
  5
F8
  8
0
  6
CONTINUOUS
 62
     7
 10
1113.86455377
 20
2750.0510300218
 30
0.0
 11
1115.0569446888
 21
2772.8027934848
 31
0.0
  0
LINE
  5
F9
  8
0
  6
CONTINUOUS
 62
     7
 10
1038.2356770839
 20
2750.0510300218
 30
0.0
 11
1037.0433457699
 21
2772.8027934848
 31
0.0
  0
LINE
  5
FA
  8
0
  6
CONTINUOUS
 62
     7
 10
1053.5501368847
 20
2750.0510300218
 30
0.0
 11
1053.5501368847
 21
2772.8027934848
 31
0.0
  0
LINE
  5
FB
  8
0
  6
CONTINUOUS
 62
     7
 10
1102.0501383152
 20
2451.0510201274
 30
0.0
 11
1102.0501383152
 21
2438.0510235845
 31
0.0
  0
LINE
  5
FC
  8
0
  6
CONTINUOUS
 62
     7
 10
1114.0501030292
 20
2438.0510235845
 30
0.0
 11
1114.0501030292
 21
2451.0510201274
 31
0.0
  0
LINE
  5
FD
  8
0
  6
CONTINUOUS
 62
     7
 10
1102.0501383152
 20
2438.0510235845
 30
0.0
 11
1114.0501030292
 21
2438.0510235845
 31
0.0
  0
LINE
  5
FE
  8
0
  6
CONTINUOUS
 62
     7
 10
1102.0501383152
 20
2438.0510235845
 30
0.0
 11
1041.0500892009
 21
2438.0510235845
 31
0.0
  0
LINE
  5
FF
  8
0
  6
CONTINUOUS
 62
     7
 10
1041.0500892009
 20
2438.0510235845
 30
0.0
 11
1041.0500892009
 21
2451.0510201274
 31
0.0
  0
LINE
  5
100
  8
0
  6
CONTINUOUS
 62
     7
 10
1038.0500682201
 20
2451.0510201274
 30
0.0
 11
1038.0500682201
 21
2438.0510235845
 31
0.0
  0
LINE
  5
101
  8
0
  6
CONTINUOUS
 62
     7
 10
1038.0500682201
 20
2438.0510235845
 30
0.0
 11
1041.0500892009
 21
2438.0510235845
 31
0.0
  0
ARC
  5
102
  8
0
  6
CONTINUOUS
 62
     7
 10
1125.0312600448
 20
2772.0510264455
 30
0.0
 40
10.00000000000003
 50
90.0
 51
177.0000000013
  0
ARC
  5
103
  8
0
  6
CONTINUOUS
 62
     7
 10
1027.0689774849
 20
2772.0510264455
 30
0.0
 40
10.00000000000006
 50
3.0
 51
90.0
  0
LINE
  5
104
  8
0
  6
CONTINUOUS
 62
     7
 10
1096.5525039043
 20
2889.5510221539
 30
0.0
 11
1055.5477269497
 21
2889.5510221539
 31
0.0
  0
LINE
  5
105
  8
0
  6
CONTINUOUS
 62
     7
 10
3055.0501473751
 20
2600.5510264716
 30
0.0
 11
3055.0501473751
 21
2425.5510206042
 31
0.0
  0
LINE
  5
106
  8
0
  6
CONTINUOUS
 62
     7
 10
3055.0501473751
 20
2775.5510295449
 30
0.0
 11
3055.0501473751
 21
2600.5510264716
 31
0.0
  0
LINE
  5
107
  8
0
  6
CONTINUOUS
 62
     7
 10
1180.0501473751
 20
2425.5510206042
 30
0.0
 11
1180.0501473751
 21
2582.5510267807
 31
0.0
  0
LINE
  5
108
  8
0
  6
CONTINUOUS
 62
     7
 10
1180.0501473751
 20
2612.5510261102
 30
0.0
 11
1180.0501473751
 21
2775.5510295449
 31
0.0
  0
LINE
  5
109
  8
0
  6
CONTINUOUS
 62
     7
 10
1135.0501306858
 20
2600.5510264716
 30
0.0
 11
1135.0501306858
 21
2775.5510295449
 31
0.0
  0
LINE
  5
10A
  8
0
  6
CONTINUOUS
 62
     7
 10
1135.0501306858
 20
2425.5510206042
 30
0.0
 11
1135.0501306858
 21
2600.5510264716
 31
0.0
  0
LINE
  5
10B
  8
0
  6
CONTINUOUS
 62
     7
 10
1247.6844318714
 20
2612.5510261102
 30
0.0
 11
1180.0501473751
 21
2612.5510261102
 31
0.0
  0
LINE
  5
10C
  8
0
  6
CONTINUOUS
 62
     7
 10
1247.6844318714
 20
2582.5510267807
 30
0.0
 11
1180.0501473751
 21
2582.5510267807
 31
0.0
  0
LINE
  5
10D
  8
0
  6
CONTINUOUS
 62
     7
 10
2990.0500901546
 20
2612.5510261102
 30
0.0
 11
2990.0500901546
 21
2775.5510295449
 31
0.0
  0
LINE
  5
10E
  8
0
  6
CONTINUOUS
 62
     7
 10
2990.0500901546
 20
2425.5510206042
 30
0.0
 11
2990.0500901546
 21
2582.5510267807
 31
0.0
  0
LINE
  5
10F
  8
0
  6
CONTINUOUS
 62
     7
 10
2922.4158056583
 20
2612.5510261102
 30
0.0
 11
2990.0500901546
 21
2612.5510261102
 31
0.0
  0
LINE
  5
110
  8
0
  6
CONTINUOUS
 62
     7
 10
2922.4158056583
 20
2582.5510267807
 30
0.0
 11
2990.0500901546
 21
2582.5510267807
 31
0.0
  0
LINE
  5
111
  8
0
  6
CONTINUOUS
 62
     7
 10
1126.0565050449
 20
2473.3578423677
 30
0.0
 11
1126.0565050449
 21
2727.6694114028
 31
0.0
  0
LINE
  5
112
  8
0
  6
CONTINUOUS
 62
     7
 10
1016.0501130428
 20
2724.6957654773
 30
0.0
 11
1036.0500939693
 21
2724.6957654773
 31
0.0
  0
LINE
  5
113
  8
0
  6
CONTINUOUS
 62
     7
 10
1016.0501130428
 20
2723.0510200082
 30
0.0
 11
1016.0501130428
 21
2724.6957654773
 31
0.0
  0
LINE
  5
114
  8
0
  6
CONTINUOUS
 62
     7
 10
1036.0500939693
 20
2476.4062921224
 30
0.0
 11
1016.0501130428
 21
2476.4062921224
 31
0.0
  0
LINE
  5
115
  8
0
  6
CONTINUOUS
 62
     7
 10
1016.0501130428
 20
2476.4062921224
 30
0.0
 11
1016.0501130428
 21
2478.051030141
 31
0.0
  0
LINE
  5
116
  8
0
  6
CONTINUOUS
 62
     7
 10
1125.7521637287
 20
2782.0510203658
 30
0.0
 11
1126.0501273479
 21
2780.5510247765
 31
0.0
  0
LINE
  5
117
  8
0
  6
CONTINUOUS
 62
     7
 10
1126.0501273479
 20
2780.5510247765
 30
0.0
 11
1126.0501273479
 21
2748.2260401069
 31
0.0
  0
ARC
  5
118
  8
0
  6
CONTINUOUS
 62
     7
 10
1121.050103576
 20
2420.5510539129
 30
0.0
 40
5.000023771982851
 50
270.0003270459
 51
359.9996729541
  0
LINE
  5
119
  8
0
  6
CONTINUOUS
 62
     7
 10
1126.0501273479
 20
2420.5510253726
 30
0.0
 11
1126.0501273479
 21
2452.8760100423
 31
0.0
  0
LINE
  5
11A
  8
0
  6
CONTINUOUS
 62
     7
 10
1036.0500939693
 20
2769.7605724154
 30
0.0
 11
1016.0501130428
 21
2769.7605724154
 31
0.0
  0
LINE
  5
11B
  8
0
  6
CONTINUOUS
 62
     7
 10
1016.0501130428
 20
2724.6957654773
 30
0.0
 11
1016.0501130428
 21
2769.7605724154
 31
0.0
  0
LINE
  5
11C
  8
0
  6
CONTINUOUS
 62
     7
 10
1016.0501130428
 20
2431.3414777337
 30
0.0
 11
1036.0500939693
 21
2431.3414777337
 31
0.0
  0
LINE
  5
11D
  8
0
  6
CONTINUOUS
 62
     7
 10
1016.0501130428
 20
2431.3414777337
 30
0.0
 11
1016.0501130428
 21
2476.4062921224
 31
0.0
  0
LINE
  5
11E
  8
0
  6
CONTINUOUS
 62
     7
 10
1036.0500939693
 20
2776.4486456929
 30
0.0
 11
1036.0500939693
 21
2750.0510300218
 31
0.0
  0
LINE
  5
11F
  8
0
  6
CONTINUOUS
 62
     7
 10
1121.0501321163
 20
2415.551030141
 30
0.0
 11
1068.0501588192
 21
2415.551030141
 31
0.0
  0
LINE
  5
120
  8
0
  6
CONTINUOUS
 62
     7
 10
1068.0501588192
 20
2424.0517402707
 30
0.0
 11
1036.0500939693
 21
2424.0517402707
 31
0.0
  0
LINE
  5
121
  8
0
  6
CONTINUOUS
 62
     7
 10
1036.0500939693
 20
2451.0510201274
 30
0.0
 11
1036.0500939693
 21
2424.0517402707
 31
0.0
  0
LINE
  5
122
  8
0
  6
CONTINUOUS
 62
     7
 10
2915.0813945141
 20
2709.1500620066
 30
0.0
 11
2990.0500901546
 21
2709.1500620066
 31
0.0
  0
LINE
  5
123
  8
0
  6
CONTINUOUS
 62
     7
 10
1255.0188430156
 20
2709.1500620066
 30
0.0
 11
1180.0501473751
 21
2709.1500620066
 31
0.0
  0
LINE
  5
124
  8
0
  6
CONTINUOUS
 62
     7
 10
2915.8660300579
 20
2491.9519955932
 30
0.0
 11
2990.0500901546
 21
2491.9519955932
 31
0.0
  0
LINE
  5
125
  8
0
  6
CONTINUOUS
 62
     7
 10
1254.2342074718
 20
2491.9519955932
 30
0.0
 11
1180.0501473751
 21
2491.9519955932
 31
0.0
  0
LINE
  5
126
  8
0
  6
CONTINUOUS
 62
     7
 10
1011.0501178112
 20
2685.5510259686
 30
0.0
 11
1011.0501178112
 21
2515.5510241805
 31
0.0
  0
LINE
  5
127
  8
0
  6
CONTINUOUS
 62
     7
 10
1016.0501130428
 20
2772.50450204
 30
0.0
 11
1036.0500939693
 21
2772.50450204
 31
0.0
  0
LINE
  5
128
  8
0
  6
CONTINUOUS
 62
     7
 10
1016.0501130428
 20
2769.7605724154
 30
0.0
 11
1016.0501130428
 21
2772.50450204
 31
0.0
  0
LINE
  5
129
  8
0
  6
CONTINUOUS
 62
     7
 10
1036.0500939693
 20
2428.5975481091
 30
0.0
 11
1016.0501130428
 21
2428.5975481091
 31
0.0
  0
LINE
  5
12A
  8
0
  6
CONTINUOUS
 62
     7
 10
1016.0501130428
 20
2428.5975481091
 30
0.0
 11
1016.0501130428
 21
2431.3414777337
 31
0.0
  0
LINE
  5
12B
  8
0
  6
CONTINUOUS
 62
     7
 10
1016.0501130428
 20
2785.5510200082
 30
0.0
 11
1017.5521500911
 21
2785.5510200082
 31
0.0
  0
LINE
  5
12C
  8
0
  6
CONTINUOUS
 62
     7
 10
1016.0501130428
 20
2782.5510288297
 30
0.0
 11
1016.0501130428
 21
2785.5510200082
 31
0.0
  0
LINE
  5
12D
  8
0
  6
CONTINUOUS
 62
     7
 10
1016.0501130428
 20
2772.50450204
 30
0.0
 11
1016.0501130428
 21
2782.5510288297
 31
0.0
  0
LINE
  5
12E
  8
0
  6
CONTINUOUS
 62
     7
 10
1068.0501588192
 20
2418.5510213195
 30
0.0
 11
1068.0501588192
 21
2424.0517402707
 31
0.0
  0
LINE
  5
12F
  8
0
  6
CONTINUOUS
 62
     7
 10
1016.0501130428
 20
2418.5510213195
 30
0.0
 11
1068.0501588192
 21
2418.5510213195
 31
0.0
  0
LINE
  5
130
  8
0
  6
CONTINUOUS
 62
     7
 10
1016.0501130428
 20
2418.5510213195
 30
0.0
 11
1016.0501130428
 21
2428.5975481091
 31
0.0
  0
LINE
  5
131
  8
0
  6
CONTINUOUS
 62
     7
 10
1068.0501588192
 20
2415.551030141
 30
0.0
 11
1016.0501130428
 21
2415.551030141
 31
0.0
  0
LINE
  5
132
  8
0
  6
CONTINUOUS
 62
     7
 10
1068.0501588192
 20
2415.551030141
 30
0.0
 11
1068.0501588192
 21
2418.5510213195
 31
0.0
  0
LINE
  5
133
  8
0
  6
CONTINUOUS
 62
     7
 10
1016.0501130428
 20
2415.551030141
 30
0.0
 11
1016.0501130428
 21
2418.5510213195
 31
0.0
  0
LINE
  5
134
  8
0
  6
CONTINUOUS
 62
     7
 10
2905.5269487705
 20
2765.5510241805
 30
0.0
 11
2990.0500901546
 21
2765.5510241805
 31
0.0
  0
LINE
  5
135
  8
0
  6
CONTINUOUS
 62
     7
 10
1264.5732887592
 20
2765.5510241805
 30
0.0
 11
1180.0501473751
 21
2765.5510241805
 31
0.0
  0
LINE
  5
136
  8
0
  6
CONTINUOUS
 62
     7
 10
2906.7326911297
 20
2435.5510259686
 30
0.0
 11
2990.0500901546
 21
2435.5510259686
 31
0.0
  0
LINE
  5
137
  8
0
  6
CONTINUOUS
 62
     7
 10
1263.3675464
 20
2435.5510259686
 30
0.0
 11
1180.0501473751
 21
2435.5510259686
 31
0.0
  0
LINE
  5
138
  8
0
  6
CONTINUOUS
 62
     7
 10
1109.2121728267
 20
2859.006919962
 30
0.0
 11
1122.9483612385
 21
2859.006919962
 31
0.0
  0
LINE
  5
139
  8
0
  6
CONTINUOUS
 62
     7
 10
1029.1519292202
 20
2859.006919962
 30
0.0
 11
1109.2121728267
 21
2859.006919962
 31
0.0
  0
LINE
  5
13A
  8
0
  6
CONTINUOUS
 62
     7
 10
1101.7724402752
 20
2867.7693689881
 30
0.0
 11
1050.3277905788
 21
2867.7693689881
 31
0.0
  0
LINE
  5
13B
  8
0
  6
CONTINUOUS
 62
     7
 10
1054.0254243221
 20
2872.9994679509
 30
0.0
 11
1098.0747469272
 21
2872.9994679509
 31
0.0
  0
LINE
  5
13C
  8
0
  6
CONTINUOUS
 62
     7
 10
1097.3481067028
 20
2886.8650282441
 30
0.0
 11
1054.7521241512
 21
2886.8650282441
 31
0.0
  0
LINE
  5
13D
  8
0
  6
CONTINUOUS
 62
     7
 10
3035.0501068439
 20
2600.5510264716
 30
0.0
 11
3035.0501068439
 21
2775.5510295449
 31
0.0
  0
LINE
  5
13E
  8
0
  6
CONTINUOUS
 62
     7
 10
3035.0501068439
 20
2425.5510206042
 30
0.0
 11
3035.0501068439
 21
2600.5510264716
 31
0.0
  0
LINE
  5
13F
  8
0
  6
CONTINUOUS
 62
     7
 10
1121.0501321163
 20
2750.0510300218
 30
0.0
 11
1121.0501321163
 21
2781.1534489213
 31
0.0
  0
LINE
  5
140
  8
0
  6
CONTINUOUS
 62
     7
 10
1121.0501321163
 20
2415.551030141
 30
0.0
 11
1121.0501321163
 21
2451.0510201274
 31
0.0
  0
LINE
  5
141
  8
0
  6
CONTINUOUS
 62
     7
 10
1016.0501130428
 20
2782.5510288297
 30
0.0
 11
1022.0289357509
 21
2782.5510288297
 31
0.0
  0
INSERT
  5
14D
  8
FORMAT
  2
SW_CENTERMARKSYMBOL_0
 10
2085.0501187649
 20
2597.5510264455
 30
0.0
  0
INSERT
  5
159
  8
FORMAT
  2
SW_CENTERMARKSYMBOL_1
 10
2154.3389342492
 20
3389.5258114284
 30
0.0
  0
INSERT
  5
165
  8
FORMAT
  2
SW_CENTERMARKSYMBOL_2
 10
2290.8112596214
 20
3365.4620583453
 30
0.0
  0
INSERT
  5
171
  8
FORMAT
  2
SW_CENTERMARKSYMBOL_3
 10
2421.0316368487
 20
3318.0657171396
 30
0.0
  0
INSERT
  5
17D
  8
FORMAT
  2
SW_CENTERMARKSYMBOL_4
 10
2541.0433856639
 20
3248.7769016552
 30
0.0
  0
INSERT
  5
189
  8
FORMAT
  2
SW_CENTERMARKSYMBOL_5
 10
2647.2000098082
 20
3159.7009174888
 30
0.0
  0
INSERT
  5
195
  8
FORMAT
  2
SW_CENTERMARKSYMBOL_6
 10
2736.2759939746
 20
3053.5442933446
 30
0.0
  0
INSERT
  5
1A1
  8
FORMAT
  2
SW_CENTERMARKSYMBOL_7
 10
2805.564809459
 20
2933.5325445293
 30
0.0
  0
INSERT
  5
1AD
  8
FORMAT
  2
SW_CENTERMARKSYMBOL_8
 10
2852.9611506647
 20
2803.312167302
 30
0.0
  0
INSERT
  5
1B9
  8
FORMAT
  2
SW_CENTERMARKSYMBOL_9
 10
2877.0249037478
 20
2666.8398419299
 30
0.0
  0
INSERT
  5
1C5
  8
FORMAT
  2
SW_CENTERMARKSYMBOL_10
 10
2877.0249037478
 20
2528.2622109611
 30
0.0
  0
INSERT
  5
1D1
  8
FORMAT
  2
SW_CENTERMARKSYMBOL_11
 10
2852.9611506647
 20
2391.789885589
 30
0.0
  0
INSERT
  5
1DD
  8
FORMAT
  2
SW_CENTERMARKSYMBOL_12
 10
2805.564809459
 20
2261.5695083616
 30
0.0
  0
INSERT
  5
1E9
  8
FORMAT
  2
SW_CENTERMARKSYMBOL_13
 10
2736.2759939746
 20
2141.5577595464
 30
0.0
  0
INSERT
  5
1F5
  8
FORMAT
  2
SW_CENTERMARKSYMBOL_14
 10
2647.2000098082
 20
2035.4011354022
 30
0.0
  0
INSERT
  5
201
  8
FORMAT
  2
SW_CENTERMARKSYMBOL_15
 10
2541.0433856639
 20
1946.3251512357
 30
0.0
  0
INSERT
  5
20D
  8
FORMAT
  2
SW_CENTERMARKSYMBOL_16
 10
2421.0316368487
 20
1877.0363357513
 30
0.0
  0
INSERT
  5
219
  8
FORMAT
  2
SW_CENTERMARKSYMBOL_17
 10
2290.8112596214
 20
1829.6399945457
 30
0.0
  0
INSERT
  5
225
  8
FORMAT
  2
SW_CENTERMARKSYMBOL_18
 10
2154.3389342492
 20
1805.5762414625
 30
0.0
  0
INSERT
  5
231
  8
FORMAT
  2
SW_CENTERMARKSYMBOL_19
 10
2015.7613032805
 20
1805.5762414625
 30
0.0
  0
INSERT
  5
23D
  8
FORMAT
  2
SW_CENTERMARKSYMBOL_20
 10
1879.2889779083
 20
1829.6399945457
 30
0.0
  0
INSERT
  5
249
  8
FORMAT
  2
SW_CENTERMARKSYMBOL_21
 10
1749.068600681
 20
1877.0363357513
 30
0.0
  0
INSERT
  5
255
  8
FORMAT
  2
SW_CENTERMARKSYMBOL_22
 10
1629.0568518658
 20
1946.3251512357
 30
0.0
  0
INSERT
  5
261
  8
FORMAT
  2
SW_CENTERMARKSYMBOL_23
 10
1522.9002277215
 20
2035.4011354022
 30
0.0
  0
INSERT
  5
26D
  8
FORMAT
  2
SW_CENTERMARKSYMBOL_24
 10
1433.8242435551
 20
2141.5577595464
 30
0.0
  0
INSERT
  5
279
  8
FORMAT
  2
SW_CENTERMARKSYMBOL_25
 10
1364.5354280707
 20
2261.5695083616
 30
0.0
  0
INSERT
  5
285
  8
FORMAT
  2
SW_CENTERMARKSYMBOL_26
 10
1317.139086865
 20
2391.789885589
 30
0.0
  0
INSERT
  5
291
  8
FORMAT
  2
SW_CENTERMARKSYMBOL_27
 10
1293.0753337819
 20
2528.2622109611
 30
0.0
  0
INSERT
  5
29D
  8
FORMAT
  2
SW_CENTERMARKSYMBOL_28
 10
1293.0753337819
 20
2666.8398419299
 30
0.0
  0
INSERT
  5
2A9
  8
FORMAT
  2
SW_CENTERMARKSYMBOL_29
 10
1317.139086865
 20
2803.312167302
 30
0.0
  0
INSERT
  5
2B5
  8
FORMAT
  2
SW_CENTERMARKSYMBOL_30
 10
1364.5354280707
 20
2933.5325445293
 30
0.0
  0
INSERT
  5
2C1
  8
FORMAT
  2
SW_CENTERMARKSYMBOL_31
 10
1433.8242435551
 20
3053.5442933446
 30
0.0
  0
INSERT
  5
2CD
  8
FORMAT
  2
SW_CENTERMARKSYMBOL_32
 10
1522.9002277215
 20
3159.7009174888
 30
0.0
  0
INSERT
  5
2D9
  8
FORMAT
  2
SW_CENTERMARKSYMBOL_33
 10
1629.0568518658
 20
3248.7769016552
 30
0.0
  0
INSERT
  5
2E5
  8
FORMAT
  2
SW_CENTERMARKSYMBOL_34
 10
1749.068600681
 20
3318.0657171396
 30
0.0
  0
INSERT
  5
2F1
  8
FORMAT
  2
SW_CENTERMARKSYMBOL_35
 10
1879.2889779084
 20
3365.4620583453
 30
0.0
  0
INSERT
  5
2FD
  8
FORMAT
  2
SW_CENTERMARKSYMBOL_36
 10
2015.7613032805
 20
3389.5258114284
 30
0.0
  0
ARC
  5
2FE
  8
0
  6
CONTINUOUS
 62
     7
 10
1322.0501187649
 20
1227.3850356295
 30
0.0
 40
2.000000000000227
 50
90.0
 51
180.0
  0
ARC
  5
2FF
  8
0
  6
CONTINUOUS
 62
     7
 10
2848.0501187649
 20
1227.3850356295
 30
0.0
 40
2.0
 50
0.0
 51
90.0
  0
LINE
  5
300
  8
0
  6
CONTINUOUS
 62
     7
 10
1320.05013307
 20
1227.3850208475
 30
0.0
 11
1320.05013307
 21
1224.385029669
 31
0.0
  0
LINE
  5
301
  8
0
  6
CONTINUOUS
 62
     7
 10
2850.0501044597
 20
1224.385029669
 30
0.0
 11
2850.0501044597
 21
1227.3850208475
 31
0.0
  0
ARC
  5
302
  8
0
  6
CONTINUOUS
 62
     7
 10
1322.0501187649
 20
521.3850356295
 30
0.0
 40
2.000000000000227
 50
180.0
 51
270.0
  0
ARC
  5
303
  8
0
  6
CONTINUOUS
 62
     7
 10
2848.0501187649
 20
521.3850356295
 30
0.0
 40
2.0
 50
270.0
 51
0.0
  0
LINE
  5
304
  8
0
  6
CONTINUOUS
 62
     7
 10
1320.05013307
 20
524.3850415899
 30
0.0
 11
1320.05013307
 21
521.3850504114
 31
0.0
  0
LINE
  5
305
  8
0
  6
CONTINUOUS
 62
     7
 10
2850.0501044597
 20
521.3850504114
 30
0.0
 11
2850.0501044597
 21
524.3850415899
 31
0.0
  0
LINE
  5
306
  8
0
  6
CONTINUOUS
 62
     7
 10
2178.5104029383
 20
916.1009220733
 30
0.0
 11
2178.1308927145
 21
916.1009220733
 31
0.0
  0
LINE
  5
307
  8
0
  6
CONTINUOUS
 62
     7
 10
2219.8048659172
 20
931.6207906558
 30
0.0
 11
2219.257680377
 21
931.6207943811
 31
0.0
  0
LINE
  5
308
  8
0
  6
CONTINUOUS
 62
     7
 10
2219.8332973327
 20
863.3414926334
 30
0.0
 11
2219.2859776821
 21
863.3414935647
 31
0.0
  0
LINE
  5
309
  8
0
  6
CONTINUOUS
 62
     7
 10
2219.2860819902
 20
885.4283877044
 30
0.0
 11
2219.8334016409
 21
885.428389567
 31
0.0
  0
LINE
  5
30A
  8
0
  6
CONTINUOUS
 62
     7
 10
2219.2860819902
 20
810.1962125256
 30
0.0
 11
2219.8334016409
 21
810.1962199761
 31
0.0
  0
LINE
  5
30B
  8
0
  6
CONTINUOUS
 62
     7
 10
2922.550094923
 20
1049.3850326492
 30
0.0
 11
2922.550094923
 21
1224.385029669
 31
0.0
  0
LINE
  5
30C
  8
0
  6
CONTINUOUS
 62
     7
 10
1247.5501426067
 20
1224.385029669
 30
0.0
 11
1247.5501426067
 21
1049.3850326492
 31
0.0
  0
LINE
  5
30D
  8
0
  6
CONTINUOUS
 62
     7
 10
2922.550094923
 20
524.3850415899
 30
0.0
 11
2922.550094923
 21
699.3850386097
 31
0.0
  0
LINE
  5
30E
  8
0
  6
CONTINUOUS
 62
     7
 10
1247.5501426067
 20
684.6248871042
 30
0.0
 11
1247.5501426067
 21
524.3850415899
 31
0.0
  0
ARC
  5
30F
  8
0
  6
CONTINUOUS
 62
     7
 10
1076.0501187649
 20
692.3850356295
 30
0.0
 40
324.9999999999999
 50
271.3876223436
 51
358.7691755226
  0
ARC
  5
310
  8
0
  6
CONTINUOUS
 62
     7
 10
1076.0501187649
 20
692.3850356295
 30
0.0
 40
325.0
 50
1.3855928694
 51
88.7794340732
  0
ARC
  5
311
  8
0
  6
CONTINUOUS
 62
     7
 10
1076.0501187649
 20
692.3850356295
 30
0.0
 40
325.0000000000001
 50
91.3845168386
 51
178.7689262547
  0
ARC
  5
312
  8
0
  6
CONTINUOUS
 62
     7
 10
1076.0501187649
 20
692.3850356295
 30
0.0
 40
325.0
 50
181.3902860157
 51
268.7717387295
  0
CIRCLE
  5
313
  8
0
  6
CONTINUOUS
 62
     7
 10
1076.0501187649
 20
692.3850356295
 30
0.0
 40
349.9999999999999
  0
LINE
  5
314
  8
0
  6
CONTINUOUS
 62
     7
 10
1031.743539175
 20
700.323081608
 30
0.0
 11
751.1377461757
 21
699.9306297256
 31
0.0
  0
LINE
  5
315
  8
0
  6
CONTINUOUS
 62
     7
 10
751.1601575222
 20
683.9306420042
 30
0.0
 11
1031.7613013592
 21
684.3230938866
 31
0.0
  0
LINE
  5
316
  8
0
  6
CONTINUOUS
 62
     7
 10
1120.3515656795
 20
684.4469821407
 30
0.0
 11
1400.9624846782
 21
684.8394489242
 31
0.0
  0
LINE
  5
317
  8
0
  6
CONTINUOUS
 62
     7
 10
1400.9401329365
 20
700.8394217445
 30
0.0
 11
1120.333028635
 21
700.4469698622
 31
0.0
  0
LINE
  5
318
  8
0
  6
CONTINUOUS
 62
     7
 10
1068.1120284404
 20
648.0836039736
 30
0.0
 11
1068.5044654217
 21
367.4726253702
 31
0.0
  0
LINE
  5
319
  8
0
  6
CONTINUOUS
 62
     7
 10
1084.5044978466
 20
367.4950367166
 30
0.0
 11
1084.1120608654
 21
648.1021261169
 31
0.0
  0
LINE
  5
31A
  8
0
  6
CONTINUOUS
 62
     7
 10
1083.9882024135
 20
736.6864746763
 30
0.0
 11
1083.5957654323
 21
1017.2974234774
 31
0.0
  0
LINE
  5
31B
  8
0
  6
CONTINUOUS
 62
     7
 10
1067.5957330074
 20
1017.2750568344
 30
0.0
 11
1067.9881699886
 21
736.667952533
 31
0.0
  0
LINE
  5
31C
  8
0
  6
CONTINUOUS
 62
     7
 10
1247.577441534
 20
1049.3850326492
 30
0.0
 11
1135.0501306858
 21
1049.3850326492
 31
0.0
  0
LINE
  5
31D
  8
0
  6
CONTINUOUS
 62
     7
 10
3035.0501068439
 20
1049.3850326492
 30
0.0
 11
2922.5236304607
 21
1049.3850326492
 31
0.0
  0
LINE
  5
31E
  8
0
  6
CONTINUOUS
 62
     7
 10
2922.5227959957
 20
699.3850386097
 30
0.0
 11
3035.0501068439
 21
699.3850386097
 31
0.0
  0
LINE
  5
31F
  8
0
  6
CONTINUOUS
 62
     7
 10
3035.0501068439
 20
699.3850386097
 30
0.0
 11
3055.0501473751
 21
699.3850386097
 31
0.0
  0
LINE
  5
320
  8
0
  6
CONTINUOUS
 62
     7
 10
3055.0501473751
 20
1049.3850326492
 30
0.0
 11
3035.0501068439
 21
1049.3850326492
 31
0.0
  0
LINE
  5
321
  8
0
  6
CONTINUOUS
 62
     7
 10
1135.0501306858
 20
1044.3850374176
 30
0.0
 11
1122.5501426067
 21
1044.3850374176
 31
0.0
  0
LINE
  5
322
  8
0
  6
CONTINUOUS
 62
     7
 10
1120.1068886127
 20
1014.3850362255
 30
0.0
 11
1083.5998185482
 21
1014.3850362255
 31
0.0
  0
LINE
  5
323
  8
0
  6
CONTINUOUS
 62
     7
 10
1067.5997861232
 20
1014.3850362255
 30
0.0
 11
1031.9932826366
 21
1014.3850362255
 31
0.0
  0
LINE
  5
324
  8
0
  6
CONTINUOUS
 62
     7
 10
1011.0501178112
 20
789.3850347354
 30
0.0
 11
1016.0501130428
 21
789.3850347354
 31
0.0
  0
LINE
  5
325
  8
0
  6
CONTINUOUS
 62
     7
 10
1016.0501130428
 20
959.3850365235
 30
0.0
 11
1011.0501178112
 21
959.3850365235
 31
0.0
  0
LINE
  5
326
  8
0
  6
CONTINUOUS
 62
     7
 10
2525.0501163807
 20
1224.385029669
 30
0.0
 11
2090.0501186531
 21
1224.385029669
 31
0.0
  0
LINE
  5
327
  8
0
  6
CONTINUOUS
 62
     7
 10
2525.0501163807
 20
1183.3850210859
 30
0.0
 11
2525.0501163807
 21
1224.385029669
 31
0.0
  0
LINE
  5
328
  8
0
  6
CONTINUOUS
 62
     7
 10
2090.0501186531
 20
1183.3850210859
 30
0.0
 11
2525.0501163807
 21
1183.3850210859
 31
0.0
  0
LINE
  5
329
  8
0
  6
CONTINUOUS
 62
     7
 10
2090.0501186531
 20
1183.3850210859
 30
0.0
 11
2090.0501186531
 21
1224.385029669
 31
0.0
  0
LINE
  5
32A
  8
0
  6
CONTINUOUS
 62
     7
 10
2085.0501187649
 20
1183.3850210859
 30
0.0
 11
2080.0501188766
 21
1183.3850210859
 31
0.0
  0
LINE
  5
32B
  8
0
  6
CONTINUOUS
 62
     7
 10
2080.0501188766
 20
1183.3850210859
 30
0.0
 11
2080.0501188766
 21
1224.385029669
 31
0.0
  0
LINE
  5
32C
  8
0
  6
CONTINUOUS
 62
     7
 10
2085.0501187649
 20
1183.3850210859
 30
0.0
 11
2085.0501187649
 21
1224.385029669
 31
0.0
  0
LINE
  5
32D
  8
0
  6
CONTINUOUS
 62
     7
 10
2085.0501187649
 20
1224.385029669
 30
0.0
 11
2080.0501188766
 21
1224.385029669
 31
0.0
  0
LINE
  5
32E
  8
0
  6
CONTINUOUS
 62
     7
 10
1645.050121149
 20
1183.3850210859
 30
0.0
 11
2080.0501188766
 21
1183.3850210859
 31
0.0
  0
LINE
  5
32F
  8
0
  6
CONTINUOUS
 62
     7
 10
2080.0501188766
 20
1224.385029669
 30
0.0
 11
1645.050121149
 21
1224.385029669
 31
0.0
  0
LINE
  5
330
  8
0
  6
CONTINUOUS
 62
     7
 10
1645.050121149
 20
1224.385029669
 30
0.0
 11
1645.050121149
 21
1183.3850210859
 31
0.0
  0
LINE
  5
331
  8
0
  6
CONTINUOUS
 62
     7
 10
2090.0501186531
 20
1183.3850210859
 30
0.0
 11
2085.0501187649
 21
1183.3850210859
 31
0.0
  0
LINE
  5
332
  8
0
  6
CONTINUOUS
 62
     7
 10
2090.0501186531
 20
1224.385029669
 30
0.0
 11
2085.0501187649
 21
1224.385029669
 31
0.0
  0
LINE
  5
333
  8
0
  6
CONTINUOUS
 62
     7
 10
1645.050121149
 20
524.3850415899
 30
0.0
 11
2080.0501188766
 21
524.3850415899
 31
0.0
  0
LINE
  5
334
  8
0
  6
CONTINUOUS
 62
     7
 10
1645.050121149
 20
565.385050173
 30
0.0
 11
1645.050121149
 21
524.3850415899
 31
0.0
  0
LINE
  5
335
  8
0
  6
CONTINUOUS
 62
     7
 10
2080.0501188766
 20
524.3850415899
 30
0.0
 11
2080.0501188766
 21
565.385050173
 31
0.0
  0
LINE
  5
336
  8
0
  6
CONTINUOUS
 62
     7
 10
2080.0501188766
 20
565.385050173
 30
0.0
 11
1645.050121149
 21
565.385050173
 31
0.0
  0
LINE
  5
337
  8
0
  6
CONTINUOUS
 62
     7
 10
2090.0501186531
 20
524.3850415899
 30
0.0
 11
2525.0501163807
 21
524.3850415899
 31
0.0
  0
LINE
  5
338
  8
0
  6
CONTINUOUS
 62
     7
 10
2090.0501186531
 20
524.3850415899
 30
0.0
 11
2090.0501186531
 21
565.385050173
 31
0.0
  0
LINE
  5
339
  8
0
  6
CONTINUOUS
 62
     7
 10
2525.0501163807
 20
565.385050173
 30
0.0
 11
2090.0501186531
 21
565.385050173
 31
0.0
  0
LINE
  5
33A
  8
0
  6
CONTINUOUS
 62
     7
 10
2525.0501163807
 20
524.3850415899
 30
0.0
 11
2525.0501163807
 21
565.385050173
 31
0.0
  0
LINE
  5
33B
  8
0
  6
CONTINUOUS
 62
     7
 10
2085.0501187649
 20
524.3850415899
 30
0.0
 11
2085.0501187649
 21
565.385050173
 31
0.0
  0
LINE
  5
33C
  8
0
  6
CONTINUOUS
 62
     7
 10
2085.0501187649
 20
524.3850415899
 30
0.0
 11
2080.0501188766
 21
524.3850415899
 31
0.0
  0
LINE
  5
33D
  8
0
  6
CONTINUOUS
 62
     7
 10
2080.0501188766
 20
565.385050173
 30
0.0
 11
2085.0501187649
 21
565.385050173
 31
0.0
  0
LINE
  5
33E
  8
0
  6
CONTINUOUS
 62
     7
 10
2090.0501186531
 20
524.3850415899
 30
0.0
 11
2085.0501187649
 21
524.3850415899
 31
0.0
  0
LINE
  5
33F
  8
0
  6
CONTINUOUS
 62
     7
 10
2085.0501187649
 20
565.385050173
 30
0.0
 11
2090.0501186531
 21
565.385050173
 31
0.0
  0
LINE
  5
340
  8
0
  6
CONTINUOUS
 62
     7
 10
2088.0501187909
 20
1171.3850265695
 30
0.0
 11
2082.0501187388
 21
1171.3850265695
 31
0.0
  0
LINE
  5
341
  8
0
  6
CONTINUOUS
 62
     7
 10
2082.0501187388
 20
1171.3850265695
 30
0.0
 11
2082.0501187388
 21
1183.3850210859
 31
0.0
  0
LINE
  5
342
  8
0
  6
CONTINUOUS
 62
     7
 10
2088.0501187909
 20
1171.3850265695
 30
0.0
 11
2088.0501187909
 21
1183.3850210859
 31
0.0
  0
LINE
  5
343
  8
0
  6
CONTINUOUS
 62
     7
 10
2088.0501187909
 20
1171.3850265695
 30
0.0
 11
2100.0501184296
 21
1171.3850265695
 31
0.0
  0
ARC
  5
344
  8
0
  6
CONTINUOUS
 62
     7
 10
2112.0501187649
 20
1171.3850356295
 30
0.0
 40
12.0
 50
90.0
 51
180.0
  0
LINE
  5
345
  8
0
  6
CONTINUOUS
 62
     7
 10
2070.0501191001
 20
1171.3850265695
 30
0.0
 11
2082.0501187388
 21
1171.3850265695
 31
0.0
  0
ARC
  5
346
  8
0
  6
CONTINUOUS
 62
     7
 10
2058.0501187649
 20
1171.3850356295
 30
0.0
 40
12.0
 50
0.0
 51
90.0
  0
LINE
  5
347
  8
0
  6
CONTINUOUS
 62
     7
 10
2082.0501187388
 20
565.385050173
 30
0.0
 11
2082.0501187388
 21
577.3850446894
 31
0.0
  0
LINE
  5
348
  8
0
  6
CONTINUOUS
 62
     7
 10
2082.0501187388
 20
577.3850446894
 30
0.0
 11
2088.0501187909
 21
577.3850446894
 31
0.0
  0
LINE
  5
349
  8
0
  6
CONTINUOUS
 62
     7
 10
2088.0501187909
 20
565.385050173
 30
0.0
 11
2088.0501187909
 21
577.3850446894
 31
0.0
  0
LINE
  5
34A
  8
0
  6
CONTINUOUS
 62
     7
 10
2100.0501184296
 20
577.3850446894
 30
0.0
 11
2088.0501187909
 21
577.3850446894
 31
0.0
  0
ARC
  5
34B
  8
0
  6
CONTINUOUS
 62
     7
 10
2112.0501187649
 20
577.3850356295
 30
0.0
 40
12.0
 50
180.0
 51
270.0
  0
ARC
  5
34C
  8
0
  6
CONTINUOUS
 62
     7
 10
2058.0501187649
 20
577.3850356295
 30
0.0
 40
12.0
 50
270.0
 51
0.0
  0
LINE
  5
34D
  8
0
  6
CONTINUOUS
 62
     7
 10
2082.0501187388
 20
577.3850446894
 30
0.0
 11
2070.0501191001
 21
577.3850446894
 31
0.0
  0
LINE
  5
34E
  8
0
  6
CONTINUOUS
 62
     7
 10
2088.0501187909
 20
577.3850446894
 30
0.0
 11
2088.0501187909
 21
1171.3850265695
 31
0.0
  0
LINE
  5
34F
  8
0
  6
CONTINUOUS
 62
     7
 10
2100.0501184296
 20
1171.3850265695
 30
0.0
 11
2100.0501184296
 21
577.3850446894
 31
0.0
  0
LINE
  5
350
  8
0
  6
CONTINUOUS
 62
     7
 10
2070.0501191001
 20
577.3850446894
 30
0.0
 11
2070.0501191001
 21
1171.3850265695
 31
0.0
  0
LINE
  5
351
  8
0
  6
CONTINUOUS
 62
     7
 10
2082.0501187388
 20
1171.3850265695
 30
0.0
 11
2082.0501187388
 21
577.3850446894
 31
0.0
  0
LINE
  5
352
  8
0
  6
CONTINUOUS
 62
     7
 10
1322.0501073208
 20
1229.3850249006
 30
0.0
 11
2848.0501302089
 21
1229.3850249006
 31
0.0
  0
LINE
  5
353
  8
0
  6
CONTINUOUS
 62
     7
 10
1322.0501073208
 20
519.3850463583
 30
0.0
 11
1351.1791952457
 21
519.3850463583
 31
0.0
  0
LINE
  5
354
  8
0
  6
CONTINUOUS
 62
     7
 10
1380.3049453106
 20
519.3850463583
 30
0.0
 11
2848.0501302089
 21
519.3850463583
 31
0.0
  0
LINE
  5
355
  8
0
  6
CONTINUOUS
 62
     7
 10
2559.7095318641
 20
1224.385029669
 30
0.0
 11
2559.7095318641
 21
1183.3850210859
 31
0.0
  0
LINE
  5
356
  8
0
  6
CONTINUOUS
 62
     7
 10
2559.7095318641
 20
1183.3850210859
 30
0.0
 11
2525.0501163807
 21
1183.3850210859
 31
0.0
  0
LINE
  5
357
  8
0
  6
CONTINUOUS
 62
     7
 10
2525.0501163807
 20
1224.385029669
 30
0.0
 11
2559.7095318641
 21
1224.385029669
 31
0.0
  0
LINE
  5
358
  8
0
  6
CONTINUOUS
 62
     7
 10
1610.3907056656
 20
1183.3850210859
 30
0.0
 11
1610.3907056656
 21
1224.385029669
 31
0.0
  0
LINE
  5
359
  8
0
  6
CONTINUOUS
 62
     7
 10
1645.050121149
 20
1183.3850210859
 30
0.0
 11
1610.3907056656
 21
1183.3850210859
 31
0.0
  0
LINE
  5
35A
  8
0
  6
CONTINUOUS
 62
     7
 10
1610.3907056656
 20
1224.385029669
 30
0.0
 11
1645.050121149
 21
1224.385029669
 31
0.0
  0
LINE
  5
35B
  8
0
  6
CONTINUOUS
 62
     7
 10
1610.3907056656
 20
524.3850415899
 30
0.0
 11
1610.3907056656
 21
565.385050173
 31
0.0
  0
LINE
  5
35C
  8
0
  6
CONTINUOUS
 62
     7
 10
1645.050121149
 20
524.3850415899
 30
0.0
 11
1610.3907056656
 21
524.3850415899
 31
0.0
  0
LINE
  5
35D
  8
0
  6
CONTINUOUS
 62
     7
 10
1610.3907056656
 20
565.385050173
 30
0.0
 11
1645.050121149
 21
565.385050173
 31
0.0
  0
LINE
  5
35E
  8
0
  6
CONTINUOUS
 62
     7
 10
2559.7095318641
 20
565.385050173
 30
0.0
 11
2559.7095318641
 21
524.3850415899
 31
0.0
  0
LINE
  5
35F
  8
0
  6
CONTINUOUS
 62
     7
 10
2559.7095318641
 20
524.3850415899
 30
0.0
 11
2525.0501163807
 21
524.3850415899
 31
0.0
  0
LINE
  5
360
  8
0
  6
CONTINUOUS
 62
     7
 10
2525.0501163807
 20
565.385050173
 30
0.0
 11
2559.7095318641
 21
565.385050173
 31
0.0
  0
ARC
  5
361
  8
0
  6
CONTINUOUS
 62
     7
 10
2198.4388898081
 20
1174.2580494003
 30
0.0
 40
86.86956459836054
 50
173.9690746512
 51
181.8952795184
  0
LINE
  5
362
  8
0
  6
CONTINUOUS
 62
     7
 10
2100.0501184296
 20
1171.3850265695
 30
0.0
 11
2111.6168477144
 21
1171.3850265695
 31
0.0
  0
LINE
  5
363
  8
0
  6
CONTINUOUS
 62
     7
 10
2070.0501191001
 20
1171.3850265695
 30
0.0
 11
2058.4833898153
 21
1171.3850265695
 31
0.0
  0
ARC
  5
364
  8
0
  6
CONTINUOUS
 62
     7
 10
1978.4803124068
 20
1174.5042549102
 30
0.0
 40
80.0638618871189
 50
357.7672340991
 51
6.3684117313
  0
ARC
  5
365
  8
0
  6
CONTINUOUS
 62
     7
 10
2832.6984280799
 20
1171.3837941005
 30
0.0
 40
12.00122704954891
 50
89.9940746807
 51
179.9941159956
  0
LINE
  5
366
  8
0
  6
CONTINUOUS
 62
     7
 10
2111.6168477144
 20
1171.3850265695
 30
0.0
 11
2820.6972010936
 21
1171.3850265695
 31
0.0
  0
LINE
  5
367
  8
0
  6
CONTINUOUS
 62
     7
 10
1349.4030364361
 20
1171.3850265695
 30
0.0
 11
2058.4833898153
 21
1171.3850265695
 31
0.0
  0
ARC
  5
368
  8
0
  6
CONTINUOUS
 62
     7
 10
1337.4019086468
 20
1171.383893318
 30
0.0
 40
12.00112784273866
 50
0.0054103689
 51
90.0063989547
  0
LINE
  5
369
  8
0
  6
CONTINUOUS
 62
     7
 10
2058.4833898153
 20
577.3850446894
 30
0.0
 11
2070.0501191001
 21
577.3850446894
 31
0.0
  0
LINE
  5
36A
  8
0
  6
CONTINUOUS
 62
     7
 10
2058.4833898153
 20
577.3850446894
 30
0.0
 11
2058.4833898153
 21
1171.3850265695
 31
0.0
  0
LINE
  5
36B
  8
0
  6
CONTINUOUS
 62
     7
 10
2111.6168477144
 20
1171.3850265695
 30
0.0
 11
2111.6168477144
 21
577.3850446894
 31
0.0
  0
LINE
  5
36C
  8
0
  6
CONTINUOUS
 62
     7
 10
2111.6168477144
 20
577.3850446894
 30
0.0
 11
2100.0501184296
 21
577.3850446894
 31
0.0
  0
ARC
  5
36D
  8
0
  6
CONTINUOUS
 62
     7
 10
2191.6199251229
 20
574.2658163487
 30
0.0
 40
80.06386188711866
 50
177.7672340991
 51
186.3684117313
  0
ARC
  5
36E
  8
0
  6
CONTINUOUS
 62
     7
 10
1971.6613477216
 20
574.5120218586
 30
0.0
 40
86.86956459836009
 50
353.9690746512
 51
1.8952795184
  0
ARC
  5
36F
  8
0
  6
CONTINUOUS
 62
     7
 10
1337.4020453874
 20
577.3860411721
 30
0.0
 40
12.00099109001909
 50
269.9929481381
 51
359.9952425383
  0
LINE
  5
370
  8
0
  6
CONTINUOUS
 62
     7
 10
2111.6168477144
 20
577.3850446894
 30
0.0
 11
2820.6972010936
 21
577.3850446894
 31
0.0
  0
ARC
  5
371
  8
0
  6
CONTINUOUS
 62
     7
 10
2832.6985119857
 20
577.3863610815
 30
0.0
 40
12.00131096427123
 50
180.0062846228
 51
270.0055247009
  0
LINE
  5
372
  8
0
  6
CONTINUOUS
 62
     7
 10
2820.6972010936
 20
983.7285345747
 30
0.0
 11
2820.6972010936
 21
1171.3850265695
 31
0.0
  0
POLYLINE
  5
373
  8
0
  6
CONTINUOUS
 62
     7
 66
     1
 10
0.0
 20
0.0
 30
0.0
  0
VERTEX
  5
63E
  8
0
  6
CONTINUOUS
 62
     7
 10
2812.3377688732
 20
891.885035704
 30
0.0
  0
VERTEX
  5
63F
  8
0
  6
CONTINUOUS
 62
     7
 10
2812.6208909359
 20
900.9314710601
 30
0.0
  0
VERTEX
  5
640
  8
0
  6
CONTINUOUS
 62
     7
 10
2813.0113013592
 20
909.8185180082
 30
0.0
  0
VERTEX
  5
641
  8
0
  6
CONTINUOUS
 62
     7
 10
2813.4951718654
 20
918.4535695567
 30
0.0
  0
VERTEX
  5
642
  8
0
  6
CONTINUOUS
 62
     7
 10
2814.0587933864
 20
926.7440354778
 30
0.0
  0
VERTEX
  5
643
  8
0
  6
CONTINUOUS
 62
     7
 10
2814.689768156
 20
934.6538922145
 30
0.0
  0
VERTEX
  5
644
  8
0
  6
CONTINUOUS
 62
     7
 10
2815.3711684551
 20
942.164062555
 30
0.0
  0
VERTEX
  5
645
  8
0
  6
CONTINUOUS
 62
     7
 10
2816.0816558208
 20
949.1997203185
 30
0.0
  0
VERTEX
  5
646
  8
0
  6
CONTINUOUS
 62
     7
 10
2816.8000109997
 20
955.6860542252
 30
0.0
  0
VERTEX
  5
647
  8
0
  6
CONTINUOUS
 62
     7
 10
2817.5136574115
 20
961.6329511954
 30
0.0
  0
VERTEX
  5
648
  8
0
  6
CONTINUOUS
 62
     7
 10
2818.2007797565
 20
966.9797113492
 30
0.0
  0
VERTEX
  5
649
  8
0
  6
CONTINUOUS
 62
     7
 10
2818.8412316646
 20
971.6728469684
 30
0.0
  0
VERTEX
  5
64A
  8
0
  6
CONTINUOUS
 62
     7
 10
2819.4147475567
 20
975.6588703348
 30
0.0
  0
VERTEX
  5
64B
  8
0
  6
CONTINUOUS
 62
     7
 10
2819.9717529621
 20
979.3398147776
 30
0.0
  0
VERTEX
  5
64C
  8
0
  6
CONTINUOUS
 62
     7
 10
2820.4049595203
 20
982.0430269792
 30
0.0
  0
VERTEX
  5
64D
  8
0
  6
CONTINUOUS
 62
     7
 10
2820.6972010936
 20
983.7285345747
 30
0.0
  0
SEQEND
  5
762
  8
0
  6
CONTINUOUS
 62
     7
  0
LINE
  5
374
  8
0
  6
CONTINUOUS
 62
     7
 10
2801.4143236484
 20
856.8850355549
 30
0.0
 11
2801.4143236484
 21
891.885035704
 31
0.0
  0
POLYLINE
  5
375
  8
0
  6
CONTINUOUS
 62
     7
 66
     1
 10
0.0
 20
0.0
 30
0.0
  0
VERTEX
  5
64E
  8
0
  6
CONTINUOUS
 62
     7
 10
2820.6972010936
 20
765.0415366842
 30
0.0
  0
VERTEX
  5
64F
  8
0
  6
CONTINUOUS
 62
     7
 10
2820.4529412594
 20
766.4384534909
 30
0.0
  0
VERTEX
  5
650
  8
0
  6
CONTINUOUS
 62
     7
 10
2820.1012142505
 20
768.6020126893
 30
0.0
  0
VERTEX
  5
651
  8
0
  6
CONTINUOUS
 62
     7
 10
2819.6538217869
 20
771.5043938114
 30
0.0
  0
VERTEX
  5
652
  8
0
  6
CONTINUOUS
 62
     7
 10
2819.1225059833
 20
775.1177614881
 30
0.0
  0
VERTEX
  5
653
  8
0
  6
CONTINUOUS
 62
     7
 10
2818.5178168621
 20
779.4349780633
 30
0.0
  0
VERTEX
  5
654
  8
0
  6
CONTINUOUS
 62
     7
 10
2817.8557880726
 20
784.4329318358
 30
0.0
  0
VERTEX
  5
655
  8
0
  6
CONTINUOUS
 62
     7
 10
2817.1568640079
 20
790.0562128379
 30
0.0
  0
VERTEX
  5
656
  8
0
  6
CONTINUOUS
 62
     7
 10
2816.4414294567
 20
796.2494036509
 30
0.0
  0
VERTEX
  5
657
  8
0
  6
CONTINUOUS
 62
     7
 10
2815.7214649524
 20
803.0468514516
 30
0.0
  0
VERTEX
  5
658
  8
0
  6
CONTINUOUS
 62
     7
 10
2815.0194414463
 20
810.3775075032
 30
0.0
  0
VERTEX
  5
659
  8
0
  6
CONTINUOUS
 62
     7
 10
2814.3564589824
 20
818.1625521137
 30
0.0
  0
VERTEX
  5
65A
  8
0
  6
CONTINUOUS
 62
     7
 10
2813.7536772098
 20
826.3231618657
 30
0.0
  0
VERTEX
  5
65B
  8
0
  6
CONTINUOUS
 62
     7
 10
2813.1546505298
 20
836.168366517
 30
0.0
  0
VERTEX
  5
65C
  8
0
  6
CONTINUOUS
 62
     7
 10
2812.6758464184
 20
846.4042721643
 30
0.0
  0
VERTEX
  5
65D
  8
0
  6
CONTINUOUS
 62
     7
 10
2812.3377688732
 20
856.8850355549
 30
0.0
  0
SEQEND
  5
761
  8
0
  6
CONTINUOUS
 62
     7
  0
LINE
  5
376
  8
0
  6
CONTINUOUS
 62
     7
 10
2820.6972010936
 20
577.3850446894
 30
0.0
 11
2820.6972010936
 21
765.0415366842
 31
0.0
  0
ARC
  5
377
  8
0
  6
CONTINUOUS
 62
     7
 10
2161.1340919238
 20
814.195881699
 30
0.0
 40
0.6233476781450772
 50
179.8479739997
 51
269.8465880271
  0
ARC
  5
378
  8
0
  6
CONTINUOUS
 62
     7
 10
2161.1340860547
 20
937.9491929242
 30
0.0
 40
0.6233418246219334
 50
90.1528739444
 51
180.1525640287
  0
LINE
  5
379
  8
0
  6
CONTINUOUS
 62
     7
 10
2160.5107464399
 20
891.8651463791
 30
0.0
 11
2160.5107464399
 21
937.9475331261
 31
0.0
  0
ARC
  5
37A
  8
0
  6
CONTINUOUS
 62
     7
 10
2161.13732971
 20
891.8653496302
 30
0.0
 40
0.6265833030833874
 50
180.0185856063
 51
247.2006876564
  0
POLYLINE
  5
37B
  8
0
  6
CONTINUOUS
 62
     7
 66
     1
 10
0.0
 20
0.0
 30
0.0
  0
VERTEX
  5
65E
  8
0
  6
CONTINUOUS
 62
     7
 10
2199.9697290864
 20
874.9624603405
 30
0.0
  0
VERTEX
  5
65F
  8
0
  6
CONTINUOUS
 62
     7
 10
2180.4663442578
 20
883.1250910043
 30
0.0
  0
VERTEX
  5
660
  8
0
  6
CONTINUOUS
 62
     7
 10
2160.8945258465
 20
891.2877226575
 30
0.0
  0
SEQEND
  5
760
  8
0
  6
CONTINUOUS
 62
     7
  0
ARC
  5
37C
  8
0
  6
CONTINUOUS
 62
     7
 10
2199.723667383
 20
874.3850356295
 30
0.0
 40
0.6276668374348119
 50
293.0806202955
 51
66.9193797045
  0
POLYLINE
  5
37D
  8
0
  6
CONTINUOUS
 62
     7
 66
     1
 10
0.0
 20
0.0
 30
0.0
  0
VERTEX
  5
661
  8
0
  6
CONTINUOUS
 62
     7
 10
2160.8945258465
 20
857.4823486014
 30
0.0
  0
VERTEX
  5
662
  8
0
  6
CONTINUOUS
 62
     7
 10
2180.4663442578
 20
865.6449802547
 30
0.0
  0
VERTEX
  5
663
  8
0
  6
CONTINUOUS
 62
     7
 10
2199.9697290864
 20
873.8076109184
 30
0.0
  0
SEQEND
  5
75F
  8
0
  6
CONTINUOUS
 62
     7
  0
ARC
  5
37E
  8
0
  6
CONTINUOUS
 62
     7
 10
2161.1373285528
 20
856.9047223979
 30
0.0
 40
0.6265821455835867
 50
112.799242045
 51
179.9814846924
  0
LINE
  5
37F
  8
0
  6
CONTINUOUS
 62
     7
 10
2160.5107464399
 20
814.1975356593
 30
0.0
 11
2160.5107464399
 21
856.9049248799
 31
0.0
  0
ARC
  5
380
  8
0
  6
CONTINUOUS
 62
     7
 10
2178.1336382559
 20
937.9500105605
 30
0.0
 40
0.622527018091708
 50
90.2307497415
 51
180.2280172669
  0
LINE
  5
381
  8
0
  6
CONTINUOUS
 62
     7
 10
2177.5111161675
 20
926.0624824418
 30
0.0
 11
2177.5111161675
 21
937.9475331261
 31
0.0
  0
ARC
  5
382
  8
0
  6
CONTINUOUS
 62
     7
 10
2178.1340658254
 20
926.0605425531
 30
0.0
 40
0.6229526783241316
 50
179.8215793565
 51
271.8622661247
  0
ARC
  5
383
  8
0
  6
CONTINUOUS
 62
     7
 10
2178.6063034558
 20
911.7633167057
 30
0.0
 40
13.68207013838034
 50
357.4287042151
 51
91.893137241
  0
ARC
  5
384
  8
0
  6
CONTINUOUS
 62
     7
 10
2191.6580785906
 20
911.1692102048
 30
0.0
 40
0.6168343324926656
 50
290.4749848802
 51
358.1693000803
  0
ARC
  5
385
  8
0
  6
CONTINUOUS
 62
     7
 10
2178.1134432858
 20
915.4942270874
 30
0.0
 40
0.6025938735462739
 50
88.3009546355
 51
181.7048957179
  0
LINE
  5
386
  8
0
  6
CONTINUOUS
 62
     7
 10
2177.5111161675
 20
903.2993847831
 30
0.0
 11
2177.5111161675
 21
915.4762989237
 31
0.0
  0
ARC
  5
387
  8
0
  6
CONTINUOUS
 62
     7
 10
2178.1377361914
 20
903.2991791367
 30
0.0
 40
0.6266200576491415
 50
179.9811964655
 51
247.0964340214
  0
POLYLINE
  5
388
  8
0
  6
CONTINUOUS
 62
     7
 66
     1
 10
0.0
 20
0.0
 30
0.0
  0
VERTEX
  5
664
  8
0
  6
CONTINUOUS
 62
     7
 10
2219.027874669
 20
885.4751624494
 30
0.0
  0
VERTEX
  5
665
  8
0
  6
CONTINUOUS
 62
     7
 10
2198.5062860455
 20
894.0985603585
 30
0.0
  0
VERTEX
  5
666
  8
0
  6
CONTINUOUS
 62
     7
 10
2177.8938673939
 20
902.7219610615
 30
0.0
  0
SEQEND
  5
75E
  8
0
  6
CONTINUOUS
 62
     7
  0
POLYLINE
  5
389
  8
0
  6
CONTINUOUS
 62
     7
 66
     1
 10
0.0
 20
0.0
 30
0.0
  0
VERTEX
  5
667
  8
0
  6
CONTINUOUS
 62
     7
 10
2219.286156496
 20
885.4317982076
 30
0.0
  0
VERTEX
  5
668
  8
0
  6
CONTINUOUS
 62
     7
 10
2219.1733547058
 20
885.4343695893
 30
0.0
  0
VERTEX
  5
669
  8
0
  6
CONTINUOUS
 62
     7
 10
2219.027874669
 20
885.4751624494
 30
0.0
  0
SEQEND
  5
75D
  8
0
  6
CONTINUOUS
 62
     7
  0
ARC
  5
38A
  8
0
  6
CONTINUOUS
 62
     7
 10
2219.2306814218
 20
931.1134486068
 30
0.0
 40
0.5063392257934102
 50
87.1021463976
 51
126.029759814
  0
LINE
  5
38B
  8
0
  6
CONTINUOUS
 62
     7
 10
2202.4662770834
 20
920.8759358479
 30
0.0
 11
2218.9328499641
 21
931.5229310049
 31
0.0
  0
ARC
  5
38C
  8
0
  6
CONTINUOUS
 62
     7
 10
2178.1336441284
 20
814.1950640505
 30
0.0
 40
0.6225328673470036
 50
179.7725210501
 51
269.7687119414
  0
LINE
  5
38D
  8
0
  6
CONTINUOUS
 62
     7
 10
2219.027874669
 20
810.2429872705
 30
0.0
 11
2190.7533832397
 21
822.1139787092
 31
0.0
  0
POLYLINE
  5
38E
  8
0
  6
CONTINUOUS
 62
     7
 66
     1
 10
0.0
 20
0.0
 30
0.0
  0
VERTEX
  5
66A
  8
0
  6
CONTINUOUS
 62
     7
 10
2219.286156496
 20
810.1996248915
 30
0.0
  0
VERTEX
  5
66B
  8
0
  6
CONTINUOUS
 62
     7
 10
2219.1733547058
 20
810.2021953418
 30
0.0
  0
VERTEX
  5
66C
  8
0
  6
CONTINUOUS
 62
     7
 10
2219.027874669
 20
810.2429872705
 30
0.0
  0
SEQEND
  5
75C
  8
0
  6
CONTINUOUS
 62
     7
  0
POLYLINE
  5
38F
  8
0
  6
CONTINUOUS
 62
     7
 66
     1
 10
0.0
 20
0.0
 30
0.0
  0
VERTEX
  5
66D
  8
0
  6
CONTINUOUS
 62
     7
 10
2219.027874669
 20
863.2949088095
 30
0.0
  0
VERTEX
  5
66E
  8
0
  6
CONTINUOUS
 62
     7
 10
2219.1731460895
 20
863.3354707016
 30
0.0
  0
VERTEX
  5
66F
  8
0
  6
CONTINUOUS
 62
     7
 10
2219.2860521879
 20
863.3380681603
 30
0.0
  0
SEQEND
  5
75B
  8
0
  6
CONTINUOUS
 62
     7
  0
POLYLINE
  5
390
  8
0
  6
CONTINUOUS
 62
     7
 66
     1
 10
0.0
 20
0.0
 30
0.0
  0
VERTEX
  5
670
  8
0
  6
CONTINUOUS
 62
     7
 10
2177.8938673939
 20
846.0481101974
 30
0.0
  0
VERTEX
  5
671
  8
0
  6
CONTINUOUS
 62
     7
 10
2198.5062860455
 20
854.6715109004
 30
0.0
  0
VERTEX
  5
672
  8
0
  6
CONTINUOUS
 62
     7
 10
2219.027874669
 20
863.2949088095
 30
0.0
  0
SEQEND
  5
75A
  8
0
  6
CONTINUOUS
 62
     7
  0
ARC
  5
391
  8
0
  6
CONTINUOUS
 62
     7
 10
2178.1377447354
 20
845.4708864587
 30
0.0
 40
0.6266285998344187
 50
112.9040840761
 51
180.018285437
  0
LINE
  5
392
  8
0
  6
CONTINUOUS
 62
     7
 10
2177.5111161675
 20
814.1975356593
 30
0.0
 11
2177.5111161675
 21
845.4706864758
 31
0.0
  0
POLYLINE
  5
393
  8
0
  6
CONTINUOUS
 62
     7
 66
     1
 10
0.0
 20
0.0
 30
0.0
  0
VERTEX
  5
673
  8
0
  6
CONTINUOUS
 62
     7
 10
1349.4030364361
 20
765.0415366842
 30
0.0
  0
VERTEX
  5
674
  8
0
  6
CONTINUOUS
 62
     7
 10
1349.6472962703
 20
766.4384534909
 30
0.0
  0
VERTEX
  5
675
  8
0
  6
CONTINUOUS
 62
     7
 10
1349.9990232792
 20
768.6020126893
 30
0.0
  0
VERTEX
  5
676
  8
0
  6
CONTINUOUS
 62
     7
 10
1350.4464157428
 20
771.5043938114
 30
0.0
  0
VERTEX
  5
677
  8
0
  6
CONTINUOUS
 62
     7
 10
1350.9777315464
 20
775.1177614881
 30
0.0
  0
VERTEX
  5
678
  8
0
  6
CONTINUOUS
 62
     7
 10
1351.5824206676
 20
779.4349780633
 30
0.0
  0
VERTEX
  5
679
  8
0
  6
CONTINUOUS
 62
     7
 10
1352.2444494571
 20
784.4329318358
 30
0.0
  0
VERTEX
  5
67A
  8
0
  6
CONTINUOUS
 62
     7
 10
1352.9433735218
 20
790.0562128379
 30
0.0
  0
VERTEX
  5
67B
  8
0
  6
CONTINUOUS
 62
     7
 10
1353.658808073
 20
796.2494036509
 30
0.0
  0
VERTEX
  5
67C
  8
0
  6
CONTINUOUS
 62
     7
 10
1354.3787725773
 20
803.0468514516
 30
0.0
  0
VERTEX
  5
67D
  8
0
  6
CONTINUOUS
 62
     7
 10
1355.0807960834
 20
810.3775075032
 30
0.0
  0
VERTEX
  5
67E
  8
0
  6
CONTINUOUS
 62
     7
 10
1355.7437785473
 20
818.1625521137
 30
0.0
  0
VERTEX
  5
67F
  8
0
  6
CONTINUOUS
 62
     7
 10
1356.3465603199
 20
826.3231618657
 30
0.0
  0
VERTEX
  5
680
  8
0
  6
CONTINUOUS
 62
     7
 10
1356.9455869999
 20
836.168366517
 30
0.0
  0
VERTEX
  5
681
  8
0
  6
CONTINUOUS
 62
     7
 10
1357.4243911113
 20
846.4042721643
 30
0.0
  0
VERTEX
  5
682
  8
0
  6
CONTINUOUS
 62
     7
 10
1357.6822408046
 20
854.3972121878
 30
0.0
  0
SEQEND
  5
759
  8
0
  6
CONTINUOUS
 62
     7
  0
LINE
  5
394
  8
0
  6
CONTINUOUS
 62
     7
 10
1368.6859138813
 20
884.3857581123
 30
0.0
 11
1368.6859138813
 21
891.885035704
 31
0.0
  0
POLYLINE
  5
395
  8
0
  6
CONTINUOUS
 62
     7
 66
     1
 10
0.0
 20
0.0
 30
0.0
  0
VERTEX
  5
683
  8
0
  6
CONTINUOUS
 62
     7
 10
1357.5040825214
 20
900.1420336171
 30
0.0
  0
VERTEX
  5
684
  8
0
  6
CONTINUOUS
 62
     7
 10
1357.4793465938
 20
900.9314710601
 30
0.0
  0
VERTEX
  5
685
  8
0
  6
CONTINUOUS
 62
     7
 10
1357.0889361706
 20
909.8185180082
 30
0.0
  0
VERTEX
  5
686
  8
0
  6
CONTINUOUS
 62
     7
 10
1356.6050656643
 20
918.4535695567
 30
0.0
  0
VERTEX
  5
687
  8
0
  6
CONTINUOUS
 62
     7
 10
1356.0414441433
 20
926.7440354778
 30
0.0
  0
VERTEX
  5
688
  8
0
  6
CONTINUOUS
 62
     7
 10
1355.4104693737
 20
934.6538922145
 30
0.0
  0
VERTEX
  5
689
  8
0
  6
CONTINUOUS
 62
     7
 10
1354.7290690746
 20
942.164062555
 30
0.0
  0
VERTEX
  5
68A
  8
0
  6
CONTINUOUS
 62
     7
 10
1354.0185817089
 20
949.1997203185
 30
0.0
  0
VERTEX
  5
68B
  8
0
  6
CONTINUOUS
 62
     7
 10
1353.30022653
 20
955.6860542252
 30
0.0
  0
VERTEX
  5
68C
  8
0
  6
CONTINUOUS
 62
     7
 10
1352.5865801182
 20
961.6329511954
 30
0.0
  0
VERTEX
  5
68D
  8
0
  6
CONTINUOUS
 62
     7
 10
1351.8994577732
 20
966.9797113492
 30
0.0
  0
VERTEX
  5
68E
  8
0
  6
CONTINUOUS
 62
     7
 10
1351.2590058651
 20
971.6728469684
 30
0.0
  0
VERTEX
  5
68F
  8
0
  6
CONTINUOUS
 62
     7
 10
1350.685489973
 20
975.6588703348
 30
0.0
  0
VERTEX
  5
690
  8
0
  6
CONTINUOUS
 62
     7
 10
1350.1284845676
 20
979.3398147776
 30
0.0
  0
VERTEX
  5
691
  8
0
  6
CONTINUOUS
 62
     7
 10
1349.6952780094
 20
982.0430269792
 30
0.0
  0
VERTEX
  5
692
  8
0
  6
CONTINUOUS
 62
     7
 10
1349.4030364361
 20
983.7285345747
 30
0.0
  0
SEQEND
  5
758
  8
0
  6
CONTINUOUS
 62
     7
  0
LINE
  5
396
  8
0
  6
CONTINUOUS
 62
     7
 10
1349.4030364361
 20
983.7285345747
 30
0.0
 11
1349.4030364361
 21
1171.3850265695
 31
0.0
  0
LINE
  5
397
  8
0
  6
CONTINUOUS
 62
     7
 10
1349.4030364361
 20
577.3850446894
 30
0.0
 11
1349.4030364361
 21
684.7673273041
 31
0.0
  0
LINE
  5
398
  8
0
  6
CONTINUOUS
 62
     7
 10
1349.4030364361
 20
700.7673448278
 30
0.0
 11
1349.4030364361
 21
765.0415366842
 31
0.0
  0
LINE
  5
399
  8
0
  6
CONTINUOUS
 62
     7
 10
2160.8184107151
 20
814.1975356593
 30
0.0
 11
2160.8184107151
 21
856.9049248799
 31
0.0
  0
ARC
  5
39A
  8
0
  6
CONTINUOUS
 62
     7
 10
2161.4431572412
 20
856.9052915848
 30
0.0
 40
0.6247466337068891
 50
112.531998482
 51
180.0336306644
  0
POLYLINE
  5
39B
  8
0
  6
CONTINUOUS
 62
     7
 66
     1
 10
0.0
 20
0.0
 30
0.0
  0
VERTEX
  5
693
  8
0
  6
CONTINUOUS
 62
     7
 10
2161.2037547435
 20
857.4823486014
 30
0.0
  0
VERTEX
  5
694
  8
0
  6
CONTINUOUS
 62
     7
 10
2180.8553763237
 20
865.6449802547
 30
0.0
  0
VERTEX
  5
695
  8
0
  6
CONTINUOUS
 62
     7
 10
2200.438281199
 20
873.8076109184
 30
0.0
  0
SEQEND
  5
757
  8
0
  6
CONTINUOUS
 62
     7
  0
ARC
  5
39C
  8
0
  6
CONTINUOUS
 62
     7
 10
2200.1944791942
 20
874.3850356295
 30
0.0
 40
0.6267844242531126
 50
292.8905904001
 51
67.1094095999
  0
POLYLINE
  5
39D
  8
0
  6
CONTINUOUS
 62
     7
 66
     1
 10
0.0
 20
0.0
 30
0.0
  0
VERTEX
  5
696
  8
0
  6
CONTINUOUS
 62
     7
 10
2200.438281199
 20
874.9624603405
 30
0.0
  0
VERTEX
  5
697
  8
0
  6
CONTINUOUS
 62
     7
 10
2180.8553763237
 20
883.1250910043
 30
0.0
  0
VERTEX
  5
698
  8
0
  6
CONTINUOUS
 62
     7
 10
2161.2037547435
 20
891.2877226575
 30
0.0
  0
SEQEND
  5
756
  8
0
  6
CONTINUOUS
 62
     7
  0
ARC
  5
39E
  8
0
  6
CONTINUOUS
 62
     7
 10
2161.4431559281
 20
891.8647787979
 30
0.0
 40
0.6247453211697157
 50
179.966288902
 51
247.4680819516
  0
LINE
  5
39F
  8
0
  6
CONTINUOUS
 62
     7
 10
2160.8184107151
 20
891.8651463791
 30
0.0
 11
2160.8184107151
 21
937.9475331261
 31
0.0
  0
ARC
  5
3A0
  8
0
  6
CONTINUOUS
 62
     7
 10
2161.4430232361
 20
937.9479200191
 30
0.0
 40
0.6246126408569145
 50
90.0369560987
 51
180.0354897379
  0
LINE
  5
3A1
  8
0
  6
CONTINUOUS
 62
     7
 10
2161.4426203575
 20
938.57253253
 30
0.0
 11
2172.6685740556
 21
938.57253253
 31
0.0
  0
ARC
  5
3A2
  8
0
  6
CONTINUOUS
 62
     7
 10
2172.667631764
 20
937.9484981483
 30
0.0
 40
0.6240350931389984
 50
359.9113964513
 51
89.913483463
  0
LINE
  5
3A3
  8
0
  6
CONTINUOUS
 62
     7
 10
2173.291666111
 20
937.9475331261
 30
0.0
 11
2173.291666111
 21
900.217379476
 31
0.0
  0
ARC
  5
3A4
  8
0
  6
CONTINUOUS
 62
     7
 10
2173.9164104855
 20
900.2167050515
 30
0.0
 40
0.6247447385249197
 50
179.9381480388
 51
247.3948866695
  0
POLYLINE
  5
3A5
  8
0
  6
CONTINUOUS
 62
     7
 66
     1
 10
0.0
 20
0.0
 30
0.0
  0
VERTEX
  5
699
  8
0
  6
CONTINUOUS
 62
     7
 10
2173.676272532
 20
899.6399557545
 30
0.0
  0
VERTEX
  5
69A
  8
0
  6
CONTINUOUS
 62
     7
 10
2196.9177179541
 20
889.9621963828
 30
0.0
  0
VERTEX
  5
69B
  8
0
  6
CONTINUOUS
 62
     7
 10
2220.0463690366
 20
880.2844374767
 30
0.0
  0
SEQEND
  5
755
  8
0
  6
CONTINUOUS
 62
     7
  0
ARC
  5
3A6
  8
0
  6
CONTINUOUS
 62
     7
 10
2219.8024574787
 20
879.7092417762
 30
0.0
 40
0.6247743128848396
 50
359.7955904595
 51
67.0206423991
  0
LINE
  5
3A7
  8
0
  6
CONTINUOUS
 62
     7
 10
2220.4272278156
 20
879.7070128239
 30
0.0
 11
2220.4272278156
 21
869.0630584351
 31
0.0
  0
ARC
  5
3A8
  8
0
  6
CONTINUOUS
 62
     7
 10
2219.8024599941
 20
869.0608278237
 30
0.0
 40
0.6247718034949948
 50
292.9792046316
 51
0.2045625099
  0
POLYLINE
  5
3A9
  8
0
  6
CONTINUOUS
 62
     7
 66
     1
 10
0.0
 20
0.0
 30
0.0
  0
VERTEX
  5
69C
  8
0
  6
CONTINUOUS
 62
     7
 10
2220.0463690366
 20
868.4856337822
 30
0.0
  0
VERTEX
  5
69D
  8
0
  6
CONTINUOUS
 62
     7
 10
2196.9177179541
 20
858.8078748761
 30
0.0
  0
VERTEX
  5
69E
  8
0
  6
CONTINUOUS
 62
     7
 10
2173.676272532
 20
849.1301155044
 30
0.0
  0
SEQEND
  5
754
  8
0
  6
CONTINUOUS
 62
     7
  0
ARC
  5
3AA
  8
0
  6
CONTINUOUS
 62
     7
 10
2173.9164186796
 20
848.5533607496
 30
0.0
 40
0.6247529267528826
 50
112.60561468
 51
180.0613506117
  0
LINE
  5
3AB
  8
0
  6
CONTINUOUS
 62
     7
 10
2173.291666111
 20
848.5526917829
 30
0.0
 11
2173.291666111
 21
814.1975356593
 31
0.0
  0
ARC
  5
3AC
  8
0
  6
CONTINUOUS
 62
     7
 10
2172.6676258985
 20
814.1965764846
 30
0.0
 40
0.6240409496215391
 50
270.0870542619
 51
0.0880658238
  0
LINE
  5
3AD
  8
0
  6
CONTINUOUS
 62
     7
 10
2161.4426203575
 20
813.5725362553
 30
0.0
 11
2172.6685740556
 21
813.5725362553
 31
0.0
  0
ARC
  5
3AE
  8
0
  6
CONTINUOUS
 62
     7
 10
2161.4430291001
 20
814.1971546228
 30
0.0
 40
0.6246185012607343
 50
179.9650478162
 51
269.9625063473
  0
LINE
  5
3AF
  8
0
  6
CONTINUOUS
 62
     7
 10
2160.8184107151
 20
937.9475331261
 30
0.0
 11
2160.5107464399
 21
937.9475331261
 31
0.0
  0
LINE
  5
3B0
  8
0
  6
CONTINUOUS
 62
     7
 10
2160.8184107151
 20
891.8651463791
 30
0.0
 11
2160.5107464399
 21
891.8651463791
 31
0.0
  0
LINE
  5
3B1
  8
0
  6
CONTINUOUS
 62
     7
 10
2161.2037547435
 20
891.2877226575
 30
0.0
 11
2160.8945258465
 21
891.2877226575
 31
0.0
  0
LINE
  5
3B2
  8
0
  6
CONTINUOUS
 62
     7
 10
2161.2037547435
 20
857.4823486014
 30
0.0
 11
2160.8945258465
 21
857.4823486014
 31
0.0
  0
LINE
  5
3B3
  8
0
  6
CONTINUOUS
 62
     7
 10
2160.8184107151
 20
856.9049248799
 30
0.0
 11
2160.5107464399
 21
856.9049248799
 31
0.0
  0
LINE
  5
3B4
  8
0
  6
CONTINUOUS
 62
     7
 10
2160.8184107151
 20
814.1975356593
 30
0.0
 11
2160.5107464399
 21
814.1975356593
 31
0.0
  0
LINE
  5
3B5
  8
0
  6
CONTINUOUS
 62
     7
 10
2200.438281199
 20
874.9624603405
 30
0.0
 11
2199.9697290864
 21
874.9624603405
 31
0.0
  0
LINE
  5
3B6
  8
0
  6
CONTINUOUS
 62
     7
 10
2200.438281199
 20
873.8076109184
 30
0.0
 11
2199.9697290864
 21
873.8076109184
 31
0.0
  0
LINE
  5
3B7
  8
0
  6
CONTINUOUS
 62
     7
 10
2177.8881006446
 20
926.0624824418
 30
0.0
 11
2177.5111161675
 21
926.0624824418
 31
0.0
  0
ARC
  5
3B8
  8
0
  6
CONTINUOUS
 62
     7
 10
2178.5117798636
 20
926.0612064268
 30
0.0
 40
0.6236805243336127
 50
179.8827759924
 51
272.03410117
  0
LINE
  5
3B9
  8
0
  6
CONTINUOUS
 62
     7
 10
2178.5339169707
 20
925.4379188969
 30
0.0
 11
2178.3460282292
 21
925.4379188969
 31
0.0
  0
ARC
  5
3BA
  8
0
  6
CONTINUOUS
 62
     7
 10
2178.9547521681
 20
911.8242685677
 30
0.0
 40
24.90266991631661
 50
22.0331576744
 51
61.9715886139
  0
ARC
  5
3BB
  8
0
  6
CONTINUOUS
 62
     7
 10
2202.6119108446
 20
921.3958178825
 30
0.0
 40
0.6174383949107365
 50
201.8187625526
 51
302.6482669564
  0
LINE
  5
3BC
  8
0
  6
CONTINUOUS
 62
     7
 10
2202.945006689
 20
920.8759358479
 30
0.0
 11
2219.4787242021
 21
931.5229310049
 31
0.0
  0
ARC
  5
3BD
  8
0
  6
CONTINUOUS
 62
     7
 10
2219.810265159
 20
931.0025760353
 30
0.0
 40
0.6169997573263551
 50
359.3716691067
 51
122.502998097
  0
LINE
  5
3BE
  8
0
  6
CONTINUOUS
 62
     7
 10
2220.4272278156
 20
930.9958098783
 30
0.0
 11
2220.4272278156
 21
918.8188976004
 31
0.0
  0
ARC
  5
3BF
  8
0
  6
CONTINUOUS
 62
     7
 10
2219.8008751454
 20
918.8172453625
 30
0.0
 40
0.6263548493831242
 50
302.9731533786
 51
0.151138549
  0
LINE
  5
3C0
  8
0
  6
CONTINUOUS
 62
     7
 10
2220.1417662706
 20
918.291780199
 30
0.0
 11
2202.7707823124
 21
907.1049345984
 31
0.0
  0
ARC
  5
3C1
  8
0
  6
CONTINUOUS
 62
     7
 10
2203.1110394767
 20
906.5780156647
 30
0.0
 40
0.6272308191827587
 50
122.8522959561
 51
247.060134098
  0
LINE
  5
3C2
  8
0
  6
CONTINUOUS
 62
     7
 10
2202.8665669765
 20
906.0003897502
 30
0.0
 11
2220.0463690366
 21
898.8069231017
 31
0.0
  0
ARC
  5
3C3
  8
0
  6
CONTINUOUS
 62
     7
 10
2219.802460174
 20
898.2317291825
 30
0.0
 40
0.6247716206814299
 50
359.795511626
 51
67.0208061819
  0
LINE
  5
3C4
  8
0
  6
CONTINUOUS
 62
     7
 10
2220.4272278156
 20
898.2294993802
 30
0.0
 11
2220.4272278156
 21
886.0525871022
 31
0.0
  0
ARC
  5
3C5
  8
0
  6
CONTINUOUS
 62
     7
 10
2219.8093418769
 20
886.0465561403
 30
0.0
 40
0.6179153710451146
 50
247.6249505641
 51
0.5592256961
  0
POLYLINE
  5
3C6
  8
0
  6
CONTINUOUS
 62
     7
 66
     1
 10
0.0
 20
0.0
 30
0.0
  0
VERTEX
  5
69F
  8
0
  6
CONTINUOUS
 62
     7
 10
2219.5741214361
 20
885.4751624494
 30
0.0
  0
VERTEX
  5
6A0
  8
0
  6
CONTINUOUS
 62
     7
 10
2198.9688627925
 20
894.0985603585
 30
0.0
  0
VERTEX
  5
6A1
  8
0
  6
CONTINUOUS
 62
     7
 10
2178.2724090423
 20
902.7219610615
 30
0.0
  0
SEQEND
  5
753
  8
0
  6
CONTINUOUS
 62
     7
  0
ARC
  5
3C7
  8
0
  6
CONTINUOUS
 62
     7
 10
2178.5128441142
 20
903.298585738
 30
0.0
 40
0.6247439806190197
 50
179.9267189064
 51
247.3653380065
  0
LINE
  5
3C8
  8
0
  6
CONTINUOUS
 62
     7
 10
2177.8881006446
 20
903.2993847831
 30
0.0
 11
2177.8881006446
 21
915.4762989237
 31
0.0
  0
ARC
  5
3C9
  8
0
  6
CONTINUOUS
 62
     7
 10
2178.510915606
 20
915.478149062
 30
0.0
 40
0.6228177094069409
 50
67.5397098648
 51
180.1702027313
  0
LINE
  5
3CA
  8
0
  6
CONTINUOUS
 62
     7
 10
2178.7488587703
 20
916.0537226452
 30
0.0
 11
2191.8537594881
 21
910.5969881966
 31
0.0
  0
ARC
  5
3CB
  8
0
  6
CONTINUOUS
 62
     7
 10
2192.0909663591
 20
911.1710993301
 30
0.0
 40
0.6211849107102725
 50
247.550937116
 51
358.0077837326
  0
ARC
  5
3CC
  8
0
  6
CONTINUOUS
 62
     7
 10
2179.0149821307
 20
911.736975318
 30
0.0
 40
13.70938651575693
 50
357.5440256935
 51
92.01093338
  0
LINE
  5
3CD
  8
0
  6
CONTINUOUS
 62
     7
 10
2177.8881006446
 20
926.0624824418
 30
0.0
 11
2177.8881006446
 21
937.9475331261
 31
0.0
  0
ARC
  5
3CE
  8
0
  6
CONTINUOUS
 62
     7
 10
2178.5118773778
 20
937.948755823
 30
0.0
 40
0.6237779315850054
 50
90.1135321135
 51
180.1123082701
  0
LINE
  5
3CF
  8
0
  6
CONTINUOUS
 62
     7
 10
2178.5106413569
 20
938.57253253
 30
0.0
 11
2189.7044010963
 21
938.57253253
 31
0.0
  0
ARC
  5
3D0
  8
0
  6
CONTINUOUS
 62
     7
 10
2189.7025044711
 20
937.9494585603
 30
0.0
 40
0.6230768563463287
 50
359.8229441032
 51
89.8255932823
  0
LINE
  5
3D1
  8
0
  6
CONTINUOUS
 62
     7
 10
2190.3255783524
 20
937.9475331261
 30
0.0
 11
2190.3255783524
 21
934.3589386298
 31
0.0
  0
ARC
  5
3D2
  8
0
  6
CONTINUOUS
 62
     7
 10
2190.9502176934
 20
934.3576303794
 30
0.0
 40
0.6246407109732263
 50
179.8799993625
 51
241.9774093397
  0
LINE
  5
3D3
  8
0
  6
CONTINUOUS
 62
     7
 10
2178.5106413569
 20
938.57253253
 30
0.0
 11
2178.1311311331
 21
938.57253253
 31
0.0
  0
LINE
  5
3D4
  8
0
  6
CONTINUOUS
 62
     7
 10
2177.8881006446
 20
937.9475331261
 30
0.0
 11
2177.5111161675
 21
937.9475331261
 31
0.0
  0
LINE
  5
3D5
  8
0
  6
CONTINUOUS
 62
     7
 10
2177.8881006446
 20
903.2993847831
 30
0.0
 11
2177.5111161675
 21
903.2993847831
 31
0.0
  0
LINE
  5
3D6
  8
0
  6
CONTINUOUS
 62
     7
 10
2178.2724090423
 20
902.7219610615
 30
0.0
 11
2177.8938673939
 21
902.7219610615
 31
0.0
  0
LINE
  5
3D7
  8
0
  6
CONTINUOUS
 62
     7
 10
2177.8881006446
 20
915.4762989237
 30
0.0
 11
2177.5111161675
 21
915.4762989237
 31
0.0
  0
LINE
  5
3D8
  8
0
  6
CONTINUOUS
 62
     7
 10
2177.8881006446
 20
814.1975356593
 30
0.0
 11
2177.8881006446
 21
845.4706864758
 31
0.0
  0
ARC
  5
3D9
  8
0
  6
CONTINUOUS
 62
     7
 10
2178.5128487635
 20
845.4714824265
 30
0.0
 40
0.6247486259730705
 50
112.6349463245
 51
180.0729967625
  0
POLYLINE
  5
3DA
  8
0
  6
CONTINUOUS
 62
     7
 66
     1
 10
0.0
 20
0.0
 30
0.0
  0
VERTEX
  5
6A2
  8
0
  6
CONTINUOUS
 62
     7
 10
2178.2724090423
 20
846.0481101974
 30
0.0
  0
VERTEX
  5
6A3
  8
0
  6
CONTINUOUS
 62
     7
 10
2198.9688627925
 20
854.6715109004
 30
0.0
  0
VERTEX
  5
6A4
  8
0
  6
CONTINUOUS
 62
     7
 10
2219.5741214361
 20
863.2949088095
 30
0.0
  0
SEQEND
  5
752
  8
0
  6
CONTINUOUS
 62
     7
  0
ARC
  5
3DB
  8
0
  6
CONTINUOUS
 62
     7
 10
2219.8093418769
 20
862.7235151186
 30
0.0
 40
0.6179153710451146
 50
359.4407743039
 51
112.3750494359
  0
LINE
  5
3DC
  8
0
  6
CONTINUOUS
 62
     7
 10
2220.4272278156
 20
862.7174841567
 30
0.0
 11
2220.4272278156
 21
850.5405718787
 31
0.0
  0
ARC
  5
3DD
  8
0
  6
CONTINUOUS
 62
     7
 10
2219.8024617011
 20
850.5383410692
 30
0.0
 40
0.6247700972030417
 50
292.9791009481
 51
0.204581244
  0
LINE
  5
3DE
  8
0
  6
CONTINUOUS
 62
     7
 10
2220.0463690366
 20
849.9631481572
 30
0.0
 11
2212.1625818815
 21
846.6584040179
 31
0.0
  0
ARC
  5
3DF
  8
0
  6
CONTINUOUS
 62
     7
 10
2212.4057023592
 20
846.0828922494
 30
0.0
 40
0.6247570426241347
 50
112.901249364
 51
180.1753433837
  0
LINE
  5
3E0
  8
0
  6
CONTINUOUS
 62
     7
 10
2211.7809482422
 20
846.0809802963
 30
0.0
 11
2211.7809482422
 21
827.4569167151
 31
0.0
  0
ARC
  5
3E1
  8
0
  6
CONTINUOUS
 62
     7
 10
2212.4057055459
 20
827.4550068682
 30
0.0
 40
0.6247602228866179
 50
179.8248506644
 51
247.0985565879
  0
LINE
  5
3E2
  8
0
  6
CONTINUOUS
 62
     7
 10
2212.1625818815
 20
826.8794929935
 30
0.0
 11
2220.0463690366
 21
823.5747507169
 31
0.0
  0
ARC
  5
3E3
  8
0
  6
CONTINUOUS
 62
     7
 10
2219.8024613782
 20
822.9995575919
 30
0.0
 40
0.6247704193202078
 50
359.7954383921
 51
67.0208794158
  0
LINE
  5
3E4
  8
0
  6
CONTINUOUS
 62
     7
 10
2220.4272278156
 20
822.9973269953
 30
0.0
 11
2220.4272278156
 21
810.8204147174
 31
0.0
  0
ARC
  5
3E5
  8
0
  6
CONTINUOUS
 62
     7
 10
2219.8093394498
 20
810.8143845764
 30
0.0
 40
0.6179177899840215
 50
247.6252862668
 51
0.5591473738
  0
LINE
  5
3E6
  8
0
  6
CONTINUOUS
 62
     7
 10
2219.5741214361
 20
810.2429872705
 30
0.0
 11
2191.1843546238
 21
822.1139787092
 31
0.0
  0
ARC
  5
3E7
  8
0
  6
CONTINUOUS
 62
     7
 10
2190.9471224883
 20
821.5394818726
 30
0.0
 40
0.6215510447939686
 50
67.562361724
 51
180.2701503382
  0
LINE
  5
3E8
  8
0
  6
CONTINUOUS
 62
     7
 10
2190.3255783524
 20
821.5365512623
 30
0.0
 11
2190.3255783524
 21
814.1975356593
 31
0.0
  0
ARC
  5
3E9
  8
0
  6
CONTINUOUS
 62
     7
 10
2189.7024986018
 20
814.1956160584
 30
0.0
 40
0.6230827075670956
 50
270.174944791
 51
0.1765178236
  0
LINE
  5
3EA
  8
0
  6
CONTINUOUS
 62
     7
 10
2178.5106413569
 20
813.5725362553
 30
0.0
 11
2189.7044010963
 21
813.5725362553
 31
0.0
  0
ARC
  5
3EB
  8
0
  6
CONTINUOUS
 62
     7
 10
2178.511883245
 20
814.1963188064
 30
0.0
 40
0.6237837873203533
 50
179.8882295768
 51
269.8859300396
  0
ARC
  5
3EC
  8
0
  6
CONTINUOUS
 62
     7
 10
2190.1129800648
 20
836.7689485057
 30
0.0
 40
0.6262993849619919
 50
112.7850613681
 51
247.2149386319
  0
LINE
  5
3ED
  8
0
  6
CONTINUOUS
 62
     7
 10
2199.4710542764
 20
832.1866048827
 30
0.0
 11
2189.8704298343
 21
836.1915229215
 31
0.0
  0
ARC
  5
3EE
  8
0
  6
CONTINUOUS
 62
     7
 10
2199.707240682
 20
832.7609079779
 30
0.0
 40
0.6209734804317188
 50
247.6447214275
 51
0.2879341452
  0
LINE
  5
3EF
  8
0
  6
CONTINUOUS
 62
     7
 10
2200.3282063212
 20
840.7738684072
 30
0.0
 11
2200.3282063212
 21
832.7640286042
 31
0.0
  0
ARC
  5
3F0
  8
0
  6
CONTINUOUS
 62
     7
 10
2199.7072292543
 20
840.7769720698
 30
0.0
 40
0.6209848229510585
 50
359.7136363089
 51
112.3537081185
  0
LINE
  5
3F1
  8
0
  6
CONTINUOUS
 62
     7
 10
2189.8704298343
 20
837.3463740899
 30
0.0
 11
2199.4710542764
 21
841.3512921287
 31
0.0
  0
LINE
  5
3F2
  8
0
  6
CONTINUOUS
 62
     7
 10
2177.8881006446
 20
814.1975356593
 30
0.0
 11
2177.5111161675
 21
814.1975356593
 31
0.0
  0
LINE
  5
3F3
  8
0
  6
CONTINUOUS
 62
     7
 10
2177.8881006446
 20
845.4706864758
 30
0.0
 11
2177.5111161675
 21
845.4706864758
 31
0.0
  0
LINE
  5
3F4
  8
0
  6
CONTINUOUS
 62
     7
 10
2178.2724090423
 20
846.0481101974
 30
0.0
 11
2177.8938673939
 21
846.0481101974
 31
0.0
  0
LINE
  5
3F5
  8
0
  6
CONTINUOUS
 62
     7
 10
2178.5106413569
 20
813.5725362553
 30
0.0
 11
2178.1311311331
 21
813.5725362553
 31
0.0
  0
LINE
  5
3F6
  8
0
  6
CONTINUOUS
 62
     7
 10
2219.5741214361
 20
885.4751624494
 30
0.0
 11
2219.027874669
 21
885.4751624494
 31
0.0
  0
LINE
  5
3F7
  8
0
  6
CONTINUOUS
 62
     7
 10
2219.5741214361
 20
863.2949088095
 30
0.0
 11
2219.027874669
 21
863.2949088095
 31
0.0
  0
LINE
  5
3F8
  8
0
  6
CONTINUOUS
 62
     7
 10
2192.7117758002
 20
911.1495046272
 30
0.0
 11
2192.2745980825
 21
911.1495046272
 31
0.0
  0
LINE
  5
3F9
  8
0
  6
CONTINUOUS
 62
     7
 10
2191.1843546238
 20
822.1139787092
 30
0.0
 11
2190.7533832397
 21
822.1139787092
 31
0.0
  0
LINE
  5
3FA
  8
0
  6
CONTINUOUS
 62
     7
 10
2219.5741214361
 20
810.2429872705
 30
0.0
 11
2219.027874669
 21
810.2429872705
 31
0.0
  0
ARC
  5
3FB
  8
0
  6
CONTINUOUS
 62
     7
 10
2199.2448906372
 20
832.7579669496
 30
0.0
 40
0.6152404681838219
 50
291.6864808857
 51
0.5645156077
  0
LINE
  5
3FC
  8
0
  6
CONTINUOUS
 62
     7
 10
2200.3282063212
 20
832.7640286042
 30
0.0
 11
2199.8601012435
 21
832.7640286042
 31
0.0
  0
LINE
  5
3FD
  8
0
  6
CONTINUOUS
 62
     7
 10
2200.3282063212
 20
840.7738684072
 30
0.0
 11
2199.8601012435
 21
840.7738684072
 31
0.0
  0
ARC
  5
3FE
  8
0
  6
CONTINUOUS
 62
     7
 10
2199.2439757738
 20
840.7791523646
 30
0.0
 40
0.6161481271728819
 50
359.5086373579
 51
68.2801317956
  0
LINE
  5
3FF
  8
0
  6
CONTINUOUS
 62
     7
 10
2199.8601012435
 20
840.7738684072
 30
0.0
 11
2199.8601012435
 21
832.7640286042
 31
0.0
  0
LINE
  5
400
  8
0
  6
CONTINUOUS
 62
     7
 10
2202.945006689
 20
920.8759358479
 30
0.0
 11
2202.4662770834
 21
920.8759358479
 31
0.0
  0
LINE
  5
401
  8
0
  6
CONTINUOUS
 62
     7
 10
2219.4787242021
 20
931.5229310049
 30
0.0
 11
2218.9328499641
 21
931.5229310049
 31
0.0
  0
LINE
  5
402
  8
0
  6
CONTINUOUS
 62
     7
 10
2922.4158056583
 20
1048.9731198503
 30
0.0
 11
2922.5236304607
 21
1049.2837494566
 31
0.0
  0
LINE
  5
403
  8
0
  6
CONTINUOUS
 62
     7
 10
2922.4158056583
 20
1048.9731198503
 30
0.0
 11
2922.4158056583
 21
1183.3850210859
 31
0.0
  0
LINE
  5
404
  8
0
  6
CONTINUOUS
 62
     7
 10
2559.7095318641
 20
1183.3850210859
 30
0.0
 11
2922.4158056583
 21
1183.3850210859
 31
0.0
  0
LINE
  5
405
  8
0
  6
CONTINUOUS
 62
     7
 10
2559.7095318641
 20
1224.385029669
 30
0.0
 11
2922.550094923
 21
1224.385029669
 31
0.0
  0
LINE
  5
406
  8
0
  6
CONTINUOUS
 62
     7
 10
1247.6844318714
 20
1048.9731198503
 30
0.0
 11
1247.6844318714
 21
1183.3850210859
 31
0.0
  0
LINE
  5
407
  8
0
  6
CONTINUOUS
 62
     7
 10
1247.577441534
 20
1049.2797857477
 30
0.0
 11
1247.6844318714
 21
1048.9731198503
 31
0.0
  0
LINE
  5
408
  8
0
  6
CONTINUOUS
 62
     7
 10
1247.6844318714
 20
1183.3850210859
 30
0.0
 11
1610.3907056656
 21
1183.3850210859
 31
0.0
  0
LINE
  5
409
  8
0
  6
CONTINUOUS
 62
     7
 10
1247.5501426067
 20
1224.385029669
 30
0.0
 11
1610.3907056656
 21
1224.385029669
 31
0.0
  0
LINE
  5
40A
  8
0
  6
CONTINUOUS
 62
     7
 10
2922.4158056583
 20
699.7969514086
 30
0.0
 11
2922.4158056583
 21
565.385050173
 31
0.0
  0
LINE
  5
40B
  8
0
  6
CONTINUOUS
 62
     7
 10
2922.5227959957
 20
699.4902855112
 30
0.0
 11
2922.4158056583
 21
699.7969514086
 31
0.0
  0
LINE
  5
40C
  8
0
  6
CONTINUOUS
 62
     7
 10
2559.7095318641
 20
524.3850415899
 30
0.0
 11
2922.550094923
 21
524.3850415899
 31
0.0
  0
LINE
  5
40D
  8
0
  6
CONTINUOUS
 62
     7
 10
2559.7095318641
 20
565.385050173
 30
0.0
 11
2922.4158056583
 21
565.385050173
 31
0.0
  0
LINE
  5
40E
  8
0
  6
CONTINUOUS
 62
     7
 10
1247.6844318714
 20
684.6250659182
 30
0.0
 11
1247.6844318714
 21
565.385050173
 31
0.0
  0
LINE
  5
40F
  8
0
  6
CONTINUOUS
 62
     7
 10
1247.5501426067
 20
524.3850415899
 30
0.0
 11
1354.2604573574
 21
524.3850415899
 31
0.0
  0
LINE
  5
410
  8
0
  6
CONTINUOUS
 62
     7
 10
1383.0940850582
 20
524.3850415899
 30
0.0
 11
1610.3907056656
 21
524.3850415899
 31
0.0
  0
LINE
  5
411
  8
0
  6
CONTINUOUS
 62
     7
 10
1247.6844318714
 20
565.385050173
 30
0.0
 11
1375.2089269962
 21
565.385050173
 31
0.0
  0
LINE
  5
412
  8
0
  6
CONTINUOUS
 62
     7
 10
1402.1957643833
 20
565.385050173
 30
0.0
 11
1610.3907056656
 21
565.385050173
 31
0.0
  0
POLYLINE
  5
413
  8
0
  6
CONTINUOUS
 62
     7
 66
     1
 10
0.0
 20
0.0
 30
0.0
  0
VERTEX
  5
6A5
  8
0
  6
CONTINUOUS
 62
     7
 10
751.1220105495
 20
684.4987487747
 30
0.0
  0
VERTEX
  5
6A6
  8
0
  6
CONTINUOUS
 62
     7
 10
751.1392958965
 20
684.5850563003
 30
0.0
  0
VERTEX
  5
6A7
  8
0
  6
CONTINUOUS
 62
     7
 10
750.8775122967
 20
685.7778793528
 30
0.0
  0
VERTEX
  5
6A8
  8
0
  6
CONTINUOUS
 62
     7
 10
750.2825387325
 20
687.7647405817
 30
0.0
  0
VERTEX
  5
6A9
  8
0
  6
CONTINUOUS
 62
     7
 10
749.7813828792
 20
689.9422174646
 30
0.0
  0
VERTEX
  5
6AA
  8
0
  6
CONTINUOUS
 62
     7
 10
749.6154435482
 20
691.8950295402
 30
0.0
  0
VERTEX
  5
6AB
  8
0
  6
CONTINUOUS
 62
     7
 10
749.7663625087
 20
693.8552325918
 30
0.0
  0
VERTEX
  5
6AC
  8
0
  6
CONTINUOUS
 62
     7
 10
750.2610810604
 20
696.0592335417
 30
0.0
  0
VERTEX
  5
6AD
  8
0
  6
CONTINUOUS
 62
     7
 10
750.9014733639
 20
698.2301539137
 30
0.0
  0
VERTEX
  5
6AE
  8
0
  6
CONTINUOUS
 62
     7
 10
751.0850556698
 20
699.0193343117
 30
0.0
  0
VERTEX
  5
6AF
  8
0
  6
CONTINUOUS
 62
     7
 10
751.1035331096
 20
699.3690645649
 30
0.0
  0
SEQEND
  5
751
  8
0
  6
CONTINUOUS
 62
     7
  0
POLYLINE
  5
414
  8
0
  6
CONTINUOUS
 62
     7
 66
     1
 10
0.0
 20
0.0
 30
0.0
  0
VERTEX
  5
6B0
  8
0
  6
CONTINUOUS
 62
     7
 10
1068.1964286175
 20
1017.3354512407
 30
0.0
  0
VERTEX
  5
6B1
  8
0
  6
CONTINUOUS
 62
     7
 10
1068.6214097347
 20
1017.351380582
 30
0.0
  0
VERTEX
  5
6B2
  8
0
  6
CONTINUOUS
 62
     7
 10
1070.0857766475
 20
1017.7493011906
 30
0.0
  0
VERTEX
  5
6B3
  8
0
  6
CONTINUOUS
 62
     7
 10
1072.4235900249
 20
1018.4146082355
 30
0.0
  0
VERTEX
  5
6B4
  8
0
  6
CONTINUOUS
 62
     7
 10
1074.4549163189
 20
1018.7637275412
 30
0.0
  0
VERTEX
  5
6B5
  8
0
  6
CONTINUOUS
 62
     7
 10
1076.6462214794
 20
1018.7746649935
 30
0.0
  0
VERTEX
  5
6B6
  8
0
  6
CONTINUOUS
 62
     7
 10
1078.4654744472
 20
1018.4915131285
 30
0.0
  0
VERTEX
  5
6B7
  8
0
  6
CONTINUOUS
 62
     7
 10
1080.7610877361
 20
1017.8687339975
 30
0.0
  0
VERTEX
  5
6B8
  8
0
  6
CONTINUOUS
 62
     7
 10
1082.5033315029
 20
1017.3842078401
 30
0.0
  0
VERTEX
  5
6B9
  8
0
  6
CONTINUOUS
 62
     7
 10
1082.9761155452
 20
1017.3673993303
 30
0.0
  0
SEQEND
  5
750
  8
0
  6
CONTINUOUS
 62
     7
  0
POLYLINE
  5
415
  8
0
  6
CONTINUOUS
 62
     7
 66
     1
 10
0.0
 20
0.0
 30
0.0
  0
VERTEX
  5
6BA
  8
0
  6
CONTINUOUS
 62
     7
 10
1400.9965189304
 20
700.2443289711
 30
0.0
  0
VERTEX
  5
6BB
  8
0
  6
CONTINUOUS
 62
     7
 10
1400.9822734203
 20
700.0095313742
 30
0.0
  0
VERTEX
  5
6BC
  8
0
  6
CONTINUOUS
 62
     7
 10
1401.3130195942
 20
698.6842817022
 30
0.0
  0
VERTEX
  5
6BD
  8
0
  6
CONTINUOUS
 62
     7
 10
1401.950670084
 20
696.5225702478
 30
0.0
  0
VERTEX
  5
6BE
  8
0
  6
CONTINUOUS
 62
     7
 10
1402.3782142009
 20
694.4240844204
 30
0.0
  0
VERTEX
  5
6BF
  8
0
  6
CONTINUOUS
 62
     7
 10
1402.4800189342
 20
692.4859797909
 30
0.0
  0
VERTEX
  5
6C0
  8
0
  6
CONTINUOUS
 62
     7
 10
1402.279210886
 20
690.5865138723
 30
0.0
  0
VERTEX
  5
6C1
  8
0
  6
CONTINUOUS
 62
     7
 10
1401.7331131305
 20
688.3407896711
 30
0.0
  0
VERTEX
  5
6C2
  8
0
  6
CONTINUOUS
 62
     7
 10
1401.1947639789
 20
686.5254110052
 30
0.0
  0
VERTEX
  5
6C3
  8
0
  6
CONTINUOUS
 62
     7
 10
1401.0129102077
 20
685.7371842815
 30
0.0
  0
VERTEX
  5
6C4
  8
0
  6
CONTINUOUS
 62
     7
 10
1400.9973533954
 20
685.4022955849
 30
0.0
  0
SEQEND
  5
74F
  8
0
  6
CONTINUOUS
 62
     7
  0
POLYLINE
  5
416
  8
0
  6
CONTINUOUS
 62
     7
 66
     1
 10
0.0
 20
0.0
 30
0.0
  0
VERTEX
  5
6C5
  8
0
  6
CONTINUOUS
 62
     7
 10
1083.9212067928
 20
367.4458628847
 30
0.0
  0
VERTEX
  5
6C6
  8
0
  6
CONTINUOUS
 62
     7
 10
1083.7651618328
 20
367.4652343943
 30
0.0
  0
VERTEX
  5
6C7
  8
0
  6
CONTINUOUS
 62
     7
 10
1082.5071462002
 20
367.1688801004
 30
0.0
  0
VERTEX
  5
6C8
  8
0
  6
CONTINUOUS
 62
     7
 10
1080.4335006084
 20
366.5510183527
 30
0.0
  0
VERTEX
  5
6C9
  8
0
  6
CONTINUOUS
 62
     7
 10
1078.2963164654
 20
366.0858637049
 30
0.0
  0
VERTEX
  5
6CA
  8
0
  6
CONTINUOUS
 62
     7
 10
1076.3514169063
 20
365.951097603
 30
0.0
  0
VERTEX
  5
6CB
  8
0
  6
CONTINUOUS
 62
     7
 10
1074.4218953457
 20
366.1266332819
 30
0.0
  0
VERTEX
  5
6CC
  8
0
  6
CONTINUOUS
 62
     7
 10
1072.1970923748
 20
366.6466838076
 30
0.0
  0
VERTEX
  5
6CD
  8
0
  6
CONTINUOUS
 62
     7
 10
1070.3739055004
 20
367.1891456797
 30
0.0
  0
VERTEX
  5
6CE
  8
0
  6
CONTINUOUS
 62
     7
 10
1069.0819152202
 20
367.4281007006
 30
0.0
  0
SEQEND
  5
74E
  8
0
  6
CONTINUOUS
 62
     7
  0
CIRCLE
  5
417
  8
0
  6
CONTINUOUS
 62
     7
 10
1076.0501187649
 20
692.3850356295
 30
0.0
 40
44.99999999999997
  0
ARC
  5
418
  8
0
  6
CONTINUOUS
 62
     7
 10
1076.0501187649
 20
692.3850356295
 30
0.0
 40
62.00000000000001
 50
7.4938061252
 51
82.6664585221
  0
ARC
  5
419
  8
0
  6
CONTINUOUS
 62
     7
 10
1076.0501187649
 20
692.3850356295
 30
0.0
 40
62.00000000000006
 50
97.4938061252
 51
172.6664585221
  0
ARC
  5
41A
  8
0
  6
CONTINUOUS
 62
     7
 10
1076.0501187649
 20
692.3850356295
 30
0.0
 40
62.00000000000004
 50
187.4938061252
 51
262.6664585221
  0
ARC
  5
41B
  8
0
  6
CONTINUOUS
 62
     7
 10
1076.0501187649
 20
692.3850356295
 30
0.0
 40
62.00000000000001
 50
277.4938061252
 51
352.6664585221
  0
LINE
  5
41C
  8
0
  6
CONTINUOUS
 62
     7
 10
1121.0501321163
 20
742.1260988666
 30
0.0
 11
1121.0501321163
 21
826.8876662805
 31
0.0
  0
ARC
  5
41D
  8
0
  6
CONTINUOUS
 62
     7
 10
1122.2769867376
 20
837.2166268518
 30
0.0
 40
10.40156712939562
 50
263.2262507217
 51
291.2690145794
  0
LINE
  5
41E
  8
0
  6
CONTINUOUS
 62
     7
 10
1126.0501273479
 20
827.5235360815
 30
0.0
 11
1126.0501273479
 21
738.8800746157
 31
0.0
  0
POLYLINE
  5
41F
  8
0
  6
CONTINUOUS
 62
     7
 66
     1
 10
0.0
 20
0.0
 30
0.0
  0
VERTEX
  5
6CF
  8
0
  6
CONTINUOUS
 62
     7
 10
1121.0501321163
 20
742.1260988666
 30
0.0
  0
VERTEX
  5
6D0
  8
0
  6
CONTINUOUS
 62
     7
 10
1121.8181975689
 20
742.0869982197
 30
0.0
  0
VERTEX
  5
6D1
  8
0
  6
CONTINUOUS
 62
     7
 10
1122.5727923717
 20
741.9695919706
 30
0.0
  0
VERTEX
  5
6D2
  8
0
  6
CONTINUOUS
 62
     7
 10
1123.1580503788
 20
741.8192094519
 30
0.0
  0
VERTEX
  5
6D3
  8
0
  6
CONTINUOUS
 62
     7
 10
1123.7186916675
 20
741.6183865024
 30
0.0
  0
VERTEX
  5
6D4
  8
0
  6
CONTINUOUS
 62
     7
 10
1124.2304571476
 20
741.3757955982
 30
0.0
  0
VERTEX
  5
6D5
  8
0
  6
CONTINUOUS
 62
     7
 10
1124.7069366779
 20
741.0826599552
 30
0.0
  0
VERTEX
  5
6D6
  8
0
  6
CONTINUOUS
 62
     7
 10
1125.1338251438
 20
740.740231271
 30
0.0
  0
VERTEX
  5
6D7
  8
0
  6
CONTINUOUS
 62
     7
 10
1125.6412990894
 20
740.1530212118
 30
0.0
  0
VERTEX
  5
6D8
  8
0
  6
CONTINUOUS
 62
     7
 10
1125.9399779644
 20
739.5490324451
 30
0.0
  0
VERTEX
  5
6D9
  8
0
  6
CONTINUOUS
 62
     7
 10
1126.0501273479
 20
738.8800746157
 30
0.0
  0
SEQEND
  5
74D
  8
0
  6
CONTINUOUS
 62
     7
  0
LINE
  5
420
  8
0
  6
CONTINUOUS
 62
     7
 10
1063.0501635875
 20
804.3850353314
 30
0.0
 11
1063.0501635875
 21
826.8876662805
 31
0.0
  0
LINE
  5
421
  8
0
  6
CONTINUOUS
 62
     7
 10
1016.0501130428
 20
804.3850353314
 30
0.0
 11
1063.0501635875
 21
804.3850353314
 31
0.0
  0
LINE
  5
422
  8
0
  6
CONTINUOUS
 62
     7
 10
1016.0501130428
 20
804.3850353314
 30
0.0
 11
1016.0501130428
 21
874.3850356295
 31
0.0
  0
LINE
  5
423
  8
0
  6
CONTINUOUS
 62
     7
 10
1121.0501321163
 20
826.8876662805
 30
0.0
 11
1121.0501321163
 21
874.3850356295
 31
0.0
  0
LINE
  5
424
  8
0
  6
CONTINUOUS
 62
     7
 10
1063.0501635875
 20
826.8876662805
 30
0.0
 11
1067.8620465603
 21
826.8876662805
 31
0.0
  0
LINE
  5
425
  8
0
  6
CONTINUOUS
 62
     7
 10
1083.8619597759
 20
826.8876662805
 30
0.0
 11
1121.0501321163
 21
826.8876662805
 31
0.0
  0
LINE
  5
426
  8
0
  6
CONTINUOUS
 62
     7
 10
1121.0501321163
 20
874.3850356295
 30
0.0
 11
1126.0501273479
 21
874.3850356295
 31
0.0
  0
LINE
  5
427
  8
0
  6
CONTINUOUS
 62
     7
 10
1126.0501273479
 20
827.5235360815
 30
0.0
 11
1126.0501273479
 21
874.3850356295
 31
0.0
  0
POLYLINE
  5
428
  8
0
  6
CONTINUOUS
 62
     7
 66
     1
 10
0.0
 20
0.0
 30
0.0
  0
VERTEX
  5
6DA
  8
0
  6
CONTINUOUS
 62
     7
 10
1063.0501635875
 20
826.8876662805
 30
0.0
  0
VERTEX
  5
6DB
  8
0
  6
CONTINUOUS
 62
     7
 10
1063.5565646496
 20
826.7876161589
 30
0.0
  0
VERTEX
  5
6DC
  8
0
  6
CONTINUOUS
 62
     7
 10
1064.0992053356
 20
826.456214334
 30
0.0
  0
VERTEX
  5
6DD
  8
0
  6
CONTINUOUS
 62
     7
 10
1064.8665555324
 20
825.5764087989
 30
0.0
  0
VERTEX
  5
6DE
  8
0
  6
CONTINUOUS
 62
     7
 10
1065.7720692959
 20
823.8759739651
 30
0.0
  0
VERTEX
  5
6DF
  8
0
  6
CONTINUOUS
 62
     7
 10
1066.4196141567
 20
822.0641939296
 30
0.0
  0
VERTEX
  5
6E0
  8
0
  6
CONTINUOUS
 62
     7
 10
1067.6751263942
 20
816.3158735587
 30
0.0
  0
VERTEX
  5
6E1
  8
0
  6
CONTINUOUS
 62
     7
 10
1067.8812392559
 20
813.1206548168
 30
0.0
  0
SEQEND
  5
74C
  8
0
  6
CONTINUOUS
 62
     7
  0
LINE
  5
429
  8
0
  6
CONTINUOUS
 62
     7
 10
1036.0500939693
 20
742.1260988666
 30
0.0
 11
1039.0389092769
 21
742.1260988666
 31
0.0
  0
LINE
  5
42A
  8
0
  6
CONTINUOUS
 62
     7
 10
1113.0612619724
 20
742.1260988666
 30
0.0
 11
1121.0501321163
 21
742.1260988666
 31
0.0
  0
LINE
  5
42B
  8
0
  6
CONTINUOUS
 62
     7
 10
1036.0500939693
 20
801.3850367023
 30
0.0
 11
1036.0500939693
 21
742.1260988666
 31
0.0
  0
LINE
  5
42C
  8
0
  6
CONTINUOUS
 62
     7
 10
1121.0501321163
 20
874.3850356295
 30
0.0
 11
1121.0501321163
 21
982.3017036869
 31
0.0
  0
POLYLINE
  5
42D
  8
0
  6
CONTINUOUS
 62
     7
 66
     1
 10
0.0
 20
0.0
 30
0.0
  0
VERTEX
  5
6E2
  8
0
  6
CONTINUOUS
 62
     7
 10
1126.0501273479
 20
979.3850323512
 30
0.0
  0
VERTEX
  5
6E3
  8
0
  6
CONTINUOUS
 62
     7
 10
1125.9540446605
 20
979.9540480925
 30
0.0
  0
VERTEX
  5
6E4
  8
0
  6
CONTINUOUS
 62
     7
 10
1125.6694920864
 20
980.5011963798
 30
0.0
  0
VERTEX
  5
6E5
  8
0
  6
CONTINUOUS
 62
     7
 10
1125.2074964847
 20
981.0054516746
 30
0.0
  0
VERTEX
  5
6E6
  8
0
  6
CONTINUOUS
 62
     7
 10
1124.5856412258
 20
981.4474275662
 30
0.0
  0
VERTEX
  5
6E7
  8
0
  6
CONTINUOUS
 62
     7
 10
1123.8279469814
 20
981.810151632
 30
0.0
  0
VERTEX
  5
6E8
  8
0
  6
CONTINUOUS
 62
     7
 10
1122.9635604229
 20
982.0796838357
 30
0.0
  0
VERTEX
  5
6E9
  8
0
  6
CONTINUOUS
 62
     7
 10
1122.025562128
 20
982.2456604196
 30
0.0
  0
VERTEX
  5
6EA
  8
0
  6
CONTINUOUS
 62
     7
 10
1121.0501321163
 20
982.3017036869
 30
0.0
  0
SEQEND
  5
74B
  8
0
  6
CONTINUOUS
 62
     7
  0
LINE
  5
42E
  8
0
  6
CONTINUOUS
 62
     7
 10
1126.0501273479
 20
874.3850356295
 30
0.0
 11
1126.0501273479
 21
979.3850323512
 31
0.0
  0
LINE
  5
42F
  8
0
  6
CONTINUOUS
 62
     7
 10
1016.0501130428
 20
874.3850356295
 30
0.0
 11
1016.0501130428
 21
982.3017036869
 31
0.0
  0
LINE
  5
430
  8
0
  6
CONTINUOUS
 62
     7
 10
1016.0501130428
 20
801.3850367023
 30
0.0
 11
1016.0501130428
 21
804.3850353314
 31
0.0
  0
LINE
  5
431
  8
0
  6
CONTINUOUS
 62
     7
 10
1063.0501635875
 20
801.3850367023
 30
0.0
 11
1063.0501635875
 21
804.3850353314
 31
0.0
  0
LINE
  5
432
  8
0
  6
CONTINUOUS
 62
     7
 10
1016.0501130428
 20
801.3850367023
 30
0.0
 11
1063.0501635875
 21
801.3850367023
 31
0.0
  0
LINE
  5
433
  8
0
  6
CONTINUOUS
 62
     7
 10
1063.0501635875
 20
801.3850367023
 30
0.0
 11
1065.0501378383
 21
801.3850367023
 31
0.0
  0
ARC
  5
434
  8
0
  6
CONTINUOUS
 62
     7
 10
1065.0501187649
 20
804.3850356295
 30
0.0
 40
3.000000000000114
 50
270.0
 51
341.4827611358
  0
LINE
  5
435
  8
0
  6
CONTINUOUS
 62
     7
 10
1247.6844318714
 20
1048.9731198503
 30
0.0
 11
1180.0501473751
 21
1048.9731198503
 31
0.0
  0
LINE
  5
436
  8
0
  6
CONTINUOUS
 62
     7
 10
1180.0501473751
 20
700.5304908707
 30
0.0
 11
1180.0501473751
 21
1000.295734997
 31
0.0
  0
LINE
  5
437
  8
0
  6
CONTINUOUS
 62
     7
 10
1180.0501473751
 20
1026.5766000702
 30
0.0
 11
1180.0501473751
 21
1048.9731198503
 31
0.0
  0
LINE
  5
438
  8
0
  6
CONTINUOUS
 62
     7
 10
1135.0501306858
 20
711.4375895216
 30
0.0
 11
1135.0501306858
 21
1011.9847869827
 31
0.0
  0
LINE
  5
439
  8
0
  6
CONTINUOUS
 62
     7
 10
1135.0501306858
 20
1037.3763358547
 30
0.0
 11
1135.0501306858
 21
1049.3850326492
 31
0.0
  0
LINE
  5
43A
  8
0
  6
CONTINUOUS
 62
     7
 10
2990.0500901546
 20
699.7969514086
 30
0.0
 11
2990.0500901546
 21
1048.9731198503
 31
0.0
  0
LINE
  5
43B
  8
0
  6
CONTINUOUS
 62
     7
 10
2922.4158056583
 20
1048.9731198503
 30
0.0
 11
2990.0500901546
 21
1048.9731198503
 31
0.0
  0
LINE
  5
43C
  8
0
  6
CONTINUOUS
 62
     7
 10
2922.4158056583
 20
699.7969514086
 30
0.0
 11
2990.0500901546
 21
699.7969514086
 31
0.0
  0
LINE
  5
43D
  8
0
  6
CONTINUOUS
 62
     7
 10
3055.0501473751
 20
1049.3850326492
 30
0.0
 11
3055.0501473751
 21
699.3850386097
 31
0.0
  0
LINE
  5
43E
  8
0
  6
CONTINUOUS
 62
     7
 10
1126.0565050449
 20
729.036918874
 30
0.0
 11
1126.0565050449
 21
738.4852683498
 31
0.0
  0
LINE
  5
43F
  8
0
  6
CONTINUOUS
 62
     7
 10
1126.0565050449
 20
827.8556531622
 30
0.0
 11
1126.0565050449
 21
874.0366399615
 31
0.0
  0
LINE
  5
440
  8
0
  6
CONTINUOUS
 62
     7
 10
1126.0565050449
 20
979.2661732389
 30
0.0
 11
1126.0501273479
 21
979.5455551102
 31
0.0
  0
LINE
  5
441
  8
0
  6
CONTINUOUS
 62
     7
 10
1036.0500939693
 20
799.5977988793
 30
0.0
 11
1016.0501130428
 21
799.5977988793
 31
0.0
  0
LINE
  5
442
  8
0
  6
CONTINUOUS
 62
     7
 10
1016.0501130428
 20
799.5977988793
 30
0.0
 11
1016.0501130428
 21
801.3850367023
 31
0.0
  0
ARC
  5
443
  8
0
  6
CONTINUOUS
 62
     7
 10
1121.0680902999
 20
977.3572256474
 30
0.0
 40
8.066204707192856
 50
51.8557629605
 51
79.4125517767
  0
LINE
  5
444
  8
0
  6
CONTINUOUS
 62
     7
 10
1122.5501426067
 20
1044.3850374176
 30
0.0
 11
1122.5501426067
 21
1039.2823582842
 31
0.0
  0
LINE
  5
445
  8
0
  6
CONTINUOUS
 62
     7
 10
1122.5501426067
 20
1014.0412962391
 30
0.0
 11
1122.5501426067
 21
985.2860933496
 31
0.0
  0
LINE
  5
446
  8
0
  6
CONTINUOUS
 62
     7
 10
1016.0501130428
 20
737.2242426826
 30
0.0
 11
1016.0501130428
 21
799.5977988793
 31
0.0
  0
LINE
  5
447
  8
0
  6
CONTINUOUS
 62
     7
 10
1356.3441761341
 20
856.8850355549
 30
0.0
 11
1180.0501473751
 21
856.8850355549
 31
0.0
  0
LINE
  5
448
  8
0
  6
CONTINUOUS
 62
     7
 10
1368.6859138813
 20
891.885035704
 30
0.0
 11
1363.6257775631
 21
891.885035704
 31
0.0
  0
LINE
  5
449
  8
0
  6
CONTINUOUS
 62
     7
 10
1332.6134808864
 20
891.885035704
 30
0.0
 11
1180.0501473751
 21
891.885035704
 31
0.0
  0
LINE
  5
44A
  8
0
  6
CONTINUOUS
 62
     7
 10
2801.4143236484
 20
856.8850355549
 30
0.0
 11
2990.0500901546
 21
856.8850355549
 31
0.0
  0
LINE
  5
44B
  8
0
  6
CONTINUOUS
 62
     7
 10
2801.4143236484
 20
891.885035704
 30
0.0
 11
2990.0500901546
 21
891.885035704
 31
0.0
  0
ARC
  5
44C
  8
0
  6
CONTINUOUS
 62
     7
 10
1121.0501187649
 20
979.3850356295
 30
0.0
 40
5.0
 50
0.0
 51
90.0
  0
LINE
  5
44D
  8
0
  6
CONTINUOUS
 62
     7
 10
1121.0501321163
 20
982.3017036869
 30
0.0
 11
1121.0501321163
 21
984.3850350334
 31
0.0
  0
LINE
  5
44E
  8
0
  6
CONTINUOUS
 62
     7
 10
1016.0501130428
 20
984.3850350334
 30
0.0
 11
1067.6417477932
 21
984.3850350334
 31
0.0
  0
LINE
  5
44F
  8
0
  6
CONTINUOUS
 62
     7
 10
1083.6417802181
 20
984.3850350334
 30
0.0
 11
1121.0501321163
 21
984.3850350334
 31
0.0
  0
LINE
  5
450
  8
0
  6
CONTINUOUS
 62
     7
 10
1016.0501130428
 20
982.3017036869
 30
0.0
 11
1016.0501130428
 21
984.3850350334
 31
0.0
  0
LINE
  5
451
  8
0
  6
CONTINUOUS
 62
     7
 10
1125.6327160206
 20
729.6082591965
 30
0.0
 11
1125.6327160206
 21
735.3384262278
 31
0.0
  0
LINE
  5
452
  8
0
  6
CONTINUOUS
 62
     7
 10
1125.6327160206
 20
735.3384262278
 30
0.0
 11
1126.0501273479
 21
735.3384262278
 31
0.0
  0
LINE
  5
453
  8
0
  6
CONTINUOUS
 62
     7
 10
1126.0501273479
 20
735.3384262278
 30
0.0
 11
1126.0501273479
 21
729.0456360533
 31
0.0
  0
ARC
  5
454
  8
0
  6
CONTINUOUS
 62
     7
 10
1121.0501187649
 20
735.3384212585
 30
0.0
 40
4.582575694955949
 50
0.0
 51
90.0
  0
LINE
  5
455
  8
0
  6
CONTINUOUS
 62
     7
 10
1121.0501321163
 20
740.2624553396
 30
0.0
 11
1121.0501321163
 21
739.9209952309
 31
0.0
  0
ARC
  5
456
  8
0
  6
CONTINUOUS
 62
     7
 10
1121.0877994365
 20
735.3001225571
 30
0.0
 40
4.962475740172558
 50
0.4422511218
 51
90.4349037275
  0
LINE
  5
457
  8
0
  6
CONTINUOUS
 62
     7
 10
1121.0501321163
 20
739.9209952309
 30
0.0
 11
1115.8537991848
 21
739.9209952309
 31
0.0
  0
LINE
  5
458
  8
0
  6
CONTINUOUS
 62
     7
 10
1036.2464316692
 20
739.9209952309
 30
0.0
 11
1036.0500939693
 21
739.9209952309
 31
0.0
  0
LINE
  5
459
  8
0
  6
CONTINUOUS
 62
     7
 10
1036.0500939693
 20
740.2624553396
 30
0.0
 11
1036.0500939693
 21
739.9209952309
 31
0.0
  0
LINE
  5
45A
  8
0
  6
CONTINUOUS
 62
     7
 10
1036.0500939693
 20
739.9209952309
 30
0.0
 11
1036.0500939693
 21
739.7559201672
 31
0.0
  0
LINE
  5
45B
  8
0
  6
CONTINUOUS
 62
     7
 10
1036.0500939693
 20
645.0141584827
 30
0.0
 11
1036.0500939693
 21
639.9771040632
 31
0.0
  0
LINE
  5
45C
  8
0
  6
CONTINUOUS
 62
     7
 10
1121.0501321163
 20
740.2624553396
 30
0.0
 11
1121.0501321163
 21
742.1260988666
 31
0.0
  0
LINE
  5
45D
  8
0
  6
CONTINUOUS
 62
     7
 10
1126.0501273479
 20
738.8800746157
 30
0.0
 11
1126.0501273479
 21
735.3384262278
 31
0.0
  0
LINE
  5
45E
  8
0
  6
CONTINUOUS
 62
     7
 10
1036.0500939693
 20
742.1260988666
 30
0.0
 11
1036.0500939693
 21
740.2624553396
 31
0.0
  0
LINE
  5
45F
  8
0
  6
CONTINUOUS
 62
     7
 10
1121.0501321163
 20
985.4255011632
 30
0.0
 11
1121.0501321163
 21
984.3850350334
 31
0.0
  0
LINE
  5
460
  8
0
  6
CONTINUOUS
 62
     7
 10
1121.0501321163
 20
985.4255011632
 30
0.0
 11
1122.5501426067
 21
985.2860784485
 31
0.0
  0
LINE
  5
461
  8
0
  6
CONTINUOUS
 62
     7
 10
1126.0501273479
 20
983.7009376242
 30
0.0
 11
1126.0501273479
 21
979.5455551102
 31
0.0
  0
LINE
  5
462
  8
0
  6
CONTINUOUS
 62
     7
 10
1107.3549517002
 20
985.4255011632
 30
0.0
 11
1107.3549517002
 21
984.3850350334
 31
0.0
  0
LINE
  5
463
  8
0
  6
CONTINUOUS
 62
     7
 10
1107.3549517002
 20
985.4255011632
 30
0.0
 11
1121.0501321163
 21
985.4255011632
 31
0.0
  0
ARC
  5
464
  8
0
  6
CONTINUOUS
 62
     7
 10
1104.1549767506
 20
989.8102395579
 30
0.0
 40
5.428238247197832
 50
268.0843491893
 51
306.1219071578
  0
LINE
  5
465
  8
0
  6
CONTINUOUS
 62
     7
 10
1016.0501130428
 20
733.5171914055
 30
0.0
 11
1016.0501130428
 21
737.2242426826
 31
0.0
  0
LINE
  5
466
  8
0
  6
CONTINUOUS
 62
     7
 10
1036.0500939693
 20
641.8850338413
 30
0.0
 11
1016.0501130428
 21
641.8850338413
 31
0.0
  0
LINE
  5
467
  8
0
  6
CONTINUOUS
 62
     7
 10
1016.0501130428
 20
641.8850338413
 30
0.0
 11
1016.0501130428
 21
676.7645394756
 31
0.0
  0
LINE
  5
468
  8
0
  6
CONTINUOUS
 62
     7
 10
1016.0501130428
 20
708.0055391743
 30
0.0
 11
1016.0501130428
 21
733.5171914055
 31
0.0
  0
LINE
  5
469
  8
0
  6
CONTINUOUS
 62
     7
 10
1036.0500939693
 20
636.8850386097
 30
0.0
 11
1036.0500939693
 21
639.9771040632
 31
0.0
  0
LINE
  5
46A
  8
0
  6
CONTINUOUS
 62
     7
 10
1016.0501130428
 20
636.8850386097
 30
0.0
 11
1036.0500939693
 21
636.8850386097
 31
0.0
  0
LINE
  5
46B
  8
0
  6
CONTINUOUS
 62
     7
 10
1016.0501130428
 20
636.8850386097
 30
0.0
 11
1016.0501130428
 21
641.8850338413
 31
0.0
  0
LINE
  5
46C
  8
0
  6
CONTINUOUS
 62
     7
 10
1047.431958517
 20
637.3850321724
 30
0.0
 11
1036.0500939693
 21
637.3850321724
 31
0.0
  0
LINE
  5
46D
  8
0
  6
CONTINUOUS
 62
     7
 10
1349.4030364361
 20
983.7285345747
 30
0.0
 11
1270.0061925258
 21
983.7285345747
 31
0.0
  0
LINE
  5
46E
  8
0
  6
CONTINUOUS
 62
     7
 10
1220.0777657833
 20
983.7285345747
 30
0.0
 11
1180.0501473751
 21
983.7285345747
 31
0.0
  0
LINE
  5
46F
  8
0
  6
CONTINUOUS
 62
     7
 10
2820.6972010936
 20
983.7285345747
 30
0.0
 11
2990.0500901546
 21
983.7285345747
 31
0.0
  0
LINE
  5
470
  8
0
  6
CONTINUOUS
 62
     7
 10
2820.6972010936
 20
765.0415366842
 30
0.0
 11
2990.0500901546
 21
765.0415366842
 31
0.0
  0
LINE
  5
471
  8
0
  6
CONTINUOUS
 62
     7
 10
1349.4030364361
 20
765.0415366842
 30
0.0
 11
1180.0501473751
 21
765.0415366842
 31
0.0
  0
LINE
  5
472
  8
0
  6
CONTINUOUS
 62
     7
 10
1016.0501130428
 20
984.3850350334
 30
0.0
 11
1016.0501130428
 21
1011.7985671713
 31
0.0
  0
LINE
  5
473
  8
0
  6
CONTINUOUS
 62
     7
 10
1011.0501178112
 20
874.3850356295
 30
0.0
 11
1011.0501178112
 21
789.3850347354
 31
0.0
  0
LINE
  5
474
  8
0
  6
CONTINUOUS
 62
     7
 10
1011.0501178112
 20
959.3850365235
 30
0.0
 11
1011.0501178112
 21
874.3850356295
 31
0.0
  0
LINE
  5
475
  8
0
  6
CONTINUOUS
 62
     7
 10
1320.05013307
 20
1227.3850208475
 30
0.0
 11
2850.0501044597
 21
1227.3850208475
 31
0.0
  0
LINE
  5
476
  8
0
  6
CONTINUOUS
 62
     7
 10
1320.05013307
 20
521.3850504114
 30
0.0
 11
1352.4266608562
 21
521.3850504114
 31
0.0
  0
LINE
  5
477
  8
0
  6
CONTINUOUS
 62
     7
 10
1381.4334996547
 20
521.3850504114
 30
0.0
 11
2850.0501044597
 21
521.3850504114
 31
0.0
  0
LINE
  5
478
  8
0
  6
CONTINUOUS
 62
     7
 10
1349.4030364361
 20
577.3850446894
 30
0.0
 11
1380.0237902012
 21
577.3850446894
 31
0.0
  0
LINE
  5
479
  8
0
  6
CONTINUOUS
 62
     7
 10
1406.6178329792
 20
577.3850446894
 30
0.0
 11
2058.4833898153
 21
577.3850446894
 31
0.0
  0
ARC
  5
47A
  8
0
  6
CONTINUOUS
 62
     7
 10
1076.0501187649
 20
692.3850356295
 30
0.0
 40
46.89824407011787
 50
315.0
 51
350.2584682185
  0
ARC
  5
47B
  8
0
  6
CONTINUOUS
 62
     7
 10
1076.0501187649
 20
692.3850356295
 30
0.0
 40
46.89824407011783
 50
9.9017964287
 51
80.2584682185
  0
ARC
  5
47C
  8
0
  6
CONTINUOUS
 62
     7
 10
1076.0501187649
 20
692.3850356295
 30
0.0
 40
46.89824407011783
 50
99.9017964287
 51
170.2584682185
  0
ARC
  5
47D
  8
0
  6
CONTINUOUS
 62
     7
 10
1076.0501187649
 20
692.3850356295
 30
0.0
 40
46.89824407011789
 50
189.9017964287
 51
260.2584682185
  0
ARC
  5
47E
  8
0
  6
CONTINUOUS
 62
     7
 10
1076.0501187649
 20
692.3850356295
 30
0.0
 40
46.89824407011787
 50
279.9017964287
 51
315.0
  0
ARC
  5
47F
  8
0
  6
CONTINUOUS
 62
     7
 10
1077.6510995345
 20
691.4514009678
 30
0.0
 40
47.40246868670318
 50
314.4296193982
 51
351.5097382121
  0
ARC
  5
480
  8
0
  6
CONTINUOUS
 62
     7
 10
1076.3818587395
 20
692.7163235765
 30
0.0
 40
48.74881673483628
 50
9.1315252776
 51
81.030334399
  0
ARC
  5
481
  8
0
  6
CONTINUOUS
 62
     7
 10
1075.7186684309
 20
692.7170241112
 30
0.0
 40
48.74856720608767
 50
99.1313786848
 51
171.0306286247
  0
ARC
  5
482
  8
0
  6
CONTINUOUS
 62
     7
 10
1075.7184151863
 20
692.0538514958
 30
0.0
 40
48.74893341248527
 50
189.1316180172
 51
261.0303047944
  0
ARC
  5
483
  8
0
  6
CONTINUOUS
 62
     7
 10
1077.0158199578
 20
690.7239908794
 30
0.0
 40
47.33752730351941
 50
278.6287054337
 51
315.5951268349
  0
LINE
  5
484
  8
0
  6
CONTINUOUS
 62
     7
 10
1016.0501130428
 20
874.3850356295
 30
0.0
 11
1067.7955277767
 21
874.3850356295
 31
0.0
  0
LINE
  5
485
  8
0
  6
CONTINUOUS
 62
     7
 10
1083.7955602016
 20
874.3850356295
 30
0.0
 11
1121.0501321163
 21
874.3850356295
 31
0.0
  0
LINE
  5
486
  8
0
  6
CONTINUOUS
 62
     7
 10
1121.0501321163
 20
982.3017036869
 30
0.0
 11
1083.644641241
 21
982.3017036869
 31
0.0
  0
LINE
  5
487
  8
0
  6
CONTINUOUS
 62
     7
 10
1067.6446088161
 20
982.3017036869
 30
0.0
 11
1016.0501130428
 21
982.3017036869
 31
0.0
  0
LINE
  5
488
  8
0
  6
CONTINUOUS
 62
     7
 10
1063.0501635875
 20
804.3850353314
 30
0.0
 11
1067.8935178127
 21
804.3850353314
 31
0.0
  0
LINE
  5
489
  8
0
  6
CONTINUOUS
 62
     7
 10
3035.0501068439
 20
699.3850386097
 30
0.0
 11
3035.0501068439
 21
1049.3850326492
 31
0.0
  0
LINE
  5
48A
  8
0
  6
CONTINUOUS
 62
     7
 10
1016.0501130428
 20
737.2242426826
 30
0.0
 11
1033.2313903179
 21
737.2242426826
 31
0.0
  0
LINE
  5
48B
  8
0
  6
CONTINUOUS
 62
     7
 10
1036.0500939693
 20
740.2624553396
 30
0.0
 11
1036.6578229274
 21
740.2624553396
 31
0.0
  0
LINE
  5
48C
  8
0
  6
CONTINUOUS
 62
     7
 10
1115.4424079265
 20
740.2624553396
 30
0.0
 11
1121.0501321163
 21
740.2624553396
 31
0.0
  0
LINE
  5
48D
  8
0
  6
CONTINUOUS
 62
     7
 10
1036.0500939693
 20
637.6865720703
 30
0.0
 11
1046.8597539272
 21
637.6865720703
 31
0.0
  0
LINE
  5
48E
  8
0
  6
CONTINUOUS
 62
     7
 10
1029.6589263286
 20
733.5171914055
 30
0.0
 11
1016.0501130428
 21
733.5171914055
 31
0.0
  0
INSERT
  5
49A
  8
FORMAT
  2
SW_CENTERMARKSYMBOL_37
 10
1076.0501187649
 20
692.3850356295
 30
0.0
  0
ARC
  5
49B
  8
0
  6
CONTINUOUS
 62
     7
 10
3907.3159144893
 20
3155.5510264455
 30
0.0
 40
12.5
 50
90.0
 51
270.0
  0
ARC
  5
49C
  8
0
  6
CONTINUOUS
 62
     7
 10
4582.3159144893
 20
3155.5510264455
 30
0.0
 40
12.5
 50
270.0
 51
90.0
  0
LINE
  5
49D
  8
0
  6
CONTINUOUS
 62
     7
 10
3907.3159197345
 20
3143.0510068952
 30
0.0
 11
4582.3159316554
 21
3143.0510068952
 31
0.0
  0
LINE
  5
49E
  8
0
  6
CONTINUOUS
 62
     7
 10
4582.3159316554
 20
3168.0510426579
 30
0.0
 11
3907.3159197345
 21
3168.0510426579
 31
0.0
  0
LINE
  5
49F
  8
0
  6
CONTINUOUS
 62
     7
 10
4252.8777668252
 20
3069.8036039887
 30
0.0
 11
4253.225232102
 21
3143.0510068952
 31
0.0
  0
LINE
  5
4A0
  8
0
  6
CONTINUOUS
 62
     7
 10
4237.2250506654
 20
3143.0510068952
 30
0.0
 11
4236.8779728189
 21
3069.8842192708
 31
0.0
  0
LINE
  5
4A1
  8
0
  6
CONTINUOUS
 62
     7
 10
4182.8159118071
 20
2858.5510338364
 30
0.0
 11
4182.8159118071
 21
2790.551030141
 31
0.0
  0
LINE
  5
4A2
  8
0
  6
CONTINUOUS
 62
     7
 10
4306.8159172311
 20
2790.551030141
 30
0.0
 11
4306.8159172311
 21
2858.5510338364
 31
0.0
  0
ARC
  5
4A3
  8
0
  6
CONTINUOUS
 62
     7
 10
4193.9172561018
 20
2792.0510264455
 30
0.0
 40
10.00000000000045
 50
188.6269265587
 51
270.0
  0
ARC
  5
4A4
  8
0
  6
CONTINUOUS
 62
     7
 10
4295.7145728768
 20
2792.0510264455
 30
0.0
 40
10.00000000000045
 50
270.0
 51
351.3730734413
  0
ARC
  5
4A5
  8
0
  6
CONTINUOUS
 62
     7
 10
4294.0082693158
 20
2864.5510264455
 30
0.0
 40
5.999999999999695
 50
247.5205656029
 51
270.0
  0
ARC
  5
4A6
  8
0
  6
CONTINUOUS
 62
     7
 10
4195.6235596628
 20
2864.5510264455
 30
0.0
 40
5.999999999999545
 50
270.0
 51
292.4794343971
  0
LINE
  5
4A7
  8
0
  6
CONTINUOUS
 62
     7
 10
4291.7141566053
 20
2859.006919962
 30
0.0
 11
4270.538235642
 21
2867.7693689881
 31
0.0
  0
LINE
  5
4A8
  8
0
  6
CONTINUOUS
 62
     7
 10
4219.0936008468
 20
2867.7693689881
 30
0.0
 11
4197.9176649824
 21
2859.006919962
 31
0.0
  0
LINE
  5
4A9
  8
0
  6
CONTINUOUS
 62
     7
 10
4289.815912582
 20
3078.4023786603
 30
0.0
 11
4289.815912582
 21
3085.0510383664
 31
0.0
  0
LINE
  5
4AA
  8
0
  6
CONTINUOUS
 62
     7
 10
4289.815912582
 20
3011.7110396443
 30
0.0
 11
4289.815912582
 21
3061.8191147862
 31
0.0
  0
LINE
  5
4AB
  8
0
  6
CONTINUOUS
 62
     7
 10
4199.8159090057
 20
3061.8191147862
 30
0.0
 11
4199.8159090057
 21
3011.7110396443
 31
0.0
  0
LINE
  5
4AC
  8
0
  6
CONTINUOUS
 62
     7
 10
4199.8159090057
 20
3085.0510383664
 30
0.0
 11
4199.8159090057
 21
3078.3838714181
 31
0.0
  0
ARC
  5
4AD
  8
0
  6
CONTINUOUS
 62
     7
 10
4216.7994831976
 20
2873.3134775633
 30
0.0
 40
5.999999999999971
 50
292.4794343971
 51
357.0
  0
ARC
  5
4AE
  8
0
  6
CONTINUOUS
 62
     7
 10
4272.8323457811
 20
2873.3134775633
 30
0.0
 40
5.999999999999874
 50
183.0
 51
247.5205656029
  0
LINE
  5
4AF
  8
0
  6
CONTINUOUS
 62
     7
 10
4266.8405720964
 20
2872.9994679509
 30
0.0
 11
4266.1139020696
 21
2886.8650282441
 31
0.0
  0
LINE
  5
4B0
  8
0
  6
CONTINUOUS
 62
     7
 10
4223.517919518
 20
2886.8650282441
 30
0.0
 11
4222.7912643924
 21
2872.9994679509
 31
0.0
  0
ARC
  5
4B1
  8
0
  6
CONTINUOUS
 62
     7
 10
4229.5097018896
 20
2886.5510264455
 30
0.0
 40
6.000000000000735
 50
150.0
 51
177.0
  0
ARC
  5
4B2
  8
0
  6
CONTINUOUS
 62
     7
 10
4260.122127089
 20
2886.5510264455
 30
0.0
 40
6.000000000000735
 50
3.0
 51
30.0
  0
LINE
  5
4B3
  8
0
  6
CONTINUOUS
 62
     7
 10
4234.8159203306
 20
3011.7110396443
 30
0.0
 11
4234.8159203306
 21
2889.5510221539
 31
0.0
  0
LINE
  5
4B4
  8
0
  6
CONTINUOUS
 62
     7
 10
4254.8159161582
 20
2889.5510221539
 30
0.0
 11
4254.8159161582
 21
3011.7110396443
 31
0.0
  0
LINE
  5
4B5
  8
0
  6
CONTINUOUS
 62
     7
 10
4199.8158046975
 20
3078.3915306149
 30
0.0
 11
3980.5030772462
 21
3143.0510068952
 31
0.0
  0
LINE
  5
4B6
  8
0
  6
CONTINUOUS
 62
     7
 10
3923.924649693
 20
3143.0510068952
 30
0.0
 11
4199.8045245185
 21
3061.7139423905
 31
0.0
  0
LINE
  5
4B7
  8
0
  6
CONTINUOUS
 62
     7
 10
4289.8272970691
 20
3061.7139423905
 30
0.0
 11
4565.7071569934
 21
3143.0510068952
 31
0.0
  0
LINE
  5
4B8
  8
0
  6
CONTINUOUS
 62
     7
 10
4509.1287592426
 20
3143.0510068952
 30
0.0
 11
4289.8156443611
 21
3078.3914114056
 31
0.0
  0
LINE
  5
4B9
  8
0
  6
CONTINUOUS
 62
     7
 10
4286.3357761875
 20
2778.6759818612
 30
0.0
 11
4286.7129841819
 21
2779.0020639716
 31
0.0
  0
POLYLINE
  5
4BA
  8
0
  6
CONTINUOUS
 62
     7
 66
     1
 10
0.0
 20
0.0
 30
0.0
  0
VERTEX
  5
6EB
  8
0
  6
CONTINUOUS
 62
     7
 10
4290.5139872804
 20
2781.4286137639
 30
0.0
  0
VERTEX
  5
6EC
  8
0
  6
CONTINUOUS
 62
     7
 10
4291.0370925441
 20
2781.6638285933
 30
0.0
  0
VERTEX
  5
6ED
  8
0
  6
CONTINUOUS
 62
     7
 10
4293.6511585489
 20
2782.0521975575
 30
0.0
  0
SEQEND
  5
74A
  8
0
  6
CONTINUOUS
 62
     7
  0
POLYLINE
  5
4BB
  8
0
  6
CONTINUOUS
 62
     7
 66
     1
 10
0.0
 20
0.0
 30
0.0
  0
VERTEX
  5
6EE
  8
0
  6
CONTINUOUS
 62
     7
 10
4195.9806630388
 20
2782.0521975575
 30
0.0
  0
VERTEX
  5
6EF
  8
0
  6
CONTINUOUS
 62
     7
 10
4198.5947439447
 20
2781.6638285933
 30
0.0
  0
VERTEX
  5
6F0
  8
0
  6
CONTINUOUS
 62
     7
 10
4199.1178492084
 20
2781.4286137639
 30
0.0
  0
SEQEND
  5
749
  8
0
  6
CONTINUOUS
 62
     7
  0
LINE
  5
4BC
  8
0
  6
CONTINUOUS
 62
     7
 10
4202.9188523069
 20
2779.0020639716
 30
0.0
 11
4203.2960454002
 21
2778.6759818612
 31
0.0
  0
LINE
  5
4BD
  8
0
  6
CONTINUOUS
 62
     7
 10
4236.4066043868
 20
3143.0510068952
 30
0.0
 11
4236.6817394271
 21
3085.0510383664
 31
0.0
  0
LINE
  5
4BE
  8
0
  6
CONTINUOUS
 62
     7
 10
3952.3912692442
 20
2730.0712252675
 30
0.0
 11
3952.21001897
 21
2729.7393764077
 31
0.0
  0
LINE
  5
4BF
  8
0
  6
CONTINUOUS
 62
     7
 10
3952.21001897
 20
2471.3626737414
 30
0.0
 11
3952.3911425844
 21
2471.0309887944
 31
0.0
  0
LINE
  5
4C0
  8
0
  6
CONTINUOUS
 62
     7
 10
3952.4797970429
 20
2470.8686406432
 30
0.0
 11
3952.590184845
 21
2470.6664914904
 31
0.0
  0
LINE
  5
4C1
  8
0
  6
CONTINUOUS
 62
     7
 10
3709.8159292713
 20
1832.5510407506
 30
0.0
 11
3712.8159204498
 21
1832.5510407506
 31
0.0
  0
LINE
  5
4C2
  8
0
  6
CONTINUOUS
 62
     7
 10
3712.8159204498
 20
3362.5510121404
 30
0.0
 11
3709.8159292713
 21
3362.5510121404
 31
0.0
  0
ARC
  5
4C3
  8
0
  6
CONTINUOUS
 62
     7
 10
3709.8159144893
 20
1834.5510264455
 30
0.0
 40
2.000000000000227
 50
180.0
 51
270.0
  0
ARC
  5
4C4
  8
0
  6
CONTINUOUS
 62
     7
 10
3709.8159144893
 20
3360.5510264455
 30
0.0
 40
2.000000000000455
 50
90.0
 51
180.0
  0
ARC
  5
4C5
  8
0
  6
CONTINUOUS
 62
     7
 10
4415.8159144893
 20
1834.5510264455
 30
0.0
 40
2.000000000000227
 50
270.0
 51
0.0
  0
ARC
  5
4C6
  8
0
  6
CONTINUOUS
 62
     7
 10
4415.8159144893
 20
3360.5510264455
 30
0.0
 40
2.000000000000455
 50
0.0
 51
90.0
  0
LINE
  5
4C7
  8
0
  6
CONTINUOUS
 62
     7
 10
4412.8159085288
 20
1832.5510407506
 30
0.0
 11
4415.8158997074
 21
1832.5510407506
 31
0.0
  0
LINE
  5
4C8
  8
0
  6
CONTINUOUS
 62
     7
 10
4415.8158997074
 20
3362.5510121404
 30
0.0
 11
4412.8159085288
 21
3362.5510121404
 31
0.0
  0
ARC
  5
4C9
  8
0
  6
CONTINUOUS
 62
     7
 10
4244.9964937295
 20
3069.5095339999
 30
0.0
 40
7.799846472433658
 50
269.1358091751
 51
2.2077810259
  0
ARC
  5
4CA
  8
0
  6
CONTINUOUS
 62
     7
 10
4244.8365275846
 20
3069.6217689099
 30
0.0
 40
7.911307404522936
 50
178.050541665
 51
270.3065354721
  0
CIRCLE
  5
4CB
  8
0
  6
CONTINUOUS
 62
     7
 10
4062.8159144893
 20
2600.5510264455
 30
0.0
 40
85.0
  0
LINE
  5
4CC
  8
0
  6
CONTINUOUS
 62
     7
 10
4182.8159118071
 20
2858.5510338364
 30
0.0
 11
4306.8159172311
 21
2858.5510338364
 31
0.0
  0
LINE
  5
4CD
  8
0
  6
CONTINUOUS
 62
     7
 10
4182.8159118071
 20
2790.551030141
 30
0.0
 11
4306.8159172311
 21
2790.551030141
 31
0.0
  0
LINE
  5
4CE
  8
0
  6
CONTINUOUS
 62
     7
 10
4293.7970558181
 20
2782.0510203658
 30
0.0
 11
4295.7145670429
 21
2782.0510203658
 31
0.0
  0
LINE
  5
4CF
  8
0
  6
CONTINUOUS
 62
     7
 10
4292.4395451322
 20
2782.1652377664
 30
0.0
 11
4293.7970558181
 21
2782.0510203658
 31
0.0
  0
POLYLINE
  5
4D0
  8
0
  6
CONTINUOUS
 62
     7
 66
     1
 10
0.0
 20
0.0
 30
0.0
  0
VERTEX
  5
6F1
  8
0
  6
CONTINUOUS
 62
     7
 10
4266.686985828
 20
2782.1652377664
 30
0.0
  0
VERTEX
  5
6F2
  8
0
  6
CONTINUOUS
 62
     7
 10
4271.3629106059
 20
2782.366179925
 30
0.0
  0
VERTEX
  5
6F3
  8
0
  6
CONTINUOUS
 62
     7
 10
4275.7382938638
 20
2782.5709218799
 30
0.0
  0
VERTEX
  5
6F4
  8
0
  6
CONTINUOUS
 62
     7
 10
4279.8200795427
 20
2782.7217961369
 30
0.0
  0
VERTEX
  5
6F5
  8
0
  6
CONTINUOUS
 62
     7
 10
4283.4414342418
 20
2782.7763939916
 30
0.0
  0
VERTEX
  5
6F6
  8
0
  6
CONTINUOUS
 62
     7
 10
4286.580244638
 20
2782.722079259
 30
0.0
  0
VERTEX
  5
6F7
  8
0
  6
CONTINUOUS
 62
     7
 10
4289.1849378124
 20
2782.5708771764
 30
0.0
  0
VERTEX
  5
6F8
  8
0
  6
CONTINUOUS
 62
     7
 10
4291.1375859752
 20
2782.3661501227
 30
0.0
  0
VERTEX
  5
6F9
  8
0
  6
CONTINUOUS
 62
     7
 10
4292.4395451322
 20
2782.1652377664
 30
0.0
  0
SEQEND
  5
748
  8
0
  6
CONTINUOUS
 62
     7
  0
LINE
  5
4D1
  8
0
  6
CONTINUOUS
 62
     7
 10
4258.6550364271
 20
2782.0510203658
 30
0.0
 11
4266.686985828
 21
2782.1652377664
 31
0.0
  0
LINE
  5
4D2
  8
0
  6
CONTINUOUS
 62
     7
 10
4230.9768000617
 20
2782.0510203658
 30
0.0
 11
4258.6550364271
 21
2782.0510203658
 31
0.0
  0
LINE
  5
4D3
  8
0
  6
CONTINUOUS
 62
     7
 10
4222.9448506608
 20
2782.1652377664
 30
0.0
 11
4230.9768000617
 21
2782.0510203658
 31
0.0
  0
POLYLINE
  5
4D4
  8
0
  6
CONTINUOUS
 62
     7
 66
     1
 10
0.0
 20
0.0
 30
0.0
  0
VERTEX
  5
6FA
  8
0
  6
CONTINUOUS
 62
     7
 10
4197.1922913566
 20
2782.1652377664
 30
0.0
  0
VERTEX
  5
6FB
  8
0
  6
CONTINUOUS
 62
     7
 10
4198.4944144264
 20
2782.366179925
 30
0.0
  0
VERTEX
  5
6FC
  8
0
  6
CONTINUOUS
 62
     7
 10
4200.4473755136
 20
2782.5709218799
 30
0.0
  0
VERTEX
  5
6FD
  8
0
  6
CONTINUOUS
 62
     7
 10
4203.0439773574
 20
2782.7217961369
 30
0.0
  0
VERTEX
  5
6FE
  8
0
  6
CONTINUOUS
 62
     7
 10
4206.1718950048
 20
2782.7763939916
 30
0.0
  0
VERTEX
  5
6FF
  8
0
  6
CONTINUOUS
 62
     7
 10
4209.8015645519
 20
2782.722079259
 30
0.0
  0
VERTEX
  5
700
  8
0
  6
CONTINUOUS
 62
     7
 10
4213.8943621889
 20
2782.5708920775
 30
0.0
  0
VERTEX
  5
701
  8
0
  6
CONTINUOUS
 62
     7
 10
4218.2694176212
 20
2782.3661501227
 30
0.0
  0
VERTEX
  5
702
  8
0
  6
CONTINUOUS
 62
     7
 10
4222.9448506608
 20
2782.1652377664
 30
0.0
  0
SEQEND
  5
747
  8
0
  6
CONTINUOUS
 62
     7
  0
LINE
  5
4D5
  8
0
  6
CONTINUOUS
 62
     7
 10
4195.8347657695
 20
2782.0510203658
 30
0.0
 11
4197.1922913566
 21
2782.1652377664
 31
0.0
  0
LINE
  5
4D6
  8
0
  6
CONTINUOUS
 62
     7
 10
4193.9172545448
 20
2782.0510203658
 30
0.0
 11
4195.8347657695
 21
2782.0510203658
 31
0.0
  0
ARC
  5
4D7
  8
0
  6
CONTINUOUS
 62
     7
 10
4062.8159144893
 20
2600.5510264455
 30
0.0
 40
139.9999999999998
 50
141.7867892983
 51
218.2132107017
  0
LINE
  5
4D8
  8
0
  6
CONTINUOUS
 62
     7
 10
4135.8159134164
 20
2772.50450204
 30
0.0
 11
4135.8159134164
 21
2782.5510288297
 31
0.0
  0
ARC
  5
4D9
  8
0
  6
CONTINUOUS
 62
     7
 10
4138.8159144893
 20
2772.5045085271
 30
0.0
 40
3.000000000000909
 50
180.0
 51
246.1555299765
  0
ARC
  5
4DA
  8
0
  6
CONTINUOUS
 62
     7
 10
4062.8159144893
 20
2600.5510264455
 30
0.0
 40
185.0000000000007
 50
42.1483594825
 51
66.1555299765
  0
ARC
  5
4DB
  8
0
  6
CONTINUOUS
 62
     7
 10
4203.6837603591
 20
2728.0510264455
 30
0.0
 40
5.000000000000455
 50
222.1483594825
 51
270.0
  0
LINE
  5
4DC
  8
0
  6
CONTINUOUS
 62
     7
 10
4295.3159162774
 20
2723.0510200082
 30
0.0
 11
4203.6837587133
 21
2723.0510200082
 31
0.0
  0
ARC
  5
4DD
  8
0
  6
CONTINUOUS
 62
     7
 10
4295.3159144893
 20
2718.0510264455
 30
0.0
 40
5.000000000000909
 50
0.0
 51
90.0
  0
LINE
  5
4DE
  8
0
  6
CONTINUOUS
 62
     7
 10
4300.3159115091
 20
2483.0510253726
 30
0.0
 11
4300.3159115091
 21
2718.0510247765
 31
0.0
  0
ARC
  5
4DF
  8
0
  6
CONTINUOUS
 62
     7
 10
4295.3159144893
 20
2483.0510264455
 30
0.0
 40
5.0
 50
270.0
 51
0.0
  0
LINE
  5
4E0
  8
0
  6
CONTINUOUS
 62
     7
 10
4203.6837587133
 20
2478.051030141
 30
0.0
 11
4295.3159162774
 21
2478.051030141
 31
0.0
  0
ARC
  5
4E1
  8
0
  6
CONTINUOUS
 62
     7
 10
4203.6837603591
 20
2473.0510264455
 30
0.0
 40
5.000000000000455
 50
90.0
 51
137.8516405175
  0
ARC
  5
4E2
  8
0
  6
CONTINUOUS
 62
     7
 10
4062.8159144893
 20
2600.5510264455
 30
0.0
 40
185.0000000000005
 50
293.8444700235
 51
317.8516405175
  0
ARC
  5
4E3
  8
0
  6
CONTINUOUS
 62
     7
 10
4138.8159144893
 20
2428.5975443638
 30
0.0
 40
3.00000000000027
 50
113.8444700235
 51
180.0
  0
LINE
  5
4E4
  8
0
  6
CONTINUOUS
 62
     7
 10
4135.8159134164
 20
2418.5510213195
 30
0.0
 11
4135.8159134164
 21
2428.5975481091
 31
0.0
  0
ARC
  5
4E5
  8
0
  6
CONTINUOUS
 62
     7
 10
4132.8159144893
 20
2418.5510264455
 30
0.0
 40
3.000000000000909
 50
270.0
 51
0.0000000259
  0
ARC
  5
4E6
  8
0
  6
CONTINUOUS
 62
     7
 10
4132.8159144893
 20
2782.5510264455
 30
0.0
 40
3.0
 50
359.9999999735
 51
90.0000000229
  0
LINE
  5
4E7
  8
0
  6
CONTINUOUS
 62
     7
 10
4132.8159147873
 20
2785.5510200082
 30
0.0
 11
4062.8159144893
 21
2785.5510200082
 31
0.0
  0
LINE
  5
4E8
  8
0
  6
CONTINUOUS
 62
     7
 10
4062.8159144893
 20
2415.551030141
 30
0.0
 11
4132.8159147873
 21
2415.551030141
 31
0.0
  0
LINE
  5
4E9
  8
0
  6
CONTINUOUS
 62
     7
 10
3952.8159150854
 20
2746.7529411136
 30
0.0
 11
3952.8159150854
 21
2687.1535638986
 31
0.0
  0
ARC
  5
4EA
  8
0
  6
CONTINUOUS
 62
     7
 10
4062.8159144893
 20
2600.5510264455
 30
0.0
 40
185.0
 50
90.0
 51
125.6853347127
  0
ARC
  5
4EB
  8
0
  6
CONTINUOUS
 62
     7
 10
3957.8159144893
 20
2746.7529416176
 30
0.0
 40
5.000000000000276
 50
125.6853347126
 51
180.0
  0
LINE
  5
4EC
  8
0
  6
CONTINUOUS
 62
     7
 10
3952.8159150854
 20
2513.9484862505
 30
0.0
 11
3952.8159150854
 21
2454.3491090356
 31
0.0
  0
ARC
  5
4ED
  8
0
  6
CONTINUOUS
 62
     7
 10
3957.8159144893
 20
2454.3491112733
 30
0.0
 40
5.000000000000455
 50
180.0
 51
234.3146652874
  0
ARC
  5
4EE
  8
0
  6
CONTINUOUS
 62
     7
 10
4062.8159144893
 20
2600.5510264455
 30
0.0
 40
184.9999999999995
 50
234.3146652873
 51
270.0
  0
LINE
  5
4EF
  8
0
  6
CONTINUOUS
 62
     7
 10
4258.6550364271
 20
2782.0510203658
 30
0.0
 11
4258.6550364271
 21
2772.574388486
 31
0.0
  0
LINE
  5
4F0
  8
0
  6
CONTINUOUS
 62
     7
 10
4258.6550364271
 20
2772.574388486
 30
0.0
 11
4230.9768000617
 21
2772.574388486
 31
0.0
  0
LINE
  5
4F1
  8
0
  6
CONTINUOUS
 62
     7
 10
4230.9768000617
 20
2782.0510203658
 30
0.0
 11
4230.9768000617
 21
2772.574388486
 31
0.0
  0
LINE
  5
4F2
  8
0
  6
CONTINUOUS
 62
     7
 10
4230.9768000617
 20
2772.574388486
 30
0.0
 11
4222.3159173503
 21
2772.8027934848
 31
0.0
  0
POLYLINE
  5
4F3
  8
0
  6
CONTINUOUS
 62
     7
 66
     1
 10
0.0
 20
0.0
 30
0.0
  0
VERTEX
  5
703
  8
0
  6
CONTINUOUS
 62
     7
 10
4222.9448506608
 20
2782.1652377664
 30
0.0
  0
VERTEX
  5
704
  8
0
  6
CONTINUOUS
 62
     7
 10
4222.9147652164
 20
2781.7838425456
 30
0.0
  0
VERTEX
  5
705
  8
0
  6
CONTINUOUS
 62
     7
 10
4222.8668728843
 20
2781.1198766051
 30
0.0
  0
VERTEX
  5
706
  8
0
  6
CONTINUOUS
 62
     7
 10
4222.8025892749
 20
2780.1930541812
 30
0.0
  0
VERTEX
  5
707
  8
0
  6
CONTINUOUS
 62
     7
 10
4222.7238515392
 20
2779.030942422
 30
0.0
  0
VERTEX
  5
708
  8
0
  6
CONTINUOUS
 62
     7
 10
4222.632969357
 20
2777.6680971204
 30
0.0
  0
VERTEX
  5
709
  8
0
  6
CONTINUOUS
 62
     7
 10
4222.5326696411
 20
2776.1450345336
 30
0.0
  0
VERTEX
  5
70A
  8
0
  6
CONTINUOUS
 62
     7
 10
4222.4259326234
 20
2774.5070243894
 30
0.0
  0
VERTEX
  5
70B
  8
0
  6
CONTINUOUS
 62
     7
 10
4222.3159173503
 20
2772.8027934848
 30
0.0
  0
SEQEND
  5
746
  8
0
  6
CONTINUOUS
 62
     7
  0
POLYLINE
  5
4F4
  8
0
  6
CONTINUOUS
 62
     7
 66
     1
 10
0.0
 20
0.0
 30
0.0
  0
VERTEX
  5
70C
  8
0
  6
CONTINUOUS
 62
     7
 10
4266.686985828
 20
2782.1652377664
 30
0.0
  0
VERTEX
  5
70D
  8
0
  6
CONTINUOUS
 62
     7
 10
4266.7170712724
 20
2781.7838425456
 30
0.0
  0
VERTEX
  5
70E
  8
0
  6
CONTINUOUS
 62
     7
 10
4266.7649636045
 20
2781.1198766051
 30
0.0
  0
VERTEX
  5
70F
  8
0
  6
CONTINUOUS
 62
     7
 10
4266.8292323127
 20
2780.1930541812
 30
0.0
  0
VERTEX
  5
710
  8
0
  6
CONTINUOUS
 62
     7
 10
4266.9079849496
 20
2779.030942422
 30
0.0
  0
VERTEX
  5
711
  8
0
  6
CONTINUOUS
 62
     7
 10
4266.9988522306
 20
2777.6680971204
 30
0.0
  0
VERTEX
  5
712
  8
0
  6
CONTINUOUS
 62
     7
 10
4267.0991519466
 20
2776.1450345336
 30
0.0
  0
VERTEX
  5
713
  8
0
  6
CONTINUOUS
 62
     7
 10
4267.2059038654
 20
2774.5070243894
 30
0.0
  0
VERTEX
  5
714
  8
0
  6
CONTINUOUS
 62
     7
 10
4267.3159191385
 20
2772.8027934848
 30
0.0
  0
SEQEND
  5
745
  8
0
  6
CONTINUOUS
 62
     7
  0
LINE
  5
4F5
  8
0
  6
CONTINUOUS
 62
     7
 10
4267.3159191385
 20
2772.8027934848
 30
0.0
 11
4258.6550364271
 21
2772.574388486
 31
0.0
  0
POLYLINE
  5
4F6
  8
0
  6
CONTINUOUS
 62
     7
 66
     1
 10
0.0
 20
0.0
 30
0.0
  0
VERTEX
  5
715
  8
0
  6
CONTINUOUS
 62
     7
 10
4222.3159173503
 20
2772.8027934848
 30
0.0
  0
VERTEX
  5
716
  8
0
  6
CONTINUOUS
 62
     7
 10
4221.0431644693
 20
2772.9453379928
 30
0.0
  0
VERTEX
  5
717
  8
0
  6
CONTINUOUS
 62
     7
 10
4219.8188850656
 20
2773.0991775809
 30
0.0
  0
VERTEX
  5
718
  8
0
  6
CONTINUOUS
 62
     7
 10
4218.2031074539
 20
2773.3144397555
 30
0.0
  0
VERTEX
  5
719
  8
0
  6
CONTINUOUS
 62
     7
 10
4217.1826014295
 20
2773.4517986594
 30
0.0
  0
VERTEX
  5
71A
  8
0
  6
CONTINUOUS
 62
     7
 10
4215.9907916561
 20
2773.6063684045
 30
0.0
  0
VERTEX
  5
71B
  8
0
  6
CONTINUOUS
 62
     7
 10
4214.4596377387
 20
2773.7851227342
 30
0.0
  0
VERTEX
  5
71C
  8
0
  6
CONTINUOUS
 62
     7
 10
4213.1353119388
 20
2773.9110822497
 30
0.0
  0
VERTEX
  5
71D
  8
0
  6
CONTINUOUS
 62
     7
 10
4210.5977037921
 20
2774.0251357375
 30
0.0
  0
VERTEX
  5
71E
  8
0
  6
CONTINUOUS
 62
     7
 10
4209.5192918554
 20
2773.9970321475
 30
0.0
  0
VERTEX
  5
71F
  8
0
  6
CONTINUOUS
 62
     7
 10
4208.5417160764
 20
2773.9127809821
 30
0.0
  0
VERTEX
  5
720
  8
0
  6
CONTINUOUS
 62
     7
 10
4208.0060044303
 20
2773.8345200835
 30
0.0
  0
VERTEX
  5
721
  8
0
  6
CONTINUOUS
 62
     7
 10
4207.4954310432
 20
2773.7324322282
 30
0.0
  0
VERTEX
  5
722
  8
0
  6
CONTINUOUS
 62
     7
 10
4207.0240030065
 20
2773.6065472184
 30
0.0
  0
VERTEX
  5
723
  8
0
  6
CONTINUOUS
 62
     7
 10
4206.4065584913
 20
2773.3682329474
 30
0.0
  0
VERTEX
  5
724
  8
0
  6
CONTINUOUS
 62
     7
 10
4205.9285441413
 20
2773.0461592494
 30
0.0
  0
VERTEX
  5
725
  8
0
  6
CONTINUOUS
 62
     7
 10
4205.8090964332
 20
2772.8027934848
 30
0.0
  0
SEQEND
  5
744
  8
0
  6
CONTINUOUS
 62
     7
  0
ARC
  5
4F7
  8
0
  6
CONTINUOUS
 62
     7
 10
4195.8382051207
 20
2772.2724960108
 30
0.0
 40
9.98498317353539
 50
3.0443825794
 51
82.2059740135
  0
ARC
  5
4F8
  8
0
  6
CONTINUOUS
 62
     7
 10
4293.7936231308
 20
2772.2724877225
 30
0.0
 40
9.984990268176174
 50
97.7939727062
 51
176.9555719588
  0
POLYLINE
  5
4F9
  8
0
  6
CONTINUOUS
 62
     7
 66
     1
 10
0.0
 20
0.0
 30
0.0
  0
VERTEX
  5
726
  8
0
  6
CONTINUOUS
 62
     7
 10
4283.8227251544
 20
2772.8027934848
 30
0.0
  0
VERTEX
  5
727
  8
0
  6
CONTINUOUS
 62
     7
 10
4283.7810764089
 20
2772.9453379928
 30
0.0
  0
VERTEX
  5
728
  8
0
  6
CONTINUOUS
 62
     7
 10
4283.6484858766
 20
2773.0991775809
 30
0.0
  0
VERTEX
  5
729
  8
0
  6
CONTINUOUS
 62
     7
 10
4283.3298394456
 20
2773.3144397555
 30
0.0
  0
VERTEX
  5
72A
  8
0
  6
CONTINUOUS
 62
     7
 10
4283.0400416627
 20
2773.4517986594
 30
0.0
  0
VERTEX
  5
72B
  8
0
  6
CONTINUOUS
 62
     7
 10
4282.6083997264
 20
2773.6063684045
 30
0.0
  0
VERTEX
  5
72C
  8
0
  6
CONTINUOUS
 62
     7
 10
4281.8917879835
 20
2773.7851227342
 30
0.0
  0
VERTEX
  5
72D
  8
0
  6
CONTINUOUS
 62
     7
 10
4281.1040380969
 20
2773.9110822497
 30
0.0
  0
VERTEX
  5
72E
  8
0
  6
CONTINUOUS
 62
     7
 10
4279.0324637666
 20
2774.0251357375
 30
0.0
  0
VERTEX
  5
72F
  8
0
  6
CONTINUOUS
 62
     7
 10
4277.8416672721
 20
2773.9970321475
 30
0.0
  0
VERTEX
  5
730
  8
0
  6
CONTINUOUS
 62
     7
 10
4276.5175649896
 20
2773.9127809821
 30
0.0
  0
VERTEX
  5
731
  8
0
  6
CONTINUOUS
 62
     7
 10
4275.6519565359
 20
2773.8345200835
 30
0.0
  0
VERTEX
  5
732
  8
0
  6
CONTINUOUS
 62
     7
 10
4274.6941993013
 20
2773.7324322282
 30
0.0
  0
VERTEX
  5
733
  8
0
  6
CONTINUOUS
 62
     7
 10
4273.6424157396
 20
2773.6065472184
 30
0.0
  0
VERTEX
  5
734
  8
0
  6
CONTINUOUS
 62
     7
 10
4271.8266198411
 20
2773.3682329474
 30
0.0
  0
VERTEX
  5
735
  8
0
  6
CONTINUOUS
 62
     7
 10
4269.4016644731
 20
2773.0461443482
 30
0.0
  0
VERTEX
  5
736
  8
0
  6
CONTINUOUS
 62
     7
 10
4267.3159191385
 20
2772.8027934848
 30
0.0
  0
SEQEND
  5
743
  8
0
  6
CONTINUOUS
 62
     7
  0
LINE
  5
4FA
  8
0
  6
CONTINUOUS
 62
     7
 10
4289.8158678785
 20
3011.7110396443
 30
0.0
 11
4199.8159090057
 21
3011.7110396443
 31
0.0
  0
LINE
  5
4FB
  8
0
  6
CONTINUOUS
 62
     7
 10
4199.8159537092
 20
3085.0510383664
 30
0.0
 11
4236.9499156251
 21
3085.0510383664
 31
0.0
  0
LINE
  5
4FC
  8
0
  6
CONTINUOUS
 62
     7
 10
4252.9500970617
 20
3085.0510383664
 30
0.0
 11
4289.815912582
 21
3085.0510383664
 31
0.0
  0
POLYLINE
  5
4FD
  8
0
  6
CONTINUOUS
 62
     7
 66
     1
 10
0.0
 20
0.0
 30
0.0
  0
VERTEX
  5
737
  8
0
  6
CONTINUOUS
 62
     7
 10
4199.8159537092
 20
3078.3914710103
 30
0.0
  0
VERTEX
  5
738
  8
0
  6
CONTINUOUS
 62
     7
 10
4199.8873153701
 20
3077.9635990678
 30
0.0
  0
VERTEX
  5
739
  8
0
  6
CONTINUOUS
 62
     7
 10
4200.0643858686
 20
3076.7592276154
 30
0.0
  0
VERTEX
  5
73A
  8
0
  6
CONTINUOUS
 62
     7
 10
4200.2894530073
 20
3074.8497630177
 30
0.0
  0
VERTEX
  5
73B
  8
0
  6
CONTINUOUS
 62
     7
 10
4200.4832724109
 20
3072.2658122598
 30
0.0
  0
VERTEX
  5
73C
  8
0
  6
CONTINUOUS
 62
     7
 10
4200.5408803001
 20
3069.2973817407
 30
0.0
  0
VERTEX
  5
73D
  8
0
  6
CONTINUOUS
 62
     7
 10
4200.4218647256
 20
3066.4585317193
 30
0.0
  0
VERTEX
  5
73E
  8
0
  6
CONTINUOUS
 62
     7
 10
4200.1944283023
 20
3064.1558850823
 30
0.0
  0
VERTEX
  5
73F
  8
0
  6
CONTINUOUS
 62
     7
 10
4199.9659636989
 20
3062.5647986947
 30
0.0
  0
VERTEX
  5
740
  8
0
  6
CONTINUOUS
 62
     7
 10
4199.83008001
 20
3061.7812062322
 30
0.0
  0
VERTEX
  5
741
  8
0
  6
CONTINUOUS
 62
     7
 10
4199.8352060094
 20
3061.8191147862
 30
0.0
  0
SEQEND
  5
742
  8
0
  6
CONTINUOUS
 62
     7
  0
ARC
  5
4FE
  8
0
  6
CONTINUOUS
 62
     7
 10
4340.8128826012
 20
3070.046083758
 30
0.0
 40
51.67534227285709
 50
170.7062305114
 51
189.1607502284
  0
LINE
  5
4FF
  8
0
  6
CONTINUOUS
 62
     7
 10
4287.2485617175
 20
2451.0510201274
 30
0.0
 11
4197.2799548879
 21
2451.0510201274
 31
0.0
  0
ARC
  5
500
  8
0
  6
CONTINUOUS
 62
     7
 10
4201.8625288602
 20
2453.0510264455
 30
0.0
 40
4.999999999999728
 50
190.0
 51
203.5781784782
  0
LINE
  5
501
  8
0
  6
CONTINUOUS
 62
     7
 10
4297.2238460555
 20
2478.4293557225
 30
0.0
 11
4287.3644629493
 21
2451.3409222184
 31
0.0
  0
ARC
  5
502
  8
0
  6
CONTINUOUS
 62
     7
 10
4282.6659930133
 20
2453.0510264455
 30
0.0
 40
5.000000000000834
 50
336.4218215218
 51
340.0
  0
LINE
  5
503
  8
0
  6
CONTINUOUS
 62
     7
 10
4196.9384947791
 20
2452.1827782212
 30
0.0
 11
4195.0748512521
 21
2462.7519930421
 31
0.0
  0
ARC
  5
504
  8
0
  6
CONTINUOUS
 62
     7
 10
4062.8159144893
 20
2600.5510264455
 30
0.0
 40
191.0000000000005
 50
292.4699575367
 51
313.8247730172
  0
ARC
  5
505
  8
0
  6
CONTINUOUS
 62
     7
 10
4201.8625288602
 20
2748.0510264455
 30
0.0
 40
4.999999999999649
 50
156.4218215218
 51
170.0
  0
LINE
  5
506
  8
0
  6
CONTINUOUS
 62
     7
 10
4197.2799548879
 20
2750.0510300218
 30
0.0
 11
4287.2485617175
 21
2750.0510300218
 31
0.0
  0
LINE
  5
507
  8
0
  6
CONTINUOUS
 62
     7
 10
4287.3644629493
 20
2749.7611279307
 30
0.0
 11
4297.2238460555
 21
2722.6726944266
 31
0.0
  0
ARC
  5
508
  8
0
  6
CONTINUOUS
 62
     7
 10
4282.6659930133
 20
2748.0510264455
 30
0.0
 40
5.000000000000126
 50
20.0
 51
23.5781784782
  0
LINE
  5
509
  8
0
  6
CONTINUOUS
 62
     7
 10
4195.0748512521
 20
2738.3500571071
 30
0.0
 11
4196.9384947791
 21
2748.9192719279
 31
0.0
  0
ARC
  5
50A
  8
0
  6
CONTINUOUS
 62
     7
 10
4062.8159144893
 20
2600.5510264455
 30
0.0
 40
191.0000000000004
 50
46.1752269828
 51
67.5300424633
  0
LINE
  5
50B
  8
0
  6
CONTINUOUS
 62
     7
 10
4222.3159173503
 20
2750.0510300218
 30
0.0
 11
4222.3159173503
 21
2772.8027934848
 31
0.0
  0
LINE
  5
50C
  8
0
  6
CONTINUOUS
 62
     7
 10
4207.0014724508
 20
2750.0510300218
 30
0.0
 11
4205.8090964332
 21
2772.8027934848
 31
0.0
  0
LINE
  5
50D
  8
0
  6
CONTINUOUS
 62
     7
 10
4267.3159191385
 20
2750.0510300218
 30
0.0
 11
4267.3159191385
 21
2772.8027934848
 31
0.0
  0
LINE
  5
50E
  8
0
  6
CONTINUOUS
 62
     7
 10
4282.630364038
 20
2750.0510300218
 30
0.0
 11
4283.8227251544
 21
2772.8027934848
 31
0.0
  0
LINE
  5
50F
  8
0
  6
CONTINUOUS
 62
     7
 10
4206.8159082904
 20
2451.0510201274
 30
0.0
 11
4206.8159082904
 21
2438.0510235845
 31
0.0
  0
LINE
  5
510
  8
0
  6
CONTINUOUS
 62
     7
 10
4209.8159143701
 20
2438.0510235845
 30
0.0
 11
4209.8159143701
 21
2451.0510201274
 31
0.0
  0
LINE
  5
511
  8
0
  6
CONTINUOUS
 62
     7
 10
4206.8159082904
 20
2438.0510235845
 30
0.0
 11
4209.8159143701
 21
2438.0510235845
 31
0.0
  0
LINE
  5
512
  8
0
  6
CONTINUOUS
 62
     7
 10
4279.8159072175
 20
2451.0510201274
 30
0.0
 11
4279.8159072175
 21
2438.0510235845
 31
0.0
  0
LINE
  5
513
  8
0
  6
CONTINUOUS
 62
     7
 10
4279.8159072175
 20
2438.0510235845
 30
0.0
 11
4209.8159143701
 21
2438.0510235845
 31
0.0
  0
LINE
  5
514
  8
0
  6
CONTINUOUS
 62
     7
 10
4282.8159132972
 20
2438.0510235845
 30
0.0
 11
4282.8159132972
 21
2451.0510201274
 31
0.0
  0
LINE
  5
515
  8
0
  6
CONTINUOUS
 62
     7
 10
4279.8159072175
 20
2438.0510235845
 30
0.0
 11
4282.8159132972
 21
2438.0510235845
 31
0.0
  0
ARC
  5
516
  8
0
  6
CONTINUOUS
 62
     7
 10
4195.8347732094
 20
2772.0510264455
 30
0.0
 40
10.00000000000097
 50
3.0
 51
90.0
  0
ARC
  5
517
  8
0
  6
CONTINUOUS
 62
     7
 10
4293.7970557692
 20
2772.0510264455
 30
0.0
 40
10.00000000000052
 50
90.0
 51
177.0000000026
  0
LINE
  5
518
  8
0
  6
CONTINUOUS
 62
     7
 10
4265.31828437
 20
2889.5510221539
 30
0.0
 11
4224.3135521188
 21
2889.5510221539
 31
0.0
  0
ARC
  5
519
  8
0
  6
CONTINUOUS
 62
     7
 10
3949.8159144893
 20
2469.554843295
 30
0.0
 40
3.000000000000286
 50
0.0
 51
49.218269679
  0
ARC
  5
51A
  8
0
  6
CONTINUOUS
 62
     7
 10
4058.746563557
 20
2595.7955713787
 30
0.0
 40
163.7411388725992
 50
229.2095766733
 51
229.6887338295
  0
ARC
  5
51B
  8
0
  6
CONTINUOUS
 62
     7
 10
4065.0439791654
 20
2597.9486012132
 30
0.0
 40
173.425887975616
 50
130.3251173483
 51
130.7775196373
  0
ARC
  5
51C
  8
0
  6
CONTINUOUS
 62
     7
 10
3949.8159144893
 20
2731.547209596
 30
0.0
 40
2.999999999998456
 50
310.781730321
 51
0.0
  0
ARC
  5
51D
  8
0
  6
CONTINUOUS
 62
     7
 10
4062.8159144893
 20
2600.5510264455
 30
0.0
 40
169.9999999999999
 50
130.781730321
 51
229.218269679
  0
ARC
  5
51E
  8
0
  6
CONTINUOUS
 62
     7
 10
4062.8159144893
 20
2600.5510264455
 30
0.0
 40
174.9999999999998
 50
128.9448035941
 51
231.0551964059
  0
LINE
  5
51F
  8
0
  6
CONTINUOUS
 62
     7
 10
3753.8159290328
 20
3287.554421526
 30
0.0
 11
3712.8159204498
 21
3287.554421526
 31
0.0
  0
LINE
  5
520
  8
0
  6
CONTINUOUS
 62
     7
 10
3753.8159290328
 20
2612.5510261102
 30
0.0
 11
3753.8159290328
 21
3287.554421526
 31
0.0
  0
LINE
  5
521
  8
0
  6
CONTINUOUS
 62
     7
 10
3753.8159290328
 20
1907.5476313649
 30
0.0
 11
3753.8159290328
 21
2582.5510267807
 31
0.0
  0
LINE
  5
522
  8
0
  6
CONTINUOUS
 62
     7
 10
3712.8159204498
 20
1907.5476313649
 30
0.0
 11
3753.8159290328
 21
1907.5476313649
 31
0.0
  0
LINE
  5
523
  8
0
  6
CONTINUOUS
 62
     7
 10
3712.8159204498
 20
1907.5476313649
 30
0.0
 11
3712.8159204498
 21
3287.554421526
 31
0.0
  0
LINE
  5
524
  8
0
  6
CONTINUOUS
 62
     7
 10
3888.2278302684
 20
2612.5510261102
 30
0.0
 11
3753.8159290328
 21
2612.5510261102
 31
0.0
  0
LINE
  5
525
  8
0
  6
CONTINUOUS
 62
     7
 10
3888.7440958991
 20
2582.5510267807
 30
0.0
 11
3753.8159290328
 21
2582.5510267807
 31
0.0
  0
LINE
  5
526
  8
0
  6
CONTINUOUS
 62
     7
 10
4371.8158999458
 20
2612.5510261102
 30
0.0
 11
4371.8158999458
 21
3085.8864868699
 31
0.0
  0
LINE
  5
527
  8
0
  6
CONTINUOUS
 62
     7
 10
4371.8158999458
 20
3102.5673533498
 30
0.0
 11
4371.8158999458
 21
3143.0510068952
 31
0.0
  0
LINE
  5
528
  8
0
  6
CONTINUOUS
 62
     7
 10
4371.8158999458
 20
3168.0510426579
 30
0.0
 11
4371.8158999458
 21
3287.554421526
 31
0.0
  0
LINE
  5
529
  8
0
  6
CONTINUOUS
 62
     7
 10
4412.8159085288
 20
3287.554421526
 30
0.0
 11
4371.8158999458
 21
3287.554421526
 31
0.0
  0
LINE
  5
52A
  8
0
  6
CONTINUOUS
 62
     7
 10
4412.8159085288
 20
1907.5476313649
 30
0.0
 11
4412.8159085288
 21
3097.9743982373
 31
0.0
  0
LINE
  5
52B
  8
0
  6
CONTINUOUS
 62
     7
 10
4412.8159085288
 20
3114.6552945195
 30
0.0
 11
4412.8159085288
 21
3143.0510068952
 31
0.0
  0
LINE
  5
52C
  8
0
  6
CONTINUOUS
 62
     7
 10
4412.8159085288
 20
3168.0510426579
 30
0.0
 11
4412.8159085288
 21
3287.554421526
 31
0.0
  0
LINE
  5
52D
  8
0
  6
CONTINUOUS
 62
     7
 10
4371.8158999458
 20
1907.5476313649
 30
0.0
 11
4412.8159085288
 21
1907.5476313649
 31
0.0
  0
LINE
  5
52E
  8
0
  6
CONTINUOUS
 62
     7
 10
4371.8158999458
 20
1907.5476313649
 30
0.0
 11
4371.8158999458
 21
2582.5510267807
 31
0.0
  0
LINE
  5
52F
  8
0
  6
CONTINUOUS
 62
     7
 10
4300.3159115091
 20
2582.5510267807
 30
0.0
 11
4371.8158999458
 21
2582.5510267807
 31
0.0
  0
LINE
  5
530
  8
0
  6
CONTINUOUS
 62
     7
 10
4300.3159115091
 20
2612.5510261102
 30
0.0
 11
4371.8158999458
 21
2612.5510261102
 31
0.0
  0
LINE
  5
531
  8
0
  6
CONTINUOUS
 62
     7
 10
3707.8159252181
 20
2597.5510264455
 30
0.0
 11
3707.8159252181
 21
3360.5510378896
 31
0.0
  0
LINE
  5
532
  8
0
  6
CONTINUOUS
 62
     7
 10
3707.8159252181
 20
1834.5510150014
 30
0.0
 11
3707.8159252181
 21
2597.5510264455
 31
0.0
  0
LINE
  5
533
  8
0
  6
CONTINUOUS
 62
     7
 10
4417.8159037605
 20
2597.5510264455
 30
0.0
 11
4417.8159037605
 21
3099.4485403119
 31
0.0
  0
LINE
  5
534
  8
0
  6
CONTINUOUS
 62
     7
 10
4417.8159037605
 20
3116.1294365941
 30
0.0
 11
4417.8159037605
 21
3143.0510068952
 31
0.0
  0
LINE
  5
535
  8
0
  6
CONTINUOUS
 62
     7
 10
4417.8159037605
 20
3168.0510426579
 30
0.0
 11
4417.8159037605
 21
3360.5510378896
 31
0.0
  0
LINE
  5
536
  8
0
  6
CONTINUOUS
 62
     7
 10
4417.8159037605
 20
1834.5510150014
 30
0.0
 11
4417.8159037605
 21
2597.5510264455
 31
0.0
  0
ARC
  5
537
  8
0
  6
CONTINUOUS
 62
     7
 10
4359.8199705784
 20
1850.2348867353
 30
0.0
 40
11.99592994208518
 50
0.0177349677
 51
90.0194162423
  0
LINE
  5
538
  8
0
  6
CONTINUOUS
 62
     7
 10
4359.8159054294
 20
1862.2308159886
 30
0.0
 11
4359.8159054294
 21
2582.5510267807
 31
0.0
  0
ARC
  5
539
  8
0
  6
CONTINUOUS
 62
     7
 10
3765.8118584003
 20
3344.8671661556
 30
0.0
 40
11.99592994208497
 50
180.0177349677
 51
270.0194162423
  0
LINE
  5
53A
  8
0
  6
CONTINUOUS
 62
     7
 10
3765.8159235492
 20
2612.5510261102
 30
0.0
 11
3765.8159235492
 21
3332.8712369023
 31
0.0
  0
ARC
  5
53B
  8
0
  6
CONTINUOUS
 62
     7
 10
4359.8196505774
 20
3344.8674863641
 30
0.0
 40
11.99625004641704
 50
269.9821126455
 51
359.9807361445
  0
LINE
  5
53C
  8
0
  6
CONTINUOUS
 62
     7
 10
3765.8159235492
 20
1862.2308159886
 30
0.0
 11
3765.8159235492
 21
2582.5510267807
 31
0.0
  0
ARC
  5
53D
  8
0
  6
CONTINUOUS
 62
     7
 10
3765.8121784012
 20
1850.2345665268
 30
0.0
 40
11.99625004641704
 50
89.9821126455
 51
179.9807361445
  0
LINE
  5
53E
  8
0
  6
CONTINUOUS
 62
     7
 10
4359.8159054294
 20
3332.8712369023
 30
0.0
 11
3765.8159235492
 21
3332.8712369023
 31
0.0
  0
LINE
  5
53F
  8
0
  6
CONTINUOUS
 62
     7
 10
3765.8159235492
 20
1862.2308159886
 30
0.0
 11
4359.8159054294
 21
1862.2308159886
 31
0.0
  0
LINE
  5
540
  8
0
  6
CONTINUOUS
 62
     7
 10
3753.8159290328
 20
1841.6368151723
 30
0.0
 11
3712.8159204498
 21
1841.6368151723
 31
0.0
  0
LINE
  5
541
  8
0
  6
CONTINUOUS
 62
     7
 10
3753.8159290328
 20
1907.5476313649
 30
0.0
 11
3753.8159290328
 21
1841.6368151723
 31
0.0
  0
LINE
  5
542
  8
0
  6
CONTINUOUS
 62
     7
 10
3712.8159204498
 20
1841.6368151723
 30
0.0
 11
3712.8159204498
 21
1907.5476313649
 31
0.0
  0
LINE
  5
543
  8
0
  6
CONTINUOUS
 62
     7
 10
3712.8159204498
 20
3353.4652377187
 30
0.0
 11
3753.8159290328
 21
3353.4652377187
 31
0.0
  0
LINE
  5
544
  8
0
  6
CONTINUOUS
 62
     7
 10
3753.8159290328
 20
3353.4652377187
 30
0.0
 11
3753.8159290328
 21
3287.554421526
 31
0.0
  0
LINE
  5
545
  8
0
  6
CONTINUOUS
 62
     7
 10
3712.8159204498
 20
3287.554421526
 30
0.0
 11
3712.8159204498
 21
3353.4652377187
 31
0.0
  0
LINE
  5
546
  8
0
  6
CONTINUOUS
 62
     7
 10
4371.8158999458
 20
3353.4652377187
 30
0.0
 11
4412.8159085288
 21
3353.4652377187
 31
0.0
  0
LINE
  5
547
  8
0
  6
CONTINUOUS
 62
     7
 10
4371.8158999458
 20
3287.554421526
 30
0.0
 11
4371.8158999458
 21
3353.4652377187
 31
0.0
  0
LINE
  5
548
  8
0
  6
CONTINUOUS
 62
     7
 10
4412.8159085288
 20
3353.4652377187
 30
0.0
 11
4412.8159085288
 21
3287.554421526
 31
0.0
  0
LINE
  5
549
  8
0
  6
CONTINUOUS
 62
     7
 10
4412.8159085288
 20
1841.6368151723
 30
0.0
 11
4371.8158999458
 21
1841.6368151723
 31
0.0
  0
LINE
  5
54A
  8
0
  6
CONTINUOUS
 62
     7
 10
4371.8158999458
 20
1841.6368151723
 30
0.0
 11
4371.8158999458
 21
1907.5476313649
 31
0.0
  0
LINE
  5
54B
  8
0
  6
CONTINUOUS
 62
     7
 10
4412.8159085288
 20
1907.5476313649
 30
0.0
 11
4412.8159085288
 21
1841.6368151723
 31
0.0
  0
LINE
  5
54C
  8
0
  6
CONTINUOUS
 62
     7
 10
3712.8159204498
 20
3435.0510026036
 30
0.0
 11
3753.8159290328
 21
3435.0510026036
 31
0.0
  0
LINE
  5
54D
  8
0
  6
CONTINUOUS
 62
     7
 10
3753.8159290328
 20
3353.4652377187
 30
0.0
 11
3753.8159290328
 21
3435.0510026036
 31
0.0
  0
LINE
  5
54E
  8
0
  6
CONTINUOUS
 62
     7
 10
3712.8159204498
 20
3353.4652377187
 30
0.0
 11
3712.8159204498
 21
3435.0510026036
 31
0.0
  0
LINE
  5
54F
  8
0
  6
CONTINUOUS
 62
     7
 10
3712.8159204498
 20
1760.0510502873
 30
0.0
 11
3753.8159290328
 21
1760.0510502873
 31
0.0
  0
LINE
  5
550
  8
0
  6
CONTINUOUS
 62
     7
 10
3753.8159290328
 20
1841.6368151723
 30
0.0
 11
3753.8159290328
 21
1760.0510502873
 31
0.0
  0
LINE
  5
551
  8
0
  6
CONTINUOUS
 62
     7
 10
3712.8159204498
 20
1841.6368151723
 30
0.0
 11
3712.8159204498
 21
1760.0510502873
 31
0.0
  0
LINE
  5
552
  8
0
  6
CONTINUOUS
 62
     7
 10
4371.8158999458
 20
1760.0510502873
 30
0.0
 11
4412.8159085288
 21
1760.0510502873
 31
0.0
  0
LINE
  5
553
  8
0
  6
CONTINUOUS
 62
     7
 10
4371.8158999458
 20
1841.6368151723
 30
0.0
 11
4371.8158999458
 21
1760.0510502873
 31
0.0
  0
LINE
  5
554
  8
0
  6
CONTINUOUS
 62
     7
 10
4412.8159085288
 20
1841.6368151723
 30
0.0
 11
4412.8159085288
 21
1760.0510502873
 31
0.0
  0
LINE
  5
555
  8
0
  6
CONTINUOUS
 62
     7
 10
4371.8158999458
 20
3435.0510026036
 30
0.0
 11
4412.8159085288
 21
3435.0510026036
 31
0.0
  0
LINE
  5
556
  8
0
  6
CONTINUOUS
 62
     7
 10
4371.8158999458
 20
3353.4652377187
 30
0.0
 11
4371.8158999458
 21
3435.0510026036
 31
0.0
  0
LINE
  5
557
  8
0
  6
CONTINUOUS
 62
     7
 10
4412.8159085288
 20
3353.4652377187
 30
0.0
 11
4412.8159085288
 21
3435.0510026036
 31
0.0
  0
LINE
  5
558
  8
0
  6
CONTINUOUS
 62
     7
 10
3753.8159290328
 20
1789.0510345517
 30
0.0
 11
3765.8159235492
 21
1789.0510345517
 31
0.0
  0
LINE
  5
559
  8
0
  6
CONTINUOUS
 62
     7
 10
3765.8159235492
 20
1777.051010233
 30
0.0
 11
3765.8159235492
 21
1789.0510345517
 31
0.0
  0
ARC
  5
55A
  8
0
  6
CONTINUOUS
 62
     7
 10
3765.8159144893
 20
1765.0510264455
 30
0.0
 40
12.0
 50
90.0
 51
180.0
  0
LINE
  5
55B
  8
0
  6
CONTINUOUS
 62
     7
 10
3765.8159235492
 20
3406.0510183392
 30
0.0
 11
3765.8159235492
 21
3418.0510426579
 31
0.0
  0
LINE
  5
55C
  8
0
  6
CONTINUOUS
 62
     7
 10
3765.8159235492
 20
3406.0510183392
 30
0.0
 11
3753.8159290328
 21
3406.0510183392
 31
0.0
  0
ARC
  5
55D
  8
0
  6
CONTINUOUS
 62
     7
 10
3765.8159144893
 20
3430.0510264455
 30
0.0
 40
12.0
 50
180.0
 51
270.0
  0
LINE
  5
55E
  8
0
  6
CONTINUOUS
 62
     7
 10
3765.8159235492
 20
3344.8634530126
 30
0.0
 11
3765.8159235492
 21
3332.8712369023
 31
0.0
  0
LINE
  5
55F
  8
0
  6
CONTINUOUS
 62
     7
 10
3765.8159235492
 20
3344.8634530126
 30
0.0
 11
3753.8159290328
 21
3344.8634530126
 31
0.0
  0
LINE
  5
560
  8
0
  6
CONTINUOUS
 62
     7
 10
3753.8159290328
 20
1850.2385998784
 30
0.0
 11
3765.8159235492
 21
1850.2385998784
 31
0.0
  0
LINE
  5
561
  8
0
  6
CONTINUOUS
 62
     7
 10
3765.8159235492
 20
1850.2385998784
 30
0.0
 11
3765.8159235492
 21
1789.0510345517
 31
0.0
  0
LINE
  5
562
  8
0
  6
CONTINUOUS
 62
     7
 10
3765.8159235492
 20
1862.2308159886
 30
0.0
 11
3765.8159235492
 21
1850.2385998784
 31
0.0
  0
LINE
  5
563
  8
0
  6
CONTINUOUS
 62
     7
 10
3765.8159235492
 20
3406.0510183392
 30
0.0
 11
3765.8159235492
 21
3344.8634530126
 31
0.0
  0
LINE
  5
564
  8
0
  6
CONTINUOUS
 62
     7
 10
4371.8158999458
 20
3406.0510183392
 30
0.0
 11
4359.8159054294
 21
3406.0510183392
 31
0.0
  0
LINE
  5
565
  8
0
  6
CONTINUOUS
 62
     7
 10
4359.8159054294
 20
3418.0510426579
 30
0.0
 11
4359.8159054294
 21
3406.0510183392
 31
0.0
  0
ARC
  5
566
  8
0
  6
CONTINUOUS
 62
     7
 10
4359.8159144893
 20
3430.0510264455
 30
0.0
 40
12.0
 50
270.0
 51
0.0
  0
LINE
  5
567
  8
0
  6
CONTINUOUS
 62
     7
 10
4359.8159054294
 20
1789.0510345517
 30
0.0
 11
4359.8159054294
 21
1777.051010233
 31
0.0
  0
LINE
  5
568
  8
0
  6
CONTINUOUS
 62
     7
 10
4359.8159054294
 20
1789.0510345517
 30
0.0
 11
4371.8158999458
 21
1789.0510345517
 31
0.0
  0
ARC
  5
569
  8
0
  6
CONTINUOUS
 62
     7
 10
4359.8159144893
 20
1765.0510264455
 30
0.0
 40
12.0
 50
0.0
 51
90.0
  0
LINE
  5
56A
  8
0
  6
CONTINUOUS
 62
     7
 10
4359.8159054294
 20
1850.2385998784
 30
0.0
 11
4359.8159054294
 21
1862.2308159886
 31
0.0
  0
LINE
  5
56B
  8
0
  6
CONTINUOUS
 62
     7
 10
4359.8159054294
 20
1850.2385998784
 30
0.0
 11
4371.8158999458
 21
1850.2385998784
 31
0.0
  0
LINE
  5
56C
  8
0
  6
CONTINUOUS
 62
     7
 10
4359.8159054294
 20
3332.8712369023
 30
0.0
 11
4359.8159054294
 21
3344.8634530126
 31
0.0
  0
LINE
  5
56D
  8
0
  6
CONTINUOUS
 62
     7
 10
4371.8158999458
 20
3344.8634530126
 30
0.0
 11
4359.8159054294
 21
3344.8634530126
 31
0.0
  0
LINE
  5
56E
  8
0
  6
CONTINUOUS
 62
     7
 10
4359.8159054294
 20
1789.0510345517
 30
0.0
 11
4359.8159054294
 21
1850.2385998784
 31
0.0
  0
LINE
  5
56F
  8
0
  6
CONTINUOUS
 62
     7
 10
4359.8159054294
 20
3344.8634530126
 30
0.0
 11
4359.8159054294
 21
3406.0510183392
 31
0.0
  0
LINE
  5
570
  8
0
  6
CONTINUOUS
 62
     7
 10
4359.8159054294
 20
1850.2385998784
 30
0.0
 11
3765.8159235492
 21
1850.2385998784
 31
0.0
  0
LINE
  5
571
  8
0
  6
CONTINUOUS
 62
     7
 10
3765.8159235492
 20
3344.8634530126
 30
0.0
 11
4359.8159054294
 21
3344.8634530126
 31
0.0
  0
CIRCLE
  5
572
  8
0
  6
CONTINUOUS
 62
     7
 10
3862.8159144893
 20
1827.0510264455
 30
0.0
 40
22.5
  0
LINE
  5
573
  8
0
  6
CONTINUOUS
 62
     7
 10
3765.8159235492
 20
1789.0510345517
 30
0.0
 11
4359.8159054294
 21
1789.0510345517
 31
0.0
  0
CIRCLE
  5
574
  8
0
  6
CONTINUOUS
 62
     7
 10
4262.8159144893
 20
1827.0510264455
 30
0.0
 40
22.5
  0
LINE
  5
575
  8
0
  6
CONTINUOUS
 62
     7
 10
4359.8159054294
 20
3406.0510183392
 30
0.0
 11
3765.8159235492
 21
3406.0510183392
 31
0.0
  0
CIRCLE
  5
576
  8
0
  6
CONTINUOUS
 62
     7
 10
4262.8159144893
 20
3368.0510264455
 30
0.0
 40
22.5
  0
CIRCLE
  5
577
  8
0
  6
CONTINUOUS
 62
     7
 10
3862.8159144893
 20
3368.0510264455
 30
0.0
 40
22.50000000000045
  0
LINE
  5
578
  8
0
  6
CONTINUOUS
 62
     7
 10
3765.8159235492
 20
3418.0510426579
 30
0.0
 11
4359.8159054294
 21
3418.0510426579
 31
0.0
  0
LINE
  5
579
  8
0
  6
CONTINUOUS
 62
     7
 10
4359.8159054294
 20
1777.051010233
 30
0.0
 11
3765.8159235492
 21
1777.051010233
 31
0.0
  0
LINE
  5
57A
  8
0
  6
CONTINUOUS
 62
     7
 10
4197.9176649824
 20
2859.006919962
 30
0.0
 11
4291.7141566053
 21
2859.006919962
 31
0.0
  0
LINE
  5
57B
  8
0
  6
CONTINUOUS
 62
     7
 10
4226.627493836
 20
2867.7693689881
 30
0.0
 11
4219.0936008468
 21
2867.7693689881
 31
0.0
  0
LINE
  5
57C
  8
0
  6
CONTINUOUS
 62
     7
 10
4270.538235642
 20
2867.7693689881
 30
0.0
 11
4226.627493836
 21
2867.7693689881
 31
0.0
  0
LINE
  5
57D
  8
0
  6
CONTINUOUS
 62
     7
 10
4229.2421260848
 20
2872.9994679509
 30
0.0
 11
4266.8405720964
 21
2872.9994679509
 31
0.0
  0
LINE
  5
57E
  8
0
  6
CONTINUOUS
 62
     7
 10
4222.7912643924
 20
2872.9994679509
 30
0.0
 11
4229.2421260848
 21
2872.9994679509
 31
0.0
  0
LINE
  5
57F
  8
0
  6
CONTINUOUS
 62
     7
 10
4229.7559628263
 20
2886.8650282441
 30
0.0
 11
4223.517919518
 21
2886.8650282441
 31
0.0
  0
LINE
  5
580
  8
0
  6
CONTINUOUS
 62
     7
 10
4266.1139020696
 20
2886.8650282441
 30
0.0
 11
4229.7559628263
 21
2886.8650282441
 31
0.0
  0
LINE
  5
581
  8
0
  6
CONTINUOUS
 62
     7
 10
3709.8159292713
 20
2597.5510264455
 30
0.0
 11
3709.8159292713
 21
3362.5510121404
 31
0.0
  0
LINE
  5
582
  8
0
  6
CONTINUOUS
 62
     7
 10
3709.8159292713
 20
1832.5510407506
 30
0.0
 11
3709.8159292713
 21
2597.5510264455
 31
0.0
  0
LINE
  5
583
  8
0
  6
CONTINUOUS
 62
     7
 10
4415.8158997074
 20
2597.5510264455
 30
0.0
 11
4415.8158997074
 21
3098.8589311658
 31
0.0
  0
LINE
  5
584
  8
0
  6
CONTINUOUS
 62
     7
 10
4415.8158997074
 20
3115.539827448
 30
0.0
 11
4415.8158997074
 21
3143.0510068952
 31
0.0
  0
LINE
  5
585
  8
0
  6
CONTINUOUS
 62
     7
 10
4415.8158997074
 20
3168.0510426579
 30
0.0
 11
4415.8158997074
 21
3362.5510121404
 31
0.0
  0
LINE
  5
586
  8
0
  6
CONTINUOUS
 62
     7
 10
4415.8158997074
 20
1832.5510407506
 30
0.0
 11
4415.8158997074
 21
2597.5510264455
 31
0.0
  0
LINE
  5
587
  8
0
  6
CONTINUOUS
 62
     7
 10
4359.8159054294
 20
2612.5510261102
 30
0.0
 11
4359.8159054294
 21
3082.34853397
 31
0.0
  0
LINE
  5
588
  8
0
  6
CONTINUOUS
 62
     7
 10
4359.8159054294
 20
3099.0294600545
 30
0.0
 11
4359.8159054294
 21
3143.0510068952
 31
0.0
  0
LINE
  5
589
  8
0
  6
CONTINUOUS
 62
     7
 10
4359.8159054294
 20
3168.0510426579
 30
0.0
 11
4359.8159054294
 21
3332.8712369023
 31
0.0
  0
INSERT
  5
595
  8
FORMAT
  2
SW_CENTERMARKSYMBOL_38
 10
4062.8159144893
 20
2600.5510264455
 30
0.0
  0
INSERT
  5
5A1
  8
FORMAT
  2
SW_CENTERMARKSYMBOL_39
 10
4262.8159144893
 20
3368.0510264455
 30
0.0
  0
INSERT
  5
5AD
  8
FORMAT
  2
SW_CENTERMARKSYMBOL_40
 10
3862.8159144893
 20
3368.0510264455
 30
0.0
  0
INSERT
  5
5B9
  8
FORMAT
  2
SW_CENTERMARKSYMBOL_41
 10
4262.8159144893
 20
1827.0510264455
 30
0.0
  0
INSERT
  5
5C5
  8
FORMAT
  2
SW_CENTERMARKSYMBOL_42
 10
3862.8159144893
 20
1827.0510264455
 30
0.0
  0
ENDSEC
  0
EOF
