ISO-10303-21;
HEADER;
FILE_DESCRIPTION (( 'STEP AP203' ),
    '1' );
FILE_NAME ('0511073000 outline drawing.STEP',
    '2014-06-27T07:43:46',
    ( '' ),
    ( '' ),
    'SwSTEP 2.0',
    'SolidWorks 2012',
    '' );
FILE_SCHEMA (( 'CONFIG_CONTROL_DESIGN' ));
ENDSEC;

DATA;
#1 = DESIGN_CONTEXT ( 'detailed design', #67, 'design' ) ;
#2 = PRODUCT_DEFINITION_SHAPE ( 'NONE', 'NONE',  #267 ) ;
#3 = PERSON ( 'UNSPECIFIED', 'UNSPECIFIED', 'UNSPECIFIED', ('UNSPECIFIED'), ('UNSPECIFIED'), ('UNSPECIFIED') ) ;
#4 = PRODUCT ( '0511073000 outline drawing', '0511073000 outline drawing', '', ( #36 ) ) ;
#5 =( BOUNDED_CURVE ( )  B_SPLINE_CURVE ( 3, ( #338, #299, #324, #304 ),
 .UNSPECIFIED., .F., .T. ) 
 B_SPLINE_CURVE_WITH_KNOTS ( ( 4, 4 ),
 ( 4.821697435202192800, 4.990756115654958700 ),
 .UNSPECIFIED. ) 
 CURVE ( )  GEOMETRIC_REPRESENTATION_ITEM ( )  RATIONAL_B_SPLINE_CURVE ( ( 1.000000000000000000, 0.9976196813763700300, 0.9976196813763700300, 1.000000000000000000 ) ) 
 REPRESENTATION_ITEM ( '' )  );
#6 =( BOUNDED_CURVE ( )  B_SPLINE_CURVE ( 3, ( #326, #343, #309, #320 ),
 .UNSPECIFIED., .F., .T. ) 
 B_SPLINE_CURVE_WITH_KNOTS ( ( 4, 4 ),
 ( 4.821697435202192800, 4.990756115654958700 ),
 .UNSPECIFIED. ) 
 CURVE ( )  GEOMETRIC_REPRESENTATION_ITEM ( )  RATIONAL_B_SPLINE_CURVE ( ( 1.000000000000000000, 0.9976196813763700300, 0.9976196813763700300, 1.000000000000000000 ) ) 
 REPRESENTATION_ITEM ( '' )  );
#7 = UNCERTAINTY_MEASURE_WITH_UNIT (LENGTH_MEASURE( 1.000000000000000100E-005 ), #50, 'distance_accuracy_value', 'NONE');
#8 = MANIFOLD_SOLID_BREP ( 'Split Line1', #214 ) ;
#9 = ADVANCED_BREP_SHAPE_REPRESENTATION ( '0511073000 outline drawing', ( #8, #251 ), #266 ) ;
#10 =( BOUNDED_CURVE ( )  B_SPLINE_CURVE ( 3, ( #336, #95, #87, #71 ),
 .UNSPECIFIED., .F., .T. ) 
 B_SPLINE_CURVE_WITH_KNOTS ( ( 4, 4 ),
 ( 4.980742652494051000, 4.981855682132643200 ),
 .UNSPECIFIED. ) 
 CURVE ( )  GEOMETRIC_REPRESENTATION_ITEM ( )  RATIONAL_B_SPLINE_CURVE ( ( 1.000000000000000000, 0.9999998967637546700, 0.9999998967637546700, 1.000000000000000000 ) ) 
 REPRESENTATION_ITEM ( '' )  );
#11 =( BOUNDED_CURVE ( )  B_SPLINE_CURVE ( 3, ( #346, #311, #316, #312 ),
 .UNSPECIFIED., .F., .T. ) 
 B_SPLINE_CURVE_WITH_KNOTS ( ( 4, 4 ),
 ( 4.980742652494051000, 4.981855682132643200 ),
 .UNSPECIFIED. ) 
 CURVE ( )  GEOMETRIC_REPRESENTATION_ITEM ( )  RATIONAL_B_SPLINE_CURVE ( ( 1.000000000000000000, 0.9999998967637546700, 0.9999998967637546700, 1.000000000000000000 ) ) 
 REPRESENTATION_ITEM ( '' )  );
#12 = CARTESIAN_POINT ( 'NONE',  ( 0.0000000000000000000, 70.23615153050944600, 0.0000000000000000000 ) ) ;
#13 = SECURITY_CLASSIFICATION_LEVEL ( 'unclassified' ) ;
#14 = PERSON_AND_ORGANIZATION_ROLE ( 'creator' ) ;
#15 = PERSON_AND_ORGANIZATION_ROLE ( 'design_supplier' ) ;
#16 = DIRECTION ( 'NONE',  ( -0.0000000000000000000, 1.000000000000000000, -0.0000000000000000000 ) ) ;
#17 = APPROVAL_STATUS ( 'not_yet_approved' ) ;
#18 = APPROVAL_ROLE ( '' ) ;
#19 = PLANE ( 'NONE',  #295 ) ;
#20 = DIRECTION ( 'NONE',  ( 0.0000000000000000000, 0.0000000000000000000, 1.000000000000000000 ) ) ;
#21 = CARTESIAN_POINT ( 'NONE',  ( 0.0000000000000000000, 70.23615153050944600, 0.0000000000000000000 ) ) ;
#22 = DIRECTION ( 'NONE',  ( 0.0000000000000000000, -0.0000000000000000000, -1.000000000000000000 ) ) ;
#23 = DIRECTION ( 'NONE',  ( 0.0000000000000000000, 0.0000000000000000000, 1.000000000000000000 ) ) ;
#24 = DIRECTION ( 'NONE',  ( -0.0000000000000000000, 1.000000000000000000, -0.0000000000000000000 ) ) ;
#25 = APPLICATION_CONTEXT ( 'configuration controlled 3d designs of mechanical parts and assemblies' ) ;
#26 = DIRECTION ( 'NONE',  ( 0.0000000000000000000, -1.000000000000000000, 0.0000000000000000000 ) ) ;
#27 = DIRECTION ( 'NONE',  ( 0.0000000000000000000, -1.000000000000000000, 0.0000000000000000000 ) ) ;
#28 = CARTESIAN_POINT ( 'NONE',  ( 0.0000000000000000000, 2.000000000000001800, 53.99999999999999300 ) ) ;
#29 = DIRECTION ( 'NONE',  ( 0.0000000000000000000, -0.0000000000000000000, -1.000000000000000000 ) ) ;
#30 = DIRECTION ( 'NONE',  ( 0.0000000000000000000, -0.0000000000000000000, -1.000000000000000000 ) ) ;
#31 = DIRECTION ( 'NONE',  ( 0.0000000000000000000, -1.000000000000000000, 0.0000000000000000000 ) ) ;
#32 = PERSON_AND_ORGANIZATION_ROLE ( 'design_owner' ) ;
#33 = CARTESIAN_POINT ( 'NONE',  ( -54.00000000000000700, 148.0000000000000000, 0.0000000000000000000 ) ) ;
#34 = DIRECTION ( 'NONE',  ( -0.0000000000000000000, 1.000000000000000000, -0.0000000000000000000 ) ) ;
#35 =( NAMED_UNIT ( * ) SI_UNIT ( $, .STERADIAN. ) SOLID_ANGLE_UNIT ( ) );
#36 = MECHANICAL_CONTEXT ( 'NONE', #25, 'mechanical' ) ;
#37 = APPROVAL_STATUS ( 'not_yet_approved' ) ;
#38 = DIRECTION ( 'NONE',  ( -0.0000000000000000000, 1.000000000000000000, -0.0000000000000000000 ) ) ;
#39 = APPROVAL_ROLE ( '' ) ;
#40 = CARTESIAN_POINT ( 'NONE',  ( 0.0000000000000000000, 0.0000000000000000000, 0.0000000000000000000 ) ) ;
#41 = DIRECTION ( 'NONE',  ( 0.0000000000000000000, 0.0000000000000000000, 1.000000000000000000 ) ) ;
#42 = DIRECTION ( 'NONE',  ( 0.0000000000000000000, 0.0000000000000000000, 1.000000000000000000 ) ) ;
#43 = APPROVAL_ROLE ( '' ) ;
#44 = DIRECTION ( 'NONE',  ( 0.0000000000000000000, 0.0000000000000000000, 1.000000000000000000 ) ) ;
#45 = DIRECTION ( 'NONE',  ( -0.0000000000000000000, 1.000000000000000000, -0.0000000000000000000 ) ) ;
#46 = CARTESIAN_POINT ( 'NONE',  ( 0.0000000000000000000, 0.0000000000000000000, 0.0000000000000000000 ) ) ;
#47 = DIRECTION ( 'NONE',  ( 0.0000000000000000000, 0.0000000000000000000, 1.000000000000000000 ) ) ;
#48 = CARTESIAN_POINT ( 'NONE',  ( 0.0000000000000000000, 0.0000000000000000000, 0.0000000000000000000 ) ) ;
#49 = DATE_TIME_ROLE ( 'creation_date' ) ;
#50 =( LENGTH_UNIT ( ) NAMED_UNIT ( * ) SI_UNIT ( .MILLI., .METRE. ) );
#51 = PERSON_AND_ORGANIZATION_ROLE ( 'classification_officer' ) ;
#52 = DIRECTION ( 'NONE',  ( -0.0000000000000000000, 1.000000000000000000, 0.0000000000000000000 ) ) ;
#53 = DIRECTION ( 'NONE',  ( 0.0000000000000000000, -0.0000000000000000000, -1.000000000000000000 ) ) ;
#54 = DIRECTION ( 'NONE',  ( -0.0000000000000000000, 1.000000000000000000, -0.0000000000000000000 ) ) ;
#55 = CARTESIAN_POINT ( 'NONE',  ( -57.00000000000000700, 148.9999999999999700, 0.0000000000000000000 ) ) ;
#56 = DIRECTION ( 'NONE',  ( 0.0000000000000000000, 0.0000000000000000000, 1.000000000000000000 ) ) ;
#57 = PERSON_AND_ORGANIZATION_ROLE ( 'creator' ) ;
#58 = CARTESIAN_POINT ( 'NONE',  ( 0.0000000000000000000, 70.23615153050944600, 0.0000000000000000000 ) ) ;
#59 = CARTESIAN_POINT ( 'NONE',  ( 0.0000000000000000000, 0.0000000000000000000, 0.0000000000000000000 ) ) ;
#60 = CARTESIAN_POINT ( 'NONE',  ( 0.0000000000000000000, 70.23615153050944600, 0.0000000000000000000 ) ) ;
#61 = DIRECTION ( 'NONE',  ( -0.0000000000000000000, 1.000000000000000000, -0.0000000000000000000 ) ) ;
#62 = PLANE ( 'NONE',  #259 ) ;
#63 = DIRECTION ( 'NONE',  ( 1.000000000000000000, 0.0000000000000000000, 0.0000000000000000000 ) ) ;
#64 = DIRECTION ( 'NONE',  ( 0.0000000000000000000, 0.0000000000000000000, 1.000000000000000000 ) ) ;
#65 = CARTESIAN_POINT ( 'NONE',  ( -54.00000000000000700, 149.9999999999999700, 0.0000000000000000000 ) ) ;
#66 = DIRECTION ( 'NONE',  ( 0.0000000000000000000, 0.0000000000000000000, 1.000000000000000000 ) ) ;
#67 = APPLICATION_CONTEXT ( 'configuration controlled 3d designs of mechanical parts and assemblies' ) ;
#68 = DIRECTION ( 'NONE',  ( -0.0000000000000000000, 1.000000000000000000, -0.0000000000000000000 ) ) ;
#69 = APPLICATION_PROTOCOL_DEFINITION ( 'international standard', 'config_control_design', 1994, #67 ) ;
#70 = CARTESIAN_POINT ( 'NONE',  ( 0.0000000000000000000, 70.23615153050944600, 0.0000000000000000000 ) ) ;
#71 = CARTESIAN_POINT ( 'NONE',  ( 15.17439302257262500, 149.9999999999999700, -54.94304138284029900 ) ) ;
#72 = APPROVAL_STATUS ( 'not_yet_approved' ) ;
#73 = DIRECTION ( 'NONE',  ( 0.0000000000000000000, 0.0000000000000000000, 1.000000000000000000 ) ) ;
#74 = DIRECTION ( 'NONE',  ( 0.0000000000000000000, 0.0000000000000000000, 1.000000000000000000 ) ) ;
#75 = DIRECTION ( 'NONE',  ( 0.0000000000000000000, 0.0000000000000000000, 1.000000000000000000 ) ) ;
#76 = PLANE ( 'NONE',  #274 ) ;
#77 = PLANE ( 'NONE',  #261 ) ;
#78 = CARTESIAN_POINT ( 'NONE',  ( 0.0000000000000000000, 148.0000000000000000, 54.00000000000000700 ) ) ;
#79 = CARTESIAN_POINT ( 'NONE',  ( 0.0000000000000000000, 70.23615153050944600, 0.0000000000000000000 ) ) ;
#80 = CARTESIAN_POINT ( 'NONE',  ( -53.99999999999999300, 2.000000000000000000, 0.0000000000000000000 ) ) ;
#81 = PLANE ( 'NONE',  #273 ) ;
#82 = DIRECTION ( 'NONE',  ( -0.0000000000000000000, 1.000000000000000000, 0.0000000000000000000 ) ) ;
#83 = CARTESIAN_POINT ( 'NONE',  ( 0.0000000000000000000, 150.0000000000000000, 54.00000000000000700 ) ) ;
#84 = CARTESIAN_POINT ( 'NONE',  ( -57.00000000000000700, 148.9999999999999700, 0.0000000000000000000 ) ) ;
#85 = APPLICATION_PROTOCOL_DEFINITION ( 'international standard', 'config_control_design', 1994, #25 ) ;
#86 = DIRECTION ( 'NONE',  ( 0.0000000000000000000, 0.0000000000000000000, 1.000000000000000000 ) ) ;
#87 = CARTESIAN_POINT ( 'NONE',  ( 15.15400861035592300, 149.6667178062916700, -54.94867123285816700 ) ) ;
#88 = CARTESIAN_POINT ( 'NONE',  ( -54.99999999999997900, 0.0000000000000000000, 0.0000000000000000000 ) ) ;
#89 = CARTESIAN_POINT ( 'NONE',  ( 0.0000000000000000000, 0.0000000000000000000, 53.99999999999999300 ) ) ;
#90 = DIRECTION ( 'NONE',  ( 0.0000000000000000000, -1.000000000000000000, 0.0000000000000000000 ) ) ;
#91 = DIRECTION ( 'NONE',  ( -0.0000000000000000000, 1.000000000000000000, -0.0000000000000000000 ) ) ;
#92 =( NAMED_UNIT ( * ) PLANE_ANGLE_UNIT ( ) SI_UNIT ( $, .RADIAN. ) );
#93 = PLANE ( 'NONE',  #288 ) ;
#94 = DATE_TIME_ROLE ( 'classification_date' ) ;
#95 = CARTESIAN_POINT ( 'NONE',  ( 15.13362106820103200, 149.3333844385463500, -54.95428973777731600 ) ) ;
#96 = PERSON_AND_ORGANIZATION ( #3, #196 ) ;
#97 = CYLINDRICAL_SURFACE ( 'NONE', #236, 57.00000000000000700 ) ;
#98 = EDGE_LOOP ( 'NONE', ( #210, #152, #233, #99 ) ) ;
#99 = ORIENTED_EDGE ( 'NONE', *, *, #249, .F. ) ;
#100 = FACE_OUTER_BOUND ( 'NONE', #154, .T. ) ;
#101 = VERTEX_POINT ( 'NONE', #89 ) ;
#102 = ORIENTED_EDGE ( 'NONE', *, *, #254, .F. ) ;
#103 = EDGE_LOOP ( 'NONE', ( #166 ) ) ;
#104 = CIRCLE ( 'NONE', #277, 54.99999999999997900 ) ;
#105 = CIRCLE ( 'NONE', #255, 54.99999999999997900 ) ;
#106 = VECTOR ( 'NONE', #330, 1000.000000000000000 ) ;
#107 = CALENDAR_DATE ( 2014, 27, 6 ) ;
#108 = APPROVAL_DATE_TIME ( #219, #262 ) ;
#109 = ORIENTED_EDGE ( 'NONE', *, *, #253, .T. ) ;
#110 = EDGE_LOOP ( 'NONE', ( #117, #223, #155, #128 ) ) ;
#111 = COORDINATED_UNIVERSAL_TIME_OFFSET ( 8, 0, .AHEAD. ) ;
#112 = ORIENTED_EDGE ( 'NONE', *, *, #271, .F. ) ;
#113 = CYLINDRICAL_SURFACE ( 'NONE', #296, 54.99999999999999300 ) ;
#114 = ORIENTED_EDGE ( 'NONE', *, *, #270, .F. ) ;
#115 = ORIENTED_EDGE ( 'NONE', *, *, #269, .T. ) ;
#116 = FACE_OUTER_BOUND ( 'NONE', #148, .T. ) ;
#117 = ORIENTED_EDGE ( 'NONE', *, *, #240, .F. ) ;
#118 = APPROVAL_PERSON_ORGANIZATION ( #192, #242, #39 ) ;
#119 = LOCAL_TIME ( 15, 43, 46.00000000000000000, #144 ) ;
#120 = PERSON_AND_ORGANIZATION ( #3, #196 ) ;
#121 = VERTEX_POINT ( 'NONE', #342 ) ;
#122 = APPROVAL_PERSON_ORGANIZATION ( #139, #262, #43 ) ;
#123 = CYLINDRICAL_SURFACE ( 'NONE', #287, 54.99999999999999300 ) ;
#124 = FACE_OUTER_BOUND ( 'NONE', #151, .T. ) ;
#125 = VERTEX_POINT ( 'NONE', #347 ) ;
#126 = CALENDAR_DATE ( 2014, 27, 6 ) ;
#127 = EDGE_LOOP ( 'NONE', ( #188 ) ) ;
#128 = ORIENTED_EDGE ( 'NONE', *, *, #280, .F. ) ;
#129 = APPROVAL_DATE_TIME ( #175, #242 ) ;
#130 = CIRCLE ( 'NONE', #250, 54.00000000000000700 ) ;
#131 = ORIENTED_EDGE ( 'NONE', *, *, #264, .T. ) ;
#132 = FACE_OUTER_BOUND ( 'NONE', #170, .T. ) ;
#133 = FACE_OUTER_BOUND ( 'NONE', #174, .T. ) ;
#134 = VERTEX_POINT ( 'NONE', #314 ) ;
#135 = FACE_OUTER_BOUND ( 'NONE', #153, .T. ) ;
#136 = EDGE_LOOP ( 'NONE', ( #172 ) ) ;
#137 = COORDINATED_UNIVERSAL_TIME_OFFSET ( 8, 0, .AHEAD. ) ;
#138 = ORIENTED_EDGE ( 'NONE', *, *, #280, .T. ) ;
#139 = PERSON_AND_ORGANIZATION ( #3, #196 ) ;
#140 = CALENDAR_DATE ( 2014, 27, 6 ) ;
#141 = FACE_BOUND ( 'NONE', #103, .T. ) ;
#142 = ORIENTED_EDGE ( 'NONE', *, *, #294, .F. ) ;
#143 = ORIENTED_EDGE ( 'NONE', *, *, #284, .T. ) ;
#144 = COORDINATED_UNIVERSAL_TIME_OFFSET ( 8, 0, .AHEAD. ) ;
#145 = ORIENTED_EDGE ( 'NONE', *, *, #249, .T. ) ;
#146 = CIRCLE ( 'NONE', #257, 57.00000000000000700 ) ;
#147 = ORIENTED_EDGE ( 'NONE', *, *, #283, .F. ) ;
#148 = EDGE_LOOP ( 'NONE', ( #109, #226, #212, #204 ) ) ;
#149 = ORIENTED_EDGE ( 'NONE', *, *, #237, .T. ) ;
#150 = VERTEX_POINT ( 'NONE', #315 ) ;
#151 = EDGE_LOOP ( 'NONE', ( #187 ) ) ;
#152 = ORIENTED_EDGE ( 'NONE', *, *, #294, .T. ) ;
#153 = EDGE_LOOP ( 'NONE', ( #142, #138, #145, #162 ) ) ;
#154 = EDGE_LOOP ( 'NONE', ( #102 ) ) ;
#155 = ORIENTED_EDGE ( 'NONE', *, *, #248, .T. ) ;
#156 = FACE_OUTER_BOUND ( 'NONE', #195, .T. ) ;
#157 = LINE ( 'NONE', #344, #106 ) ;
#158 = ORIENTED_EDGE ( 'NONE', *, *, #254, .T. ) ;
#159 = EDGE_LOOP ( 'NONE', ( #115, #131 ) ) ;
#160 = CIRCLE ( 'NONE', #260, 55.00000000000000700 ) ;
#161 = VECTOR ( 'NONE', #302, 1000.000000000000000 ) ;
#162 = ORIENTED_EDGE ( 'NONE', *, *, #264, .F. ) ;
#163 = CYLINDRICAL_SURFACE ( 'NONE', #290, 53.99999999999999300 ) ;
#164 = ORIENTED_EDGE ( 'NONE', *, *, #271, .T. ) ;
#165 = CIRCLE ( 'NONE', #285, 54.00000000000000700 ) ;
#166 = ORIENTED_EDGE ( 'NONE', *, *, #286, .T. ) ;
#167 = ORIENTED_EDGE ( 'NONE', *, *, #284, .F. ) ;
#168 = CIRCLE ( 'NONE', #275, 53.99999999999999300 ) ;
#169 = VERTEX_POINT ( 'NONE', #28 ) ;
#170 = EDGE_LOOP ( 'NONE', ( #158 ) ) ;
#171 = CIRCLE ( 'NONE', #281, 57.00000000000000700 ) ;
#172 = ORIENTED_EDGE ( 'NONE', *, *, #243, .F. ) ;
#173 = LOCAL_TIME ( 15, 43, 46.00000000000000000, #189 ) ;
#174 = EDGE_LOOP ( 'NONE', ( #112, #143, #149, #234 ) ) ;
#175 = DATE_AND_TIME ( #140, #227 ) ;
#176 = PERSON_AND_ORGANIZATION ( #3, #196 ) ;
#177 = PERSON_AND_ORGANIZATION ( #3, #196 ) ;
#178 = VERTEX_POINT ( 'NONE', #339 ) ;
#179 = ORIENTED_EDGE ( 'NONE', *, *, #286, .F. ) ;
#180 = CALENDAR_DATE ( 2014, 27, 6 ) ;
#181 = CIRCLE ( 'NONE', #289, 55.00000000000000700 ) ;
#182 = FACE_OUTER_BOUND ( 'NONE', #98, .T. ) ;
#183 = CYLINDRICAL_SURFACE ( 'NONE', #293, 57.00000000000000700 ) ;
#184 = FACE_BOUND ( 'NONE', #199, .T. ) ;
#185 = FACE_OUTER_BOUND ( 'NONE', #218, .T. ) ;
#186 = VERTEX_POINT ( 'NONE', #78 ) ;
#187 = ORIENTED_EDGE ( 'NONE', *, *, #243, .T. ) ;
#188 = ORIENTED_EDGE ( 'NONE', *, *, #270, .T. ) ;
#189 = COORDINATED_UNIVERSAL_TIME_OFFSET ( 8, 0, .AHEAD. ) ;
#190 = LINE ( 'NONE', #319, #161 ) ;
#191 = PERSON_AND_ORGANIZATION ( #3, #196 ) ;
#192 = PERSON_AND_ORGANIZATION ( #3, #196 ) ;
#193 = PERSON_AND_ORGANIZATION ( #3, #196 ) ;
#194 = ORIENTED_EDGE ( 'NONE', *, *, #237, .F. ) ;
#195 = EDGE_LOOP ( 'NONE', ( #147, #167 ) ) ;
#196 = ORGANIZATION ( 'UNSPECIFIED', 'UNSPECIFIED', '' ) ;
#197 = ORIENTED_EDGE ( 'NONE', *, *, #283, .T. ) ;
#198 = EDGE_LOOP ( 'NONE', ( #179 ) ) ;
#199 = EDGE_LOOP ( 'NONE', ( #114 ) ) ;
#200 = FACE_OUTER_BOUND ( 'NONE', #159, .T. ) ;
#201 = SHAPE_DEFINITION_REPRESENTATION ( #2, #9 ) ;
#202 = FACE_OUTER_BOUND ( 'NONE', #198, .T. ) ;
#203 = LOCAL_TIME ( 15, 43, 46.00000000000000000, #137 ) ;
#204 = ORIENTED_EDGE ( 'NONE', *, *, #248, .F. ) ;
#205 = VERTEX_POINT ( 'NONE', #308 ) ;
#206 = DATE_AND_TIME ( #107, #203 ) ;
#207 = APPROVAL_DATE_TIME ( #224, #282 ) ;
#208 = CIRCLE ( 'NONE', #268, 53.99999999999999300 ) ;
#209 = ORIENTED_EDGE ( 'NONE', *, *, #253, .F. ) ;
#210 = ORIENTED_EDGE ( 'NONE', *, *, #265, .T. ) ;
#211 = FACE_OUTER_BOUND ( 'NONE', #110, .T. ) ;
#212 = ORIENTED_EDGE ( 'NONE', *, *, #265, .F. ) ;
#213 = APPROVAL_PERSON_ORGANIZATION ( #191, #282, #18 ) ;
#214 = CLOSED_SHELL ( 'NONE', ( #350, #357, #348, #356, #358, #351, #359, #355, #349, #352, #353, #354 ) ) ;
#215 = COORDINATED_UNIVERSAL_TIME_OFFSET ( 8, 0, .AHEAD. ) ;
#216 = CYLINDRICAL_SURFACE ( 'NONE', #263, 54.00000000000000700 ) ;
#217 = FACE_OUTER_BOUND ( 'NONE', #127, .T. ) ;
#218 = EDGE_LOOP ( 'NONE', ( #197, #164, #209, #194 ) ) ;
#219 = DATE_AND_TIME ( #180, #119 ) ;
#220 = VERTEX_POINT ( 'NONE', #317 ) ;
#221 = DATE_AND_TIME ( #229, #225 ) ;
#222 = VERTEX_POINT ( 'NONE', #323 ) ;
#223 = ORIENTED_EDGE ( 'NONE', *, *, #278, .T. ) ;
#224 = DATE_AND_TIME ( #126, #173 ) ;
#225 = LOCAL_TIME ( 15, 43, 46.00000000000000000, #111 ) ;
#226 = ORIENTED_EDGE ( 'NONE', *, *, #240, .T. ) ;
#227 = LOCAL_TIME ( 15, 43, 46.00000000000000000, #215 ) ;
#228 = FACE_OUTER_BOUND ( 'NONE', #136, .T. ) ;
#229 = CALENDAR_DATE ( 2014, 27, 6 ) ;
#230 = VERTEX_POINT ( 'NONE', #83 ) ;
#231 = CIRCLE ( 'NONE', #235, 57.00000000000000700 ) ;
#232 = CIRCLE ( 'NONE', #291, 57.00000000000000700 ) ;
#233 = ORIENTED_EDGE ( 'NONE', *, *, #269, .F. ) ;
#234 = ORIENTED_EDGE ( 'NONE', *, *, #278, .F. ) ;
#235 = AXIS2_PLACEMENT_3D ( 'NONE', #333, #331, #44 ) ;
#236 = AXIS2_PLACEMENT_3D ( 'NONE', #79, #68, #23 ) ;
#237 = EDGE_CURVE ( 'NONE', #220, #150, #6, .T. ) ;
#238 = CC_DESIGN_PERSON_AND_ORGANIZATION_ASSIGNMENT ( #120, #51, ( #239 ) ) ;
#239 = SECURITY_CLASSIFICATION ( '', '', #13 ) ;
#240 = EDGE_CURVE ( 'NONE', #125, #205, #190, .T. ) ;
#241 = CC_DESIGN_PERSON_AND_ORGANIZATION_ASSIGNMENT ( #176, #57, ( #267 ) ) ;
#242 = APPROVAL ( #17, 'UNSPECIFIED' ) ;
#243 = EDGE_CURVE ( 'NONE', #169, #169, #208, .T. ) ;
#244 = PRODUCT_DEFINITION_FORMATION_WITH_SPECIFIED_SOURCE ( 'ANY', '', #4, .NOT_KNOWN. ) ;
#245 = CC_DESIGN_APPROVAL ( #282, ( #239 ) ) ;
#246 = CC_DESIGN_PERSON_AND_ORGANIZATION_ASSIGNMENT ( #177, #32, ( #4 ) ) ;
#247 = CC_DESIGN_DATE_AND_TIME_ASSIGNMENT ( #206, #49, ( #267 ) ) ;
#248 = EDGE_CURVE ( 'NONE', #150, #121, #157, .T. ) ;
#249 = EDGE_CURVE ( 'NONE', #121, #178, #11, .T. ) ;
#250 = AXIS2_PLACEMENT_3D ( 'NONE', #321, #318, #335 ) ;
#251 = AXIS2_PLACEMENT_3D ( 'NONE', #48, #41, #63 ) ;
#252 = CC_DESIGN_DATE_AND_TIME_ASSIGNMENT ( #221, #94, ( #239 ) ) ;
#253 = EDGE_CURVE ( 'NONE', #150, #125, #160, .T. ) ;
#254 = EDGE_CURVE ( 'NONE', #186, #186, #165, .T. ) ;
#255 = AXIS2_PLACEMENT_3D ( 'NONE', #46, #34, #64 ) ;
#256 = CC_DESIGN_PERSON_AND_ORGANIZATION_ASSIGNMENT ( #96, #15, ( #244 ) ) ;
#257 = AXIS2_PLACEMENT_3D ( 'NONE', #305, #313, #337 ) ;
#258 = CC_DESIGN_SECURITY_CLASSIFICATION ( #239, ( #244 ) ) ;
#259 = AXIS2_PLACEMENT_3D ( 'NONE', #88, #90, #53 ) ;
#260 = AXIS2_PLACEMENT_3D ( 'NONE', #298, #332, #297 ) ;
#261 = AXIS2_PLACEMENT_3D ( 'NONE', #65, #82, #75 ) ;
#262 = APPROVAL ( #72, 'UNSPECIFIED' ) ;
#263 = AXIS2_PLACEMENT_3D ( 'NONE', #60, #16, #73 ) ;
#264 = EDGE_CURVE ( 'NONE', #222, #178, #146, .T. ) ;
#265 = EDGE_CURVE ( 'NONE', #121, #205, #232, .T. ) ;
#266 =( GEOMETRIC_REPRESENTATION_CONTEXT ( 3 ) GLOBAL_UNCERTAINTY_ASSIGNED_CONTEXT ( ( #7 ) ) GLOBAL_UNIT_ASSIGNED_CONTEXT ( ( #50, #92, #35 ) ) REPRESENTATION_CONTEXT ( 'NONE', 'WORKASPACE' ) );
#267 = PRODUCT_DEFINITION ( 'UNKNOWN', '', #244, #1 ) ;
#268 = AXIS2_PLACEMENT_3D ( 'NONE', #310, #334, #301 ) ;
#269 = EDGE_CURVE ( 'NONE', #178, #222, #171, .T. ) ;
#270 = EDGE_CURVE ( 'NONE', #230, #230, #130, .T. ) ;
#271 = EDGE_CURVE ( 'NONE', #134, #125, #5, .T. ) ;
#272 = CC_DESIGN_APPROVAL ( #262, ( #244 ) ) ;
#273 = AXIS2_PLACEMENT_3D ( 'NONE', #33, #52, #86 ) ;
#274 = AXIS2_PLACEMENT_3D ( 'NONE', #80, #26, #30 ) ;
#275 = AXIS2_PLACEMENT_3D ( 'NONE', #40, #61, #56 ) ;
#276 = CC_DESIGN_PERSON_AND_ORGANIZATION_ASSIGNMENT ( #193, #14, ( #244 ) ) ;
#277 = AXIS2_PLACEMENT_3D ( 'NONE', #59, #24, #42 ) ;
#278 = EDGE_CURVE ( 'NONE', #125, #150, #181, .T. ) ;
#279 = CC_DESIGN_APPROVAL ( #242, ( #267 ) ) ;
#280 = EDGE_CURVE ( 'NONE', #205, #121, #231, .T. ) ;
#281 = AXIS2_PLACEMENT_3D ( 'NONE', #325, #327, #300 ) ;
#282 = APPROVAL ( #37, 'UNSPECIFIED' ) ;
#283 = EDGE_CURVE ( 'NONE', #220, #134, #105, .T. ) ;
#284 = EDGE_CURVE ( 'NONE', #134, #220, #104, .T. ) ;
#285 = AXIS2_PLACEMENT_3D ( 'NONE', #345, #328, #341 ) ;
#286 = EDGE_CURVE ( 'NONE', #101, #101, #168, .T. ) ;
#287 = AXIS2_PLACEMENT_3D ( 'NONE', #12, #91, #74 ) ;
#288 = AXIS2_PLACEMENT_3D ( 'NONE', #55, #27, #29 ) ;
#289 = AXIS2_PLACEMENT_3D ( 'NONE', #340, #329, #306 ) ;
#290 = AXIS2_PLACEMENT_3D ( 'NONE', #21, #45, #47 ) ;
#291 = AXIS2_PLACEMENT_3D ( 'NONE', #303, #322, #307 ) ;
#292 = PRODUCT_RELATED_PRODUCT_CATEGORY ( 'detail', '', ( #4 ) ) ;
#293 = AXIS2_PLACEMENT_3D ( 'NONE', #70, #38, #66 ) ;
#294 = EDGE_CURVE ( 'NONE', #205, #222, #10, .T. ) ;
#295 = AXIS2_PLACEMENT_3D ( 'NONE', #84, #31, #22 ) ;
#296 = AXIS2_PLACEMENT_3D ( 'NONE', #58, #54, #20 ) ;
#297 = DIRECTION ( 'NONE',  ( 0.0000000000000000000, 0.0000000000000000000, 1.000000000000000000 ) ) ;
#298 = CARTESIAN_POINT ( 'NONE',  ( 0.0000000000000000000, 148.9999999999999700, 0.0000000000000000000 ) ) ;
#299 = CARTESIAN_POINT ( 'NONE',  ( 9.084585824910151400, 50.43253244090704600, -54.33322709285511800 ) ) ;
#300 = DIRECTION ( 'NONE',  ( 0.0000000000000000000, 0.0000000000000000000, 1.000000000000000000 ) ) ;
#301 = DIRECTION ( 'NONE',  ( 0.0000000000000000000, 0.0000000000000000000, 1.000000000000000000 ) ) ;
#302 = DIRECTION ( 'NONE',  ( 0.0000000000000000000, 0.0000000000000000000, -1.000000000000000000 ) ) ;
#303 = CARTESIAN_POINT ( 'NONE',  ( 0.0000000000000000000, 148.9999999999999700, 0.0000000000000000000 ) ) ;
#304 = CARTESIAN_POINT ( 'NONE',  ( 15.11323040242214300, 148.9999999999999700, -52.88279745629294100 ) ) ;
#305 = CARTESIAN_POINT ( 'NONE',  ( 0.0000000000000000000, 149.9999999999999700, 0.0000000000000000000 ) ) ;
#306 = DIRECTION ( 'NONE',  ( 0.0000000000000000000, 0.0000000000000000000, 1.000000000000000000 ) ) ;
#307 = DIRECTION ( 'NONE',  ( 0.0000000000000000000, 0.0000000000000000000, 1.000000000000000000 ) ) ;
#308 = CARTESIAN_POINT ( 'NONE',  ( 15.11323040242214000, 148.9999999999999700, -54.95989689585766100 ) ) ;
#309 = CARTESIAN_POINT ( 'NONE',  ( -12.12957734240208300, 100.2177036778493700, -53.73548752387577600 ) ) ;
#310 = CARTESIAN_POINT ( 'NONE',  ( 0.0000000000000000000, 2.000000000000001800, 0.0000000000000000000 ) ) ;
#311 = CARTESIAN_POINT ( 'NONE',  ( -15.13362106820103000, 149.3333844385461800, -54.95428973777731600 ) ) ;
#312 = CARTESIAN_POINT ( 'NONE',  ( -15.17439302257263200, 149.9999999999999700, -54.94304138284029900 ) ) ;
#313 = DIRECTION ( 'NONE',  ( -0.0000000000000000000, 1.000000000000000000, -0.0000000000000000000 ) ) ;
#314 = CARTESIAN_POINT ( 'NONE',  ( 5.999999999999976000, 0.0000000000000000000, -54.67174773134657100 ) ) ;
#315 = CARTESIAN_POINT ( 'NONE',  ( -15.11323040242214900, 149.0000000000000000, -52.88279745629294100 ) ) ;
#316 = CARTESIAN_POINT ( 'NONE',  ( -15.15400861035592200, 149.6667178062915600, -54.94867123285816700 ) ) ;
#317 = CARTESIAN_POINT ( 'NONE',  ( -6.000000000000000000, 0.0000000000000000000, -54.67174773134657100 ) ) ;
#318 = DIRECTION ( 'NONE',  ( -0.0000000000000000000, 1.000000000000000000, -0.0000000000000000000 ) ) ;
#319 = CARTESIAN_POINT ( 'NONE',  ( 15.11323040242214300, 148.9999999999999700, 0.0000000000000000000 ) ) ;
#320 = CARTESIAN_POINT ( 'NONE',  ( -15.11323040242214900, 149.0000000000000000, -52.88279745629294100 ) ) ;
#321 = CARTESIAN_POINT ( 'NONE',  ( 0.0000000000000000000, 150.0000000000000000, 0.0000000000000000000 ) ) ;
#322 = DIRECTION ( 'NONE',  ( -0.0000000000000000000, 1.000000000000000000, -0.0000000000000000000 ) ) ;
#323 = CARTESIAN_POINT ( 'NONE',  ( 15.17439302257262500, 149.9999999999999700, -54.94304138284029900 ) ) ;
#324 = CARTESIAN_POINT ( 'NONE',  ( 12.12957734240208100, 100.2177036778495400, -53.73548752387577600 ) ) ;
#325 = CARTESIAN_POINT ( 'NONE',  ( 0.0000000000000000000, 149.9999999999999700, 0.0000000000000000000 ) ) ;
#326 = CARTESIAN_POINT ( 'NONE',  ( -6.000000000000000000, 0.0000000000000000000, -54.67174773134657100 ) ) ;
#327 = DIRECTION ( 'NONE',  ( -0.0000000000000000000, 1.000000000000000000, -0.0000000000000000000 ) ) ;
#328 = DIRECTION ( 'NONE',  ( -0.0000000000000000000, 1.000000000000000000, -0.0000000000000000000 ) ) ;
#329 = DIRECTION ( 'NONE',  ( -0.0000000000000000000, 1.000000000000000000, -0.0000000000000000000 ) ) ;
#330 = DIRECTION ( 'NONE',  ( 0.0000000000000000000, 0.0000000000000000000, -1.000000000000000000 ) ) ;
#331 = DIRECTION ( 'NONE',  ( -0.0000000000000000000, 1.000000000000000000, -0.0000000000000000000 ) ) ;
#332 = DIRECTION ( 'NONE',  ( -0.0000000000000000000, 1.000000000000000000, -0.0000000000000000000 ) ) ;
#333 = CARTESIAN_POINT ( 'NONE',  ( 0.0000000000000000000, 148.9999999999999700, 0.0000000000000000000 ) ) ;
#334 = DIRECTION ( 'NONE',  ( -0.0000000000000000000, 1.000000000000000000, -0.0000000000000000000 ) ) ;
#335 = DIRECTION ( 'NONE',  ( 0.0000000000000000000, 0.0000000000000000000, 1.000000000000000000 ) ) ;
#336 = CARTESIAN_POINT ( 'NONE',  ( 15.11323040242214000, 148.9999999999999700, -54.95989689585766100 ) ) ;
#337 = DIRECTION ( 'NONE',  ( 0.0000000000000000000, 0.0000000000000000000, 1.000000000000000000 ) ) ;
#338 = CARTESIAN_POINT ( 'NONE',  ( 5.999999999999976000, 0.0000000000000000000, -54.67174773134657100 ) ) ;
#339 = CARTESIAN_POINT ( 'NONE',  ( -15.17439302257263200, 149.9999999999999700, -54.94304138284029900 ) ) ;
#340 = CARTESIAN_POINT ( 'NONE',  ( 0.0000000000000000000, 148.9999999999999700, 0.0000000000000000000 ) ) ;
#341 = DIRECTION ( 'NONE',  ( 0.0000000000000000000, 0.0000000000000000000, 1.000000000000000000 ) ) ;
#342 = CARTESIAN_POINT ( 'NONE',  ( -15.11323040242214900, 148.9999999999999700, -54.95989689585765300 ) ) ;
#343 = CARTESIAN_POINT ( 'NONE',  ( -9.084585824910153200, 50.43253244090674800, -54.33322709285511800 ) ) ;
#344 = CARTESIAN_POINT ( 'NONE',  ( -15.11323040242214900, 148.9999999999999700, 0.0000000000000000000 ) ) ;
#345 = CARTESIAN_POINT ( 'NONE',  ( 0.0000000000000000000, 148.0000000000000000, 0.0000000000000000000 ) ) ;
#346 = CARTESIAN_POINT ( 'NONE',  ( -15.11323040242214900, 148.9999999999999700, -54.95989689585765300 ) ) ;
#347 = CARTESIAN_POINT ( 'NONE',  ( 15.11323040242214300, 148.9999999999999700, -52.88279745629294100 ) ) ;
#348 = ADVANCED_FACE ( 'NONE', ( #182 ), #97, .T. ) ;
#349 = ADVANCED_FACE ( 'NONE', ( #200, #184 ), #77, .T. ) ;
#350 = ADVANCED_FACE ( 'NONE', ( #185 ), #123, .T. ) ;
#351 = ADVANCED_FACE ( 'NONE', ( #133 ), #113, .T. ) ;
#352 = ADVANCED_FACE ( 'NONE', ( #217, #100 ), #216, .F. ) ;
#353 = ADVANCED_FACE ( 'NONE', ( #132 ), #81, .T. ) ;
#354 = ADVANCED_FACE ( 'NONE', ( #228 ), #76, .T. ) ;
#355 = ADVANCED_FACE ( 'NONE', ( #135 ), #183, .T. ) ;
#356 = ADVANCED_FACE ( 'NONE', ( #124, #202 ), #163, .F. ) ;
#357 = ADVANCED_FACE ( 'NONE', ( #116 ), #19, .T. ) ;
#358 = ADVANCED_FACE ( 'NONE', ( #141, #156 ), #62, .T. ) ;
#359 = ADVANCED_FACE ( 'NONE', ( #211 ), #93, .T. ) ;
ENDSEC;
END-ISO-10303-21;
