  0
SECTION
  2
HEADER
  9
$ACADVER
  1
AC1015
  9
$ACADMAINTVER
 70
     6
  9
$DWGCODEPAGE
  3
ANSI_1252
  9
$INSBASE
 10
0.0
 20
0.0
 30
0.0
  9
$EXTMIN
 10
0.0
 20
0.0
 30
0.0
  9
$EXTMAX
 10
431.8
 20
279.4
 30
0.0
  9
$LIMMIN
 10
0.0
 20
0.0
  9
$LIMMAX
 10
431.8
 20
279.4
  9
$ORTHOMODE
 70
     0
  9
$REGENMODE
 70
     1
  9
$FILLMODE
 70
     1
  9
$QTEXTMODE
 70
     0
  9
$MIRRTEXT
 70
     1
  9
$LTSCALE
 40
1.0
  9
$ATTMODE
 70
     1
  9
$TEXTSIZE
 40
2.5
  9
$TRACEWID
 40
1.0
  9
$TEXTSTYLE
  7
Standard
  9
$CLAYER
  8
0
  9
$CELTYPE
  6
ByLayer
  9
$CECOLOR
 62
   256
  9
$CELTSCALE
 40
1.0
  9
$DISPSILH
 70
     0
  9
$DIMSCALE
 40
1.0
  9
$DIMASZ
 40
2.5
  9
$DIMEXO
 40
1.0
  9
$DIMDLI
 40
3.75
  9
$DIMRND
 40
0.0
  9
$DIMDLE
 40
0.0
  9
$DIMEXE
 40
1.0
  9
$DIMTP
 40
0.0
  9
$DIMTM
 40
0.0
  9
$DIMTXT
 40
2.5
  9
$DIMCEN
 40
2.5
  9
$DIMTSZ
 40
0.0
  9
$DIMTOL
 70
     0
  9
$DIMLIM
 70
     0
  9
$DIMTIH
 70
     1
  9
$DIMTOH
 70
     1
  9
$DIMSE1
 70
     0
  9
$DIMSE2
 70
     0
  9
$DIMTAD
 70
     1
  9
$DIMZIN
 70
     0
  9
$DIMBLK
  1

  9
$DIMASO
 70
     1
  9
$DIMSHO
 70
     1
  9
$DIMPOST
  1

  9
$DIMAPOST
  1

  9
$DIMALT
 70
     0
  9
$DIMALTD
 70
     3
  9
$DIMALTF
 40
0.0393700787
  9
$DIMLFAC
 40
1.0
  9
$DIMTOFL
 70
     1
  9
$DIMTVP
 40
0.0
  9
$DIMTIX
 70
     0
  9
$DIMSOXD
 70
     0
  9
$DIMSAH
 70
     0
  9
$DIMBLK1
  1

  9
$DIMBLK2
  1

  9
$DIMSTYLE
  2
ISO-25
  9
$DIMCLRD
 70
     0
  9
$DIMCLRE
 70
     0
  9
$DIMCLRT
 70
     0
  9
$DIMTFAC
 40
1.0
  9
$DIMGAP
 40
1.524
  9
$DIMJUST
 70
     0
  9
$DIMSD1
 70
     0
  9
$DIMSD2
 70
     0
  9
$DIMTOLJ
 70
     0
  9
$DIMTZIN
 70
     0
  9
$DIMALTZ
 70
     0
  9
$DIMALTTZ
 70
     0
  9
$DIMUPT
 70
     0
  9
$DIMDEC
 70
     2
  9
$DIMTDEC
 70
     2
  9
$DIMALTU
 70
     2
  9
$DIMALTTD
 70
     3
  9
$DIMTXSTY
  7
Standard
  9
$DIMAUNIT
 70
     0
  9
$DIMADEC
 70
     2
  9
$DIMALTRND
 40
0.0
  9
$DIMAZIN
 70
     0
  9
$DIMDSEP
 70
    44
  9
$DIMATFIT
 70
     3
  9
$DIMFRAC
 70
     0
  9
$DIMLDRBLK
  1

  9
$DIMLUNIT
 70
     2
  9
$DIMLWD
 70
    -2
  9
$DIMLWE
 70
    -2
  9
$DIMTMOVE
 70
     0
  9
$LUNITS
 70
     2
  9
$LUPREC
 70
     2
  9
$SKETCHINC
 40
1.0
  9
$FILLETRAD
 40
10.0
  9
$AUNITS
 70
     0
  9
$AUPREC
 70
     2
  9
$MENU
  1
.
  9
$ELEVATION
 40
0.0
  9
$PELEVATION
 40
0.0
  9
$THICKNESS
 40
0.0
  9
$LIMCHECK
 70
     0
  9
$CHAMFERA
 40
10.0
  9
$CHAMFERB
 40
10.0
  9
$CHAMFERC
 40
20.0
  9
$CHAMFERD
 40
0.0
  9
$SKPOLY
 70
     0
  9
$TDCREATE
 40
2457130.37561309
  9
$TDUCREATE
 40
2457130.042279757
  9
$TDUPDATE
 40
2457130.375613634
  9
$TDUUPDATE
 40
2457130.042280301
  9
$TDINDWG
 40
0.0000000116
  9
$TDUSRTIMER
 40
0.0000000116
  9
$USRTIMER
 70
     1
  9
$ANGBASE
 50
0.0
  9
$ANGDIR
 70
     0
  9
$PDMODE
 70
     0
  9
$PDSIZE
 40
-1.0
  9
$PLINEWID
 40
0.0
  9
$SPLFRAME
 70
     0
  9
$SPLINETYPE
 70
     6
  9
$SPLINESEGS
 70
     8
  9
$HANDSEED
  5
282
  9
$SURFTAB1
 70
     6
  9
$SURFTAB2
 70
     6
  9
$SURFTYPE
 70
     6
  9
$SURFU
 70
     6
  9
$SURFV
 70
     6
  9
$UCSBASE
  2

  9
$UCSNAME
  2

  9
$UCSORG
 10
0.0
 20
0.0
 30
0.0
  9
$UCSXDIR
 10
1.0
 20
0.0
 30
0.0
  9
$UCSYDIR
 10
0.0
 20
1.0
 30
0.0
  9
$UCSORTHOREF
  2

  9
$UCSORTHOVIEW
 70
     0
  9
$UCSORGTOP
 10
0.0
 20
0.0
 30
0.0
  9
$UCSORGBOTTOM
 10
0.0
 20
0.0
 30
0.0
  9
$UCSORGLEFT
 10
0.0
 20
0.0
 30
0.0
  9
$UCSORGRIGHT
 10
0.0
 20
0.0
 30
0.0
  9
$UCSORGFRONT
 10
0.0
 20
0.0
 30
0.0
  9
$UCSORGBACK
 10
0.0
 20
0.0
 30
0.0
  9
$PUCSBASE
  2

  9
$PUCSNAME
  2

  9
$PUCSORG
 10
0.0
 20
0.0
 30
0.0
  9
$PUCSXDIR
 10
1.0
 20
0.0
 30
0.0
  9
$PUCSYDIR
 10
0.0
 20
1.0
 30
0.0
  9
$PUCSORTHOREF
  2

  9
$PUCSORTHOVIEW
 70
     0
  9
$PUCSORGTOP
 10
0.0
 20
0.0
 30
0.0
  9
$PUCSORGBOTTOM
 10
0.0
 20
0.0
 30
0.0
  9
$PUCSORGLEFT
 10
0.0
 20
0.0
 30
0.0
  9
$PUCSORGRIGHT
 10
0.0
 20
0.0
 30
0.0
  9
$PUCSORGFRONT
 10
0.0
 20
0.0
 30
0.0
  9
$PUCSORGBACK
 10
0.0
 20
0.0
 30
0.0
  9
$USERI1
 70
     0
  9
$USERI2
 70
     0
  9
$USERI3
 70
     0
  9
$USERI4
 70
     0
  9
$USERI5
 70
     0
  9
$USERR1
 40
0.0
  9
$USERR2
 40
0.0
  9
$USERR3
 40
0.0
  9
$USERR4
 40
0.0
  9
$USERR5
 40
0.0
  9
$WORLDVIEW
 70
     1
  9
$SHADEDGE
 70
     3
  9
$SHADEDIF
 70
    70
  9
$TILEMODE
 70
     1
  9
$MAXACTVP
 70
    64
  9
$PINSBASE
 10
0.0
 20
0.0
 30
0.0
  9
$PLIMCHECK
 70
     0
  9
$PEXTMIN
 10
1.0000000000E+20
 20
1.0000000000E+20
 30
1.0000000000E+20
  9
$PEXTMAX
 10
-1.0000000000E+20
 20
-1.0000000000E+20
 30
-1.0000000000E+20
  9
$PLIMMIN
 10
0.0
 20
0.0
  9
$PLIMMAX
 10
420.0
 20
297.0
  9
$UNITMODE
 70
     0
  9
$VISRETAIN
 70
     1
  9
$PLINEGEN
 70
     0
  9
$PSLTSCALE
 70
     1
  9
$TREEDEPTH
 70
  3020
  9
$CMLSTYLE
  2
Standard
  9
$CMLJUST
 70
     0
  9
$CMLSCALE
 40
20.0
  9
$PROXYGRAPHICS
 70
     1
  9
$MEASUREMENT
 70
     1
  9
$CELWEIGHT
370
    -1
  9
$ENDCAPS
280
     0
  9
$JOINSTYLE
280
     0
  9
$LWDISPLAY
290
     1
  9
$INSUNITS
 70
     4
  9
$HYPERLINKBASE
  1

  9
$STYLESHEET
  1

  9
$XEDIT
290
     1
  9
$CEPSNTYPE
380
     0
  9
$PSTYLEMODE
290
     1
  9
$FINGERPRINTGUID
  2
{A5A3EA70-5DAB-4730-A569-C1F14463E334}
  9
$VERSIONGUID
  2
{FAEB1C32-E019-11D5-929B-00C0DF256EC4}
  9
$EXTNAMES
290
     1
  9
$PSVPSCALE
 40
0.0
  9
$OLESTARTUP
290
     0
  0
ENDSEC
  0
SECTION
  2
CLASSES
  0
CLASS
  1
ACDBDICTIONARYWDFLT
  2
AcDbDictionaryWithDefault
  3
ObjectDBX Classes
 90
        0
280
     0
281
     0
  0
CLASS
  1
VISUALSTYLE
  2
AcDbVisualStyle
  3
ObjectDBX Classes
 90
     4095
280
     0
281
     0
  0
CLASS
  1
MATERIAL
  2
AcDbMaterial
  3
ObjectDBX Classes
 90
     1153
280
     0
281
     0
  0
CLASS
  1
ACDBPLACEHOLDER
  2
AcDbPlaceHolder
  3
ObjectDBX Classes
 90
        0
280
     0
281
     0
  0
CLASS
  1
LAYOUT
  2
AcDbLayout
  3
ObjectDBX Classes
 90
        0
280
     0
281
     0
  0
ENDSEC
  0
SECTION
  2
TABLES
  0
TABLE
  2
VPORT
  5
8
330
0
100
AcDbSymbolTable
 70
     1
  0
VPORT
  5
29
330
8
100
AcDbSymbolTableRecord
100
AcDbViewportTableRecord
  2
*Active
 70
     0
 10
0.0
 20
0.0
 11
1.0
 21
1.0
 12
215.9
 22
139.7
 13
0.0
 23
0.0
 14
10.0
 24
10.0
 15
10.0
 25
10.0
 16
0.0
 26
0.0
 36
1.0
 17
0.0
 27
0.0
 37
0.0
 40
279.4
 41
1.5454545455
 42
50.0
 43
0.0
 44
0.0
 50
0.0
 51
0.0
 71
     0
 72
  2000
 73
     1
 74
     3
 75
     0
 76
     0
 77
     0
 78
     0
281
     0
 65
     1
110
0.0
120
0.0
130
0.0
111
1.0
121
0.0
131
0.0
112
0.0
122
1.0
132
0.0
 79
     0
146
0.0
  0
ENDTAB
  0
TABLE
  2
LTYPE
  5
5
330
0
100
AcDbSymbolTable
 70
     6
  0
LTYPE
  5
14
330
5
100
AcDbSymbolTableRecord
100
AcDbLinetypeTableRecord
  2
ByBlock
 70
     0
  3

 72
    65
 73
     0
 40
0.0
  0
LTYPE
  5
15
330
5
100
AcDbSymbolTableRecord
100
AcDbLinetypeTableRecord
  2
ByLayer
 70
     0
  3

 72
    65
 73
     0
 40
0.0
  0
LTYPE
  5
16
330
5
100
AcDbSymbolTableRecord
100
AcDbLinetypeTableRecord
  2
Continuous
 70
     0
  3
Solid line
 72
    65
 73
     0
 40
0.0
  0
LTYPE
  5
3F
330
5
100
AcDbSymbolTableRecord
100
AcDbLinetypeTableRecord
  2
HIDDEN
 70
     0
  3
Hidden __ __ __ __ __ __ __ __ __ __ __ __ __ __
 72
    65
 73
     2
 40
1.905
 49
1.27
 74
     0
 49
-0.635
 74
     0
  0
LTYPE
  5
40
330
5
100
AcDbSymbolTableRecord
100
AcDbLinetypeTableRecord
  2
PHANTOM
 70
     0
  3
Phantom ______  __  __  ______  __  __  ______
 72
    65
 73
     6
 40
12.7
 49
6.35
 74
     0
 49
-1.27
 74
     0
 49
1.27
 74
     0
 49
-1.27
 74
     0
 49
1.27
 74
     0
 49
-1.27
 74
     0
  0
LTYPE
  5
41
330
5
100
AcDbSymbolTableRecord
100
AcDbLinetypeTableRecord
  2
CENTER
 70
     0
  3
Center ____ _ ____ _ ____ _ ____ _ ____ _ ____
 72
    65
 73
     4
 40
10.16
 49
6.35
 74
     0
 49
-1.27
 74
     0
 49
1.27
 74
     0
 49
-1.27
 74
     0
  0
LTYPE
  5
42
330
5
100
AcDbSymbolTableRecord
100
AcDbLinetypeTableRecord
  2
CENTERX2
 70
     0
  3
Center (2x) ________  __  ________  __  _____
 72
    65
 73
     4
 40
20.32
 49
12.7
 74
     0
 49
-2.54
 74
     0
 49
2.54
 74
     0
 49
-2.54
 74
     0
  0
LTYPE
  5
43
330
5
100
AcDbSymbolTableRecord
100
AcDbLinetypeTableRecord
  2
DOT2
 70
     0
  3
Dot (.5x) ........................................
 72
    65
 73
     2
 40
0.635
 49
0.0
 74
     0
 49
-0.635
 74
     0
  0
ENDTAB
  0
TABLE
  2
LAYER
  5
2
330
0
100
AcDbSymbolTable
 70
     3
  0
LAYER
  5
10
330
2
100
AcDbSymbolTableRecord
100
AcDbLayerTableRecord
  2
0
 70
     0
 62
     7
  6
Continuous
370
    -3
390
F
  0
LAYER
  5
44
330
2
100
AcDbSymbolTableRecord
100
AcDbLayerTableRecord
  2
FORMAT
 70
     0
 62
     7
  6
Continuous
370
    -3
390
F
  0
LAYER
  5
45
330
2
100
AcDbSymbolTableRecord
100
AcDbLayerTableRecord
  2
PROTOTYPE
 70
     0
 62
     7
  6
Continuous
370
    -3
390
F
  0
ENDTAB
  0
TABLE
  2
STYLE
  5
3
330
0
100
AcDbSymbolTable
 70
     1
  0
STYLE
  5
11
330
3
100
AcDbSymbolTableRecord
100
AcDbTextStyleTableRecord
  2
Standard
 70
     0
 40
0.0
 41
1.0
 50
0.0
 71
     0
 42
2.5
  3
txt
  4

  0
ENDTAB
  0
TABLE
  2
VIEW
  5
6
330
0
100
AcDbSymbolTable
 70
     0
  0
ENDTAB
  0
TABLE
  2
UCS
  5
7
330
0
100
AcDbSymbolTable
 70
     0
  0
ENDTAB
  0
TABLE
  2
APPID
  5
9
330
0
100
AcDbSymbolTable
 70
     1
  0
APPID
  5
12
330
9
100
AcDbSymbolTableRecord
100
AcDbRegAppTableRecord
  2
ACAD
 70
     0
  0
ENDTAB
  0
TABLE
  2
DIMSTYLE
  5
A
330
0
100
AcDbSymbolTable
 70
     1
100
AcDbDimStyleTable
  0
DIMSTYLE
105
27
330
A
100
AcDbSymbolTableRecord
100
AcDbDimStyleTableRecord
  2
ISO-25
 70
     0
 41
2.5
 42
0.625
 43
3.75
 44
1.25
 73
     0
 74
     0
 77
     1
 78
     8
140
2.5
141
2.5
143
0.0393700787
147
0.625
171
     3
172
     1
178
     0
271
     2
272
     2
274
     3
278
    44
283
     0
284
     8
340
11
  0
ENDTAB
  0
TABLE
  2
BLOCK_RECORD
  5
1
330
0
100
AcDbSymbolTable
 70
     2
  0
BLOCK_RECORD
  5
1F
330
1
100
AcDbSymbolTableRecord
100
AcDbBlockTableRecord
  2
*Model_Space
340
22
  0
BLOCK_RECORD
  5
1B
330
1
100
AcDbSymbolTableRecord
100
AcDbBlockTableRecord
  2
*Paper_Space
340
1E
  0
BLOCK_RECORD
  5
23
330
1
100
AcDbSymbolTableRecord
100
AcDbBlockTableRecord
  2
*Paper_Space0
340
26
  0
BLOCK_RECORD
  5
1A8
330
1
100
AcDbSymbolTableRecord
100
AcDbBlockTableRecord
  2
SW_CENTERMARKSYMBOL_0
340
0
102
{BLKREFS
331
1B3
102
}
  0
ENDTAB
  0
ENDSEC
  0
SECTION
  2
BLOCKS
  0
BLOCK
  5
20
330
1F
100
AcDbEntity
  8
0
100
AcDbBlockBegin
  2
*Model_Space
 70
     0
 10
0.0
 20
0.0
 30
0.0
  3
*Model_Space
  1

  0
ENDBLK
  5
21
330
1F
100
AcDbEntity
  8
0
100
AcDbBlockEnd
  0
BLOCK
  5
1C
330
1B
100
AcDbEntity
 67
     1
  8
0
100
AcDbBlockBegin
  2
*Paper_Space
 70
     0
 10
0.0
 20
0.0
 30
0.0
  3
*Paper_Space
  1

  0
ENDBLK
  5
1D
330
1B
100
AcDbEntity
 67
     1
  8
0
100
AcDbBlockEnd
  0
BLOCK
  5
24
330
23
100
AcDbEntity
  8
0
100
AcDbBlockBegin
  2
*Paper_Space0
 70
     0
 10
0.0
 20
0.0
 30
0.0
  3
*Paper_Space0
  1

  0
ENDBLK
  5
25
330
23
100
AcDbEntity
  8
0
100
AcDbBlockEnd
  0
BLOCK
  5
1A9
330
1A8
100
AcDbEntity
  8
0
100
AcDbBlockBegin
  2
SW_CENTERMARKSYMBOL_0
 70
     0
 10
0.0
 20
0.0
 30
0.0
  3
SW_CENTERMARKSYMBOL_0
  1

  0
LINE
  5
1AB
330
1A8
100
AcDbEntity
  8
0
  6
Continuous
 62
     0
370
     0
100
AcDbLine
 10
0.0
 20
0.0
 30
0.0
 11
0.0
 21
2.5
 31
0.0
  0
LINE
  5
1AC
330
1A8
100
AcDbEntity
  8
0
  6
Continuous
 62
     0
370
     0
100
AcDbLine
 10
0.0
 20
0.0
 30
0.0
 11
-2.5
 21
0.0
 31
0.0
  0
LINE
  5
1AD
330
1A8
100
AcDbEntity
  8
0
  6
Continuous
 62
     0
370
     0
100
AcDbLine
 10
0.0
 20
0.0
 30
0.0
 11
0.0
 21
-2.5
 31
0.0
  0
LINE
  5
1AE
330
1A8
100
AcDbEntity
  8
0
  6
Continuous
 62
     0
370
     0
100
AcDbLine
 10
0.0
 20
0.0
 30
0.0
 11
2.5
 21
0.0
 31
0.0
  0
LINE
  5
1AF
330
1A8
100
AcDbEntity
  8
0
  6
Continuous
 62
     0
370
     0
100
AcDbLine
 10
0.0
 20
5.0
 30
0.0
 11
0.0
 21
340.8634419184
 31
0.0
  0
LINE
  5
1B0
330
1A8
100
AcDbEntity
  8
0
  6
Continuous
 62
     0
370
     0
100
AcDbLine
 10
-5.0
 20
0.0
 30
0.0
 11
-345.7167576746
 21
0.0
 31
0.0
  0
LINE
  5
1B1
330
1A8
100
AcDbEntity
  8
0
  6
Continuous
 62
     0
370
     0
100
AcDbLine
 10
0.0
 20
-5.0
 30
0.0
 11
0.0
 21
-341.5098802687
 31
0.0
  0
LINE
  5
1B2
330
1A8
100
AcDbEntity
  8
0
  6
Continuous
 62
     0
370
     0
100
AcDbLine
 10
5.0
 20
0.0
 30
0.0
 11
340.6470517767
 21
0.0
 31
0.0
  0
ENDBLK
  5
1AA
330
1A8
100
AcDbEntity
  8
0
100
AcDbBlockEnd
  0
ENDSEC
  0
SECTION
  2
ENTITIES
  0
LINE
  5
46
330
1F
100
AcDbEntity
  8
0
  6
Continuous
 62
     7
370
    15
100
AcDbLine
 10
-438.3836802484
 20
556.1424560534
 30
0.0
 11
-438.3836802484
 21
531.1424575435
 31
0.0
  0
LINE
  5
47
330
1F
100
AcDbEntity
  8
0
  6
Continuous
 62
     7
370
    15
100
AcDbLine
 10
201.6163054465
 20
531.1424575435
 30
0.0
 11
201.6163054465
 21
556.1424560534
 31
0.0
  0
ARC
  5
48
330
1F
100
AcDbEntity
  8
0
  6
Continuous
 62
     7
370
    15
100
AcDbCircle
 10
-397.3836874009
 20
675.8914525557
 30
0.0
 40
3.0
100
AcDbArc
 50
180.0
 51
265.0
  0
ARC
  5
49
330
1F
100
AcDbEntity
  8
0
  6
Continuous
 62
     7
370
    15
100
AcDbCircle
 10
160.6163125991
 20
675.8914525557
 30
0.0
 40
3.0
100
AcDbArc
 50
275.0
 51
0.0
  0
LINE
  5
4A
330
1F
100
AcDbEntity
  8
0
  6
Continuous
 62
     7
370
    15
100
AcDbLine
 10
-400.3836926461
 20
679.1424594508
 30
0.0
 11
-400.3836926461
 21
675.8914507614
 31
0.0
  0
LINE
  5
4B
330
1F
100
AcDbEntity
  8
0
  6
Continuous
 62
     7
370
    15
100
AcDbLine
 10
163.6163178443
 20
675.8914507614
 30
0.0
 11
163.6163178443
 21
679.1424594508
 31
0.0
  0
LINE
  5
4C
330
1F
100
AcDbEntity
  8
0
  6
Continuous
 62
     7
370
    15
100
AcDbLine
 10
-106.3836872966
 20
679.1424594508
 30
0.0
 11
-106.3836872966
 21
681.6424607919
 31
0.0
  0
LINE
  5
4D
330
1F
100
AcDbEntity
  8
0
  6
Continuous
 62
     7
370
    15
100
AcDbLine
 10
-130.3836875052
 20
681.6424607919
 30
0.0
 11
-130.3836875052
 21
679.1424594508
 31
0.0
  0
LINE
  5
4E
330
1F
100
AcDbEntity
  8
0
  6
Continuous
 62
     7
370
    15
100
AcDbLine
 10
-397.6451572419
 20
672.9028701471
 30
0.0
 11
-381.3884970189
 21
671.4805952893
 31
0.0
  0
LINE
  5
4F
330
1F
100
AcDbEntity
  8
0
  6
Continuous
 62
     7
370
    15
100
AcDbLine
 10
144.6211222171
 20
671.4805952893
 30
0.0
 11
160.8777824401
 21
672.9028701471
 31
0.0
  0
LINE
  5
50
330
1F
100
AcDbEntity
  8
0
  6
Continuous
 62
     7
370
    15
100
AcDbLine
 10
-110.3836870209
 20
697.142458676
 30
0.0
 11
-110.3836870209
 21
697.6424596893
 31
0.0
  0
LINE
  5
51
330
1F
100
AcDbEntity
  8
0
  6
Continuous
 62
     7
370
    15
100
AcDbLine
 10
-126.3836877809
 20
697.6424596893
 30
0.0
 11
-126.3836877809
 21
697.142458676
 31
0.0
  0
LINE
  5
52
330
1F
100
AcDbEntity
  8
0
  6
Continuous
 62
     7
370
    15
100
AcDbLine
 10
-111.8836872668
 20
697.6424596893
 30
0.0
 11
-111.8836872668
 21
709.1424606429
 31
0.0
  0
LINE
  5
53
330
1F
100
AcDbEntity
  8
0
  6
Continuous
 62
     7
370
    15
100
AcDbLine
 10
-124.883687535
 20
709.1424606429
 30
0.0
 11
-124.883687535
 21
697.6424596893
 31
0.0
  0
LINE
  5
54
330
1F
100
AcDbEntity
  8
0
  6
Continuous
 62
     7
370
    15
100
AcDbLine
 10
-112.3836873488
 20
556.1424560534
 30
0.0
 11
-112.3836873488
 21
672.0108680116
 31
0.0
  0
LINE
  5
55
330
1F
100
AcDbEntity
  8
0
  6
Continuous
 62
     7
370
    15
100
AcDbLine
 10
-124.3836874531
 20
672.0109611438
 30
0.0
 11
-124.3836874531
 21
556.1424560534
 31
0.0
  0
LINE
  5
56
330
1F
100
AcDbEntity
  8
0
  6
Continuous
 62
     7
370
    15
100
AcDbLine
 10
-112.3836873488
 20
691.6424587058
 30
0.0
 11
-112.3836873488
 21
697.142458676
 31
0.0
  0
LINE
  5
57
330
1F
100
AcDbEntity
  8
0
  6
Continuous
 62
     7
370
    15
100
AcDbLine
 10
-124.3836874531
 20
697.142458676
 30
0.0
 11
-124.3836874531
 21
691.6424587058
 31
0.0
  0
ARC
  5
58
330
1F
100
AcDbEntity
  8
0
  6
Continuous
 62
     7
370
    15
100
AcDbCircle
 10
-381.8242772821
 20
666.4996218588
 30
0.0
 40
4.999999999999969
100
AcDbArc
 50
71.259805807
 51
85.0
  0
ARC
  5
59
330
1F
100
AcDbEntity
  8
0
  6
Continuous
 62
     7
370
    15
100
AcDbCircle
 10
145.0569024802
 20
666.4996218588
 30
0.0
 40
4.999999999999977
100
AcDbArc
 50
95.0
 51
108.740194193
  0
ARC
  5
5A
330
1F
100
AcDbEntity
  8
0
  6
Continuous
 62
     7
370
    15
100
AcDbCircle
 10
-367.4836874009
 20
641.163256323
 30
0.0
 40
2.500000000000032
100
AcDbArc
 50
252.9215296024
 51
270.0
  0
ARC
  5
5B
330
1F
100
AcDbEntity
  8
0
  6
Continuous
 62
     7
370
    15
100
AcDbCircle
 10
130.7163125991
 20
641.163256323
 30
0.0
 40
2.5
100
AcDbArc
 50
270.0
 51
287.0784703976
  0
LINE
  5
5C
330
1F
100
AcDbEntity
  8
0
  6
Continuous
 62
     7
370
    15
100
AcDbLine
 10
-367.4836870671
 20
638.6632562304
 30
0.0
 11
-282.4979242326
 21
638.6632562304
 31
0.0
  0
LINE
  5
5D
330
1F
100
AcDbEntity
  8
0
  6
Continuous
 62
     7
370
    15
100
AcDbLine
 10
-270.4979148151
 20
638.6632562304
 30
0.0
 11
-124.3836874531
 21
638.6632562304
 31
0.0
  0
LINE
  5
5E
330
1F
100
AcDbEntity
  8
0
  6
Continuous
 62
     7
370
    15
100
AcDbLine
 10
-112.3836873488
 20
638.6632562304
 30
0.0
 11
33.7305400132
 21
638.6632562304
 31
0.0
  0
LINE
  5
5F
330
1F
100
AcDbEntity
  8
0
  6
Continuous
 62
     7
370
    15
100
AcDbLine
 10
45.7305494307
 20
638.6632562304
 30
0.0
 11
130.7163122653
 21
638.6632562304
 31
0.0
  0
LINE
  5
60
330
1F
100
AcDbEntity
  8
0
  6
Continuous
 62
     7
370
    15
100
AcDbLine
 10
-361.8836816789
 20
631.1424590336
 30
0.0
 11
-361.8836816789
 21
556.1424560534
 31
0.0
  0
LINE
  5
61
330
1F
100
AcDbEntity
  8
0
  6
Continuous
 62
     7
370
    15
100
AcDbLine
 10
125.116306877
 20
556.1424560534
 30
0.0
 11
125.116306877
 21
631.1424590336
 31
0.0
  0
ARC
  5
62
330
1F
100
AcDbEntity
  8
0
  6
Continuous
 62
     7
370
    15
100
AcDbCircle
 10
-361.4836874009
 20
635.1424590336
 30
0.0
 40
6.000000000000107
100
AcDbArc
 50
25.0
 51
35.9302218348
  0
ARC
  5
63
330
1F
100
AcDbEntity
  8
0
  6
Continuous
 62
     7
370
    15
100
AcDbCircle
 10
124.7163125991
 20
635.1424590336
 30
0.0
 40
6.000000000000084
100
AcDbArc
 50
144.0697781652
 51
155.0
  0
LINE
  5
64
330
1F
100
AcDbEntity
  8
0
  6
Continuous
 62
     7
370
    15
100
AcDbLine
 10
-356.0458388568
 20
637.6781684035
 30
0.0
 11
-352.9981937648
 21
631.1424590336
 31
0.0
  0
LINE
  5
65
330
1F
100
AcDbEntity
  8
0
  6
Continuous
 62
     7
370
    15
100
AcDbLine
 10
116.2308189629
 20
631.1424590336
 30
0.0
 11
119.278464055
 21
637.6781684035
 31
0.0
  0
LINE
  5
66
330
1F
100
AcDbEntity
  8
0
  6
Continuous
 62
     7
370
    15
100
AcDbLine
 10
-264.4979175569
 20
679.1424594508
 30
0.0
 11
-264.4979175569
 21
681.6424607919
 31
0.0
  0
LINE
  5
67
330
1F
100
AcDbEntity
  8
0
  6
Continuous
 62
     7
370
    15
100
AcDbLine
 10
-288.4979214908
 20
681.6424607919
 30
0.0
 11
-288.4979214908
 21
679.1424594508
 31
0.0
  0
LINE
  5
68
330
1F
100
AcDbEntity
  8
0
  6
Continuous
 62
     7
370
    15
100
AcDbLine
 10
51.7305466889
 20
679.1424594508
 30
0.0
 11
51.7305466889
 21
681.6424607919
 31
0.0
  0
LINE
  5
69
330
1F
100
AcDbEntity
  8
0
  6
Continuous
 62
     7
370
    15
100
AcDbLine
 10
27.730542755
 20
681.6424607919
 30
0.0
 11
27.730542755
 21
679.1424594508
 31
0.0
  0
LINE
  5
6A
330
1F
100
AcDbEntity
  8
0
  6
Continuous
 62
     7
370
    15
100
AcDbLine
 10
-268.4979256631
 20
697.142458676
 30
0.0
 11
-268.4979256631
 21
697.6424596893
 31
0.0
  0
LINE
  5
6B
330
1F
100
AcDbEntity
  8
0
  6
Continuous
 62
     7
370
    15
100
AcDbLine
 10
-284.4979133845
 20
697.6424596893
 30
0.0
 11
-284.4979133845
 21
697.142458676
 31
0.0
  0
LINE
  5
6C
330
1F
100
AcDbEntity
  8
0
  6
Continuous
 62
     7
370
    15
100
AcDbLine
 10
47.7305385827
 20
697.142458676
 30
0.0
 11
47.7305385827
 21
697.6424596893
 31
0.0
  0
LINE
  5
6D
330
1F
100
AcDbEntity
  8
0
  6
Continuous
 62
     7
370
    15
100
AcDbLine
 10
31.7305508613
 20
697.6424596893
 30
0.0
 11
31.7305508613
 21
697.142458676
 31
0.0
  0
LINE
  5
6E
330
1F
100
AcDbEntity
  8
0
  6
Continuous
 62
     7
370
    15
100
AcDbLine
 10
-269.9979212524
 20
697.6424596893
 30
0.0
 11
-269.9979212524
 21
709.1424606429
 31
0.0
  0
LINE
  5
6F
330
1F
100
AcDbEntity
  8
0
  6
Continuous
 62
     7
370
    15
100
AcDbLine
 10
-282.9979177953
 20
709.1424606429
 30
0.0
 11
-282.9979177953
 21
697.6424596893
 31
0.0
  0
LINE
  5
70
330
1F
100
AcDbEntity
  8
0
  6
Continuous
 62
     7
370
    15
100
AcDbLine
 10
46.2305429934
 20
697.6424596893
 30
0.0
 11
46.2305429934
 21
709.1424606429
 31
0.0
  0
LINE
  5
71
330
1F
100
AcDbEntity
  8
0
  6
Continuous
 62
     7
370
    15
100
AcDbLine
 10
33.2305464505
 20
709.1424606429
 30
0.0
 11
33.2305464505
 21
697.6424596893
 31
0.0
  0
LINE
  5
72
330
1F
100
AcDbEntity
  8
0
  6
Continuous
 62
     7
370
    15
100
AcDbLine
 10
-270.4979148151
 20
691.6424587058
 30
0.0
 11
-270.4979148151
 21
697.142458676
 31
0.0
  0
LINE
  5
73
330
1F
100
AcDbEntity
  8
0
  6
Continuous
 62
     7
370
    15
100
AcDbLine
 10
-282.4979242326
 20
697.142458676
 30
0.0
 11
-282.4979242326
 21
691.6424587058
 31
0.0
  0
LINE
  5
74
330
1F
100
AcDbEntity
  8
0
  6
Continuous
 62
     7
370
    15
100
AcDbLine
 10
-270.4979148151
 20
556.1424560534
 30
0.0
 11
-270.4979148151
 21
671.7008307265
 31
0.0
  0
LINE
  5
75
330
1F
100
AcDbEntity
  8
0
  6
Continuous
 62
     7
370
    15
100
AcDbLine
 10
-282.4979242326
 20
672.3169713901
 30
0.0
 11
-282.4979242326
 21
556.1424560534
 31
0.0
  0
LINE
  5
76
330
1F
100
AcDbEntity
  8
0
  6
Continuous
 62
     7
370
    15
100
AcDbLine
 10
45.7305494307
 20
556.1424560534
 30
0.0
 11
45.7305494307
 21
672.317213534
 31
0.0
  0
LINE
  5
77
330
1F
100
AcDbEntity
  8
0
  6
Continuous
 62
     7
370
    15
100
AcDbLine
 10
33.7305400132
 20
671.7015012788
 30
0.0
 11
33.7305400132
 21
556.1424560534
 31
0.0
  0
LINE
  5
78
330
1F
100
AcDbEntity
  8
0
  6
Continuous
 62
     7
370
    15
100
AcDbLine
 10
45.7305494307
 20
691.6424587058
 30
0.0
 11
45.7305494307
 21
697.142458676
 31
0.0
  0
LINE
  5
79
330
1F
100
AcDbEntity
  8
0
  6
Continuous
 62
     7
370
    15
100
AcDbLine
 10
33.7305400132
 20
697.142458676
 30
0.0
 11
33.7305400132
 21
691.6424587058
 31
0.0
  0
LINE
  5
7A
330
1F
100
AcDbEntity
  8
0
  6
Continuous
 62
     7
370
    15
100
AcDbLine
 10
-362.2178849221
 20
679.1424594508
 30
0.0
 11
-362.2178849221
 21
681.6424607919
 31
0.0
  0
LINE
  5
7B
330
1F
100
AcDbEntity
  8
0
  6
Continuous
 62
     7
370
    15
100
AcDbLine
 10
-386.2179037572
 20
681.6424607919
 30
0.0
 11
-386.2179037572
 21
679.1424594508
 31
0.0
  0
LINE
  5
7C
330
1F
100
AcDbEntity
  8
0
  6
Continuous
 62
     7
370
    15
100
AcDbLine
 10
149.4505289554
 20
679.1424594508
 30
0.0
 11
149.4505289554
 21
681.6424607919
 31
0.0
  0
LINE
  5
7D
330
1F
100
AcDbEntity
  8
0
  6
Continuous
 62
     7
370
    15
100
AcDbLine
 10
125.4505101203
 20
681.6424607919
 30
0.0
 11
125.4505101203
 21
679.1424594508
 31
0.0
  0
LINE
  5
7E
330
1F
100
AcDbEntity
  8
0
  6
Continuous
 62
     7
370
    15
100
AcDbLine
 10
-366.2178930284
 20
697.142458676
 30
0.0
 11
-366.2178930284
 21
697.6424596893
 31
0.0
  0
LINE
  5
7F
330
1F
100
AcDbEntity
  8
0
  6
Continuous
 62
     7
370
    15
100
AcDbLine
 10
-382.217895651
 20
697.6424596893
 30
0.0
 11
-382.217895651
 21
697.142458676
 31
0.0
  0
LINE
  5
80
330
1F
100
AcDbEntity
  8
0
  6
Continuous
 62
     7
370
    15
100
AcDbLine
 10
145.4505208491
 20
697.142458676
 30
0.0
 11
145.4505208491
 21
697.6424596893
 31
0.0
  0
LINE
  5
81
330
1F
100
AcDbEntity
  8
0
  6
Continuous
 62
     7
370
    15
100
AcDbLine
 10
129.4505182265
 20
697.6424596893
 30
0.0
 11
129.4505182265
 21
697.142458676
 31
0.0
  0
LINE
  5
82
330
1F
100
AcDbEntity
  8
0
  6
Continuous
 62
     7
370
    15
100
AcDbLine
 10
-367.7178886176
 20
697.6424596893
 30
0.0
 11
-367.7178886176
 21
709.1424606429
 31
0.0
  0
LINE
  5
83
330
1F
100
AcDbEntity
  8
0
  6
Continuous
 62
     7
370
    15
100
AcDbLine
 10
-380.7178851606
 20
709.1424606429
 30
0.0
 11
-380.7178851606
 21
697.6424596893
 31
0.0
  0
LINE
  5
84
330
1F
100
AcDbEntity
  8
0
  6
Continuous
 62
     7
370
    15
100
AcDbLine
 10
143.9505103587
 20
697.6424596893
 30
0.0
 11
143.9505103587
 21
709.1424606429
 31
0.0
  0
LINE
  5
85
330
1F
100
AcDbEntity
  8
0
  6
Continuous
 62
     7
370
    15
100
AcDbLine
 10
130.9505138158
 20
709.1424606429
 30
0.0
 11
130.9505138158
 21
697.6424596893
 31
0.0
  0
LINE
  5
86
330
1F
100
AcDbEntity
  8
0
  6
Continuous
 62
     7
370
    15
100
AcDbLine
 10
143.450516796
 20
556.1424560534
 30
0.0
 11
143.450516796
 21
672.5031874763
 31
0.0
  0
LINE
  5
87
330
1F
100
AcDbEntity
  8
0
  6
Continuous
 62
     7
370
    15
100
AcDbLine
 10
131.4505222796
 20
671.5069591688
 30
0.0
 11
131.4505222796
 21
556.1424560534
 31
0.0
  0
LINE
  5
88
330
1F
100
AcDbEntity
  8
0
  6
Continuous
 62
     7
370
    15
100
AcDbLine
 10
-368.2178970815
 20
691.6424587058
 30
0.0
 11
-368.2178970815
 21
697.142458676
 31
0.0
  0
LINE
  5
89
330
1F
100
AcDbEntity
  8
0
  6
Continuous
 62
     7
370
    15
100
AcDbLine
 10
-380.2178915979
 20
697.142458676
 30
0.0
 11
-380.2178915979
 21
691.6424587058
 31
0.0
  0
LINE
  5
8A
330
1F
100
AcDbEntity
  8
0
  6
Continuous
 62
     7
370
    15
100
AcDbLine
 10
-368.2178970815
 20
556.1424560534
 30
0.0
 11
-368.2178970815
 21
671.5069591688
 31
0.0
  0
LINE
  5
8B
330
1F
100
AcDbEntity
  8
0
  6
Continuous
 62
     7
370
    15
100
AcDbLine
 10
-380.2178915979
 20
672.5031874763
 30
0.0
 11
-380.2178915979
 21
556.1424560534
 31
0.0
  0
LINE
  5
8C
330
1F
100
AcDbEntity
  8
0
  6
Continuous
 62
     7
370
    15
100
AcDbLine
 10
143.450516796
 20
691.6424587058
 30
0.0
 11
143.450516796
 21
697.142458676
 31
0.0
  0
LINE
  5
8D
330
1F
100
AcDbEntity
  8
0
  6
Continuous
 62
     7
370
    15
100
AcDbLine
 10
131.4505222796
 20
697.142458676
 30
0.0
 11
131.4505222796
 21
691.6424587058
 31
0.0
  0
LINE
  5
8E
330
1F
100
AcDbEntity
  8
0
  6
Continuous
 62
     7
370
    15
100
AcDbLine
 10
-118.3836874009
 20
531.1424575435
 30
0.0
 11
201.6163054465
 21
531.1424575435
 31
0.0
  0
LINE
  5
8F
330
1F
100
AcDbEntity
  8
0
  6
Continuous
 62
     7
370
    15
100
AcDbLine
 10
-438.3836802484
 20
531.1424575435
 30
0.0
 11
-118.3836874009
 21
531.1424575435
 31
0.0
  0
LINE
  5
90
330
1F
100
AcDbEntity
  8
0
  6
Continuous
 62
     7
370
    15
100
AcDbLine
 10
-118.3836874009
 20
556.1424560534
 30
0.0
 11
201.6163054465
 21
556.1424560534
 31
0.0
  0
LINE
  5
91
330
1F
100
AcDbEntity
  8
0
  6
Continuous
 62
     7
370
    15
100
AcDbLine
 10
-438.3836802484
 20
556.1424560534
 30
0.0
 11
-118.3836874009
 21
556.1424560534
 31
0.0
  0
LINE
  5
92
330
1F
100
AcDbEntity
  8
0
  6
Continuous
 62
     7
370
    15
100
AcDbLine
 10
-118.3836874009
 20
679.1424594508
 30
0.0
 11
163.6163178443
 21
679.1424594508
 31
0.0
  0
LINE
  5
93
330
1F
100
AcDbEntity
  8
0
  6
Continuous
 62
     7
370
    15
100
AcDbLine
 10
-400.3836926461
 20
679.1424594508
 30
0.0
 11
-118.3836874009
 21
679.1424594508
 31
0.0
  0
LINE
  5
94
330
1F
100
AcDbEntity
  8
0
  6
Continuous
 62
     7
370
    15
100
AcDbLine
 10
-106.3836872966
 20
681.6424607919
 30
0.0
 11
-130.3836875052
 21
681.6424607919
 31
0.0
  0
LINE
  5
95
330
1F
100
AcDbEntity
  8
0
  6
Continuous
 62
     7
370
    15
100
AcDbLine
 10
-119.2344847989
 20
691.6424587058
 30
0.0
 11
-119.2344847989
 21
681.6424607919
 31
0.0
  0
LINE
  5
96
330
1F
100
AcDbEntity
  8
0
  6
Continuous
 62
     7
370
    15
100
AcDbLine
 10
-109.3377028049
 20
691.6424587058
 30
0.0
 11
-109.3377028049
 21
681.6424607919
 31
0.0
  0
LINE
  5
97
330
1F
100
AcDbEntity
  8
0
  6
Continuous
 62
     7
370
    15
100
AcDbLine
 10
-119.2344847989
 20
691.6424587058
 30
0.0
 11
-109.3377028049
 21
691.6424587058
 31
0.0
  0
LINE
  5
98
330
1F
100
AcDbEntity
  8
0
  6
Continuous
 62
     7
370
    15
100
AcDbLine
 10
-128.2804696278
 20
691.6424587058
 30
0.0
 11
-128.2804696278
 21
681.6424607919
 31
0.0
  0
LINE
  5
99
330
1F
100
AcDbEntity
  8
0
  6
Continuous
 62
     7
370
    15
100
AcDbLine
 10
-128.2804696278
 20
691.6424587058
 30
0.0
 11
-119.2344847989
 21
691.6424587058
 31
0.0
  0
SPLINE
  5
9A
330
1F
100
AcDbEntity
  8
0
  6
Continuous
 62
     7
370
    15
100
AcDbSpline
210
0.0
220
0.0
230
1.0
 70
     8
 71
     3
 72
    31
 73
    27
 74
     0
 42
0.00000001
 43
0.00000001
 12
1.0
 22
0.0
 32
0.0
 13
1.0
 23
0.0
 33
0.0
 40
0.0
 40
0.0
 40
0.0
 40
0.0
 40
0.0302328716425443
 40
0.083964169976726
 40
0.1376963188640632
 40
0.1736211966415584
 40
0.2096608092126027
 40
0.2455862178411246
 40
0.2815611036907548
 40
0.3176497368195747
 40
0.3536245729659422
 40
0.3895591776862463
 40
0.4256091792759319
 40
0.4615435918231008
 40
0.4973686902877116
 40
0.5333097701034268
 40
0.5691346554923268
 40
0.6227005655586044
 40
0.6762662221857862
 40
0.7296881886548715
 40
0.7831115171890023
 40
0.8365002270534135
 40
0.8898904327685002
 40
0.943369756006813
 40
0.9968495649032212
 40
1.0
 40
1.0
 40
1.0
 40
1.0
 10
33.75169966210093
 20
671.7015012787558
 30
0.0
 10
33.74863939309908
 20
671.7149659106985
 30
0.0
 10
33.74014026838201
 20
671.7523605273426
 30
0.0
 10
33.91640533654638
 20
671.8224428276551
 30
0.0
 10
34.21685732373392
 20
671.898486429715
 30
0.0
 10
34.58916798789311
 20
671.967112832898
 30
0.0
 10
34.97204837994844
 20
672.0263592378283
 30
0.0
 10
35.41522366474387
 20
672.0853160915615
 30
0.0
 10
35.91475628917132
 20
672.1431959658429
 30
0.0
 10
36.46256938812645
 20
672.1993061346292
 30
0.0
 10
37.05157441714996
 20
672.2529391103826
 30
0.0
 10
37.67553576766846
 20
672.3033164847787
 30
0.0
 10
38.32522274297917
 20
672.3499303711993
 30
0.0
 10
38.99234625220579
 20
672.3922088589402
 30
0.0
 10
39.66867453010023
 20
672.4294744830677
 30
0.0
 10
40.34524875106277
 20
672.4614567502196
 30
0.0
 10
41.12470748223096
 20
672.4921690313528
 30
0.0
 10
41.9872514989105
 20
672.517027036271
 30
0.0
 10
42.89338458836347
 20
672.5310314026038
 30
0.0
 10
43.70740004464363
 20
672.5301687591367
 30
0.0
 10
44.41090009557874
 20
672.5151222784875
 30
0.0
 10
44.97801398530243
 20
672.4856536525178
 30
0.0
 10
45.40542502005235
 20
672.4434183663182
 30
0.0
 10
45.65066257260614
 20
672.3878303328328
 30
0.0
 10
45.75550402075493
 20
672.3448865308112
 30
0.0
 10
45.72737568765006
 20
672.31867189783
 30
0.0
 10
45.72581086147986
 20
672.3172135339953
 30
0.0
  0
SPLINE
  5
9B
330
1F
100
AcDbEntity
  8
0
  6
Continuous
 62
     7
370
    15
100
AcDbSpline
210
0.0
220
0.0
230
1.0
 70
     8
 71
     3
 72
    30
 73
    26
 74
     0
 42
0.00000001
 43
0.00000001
 12
1.0
 22
0.0
 32
0.0
 13
1.0
 23
0.0
 33
0.0
 40
0.0
 40
0.0
 40
0.0
 40
0.0
 40
0.0093701133345941
 40
0.0452967371829258
 40
0.0812729833684194
 40
0.1173640816747277
 40
0.1533389516301502
 40
0.1892756093233101
 40
0.2253277934932267
 40
0.2612634951529819
 40
0.2970899773298826
 40
0.3330320532695725
 40
0.3688594165140158
 40
0.4224274811447625
 40
0.4759951071933469
 40
0.5294199915226853
 40
0.5828449772660634
 40
0.6362367587100992
 40
0.689628925101816
 40
0.7431106832028622
 40
0.7965922389116704
 40
0.8502497677074602
 40
0.9039080615385496
 40
0.957754128144295
 40
1.0
 40
1.0
 40
1.0
 40
1.0
 10
-124.375851770598
 20
672.010961143849
 30
0.0
 10
-124.3780397860763
 20
672.0160985066781
 30
0.0
 10
-124.3886170286916
 20
672.0409334009393
 30
0.0
 10
-124.3324588876506
 20
672.0853132457349
 30
0.0
 10
-124.2025836612456
 20
672.1431981094544
 30
0.0
 10
-123.9934775819623
 20
672.1993032931581
 30
0.0
 10
-123.7153097671471
 20
672.2529412713803
 30
0.0
 10
-123.3671966803092
 20
672.3033163368854
 30
0.0
 10
-122.9565793200614
 20
672.3499297434629
 30
0.0
 10
-122.4885471083924
 20
672.392209046951
 30
0.0
 10
-121.9673617357245
 20
672.4294741281803
 30
0.0
 10
-121.4016712637905
 20
672.4614575765404
 30
0.0
 10
-120.6983673788622
 20
672.4921682918565
 30
0.0
 10
-119.843022977676
 20
672.5170273891538
 30
0.0
 10
-118.8419031975782
 20
672.5310305825906
 30
0.0
 10
-117.828304027453
 20
672.5301719412639
 30
0.0
 10
-116.8312940283126
 20
672.5151106694318
 30
0.0
 10
-115.8794708942135
 20
672.4856958241985
 30
0.0
 10
-114.9968459257259
 20
672.4432625212485
 30
0.0
 10
-114.2115363579477
 20
672.3884121210277
 30
0.0
 10
-113.5410378696548
 20
672.3230166637186
 30
0.0
 10
-113.0083923843678
 20
672.2484396548699
 30
0.0
 10
-112.6292865927916
 20
672.1669186444115
 30
0.0
 10
-112.4133466293329
 20
672.0867745906198
 30
0.0
 10
-112.4028689536939
 20
672.0340485115813
 30
0.0
 10
-112.3982625470642
 20
672.0108680115916
 30
0.0
  0
SPLINE
  5
9C
330
1F
100
AcDbEntity
  8
0
  6
Continuous
 62
     7
370
    15
100
AcDbSpline
210
0.0
220
0.0
230
1.0
 70
     8
 71
     3
 72
    30
 73
    26
 74
     0
 42
0.00000001
 43
0.00000001
 12
1.0
 22
0.0
 32
0.0
 13
1.0
 23
0.0
 33
0.0
 40
0.0
 40
0.0
 40
0.0
 40
0.0
 40
0.0249687481782889
 40
0.0609040662712598
 40
0.0967317651081955
 40
0.1326739999767731
 40
0.1685004001630721
 40
0.2220692194424805
 40
0.2756364033888892
 40
0.3290610996515839
 40
0.3824867846335526
 40
0.4358785057045194
 40
0.4892703881009728
 40
0.5427521679714503
 40
0.596234289467813
 40
0.6498917720973894
 40
0.7035493567707299
 40
0.7573966226004437
 40
0.8112435854420942
 40
0.8472091456932958
 40
0.8832888387902877
 40
0.9192545335506459
 40
0.9552189523387012
 40
0.9912980482952529
 40
1.0
 40
1.0
 40
1.0
 40
1.0
 10
-282.4892666579369
 20
672.3169713901259
 30
0.0
 10
-282.4889223297423
 20
672.3279047106388
 30
0.0
 10
-282.4880824403319
 20
672.3545733955214
 30
0.0
 10
-282.3997715962451
 20
672.3921190081722
 30
0.0
 10
-282.2350413070205
 20
672.4294978907147
 30
0.0
 10
-281.9957159825222
 20
672.4614506313513
 30
0.0
 10
-281.6373374343283
 20
672.4921718210899
 30
0.0
 10
-281.1158754567583
 20
672.5170260740675
 30
0.0
 10
-280.4021425729748
 20
672.5310309523725
 30
0.0
 10
-279.5762099507834
 20
672.5301717373574
 30
0.0
 10
-278.6662231526072
 20
672.5151108772067
 30
0.0
 10
-277.6943353649936
 20
672.485695892473
 30
0.0
 10
-276.6895739638816
 20
672.4432624497043
 30
0.0
 10
-275.6793156808624
 20
672.3884115615083
 30
0.0
 10
-274.6906491726827
 20
672.3230176931568
 30
0.0
 10
-273.7535765323322
 20
672.248438044388
 30
0.0
 10
-272.8910166304871
 20
672.166925632816
 30
0.0
 10
-272.1322584062223
 20
672.0805334190526
 30
0.0
 10
-271.564922088881
 20
672.0016138981536
 30
0.0
 10
-271.1624890090701
 20
671.932644049194
 30
0.0
 10
-270.8846905306071
 20
671.874328771795
 30
0.0
 10
-270.6757153553071
 20
671.8174948924017
 30
0.0
 10
-270.548826786226
 20
671.7633548153359
 30
0.0
 10
-270.4925235284297
 20
671.724236019717
 30
0.0
 10
-270.5032135762382
 20
671.7046388848628
 30
0.0
 10
-270.5052908898476
 20
671.7008307265021
 30
0.0
  0
SPLINE
  5
9D
330
1F
100
AcDbEntity
  8
0
  6
Continuous
 62
     7
370
    15
100
AcDbSpline
210
0.0
220
0.0
230
1.0
 70
     8
 71
     3
 72
    30
 73
    26
 74
     0
 42
0.00000001
 43
0.00000001
 12
1.0
 22
0.0
 32
0.0
 13
1.0
 23
0.0
 33
0.0
 40
0.0
 40
0.0
 40
0.0
 40
0.0
 40
0.0221111442956967
 40
0.0756766397544895
 40
0.1290993905302058
 40
0.1825225792287508
 40
0.2359128729661277
 40
0.2893033679484819
 40
0.3427814745624277
 40
0.3962617052560958
 40
0.4499180973506884
 40
0.5035735739717968
 40
0.5574188234626162
 40
0.6112631818105667
 40
0.6472272167403612
 40
0.6833058804646466
 40
0.7192697276773988
 40
0.7552319767978275
 40
0.7913108869626612
 40
0.8272734195042509
 40
0.8631499957244236
 40
0.8991414932293065
 40
0.9350175580766055
 40
0.9707587173957654
 40
1.0
 40
1.0
 40
1.0
 40
1.0
 10
-380.1968809605721
 20
672.5031874762751
 30
0.0
 10
-380.2017870693375
 20
672.5072700919345
 30
0.0
 10
-380.2185785035873
 20
672.5212430745346
 30
0.0
 10
-380.0704274353943
 20
672.5305073798257
 30
0.0
 10
-379.7557818068026
 20
672.5303119505168
 30
0.0
 10
-379.2782193937292
 20
672.5150731401659
 30
0.0
 10
-378.6580648275052
 20
672.4857057275835
 30
0.0
 10
-377.9147982108648
 20
672.4432611761849
 30
0.0
 10
-377.0654745821593
 20
672.3884110269333
 30
0.0
 10
-376.1365445526478
 20
672.3230168827967
 30
0.0
 10
-375.1518580367447
 20
672.2484391140724
 30
0.0
 10
-374.1395270976457
 20
672.166925194574
 30
0.0
 10
-373.1287210064709
 20
672.0805345723425
 30
0.0
 10
-372.2556680245117
 20
672.0016120997976
 30
0.0
 10
-371.5303561676464
 20
671.9326473139326
 30
0.0
 10
-370.9417990714732
 20
671.8743151118725
 30
0.0
 10
-370.3942274904671
 20
671.8175490296861
 30
0.0
 10
-369.896369771762
 20
671.7631521817323
 30
0.0
 10
-369.4528020632457
 20
671.7117802939318
 30
0.0
 10
-369.0693055919012
 20
671.6640894115179
 30
0.0
 10
-368.7531880463862
 20
671.6208968675967
 30
0.0
 10
-368.5053309419362
 20
671.5825512345749
 30
0.0
 10
-368.3314861997886
 20
671.5497791140856
 30
0.0
 10
-368.2325863831075
 20
671.5240518241809
 30
0.0
 10
-368.2267411480521
 20
671.5122636838599
 30
0.0
 10
-368.2241108657006
 20
671.5069591687895
 30
0.0
  0
SPLINE
  5
9E
330
1F
100
AcDbEntity
  8
0
  6
Continuous
 62
     7
370
    15
100
AcDbSpline
210
0.0
220
0.0
230
1.0
 70
     8
 71
     3
 72
    30
 73
    26
 74
     0
 42
0.00000001
 43
0.00000001
 12
1.0
 22
0.0
 32
0.0
 13
1.0
 23
0.0
 33
0.0
 40
0.0
 40
0.0
 40
0.0
 40
0.0
 40
0.0221111442956967
 40
0.0756766397544895
 40
0.1290993905302058
 40
0.1825225792287508
 40
0.2359128729661277
 40
0.2893033679484819
 40
0.3427814745624277
 40
0.3962617052560958
 40
0.4499180973506884
 40
0.5035735739717968
 40
0.5574188234626162
 40
0.6112631818105667
 40
0.6472272167403612
 40
0.6833058804646466
 40
0.7192697276773988
 40
0.7552319767978275
 40
0.7913108869626612
 40
0.8272734195042509
 40
0.8631499957244236
 40
0.8991414932293065
 40
0.9350175580766055
 40
0.9707587173957654
 40
1.0
 40
1.0
 40
1.0
 40
1.0
 10
143.4295061587211
 20
672.5031874762751
 30
0.0
 10
143.4344122674865
 20
672.5072700919345
 30
0.0
 10
143.4512037017363
 20
672.5212430745346
 30
0.0
 10
143.3030526335433
 20
672.5305073798257
 30
0.0
 10
142.9884070049516
 20
672.5303119505168
 30
0.0
 10
142.5108445918782
 20
672.5150731401659
 30
0.0
 10
141.8906900256542
 20
672.4857057275835
 30
0.0
 10
141.1474234090138
 20
672.4432611761849
 30
0.0
 10
140.2980997803083
 20
672.3884110269333
 30
0.0
 10
139.3691697507968
 20
672.3230168827967
 30
0.0
 10
138.3844832348936
 20
672.2484391140724
 30
0.0
 10
137.3721522957948
 20
672.166925194574
 30
0.0
 10
136.3613462046199
 20
672.0805345723425
 30
0.0
 10
135.4882932226607
 20
672.0016120997976
 30
0.0
 10
134.7629813657954
 20
671.9326473139326
 30
0.0
 10
134.1744242696222
 20
671.8743151118725
 30
0.0
 10
133.6268526886161
 20
671.8175490296861
 30
0.0
 10
133.128994969911
 20
671.7631521817323
 30
0.0
 10
132.6854272613947
 20
671.7117802939318
 30
0.0
 10
132.3019307900502
 20
671.6640894115179
 30
0.0
 10
131.9858132445352
 20
671.6208968675967
 30
0.0
 10
131.7379561400852
 20
671.5825512345749
 30
0.0
 10
131.5641113979375
 20
671.5497791140856
 30
0.0
 10
131.4652115812565
 20
671.5240518241809
 30
0.0
 10
131.459366346201
 20
671.5122636838599
 30
0.0
 10
131.4567360638495
 20
671.5069591687895
 30
0.0
  0
LINE
  5
9F
330
1F
100
AcDbEntity
  8
0
  6
Continuous
 62
     7
370
    15
100
AcDbLine
 10
-110.3836870209
 20
697.6424596893
 30
0.0
 11
-126.3836877809
 21
697.6424596893
 31
0.0
  0
LINE
  5
A0
330
1F
100
AcDbEntity
  8
0
  6
Continuous
 62
     7
370
    15
100
AcDbLine
 10
-110.3836870209
 20
697.142458676
 30
0.0
 11
-126.3836877809
 21
697.142458676
 31
0.0
  0
LINE
  5
A1
330
1F
100
AcDbEntity
  8
0
  6
Continuous
 62
     7
370
    15
100
AcDbLine
 10
-111.8836872668
 20
709.1424606429
 30
0.0
 11
-124.883687535
 21
709.1424606429
 31
0.0
  0
LINE
  5
A2
330
1F
100
AcDbEntity
  8
0
  6
Continuous
 62
     7
370
    15
100
AcDbLine
 10
-108.4869051741
 20
691.6424587058
 30
0.0
 11
-108.4869051741
 21
681.6424607919
 31
0.0
  0
LINE
  5
A3
330
1F
100
AcDbEntity
  8
0
  6
Continuous
 62
     7
370
    15
100
AcDbLine
 10
-109.3377028049
 20
691.6424587058
 30
0.0
 11
-108.4869051741
 21
691.6424587058
 31
0.0
  0
LINE
  5
A4
330
1F
100
AcDbEntity
  8
0
  6
Continuous
 62
     7
370
    15
100
AcDbLine
 10
-112.3836873488
 20
639.1424594136
 30
0.0
 11
33.7305400132
 21
639.1424594136
 31
0.0
  0
LINE
  5
A5
330
1F
100
AcDbEntity
  8
0
  6
Continuous
 62
     7
370
    15
100
AcDbLine
 10
45.7305494307
 20
639.1424594136
 30
0.0
 11
131.4505222796
 21
639.1424594136
 31
0.0
  0
LINE
  5
A6
330
1F
100
AcDbEntity
  8
0
  6
Continuous
 62
     7
370
    15
100
AcDbLine
 10
-368.2178970815
 20
639.1424594136
 30
0.0
 11
-282.4979242326
 21
639.1424594136
 31
0.0
  0
LINE
  5
A7
330
1F
100
AcDbEntity
  8
0
  6
Continuous
 62
     7
370
    15
100
AcDbLine
 10
-270.4979148151
 20
639.1424594136
 30
0.0
 11
-124.3836874531
 21
639.1424594136
 31
0.0
  0
LINE
  5
A8
330
1F
100
AcDbEntity
  8
0
  6
Continuous
 62
     7
370
    15
100
AcDbLine
 10
-112.3836873488
 20
631.1424590336
 30
0.0
 11
33.7305400132
 21
631.1424590336
 31
0.0
  0
LINE
  5
A9
330
1F
100
AcDbEntity
  8
0
  6
Continuous
 62
     7
370
    15
100
AcDbLine
 10
45.7305494307
 20
631.1424590336
 30
0.0
 11
125.116306877
 21
631.1424590336
 31
0.0
  0
LINE
  5
AA
330
1F
100
AcDbEntity
  8
0
  6
Continuous
 62
     7
370
    15
100
AcDbLine
 10
-361.8836816789
 20
631.1424590336
 30
0.0
 11
-282.4979242326
 21
631.1424590336
 31
0.0
  0
LINE
  5
AB
330
1F
100
AcDbEntity
  8
0
  6
Continuous
 62
     7
370
    15
100
AcDbLine
 10
-270.4979148151
 20
631.1424590336
 30
0.0
 11
-124.3836874531
 21
631.1424590336
 31
0.0
  0
SPLINE
  5
AC
330
1F
100
AcDbEntity
  8
0
  6
Continuous
 62
     7
370
    15
100
AcDbSpline
210
0.0
220
0.0
230
1.0
 70
     8
 71
     3
 72
    13
 73
     9
 74
     0
 42
0.00000001
 43
0.00000001
 12
1.0
 22
0.0
 32
0.0
 13
1.0
 23
0.0
 33
0.0
 40
0.0
 40
0.0
 40
0.0
 40
0.0
 40
0.1621503118458348
 40
0.3261071320398385
 40
0.491870486387377
 40
0.6594403998526276
 40
0.8288168965943916
 40
1.0
 40
1.0
 40
1.0
 40
1.0
 10
-68.38038185600259
 20
603.5998439891315
 30
0.0
 10
-68.85389620055889
 20
603.7816094725468
 30
0.0
 10
-69.80620028881616
 20
604.1471654793512
 30
0.0
 10
-71.24452870742535
 20
604.6992904103258
 30
0.0
 10
-72.70010680598237
 20
605.2580353529959
 30
0.0
 10
-74.17311426738776
 20
605.8234690752648
 30
0.0
 10
-75.66338344958426
 20
606.3955274027361
 30
0.0
 10
-76.6634235674325
 20
606.7794061489728
 30
0.0
 10
-77.16609614171696
 20
606.9723637255141
 30
0.0
  0
LINE
  5
AD
330
1F
100
AcDbEntity
  8
0
  6
Continuous
 62
     7
370
    15
100
AcDbLine
 10
-68.3803823234
 20
603.5998437242
 30
0.0
 11
-68.3803823234
 21
606.9723639326
 31
0.0
  0
LINE
  5
AE
330
1F
100
AcDbEntity
  8
0
  6
Continuous
 62
     7
370
    15
100
AcDbLine
 10
-64.9518113972
 20
606.9723639326
 30
0.0
 11
-68.3803823234
 21
606.9723639326
 31
0.0
  0
LINE
  5
AF
330
1F
100
AcDbEntity
  8
0
  6
Continuous
 62
     7
370
    15
100
AcDbLine
 10
-64.9518113972
 20
597.2191273855
 30
0.0
 11
-64.9518113972
 21
606.9723639326
 31
0.0
  0
LINE
  5
B0
330
1F
100
AcDbEntity
  8
0
  6
Continuous
 62
     7
370
    15
100
AcDbLine
 10
-77.1660957874
 20
592.2461665856
 30
0.0
 11
-77.1660957874
 21
596.0868365751
 31
0.0
  0
SPLINE
  5
B1
330
1F
100
AcDbEntity
  8
0
  6
Continuous
 62
     7
370
    15
100
AcDbSpline
210
0.0
220
0.0
230
1.0
 70
     8
 71
     3
 72
     9
 73
     5
 74
     0
 42
0.00000001
 43
0.00000001
 12
1.0
 22
0.0
 32
0.0
 13
1.0
 23
0.0
 33
0.0
 40
0.0
 40
0.0
 40
0.0
 40
0.0
 40
0.4981129680725726
 40
1.0
 40
1.0
 40
1.0
 40
1.0
 10
-75.28038185600266
 20
596.85459204502
 30
0.0
 10
-75.59334143055271
 20
596.7271727753676
 30
0.0
 10
-76.22163178757965
 20
596.4713688155845
 30
0.0
 10
-76.85048358139618
 20
596.2153363281665
 30
0.0
 10
-77.16609614171699
 20
596.0868369429793
 30
0.0
  0
LINE
  5
B2
330
1F
100
AcDbEntity
  8
0
  6
Continuous
 62
     7
370
    15
100
AcDbLine
 10
-75.2803836406
 20
596.8545928286
 30
0.0
 11
-75.2803836406
 21
602.4382907586
 31
0.0
  0
SPLINE
  5
B3
330
1F
100
AcDbEntity
  8
0
  6
Continuous
 62
     7
370
    15
100
AcDbSpline
210
0.0
220
0.0
230
1.0
 70
     8
 71
     3
 72
     9
 73
     5
 74
     0
 42
0.00000001
 43
0.00000001
 12
1.0
 22
0.0
 32
0.0
 13
1.0
 23
0.0
 33
0.0
 40
0.0
 40
0.0
 40
0.0
 40
0.0
 40
0.5018846945279242
 40
1.0
 40
1.0
 40
1.0
 40
1.0
 10
-77.16609614171699
 20
603.1621479624339
 30
0.0
 10
-76.85048285257453
 20
603.0409953853729
 30
0.0
 10
-76.22162667787228
 20
602.7996001438323
 30
0.0
 10
-75.59334071187781
 20
602.5584237305636
 30
0.0
 10
-75.28038185600266
 20
602.4382900677956
 30
0.0
  0
LINE
  5
B4
330
1F
100
AcDbEntity
  8
0
  6
Continuous
 62
     7
370
    15
100
AcDbLine
 10
-77.1660957874
 20
603.1621481912
 30
0.0
 11
-77.1660957874
 21
606.9723639326
 31
0.0
  0
LINE
  5
B5
330
1F
100
AcDbEntity
  8
0
  6
Continuous
 62
     7
370
    15
100
AcDbLine
 10
-72.0232393981
 20
598.1807142185
 30
0.0
 11
-72.0232393981
 21
601.5552404957
 31
0.0
  0
SPLINE
  5
B6
330
1F
100
AcDbEntity
  8
0
  6
Continuous
 62
     7
370
    15
100
AcDbSpline
210
0.0
220
0.0
230
1.0
 70
    24
 71
     3
 72
    10
 73
     6
 74
     0
 42
0.00000001
 43
0.00000001
 12
1.0
 22
0.0
 32
0.0
 13
1.0
 23
0.0
 33
0.0
 40
0.0
 40
0.0
 40
0.0
 40
0.0
 40
0.3332796276717885
 40
0.6666095405817227
 40
1.0
 40
1.0
 40
1.0
 40
1.0
 10
-67.75712536642656
 20
599.9176321872045
 30
0.0
 10
-68.23046270098216
 20
599.7249162724212
 30
0.0
 10
-69.1772087872416
 20
599.3394553658727
 30
0.0
 10
-70.59927607905875
 20
598.7604708256329
 30
0.0
 10
-71.54855595678336
 20
598.3739783039879
 30
0.0
 10
-72.02323899885985
 20
598.1807144939995
 30
0.0
  0
SPLINE
  5
B7
330
1F
100
AcDbEntity
  8
0
  6
Continuous
 62
     7
370
    15
100
AcDbSpline
210
0.0
220
0.0
230
1.0
 70
    24
 71
     3
 72
    10
 73
     6
 74
     0
 42
0.00000001
 43
0.00000001
 12
1.0
 22
0.0
 32
0.0
 13
1.0
 23
0.0
 33
0.0
 40
0.0
 40
0.0
 40
0.0
 40
0.0
 40
0.3333850920816311
 40
0.6667149539376012
 40
1.0
 40
1.0
 40
1.0
 40
1.0
 10
-72.0232389988598
 20
601.55523978007
 30
0.0
 10
-71.54855446128236
 20
601.3730254581067
 30
0.0
 10
-70.59926402471915
 20
601.008627000707
 30
0.0
 10
-69.17719631649935
 20
600.4627463521362
 30
0.0
 10
-68.23046113379269
 20
600.0993287647923
 30
0.0
 10
-67.75712536642652
 20
599.9176321872046
 30
0.0
  0
SPLINE
  5
B8
330
1F
100
AcDbEntity
  8
0
  6
Continuous
 62
     7
370
    15
100
AcDbSpline
210
0.0
220
0.0
230
1.0
 70
     8
 71
     3
 72
    13
 73
     9
 74
     0
 42
0.00000001
 43
0.00000001
 12
1.0
 22
0.0
 32
0.0
 13
1.0
 23
0.0
 33
0.0
 40
0.0
 40
0.0
 40
0.0
 40
0.0
 40
0.127235460850988
 40
0.2530098294730428
 40
0.3773231261489317
 40
0.5001753718919467
 40
0.7526431829550406
 40
1.0
 40
1.0
 40
1.0
 40
1.0
 10
-77.16609614171705
 20
592.2461680294903
 30
0.0
 10
-76.64604616313947
 20
592.4579024646272
 30
0.0
 10
-75.61191813375726
 20
592.8789399094499
 30
0.0
 10
-74.07161714848351
 20
593.5060617652576
 30
0.0
 10
-72.55064385164164
 20
594.1253158056229
 30
0.0
 10
-70.51520192234793
 20
594.9540326541746
 30
0.0
 10
-67.98217228289822
 20
595.9853354147006
 30
0.0
 10
-65.95502145190906
 20
596.8106764758711
 30
0.0
 10
-64.95181042743125
 20
597.2191272131637
 30
0.0
  0
SPLINE
  5
B9
330
1F
100
AcDbEntity
  8
0
  6
Continuous
 62
     7
370
    15
100
AcDbSpline
210
0.0
220
0.0
230
1.0
 70
     8
 71
     3
 72
    25
 73
    21
 74
     0
 42
0.00000001
 43
0.00000001
 12
1.0
 22
0.0
 32
0.0
 13
1.0
 23
0.0
 33
0.0
 40
0.0
 40
0.0
 40
0.0
 40
0.0
 40
0.0315342044890866
 40
0.0629901345145853
 40
0.1257020575568314
 40
0.1882209255623355
 40
0.2506083242524664
 40
0.3129128356452716
 40
0.3751720486282002
 40
0.4374146606818655
 40
0.4996626359812904
 40
0.561933394852823
 40
0.6242420174271855
 40
0.6866034498250161
 40
0.7490347041098997
 40
0.8115570434729298
 40
0.8741981417115636
 40
0.936994201179542
 40
0.9685050886642667
 40
0.9999999999999999
 40
0.9999999999999999
 40
0.9999999999999999
 40
0.9999999999999999
 10
-71.73398126525618
 20
575.9228987484377
 30
0.0
 10
-71.72161737514891
 20
575.8672975541424
 30
0.0
 10
-71.69692028468481
 20
575.7562331792968
 30
0.0
 10
-71.63854232134999
 20
575.5368674642438
 30
0.0
 10
-71.55320898919076
 20
575.2670877206388
 30
0.0
 10
-71.43043159696819
 20
574.9515940397469
 30
0.0
 10
-71.28853401011109
 20
574.6453789968637
 30
0.0
 10
-71.1282314078559
 20
574.3492986501896
 30
0.0
 10
-70.95035461906745
 20
574.0641703571155
 30
0.0
 10
-70.75570187755272
 20
573.7908218735417
 30
0.0
 10
-70.54507851095856
 20
573.5300785687343
 30
0.0
 10
-70.31928630970278
 20
573.2827673376993
 30
0.0
 10
-70.0791267660317
 20
573.0497151704703
 30
0.0
 10
-69.8253991562092
 20
572.8317521930713
 30
0.0
 10
-69.55890544309425
 20
572.6297019999048
 30
0.0
 10
-69.28043308915308
 20
572.4444183391778
 30
0.0
 10
-68.99081970707263
 20
572.2766486651556
 30
0.0
 10
-68.74085891333537
 20
572.1524603079972
 30
0.0
 10
-68.53643668357016
 20
572.0622943722309
 30
0.0
 10
-68.43239133772644
 20
572.0213847690347
 30
0.0
 10
-68.38038185600266
 20
572.0009351540855
 30
0.0
  0
SPLINE
  5
BA
330
1F
100
AcDbEntity
  8
0
  6
Continuous
 62
     7
370
    15
100
AcDbSpline
210
0.0
220
0.0
230
1.0
 70
     8
 71
     3
 72
    11
 73
     7
 74
     0
 42
0.00000001
 43
0.00000001
 12
1.0
 22
0.0
 32
0.0
 13
1.0
 23
0.0
 33
0.0
 40
0.0
 40
0.0
 40
0.0
 40
0.0
 40
0.2540013146567235
 40
0.505335045389141
 40
0.7540012529316127
 40
1.0
 40
1.0
 40
1.0
 40
1.0
 10
-77.16609614171702
 20
571.8295065826569
 30
0.0
 10
-76.70565397130125
 20
572.1764743865843
 30
0.0
 10
-75.78960530674772
 20
572.8667660537093
 30
0.0
 10
-74.4239332985099
 20
573.8958728803
 30
0.0
 10
-73.07353461572205
 20
574.9134721154522
 30
0.0
 10
-72.1788909389702
 20
575.5876350026796
 30
0.0
 10
-71.73398126525635
 20
575.9228987484375
 30
0.0
  0
LINE
  5
BB
330
1F
100
AcDbEntity
  8
0
  6
Continuous
 62
     7
370
    15
100
AcDbLine
 10
-77.1660957874
 20
571.8295082139
 30
0.0
 11
-77.1660957874
 21
576.2835323499
 31
0.0
  0
SPLINE
  5
BC
330
1F
100
AcDbEntity
  8
0
  6
Continuous
 62
     7
370
    15
100
AcDbSpline
210
0.0
220
0.0
230
1.0
 70
     8
 71
     3
 72
    11
 73
     7
 74
     0
 42
0.00000001
 43
0.00000001
 12
1.0
 22
0.0
 32
0.0
 13
1.0
 23
0.0
 33
0.0
 40
0.0
 40
0.0
 40
0.0
 40
0.0
 40
0.2464387363638568
 40
0.4952516165637571
 40
0.7464386888211866
 40
1.0
 40
1.0
 40
1.0
 40
1.0
 10
-72.36349997900659
 20
579.9025477846598
 30
0.0
 10
-72.75761084122634
 20
579.6055637746164
 30
0.0
 10
-73.54962935462869
 20
579.0087346671564
 30
0.0
 10
-74.74427830932444
 20
578.1085015837573
 30
0.0
 10
-75.9509365820728
 20
577.1992198869893
 30
0.0
 10
-76.75977474898934
 20
576.589716953855
 30
0.0
 10
-77.16609614171696
 20
576.2835319952412
 30
0.0
  0
SPLINE
  5
BD
330
1F
100
AcDbEntity
  8
0
  6
Continuous
 62
     7
370
    15
100
AcDbSpline
210
0.0
220
0.0
230
1.0
 70
     8
 71
     3
 72
    11
 73
     7
 74
     0
 42
0.00000001
 43
0.00000001
 12
1.0
 22
0.0
 32
0.0
 13
1.0
 23
0.0
 33
0.0
 40
0.0
 40
0.0
 40
0.0
 40
0.0
 40
0.253482009162712
 40
0.5046426625459105
 40
0.7534819844832455
 40
1.0
 40
1.0
 40
1.0
 40
1.0
 10
-77.16609614171696
 20
581.857890508049
 30
0.0
 10
-76.75976629981463
 20
581.6924563006257
 30
0.0
 10
-75.95082773266832
 20
581.3631029110657
 30
0.0
 10
-74.74419350978692
 20
580.8718307045925
 30
0.0
 10
-73.54951785326561
 20
580.3854267774663
 30
0.0
 10
-72.75760226527196
 20
580.0630038108166
 30
0.0
 10
-72.3634999790066
 20
579.9025477846598
 30
0.0
  0
LINE
  5
BE
330
1F
100
AcDbEntity
  8
0
  6
Continuous
 62
     7
370
    15
100
AcDbLine
 10
-77.1660957874
 20
581.8578891145
 30
0.0
 11
-77.1660957874
 21
585.6985591041
 31
0.0
  0
LINE
  5
BF
330
1F
100
AcDbEntity
  8
0
  6
Continuous
 62
     7
370
    15
100
AcDbLine
 10
-64.9518113972
 20
576.8849320399
 30
0.0
 11
-64.9518113972
 21
580.7256020294
 31
0.0
  0
SPLINE
  5
C0
330
1F
100
AcDbEntity
  8
0
  6
Continuous
 62
     7
370
    15
100
AcDbSpline
210
0.0
220
0.0
230
1.0
 70
     8
 71
     3
 72
    10
 73
     6
 74
     0
 42
0.00000001
 43
0.00000001
 12
1.0
 22
0.0
 32
0.0
 13
1.0
 23
0.0
 33
0.0
 40
0.0
 40
0.0
 40
0.0
 40
0.0
 40
0.3366154545809264
 40
0.6699487644016878
 40
1.0
 40
1.0
 40
1.0
 40
1.0
 10
-69.40609431149454
 20
578.6984611914584
 30
0.0
 10
-68.90561323180481
 20
578.494694011916
 30
0.0
 10
-67.909530977168
 20
578.0891464700481
 30
0.0
 10
-66.42475366275151
 20
577.4846299962331
 30
0.0
 10
-65.4411694218151
 20
577.0841704613337
 30
0.0
 10
-64.9518104274312
 20
576.8849313243754
 30
0.0
  0
SPLINE
  5
C1
330
1F
100
AcDbEntity
  8
0
  6
Continuous
 62
     7
370
    15
100
AcDbSpline
210
0.0
220
0.0
230
1.0
 70
     8
 71
     3
 72
    27
 73
    23
 74
     0
 42
0.00000001
 43
0.00000001
 12
1.0
 22
0.0
 32
0.0
 13
1.0
 23
0.0
 33
0.0
 40
0.0
 40
0.0
 40
0.0
 40
0.0
 40
0.0314398599247573
 40
0.0629361877695989
 40
0.0942564844680496
 40
0.1256449261783842
 40
0.188172246220089
 40
0.2505784672045465
 40
0.3128990975380535
 40
0.3751736412749649
 40
0.4374573860538285
 40
0.4998330959516513
 40
0.5622472858495932
 40
0.6246182433844407
 40
0.686989614289766
 40
0.7493875972877143
 40
0.8118355564112499
 40
0.8743686184304837
 40
0.937048144930091
 40
0.9621911234396798
 40
0.981060087874312
 40
1.0
 40
1.0
 40
1.0
 40
1.0
 10
-64.95181042743123
 20
574.4009351540856
 30
0.0
 10
-65.02256013671713
 20
574.4019325226787
 30
0.0
 10
-65.16418662611365
 20
574.4039290512007
 30
0.0
 10
-65.37586948692648
 20
574.4199632728057
 30
0.0
 10
-65.58653885817667
 20
574.4453989784297
 30
0.0
 10
-65.8647808109613
 20
574.4928142867756
 30
0.0
 10
-66.2077708701585
 20
574.5765734620865
 30
0.0
 10
-66.60794735461717
 20
574.7152123085026
 30
0.0
 10
-66.9935988619153
 20
574.8907229548455
 30
0.0
 10
-67.36158116473636
 20
575.1019300663321
 30
0.0
 10
-67.70874023982054
 20
575.3476828520835
 30
0.0
 10
-68.03169763116267
 20
575.626483922139
 30
0.0
 10
-68.3263963998499
 20
575.9366618464078
 30
0.0
 10
-68.59004418141143
 20
576.2747732760781
 30
0.0
 10
-68.82066473599754
 20
576.6371809489419
 30
0.0
 10
-69.01640323686806
 20
577.0206153977888
 30
0.0
 10
-69.17543347756589
 20
577.4218030431903
 30
0.0
 10
-69.29585576682194
 20
577.8374407128653
 30
0.0
 10
-69.35985675777087
 20
578.1786375197506
 30
0.0
 10
-69.38824648302624
 20
578.423018080032
 30
0.0
 10
-69.40025147395113
 20
578.5677137525139
 30
0.0
 10
-69.40414426406272
 20
578.6548242247212
 30
0.0
 10
-69.40609431149456
 20
578.6984611914584
 30
0.0
  0
LINE
  5
C2
330
1F
100
AcDbEntity
  8
0
  6
Continuous
 62
     7
370
    15
100
AcDbLine
 10
-64.9518113972
 20
570.9723636197
 30
0.0
 11
-64.9518113972
 21
574.4009345459
 31
0.0
  0
LINE
  5
C3
330
1F
100
AcDbEntity
  8
0
  6
Continuous
 62
     7
370
    15
100
AcDbLine
 10
-68.3803823234
 20
570.9723636197
 30
0.0
 11
-64.9518113972
 21
570.9723636197
 31
0.0
  0
LINE
  5
C4
330
1F
100
AcDbEntity
  8
0
  6
Continuous
 62
     7
370
    15
100
AcDbLine
 10
-68.3803823234
 20
570.9723636197
 30
0.0
 11
-68.3803823234
 21
572.0009348975
 31
0.0
  0
SPLINE
  5
C5
330
1F
100
AcDbEntity
  8
0
  6
Continuous
 62
     7
370
    15
100
AcDbSpline
210
0.0
220
0.0
230
1.0
 70
     8
 71
     3
 72
    13
 73
     9
 74
     0
 42
0.00000001
 43
0.00000001
 12
1.0
 22
0.0
 32
0.0
 13
1.0
 23
0.0
 33
0.0
 40
0.0
 40
0.0
 40
0.0
 40
0.0
 40
0.1230360624733619
 40
0.2473525391979777
 40
0.3729494574627465
 40
0.4998268437259591
 40
0.7469854696749618
 40
1.0
 40
1.0
 40
1.0
 40
1.0
 10
-64.95181042743117
 20
580.7256002378643
 30
0.0
 10
-65.45063182528688
 20
580.9286920038866
 30
0.0
 10
-66.45346576588545
 20
581.3369890755412
 30
0.0
 10
-67.96780642342371
 20
581.9535426445137
 30
0.0
 10
-69.49938843416399
 20
582.5771147499805
 30
0.0
 10
-71.53271516250327
 20
583.4049680668916
 30
0.0
 10
-74.08841388130288
 20
584.4455048153309
 30
0.0
 10
-76.13222590530289
 20
585.2776271249776
 30
0.0
 10
-77.16609614171696
 20
585.6985594215379
 30
0.0
  0
LINE
  5
C6
330
1F
100
AcDbEntity
  8
0
  6
Continuous
 62
     7
370
    15
100
AcDbLine
 10
-63.5803830267
 20
596.2967529582
 30
0.0
 11
-63.5803830267
 21
606.9723639326
 31
0.0
  0
LINE
  5
C7
330
1F
100
AcDbEntity
  8
0
  6
Continuous
 62
     7
370
    15
100
AcDbLine
 10
-60.0232374312
 20
606.9723639326
 30
0.0
 11
-63.5803830267
 21
606.9723639326
 31
0.0
  0
LINE
  5
C8
330
1F
100
AcDbEntity
  8
0
  6
Continuous
 62
     7
370
    15
100
AcDbLine
 10
-60.0232374312
 20
593.858077346
 30
0.0
 11
-60.0232374312
 21
606.9723639326
 31
0.0
  0
SPLINE
  5
C9
330
1F
100
AcDbEntity
  8
0
  6
Continuous
 62
     7
370
    15
100
AcDbSpline
210
0.0
220
0.0
230
1.0
 70
     8
 71
     3
 72
    13
 73
     9
 74
     0
 42
0.00000001
 43
0.00000001
 12
1.0
 22
0.0
 32
0.0
 13
1.0
 23
0.0
 33
0.0
 40
0.0
 40
0.0
 40
0.0
 40
0.0
 40
0.1269880368843011
 40
0.2526824882491291
 40
0.3770833788246752
 40
0.5001907341252785
 40
0.752387104160621
 40
0.9999999999999999
 40
0.9999999999999999
 40
0.9999999999999999
 40
0.9999999999999999
 10
-72.02323899885988
 20
588.9723637255141
 30
0.0
 10
-71.5131028172489
 20
589.1800618381078
 30
0.0
 10
-70.49802704414424
 20
589.5933423106823
 30
0.0
 10
-68.98531549296072
 20
590.2092314383451
 30
0.0
 10
-67.48973124451014
 20
590.8181484417061
 30
0.0
 10
-65.48961533017938
 20
591.6324824185601
 30
0.0
 10
-63.00030657244115
 20
592.6459848075759
 30
0.0
 10
-61.00950935685059
 20
593.456524614022
 30
0.0
 10
-60.02323899885985
 20
593.8580780112284
 30
0.0
  0
SPLINE
  5
CA
330
1F
100
AcDbEntity
  8
0
  6
Continuous
 62
     7
370
    15
100
AcDbSpline
210
0.0
220
0.0
230
1.0
 70
     8
 71
     3
 72
    13
 73
     9
 74
     0
 42
0.00000001
 43
0.00000001
 12
1.0
 22
0.0
 32
0.0
 13
1.0
 23
0.0
 33
0.0
 40
0.0
 40
0.0
 40
0.0
 40
0.0
 40
0.1232299599735447
 40
0.247608496749246
 40
0.3731356424943134
 40
0.4998114284978623
 40
0.7473127322254633
 40
1.0
 40
1.0
 40
1.0
 40
1.0
 10
-60.02323899885976
 20
584.0866494397998
 30
0.0
 10
-60.51388719816452
 20
584.2864135278603
 30
0.0
 10
-61.49975673093608
 20
584.6878036245525
 30
0.0
 10
-62.98788336330277
 20
585.2936842578027
 30
0.0
 10
-64.49151300039372
 20
585.905875825539
 30
0.0
 10
-66.48934654714738
 20
586.7192784730729
 30
0.0
 10
-68.9996923480171
 20
587.7413498429611
 30
0.0
 10
-71.008447844286
 20
588.5591992721645
 30
0.0
 10
-72.0232389988598
 20
588.9723637255141
 30
0.0
  0
LINE
  5
CB
330
1F
100
AcDbEntity
  8
0
  6
Continuous
 62
     7
370
    15
100
AcDbLine
 10
-60.0232374312
 20
570.9723636197
 30
0.0
 11
-60.0232374312
 21
584.0866483437
 31
0.0
  0
LINE
  5
CC
330
1F
100
AcDbEntity
  8
0
  6
Continuous
 62
     7
370
    15
100
AcDbLine
 10
-63.5803830267
 20
570.9723636197
 30
0.0
 11
-60.0232374312
 21
570.9723636197
 31
0.0
  0
LINE
  5
CD
330
1F
100
AcDbEntity
  8
0
  6
Continuous
 62
     7
370
    15
100
AcDbLine
 10
-63.5803830267
 20
570.9723636197
 30
0.0
 11
-63.5803830267
 21
581.6479727315
 31
0.0
  0
LINE
  5
CE
330
1F
100
AcDbEntity
  8
0
  6
Continuous
 62
     7
370
    15
100
AcDbLine
 10
-77.1660957874
 20
587.1792986678
 30
0.0
 11
-77.1660957874
 21
590.7654270219
 31
0.0
  0
SPLINE
  5
CF
330
1F
100
AcDbEntity
  8
0
  6
Continuous
 62
     7
370
    15
100
AcDbSpline
210
0.0
220
0.0
230
1.0
 70
     8
 71
     3
 72
    15
 73
    11
 74
     0
 42
0.00000001
 43
0.00000001
 12
1.0
 22
0.0
 32
0.0
 13
1.0
 23
0.0
 33
0.0
 40
0.0
 40
0.0
 40
0.0
 40
0.0
 40
0.0981733184994199
 40
0.1972403436948848
 40
0.2972010938436789
 40
0.39805558671586
 40
0.4998038396113545
 40
0.6636627618021559
 40
0.8303947949043251
 40
1.0
 40
1.0
 40
1.0
 40
1.0
 10
-63.58038185600266
 20
596.2967547380345
 30
0.0
 10
-64.02280672074033
 20
596.1166244216353
 30
0.0
 10
-64.91168400138896
 20
595.7547239983888
 30
0.0
 10
-66.2529057352315
 20
595.208654228187
 30
0.0
 10
-67.60757030317102
 20
594.6571122691396
 30
0.0
 10
-68.97581778509246
 20
594.1000409219229
 30
0.0
 10
-70.6347145022675
 20
593.4246340862499
 30
0.0
 10
-72.5944554700261
 20
592.6267374429583
 30
0.0
 10
-74.8650703402394
 20
591.7022729969793
 30
0.0
 10
-76.39473181329745
 20
591.0794832047483
 30
0.0
 10
-77.16609614171699
 20
590.7654282074222
 30
0.0
  0
SPLINE
  5
D0
330
1F
100
AcDbEntity
  8
0
  6
Continuous
 62
     7
370
    15
100
AcDbSpline
210
0.0
220
0.0
230
1.0
 70
     8
 71
     3
 72
    15
 73
    11
 74
     0
 42
0.00000001
 43
0.00000001
 12
1.0
 22
0.0
 32
0.0
 13
1.0
 23
0.0
 33
0.0
 40
0.0
 40
0.0
 40
0.0
 40
0.0
 40
0.1021047534160203
 40
0.2031768371805043
 40
0.3032162642045406
 40
0.4022230478061998
 40
0.5001972017276612
 40
0.6692764696248379
 40
0.8358773750981665
 40
1.0
 40
1.0
 40
1.0
 40
1.0
 10
-77.16609614171696
 20
587.1792992436059
 30
0.0
 10
-76.70164889639791
 20
586.9902030630043
 30
0.0
 10
-75.77745174411999
 20
586.613923187561
 30
0.0
 10
-74.39973930575755
 20
586.0529984714724
 30
0.0
 10
-73.0372533319809
 20
585.4982720098983
 30
0.0
 10
-71.69010339799381
 20
584.9497885791479
 30
0.0
 10
-70.03136969626398
 20
584.27444583127
 30
0.0
 10
-68.06900114086373
 20
583.4754834266708
 30
0.0
 10
-65.81092804927216
 20
582.5561249783589
 30
0.0
 10
-64.32017359187921
 20
581.9491740702496
 30
0.0
 10
-63.5803818560027
 20
581.6479727129937
 30
0.0
  0
LINE
  5
D1
330
1F
100
AcDbEntity
  8
0
  6
Continuous
 62
     7
370
    15
100
AcDbLine
 10
-264.4979175569
 20
681.6424607919
 30
0.0
 11
-288.4979214908
 21
681.6424607919
 31
0.0
  0
LINE
  5
D2
330
1F
100
AcDbEntity
  8
0
  6
Continuous
 62
     7
370
    15
100
AcDbLine
 10
51.7305466889
 20
681.6424607919
 30
0.0
 11
27.730542755
 21
681.6424607919
 31
0.0
  0
LINE
  5
D3
330
1F
100
AcDbEntity
  8
0
  6
Continuous
 62
     7
370
    15
100
AcDbLine
 10
-283.6146023513
 20
691.6424587058
 30
0.0
 11
-283.6146023513
 21
681.6424607919
 31
0.0
  0
LINE
  5
D4
330
1F
100
AcDbEntity
  8
0
  6
Continuous
 62
     7
370
    15
100
AcDbLine
 10
-283.6146023513
 20
691.6424587058
 30
0.0
 11
-272.8268471004
 21
691.6424587058
 31
0.0
  0
LINE
  5
D5
330
1F
100
AcDbEntity
  8
0
  6
Continuous
 62
     7
370
    15
100
AcDbLine
 10
-272.8268471004
 20
691.6424587058
 30
0.0
 11
-272.8268471004
 21
681.6424607919
 31
0.0
  0
LINE
  5
D6
330
1F
100
AcDbEntity
  8
0
  6
Continuous
 62
     7
370
    15
100
AcDbLine
 10
-272.8268471004
 20
691.6424587058
 30
0.0
 11
-265.7101568223
 21
691.6424587058
 31
0.0
  0
LINE
  5
D7
330
1F
100
AcDbEntity
  8
0
  6
Continuous
 62
     7
370
    15
100
AcDbLine
 10
-265.7101568223
 20
691.6424587058
 30
0.0
 11
-265.7101568223
 21
681.6424607919
 31
0.0
  0
LINE
  5
D8
330
1F
100
AcDbEntity
  8
0
  6
Continuous
 62
     7
370
    15
100
AcDbLine
 10
34.5049831628
 20
691.6424587058
 30
0.0
 11
34.5049831628
 21
681.6424607919
 31
0.0
  0
LINE
  5
D9
330
1F
100
AcDbEntity
  8
0
  6
Continuous
 62
     7
370
    15
100
AcDbLine
 10
34.5049831628
 20
691.6424587058
 30
0.0
 11
45.4706135749
 21
691.6424587058
 31
0.0
  0
LINE
  5
DA
330
1F
100
AcDbEntity
  8
0
  6
Continuous
 62
     7
370
    15
100
AcDbLine
 10
45.4706135749
 20
691.6424587058
 30
0.0
 11
45.4706135749
 21
681.6424607919
 31
0.0
  0
LINE
  5
DB
330
1F
100
AcDbEntity
  8
0
  6
Continuous
 62
     7
370
    15
100
AcDbLine
 10
28.7649068593
 20
691.6424587058
 30
0.0
 11
28.7649068593
 21
681.6424607919
 31
0.0
  0
LINE
  5
DC
330
1F
100
AcDbEntity
  8
0
  6
Continuous
 62
     7
370
    15
100
AcDbLine
 10
28.7649068593
 20
691.6424587058
 30
0.0
 11
34.5049831628
 21
691.6424587058
 31
0.0
  0
LINE
  5
DD
330
1F
100
AcDbEntity
  8
0
  6
Continuous
 62
     7
370
    15
100
AcDbLine
 10
50.6961825847
 20
691.6424587058
 30
0.0
 11
50.6961825847
 21
681.6424607919
 31
0.0
  0
LINE
  5
DE
330
1F
100
AcDbEntity
  8
0
  6
Continuous
 62
     7
370
    15
100
AcDbLine
 10
45.4706135749
 20
691.6424587058
 30
0.0
 11
50.6961825847
 21
691.6424587058
 31
0.0
  0
LINE
  5
DF
330
1F
100
AcDbEntity
  8
0
  6
Continuous
 62
     7
370
    15
100
AcDbLine
 10
-287.2856822253
 20
691.6424587058
 30
0.0
 11
-287.2856822253
 21
681.6424607919
 31
0.0
  0
LINE
  5
E0
330
1F
100
AcDbEntity
  8
0
  6
Continuous
 62
     7
370
    15
100
AcDbLine
 10
-287.2856822253
 20
691.6424587058
 30
0.0
 11
-283.6146023513
 21
691.6424587058
 31
0.0
  0
LINE
  5
E1
330
1F
100
AcDbEntity
  8
0
  6
Continuous
 62
     7
370
    15
100
AcDbLine
 10
-268.4979256631
 20
697.6424596893
 30
0.0
 11
-284.4979133845
 21
697.6424596893
 31
0.0
  0
LINE
  5
E2
330
1F
100
AcDbEntity
  8
0
  6
Continuous
 62
     7
370
    15
100
AcDbLine
 10
-268.4979256631
 20
697.142458676
 30
0.0
 11
-284.4979133845
 21
697.142458676
 31
0.0
  0
LINE
  5
E3
330
1F
100
AcDbEntity
  8
0
  6
Continuous
 62
     7
370
    15
100
AcDbLine
 10
47.7305385827
 20
697.6424596893
 30
0.0
 11
31.7305508613
 21
697.6424596893
 31
0.0
  0
LINE
  5
E4
330
1F
100
AcDbEntity
  8
0
  6
Continuous
 62
     7
370
    15
100
AcDbLine
 10
47.7305385827
 20
697.142458676
 30
0.0
 11
31.7305508613
 21
697.142458676
 31
0.0
  0
LINE
  5
E5
330
1F
100
AcDbEntity
  8
0
  6
Continuous
 62
     7
370
    15
100
AcDbLine
 10
-269.9979212524
 20
709.1424606429
 30
0.0
 11
-282.9979177953
 21
709.1424606429
 31
0.0
  0
LINE
  5
E6
330
1F
100
AcDbEntity
  8
0
  6
Continuous
 62
     7
370
    15
100
AcDbLine
 10
46.2305429934
 20
709.1424606429
 30
0.0
 11
33.2305464505
 21
709.1424606429
 31
0.0
  0
LINE
  5
E7
330
1F
100
AcDbEntity
  8
0
  6
Continuous
 62
     7
370
    15
100
AcDbLine
 10
-362.2178849221
 20
681.6424607919
 30
0.0
 11
-386.2179037572
 21
681.6424607919
 31
0.0
  0
LINE
  5
E8
330
1F
100
AcDbEntity
  8
0
  6
Continuous
 62
     7
370
    15
100
AcDbLine
 10
149.4505289554
 20
681.6424607919
 30
0.0
 11
125.4505101203
 21
681.6424607919
 31
0.0
  0
LINE
  5
E9
330
1F
100
AcDbEntity
  8
0
  6
Continuous
 62
     7
370
    15
100
AcDbLine
 10
138.8921621798
 20
691.6424587058
 30
0.0
 11
138.8921621798
 21
681.6424607919
 31
0.0
  0
LINE
  5
EA
330
1F
100
AcDbEntity
  8
0
  6
Continuous
 62
     7
370
    15
100
AcDbLine
 10
138.8921621798
 20
691.6424587058
 30
0.0
 11
147.5889268874
 21
691.6424587058
 31
0.0
  0
LINE
  5
EB
330
1F
100
AcDbEntity
  8
0
  6
Continuous
 62
     7
370
    15
100
AcDbLine
 10
147.5889268874
 20
691.6424587058
 30
0.0
 11
147.5889268874
 21
681.6424607919
 31
0.0
  0
LINE
  5
EC
330
1F
100
AcDbEntity
  8
0
  6
Continuous
 62
     7
370
    15
100
AcDbLine
 10
128.7537399291
 20
691.6424587058
 30
0.0
 11
128.7537399291
 21
681.6424607919
 31
0.0
  0
LINE
  5
ED
330
1F
100
AcDbEntity
  8
0
  6
Continuous
 62
     7
370
    15
100
AcDbLine
 10
128.7537399291
 20
691.6424587058
 30
0.0
 11
138.8921621798
 21
691.6424587058
 31
0.0
  0
LINE
  5
EE
330
1F
100
AcDbEntity
  8
0
  6
Continuous
 62
     7
370
    15
100
AcDbLine
 10
-377.3239370824
 20
691.6424587058
 30
0.0
 11
-377.3239370824
 21
681.6424607919
 31
0.0
  0
LINE
  5
EF
330
1F
100
AcDbEntity
  8
0
  6
Continuous
 62
     7
370
    15
100
AcDbLine
 10
-377.3239370824
 20
691.6424587058
 30
0.0
 11
-366.6596975566
 21
691.6424587058
 31
0.0
  0
LINE
  5
F0
330
1F
100
AcDbEntity
  8
0
  6
Continuous
 62
     7
370
    15
100
AcDbLine
 10
-366.6596975566
 20
691.6424587058
 30
0.0
 11
-366.6596975566
 21
681.6424607919
 31
0.0
  0
LINE
  5
F1
330
1F
100
AcDbEntity
  8
0
  6
Continuous
 62
     7
370
    15
100
AcDbLine
 10
-384.8821338655
 20
691.6424587058
 30
0.0
 11
-384.8821338655
 21
681.6424607919
 31
0.0
  0
LINE
  5
F2
330
1F
100
AcDbEntity
  8
0
  6
Continuous
 62
     7
370
    15
100
AcDbLine
 10
-384.8821338655
 20
691.6424587058
 30
0.0
 11
-377.3239370824
 21
691.6424587058
 31
0.0
  0
LINE
  5
F3
330
1F
100
AcDbEntity
  8
0
  6
Continuous
 62
     7
370
    15
100
AcDbLine
 10
-366.2178930284
 20
697.142458676
 30
0.0
 11
-382.217895651
 21
697.142458676
 31
0.0
  0
LINE
  5
F4
330
1F
100
AcDbEntity
  8
0
  6
Continuous
 62
     7
370
    15
100
AcDbLine
 10
-366.2178930284
 20
697.6424596893
 30
0.0
 11
-382.217895651
 21
697.6424596893
 31
0.0
  0
LINE
  5
F5
330
1F
100
AcDbEntity
  8
0
  6
Continuous
 62
     7
370
    15
100
AcDbLine
 10
145.4505208491
 20
697.6424596893
 30
0.0
 11
129.4505182265
 21
697.6424596893
 31
0.0
  0
LINE
  5
F6
330
1F
100
AcDbEntity
  8
0
  6
Continuous
 62
     7
370
    15
100
AcDbLine
 10
145.4505208491
 20
697.142458676
 30
0.0
 11
129.4505182265
 21
697.142458676
 31
0.0
  0
LINE
  5
F7
330
1F
100
AcDbEntity
  8
0
  6
Continuous
 62
     7
370
    15
100
AcDbLine
 10
-363.5536399127
 20
691.6424587058
 30
0.0
 11
-363.5536399127
 21
681.6424607919
 31
0.0
  0
LINE
  5
F8
330
1F
100
AcDbEntity
  8
0
  6
Continuous
 62
     7
370
    15
100
AcDbLine
 10
-366.6596975566
 20
691.6424587058
 30
0.0
 11
-363.5536399127
 21
691.6424587058
 31
0.0
  0
LINE
  5
F9
330
1F
100
AcDbEntity
  8
0
  6
Continuous
 62
     7
370
    15
100
AcDbLine
 10
127.3120972871
 20
691.6424587058
 30
0.0
 11
127.3120972871
 21
681.6424607919
 31
0.0
  0
LINE
  5
FA
330
1F
100
AcDbEntity
  8
0
  6
Continuous
 62
     7
370
    15
100
AcDbLine
 10
127.3120972871
 20
691.6424587058
 30
0.0
 11
128.7537399291
 21
691.6424587058
 31
0.0
  0
LINE
  5
FB
330
1F
100
AcDbEntity
  8
0
  6
Continuous
 62
     7
370
    15
100
AcDbLine
 10
-367.7178886176
 20
709.1424606429
 30
0.0
 11
-380.7178851606
 21
709.1424606429
 31
0.0
  0
LINE
  5
FC
330
1F
100
AcDbEntity
  8
0
  6
Continuous
 62
     7
370
    15
100
AcDbLine
 10
143.9505103587
 20
709.1424606429
 30
0.0
 11
130.9505138158
 21
709.1424606429
 31
0.0
  0
LINE
  5
FD
330
1F
100
AcDbEntity
  8
0
  6
Continuous
 62
     7
370
    15
100
AcDbLine
 10
126.7862651109
 20
691.6424587058
 30
0.0
 11
126.7862651109
 21
681.6424607919
 31
0.0
  0
LINE
  5
FE
330
1F
100
AcDbEntity
  8
0
  6
Continuous
 62
     7
370
    15
100
AcDbLine
 10
126.7862651109
 20
691.6424587058
 30
0.0
 11
127.3120972871
 21
691.6424587058
 31
0.0
  0
LINE
  5
FF
330
1F
100
AcDbEntity
  8
0
  6
Continuous
 62
     7
370
    15
100
AcDbLine
 10
148.1147590636
 20
691.6424587058
 30
0.0
 11
148.1147590636
 21
681.6424607919
 31
0.0
  0
LINE
  5
100
330
1F
100
AcDbEntity
  8
0
  6
Continuous
 62
     7
370
    15
100
AcDbLine
 10
147.5889268874
 20
691.6424587058
 30
0.0
 11
148.1147590636
 21
691.6424587058
 31
0.0
  0
LINE
  5
101
330
1F
100
AcDbEntity
  8
0
  6
Continuous
 62
     7
370
    15
100
AcDbLine
 10
-287.4635573865
 20
691.6424587058
 30
0.0
 11
-287.4635573865
 21
681.6424607919
 31
0.0
  0
LINE
  5
102
330
1F
100
AcDbEntity
  8
0
  6
Continuous
 62
     7
370
    15
100
AcDbLine
 10
-287.4635573865
 20
691.6424587058
 30
0.0
 11
-287.2856822253
 21
691.6424587058
 31
0.0
  0
LINE
  5
103
330
1F
100
AcDbEntity
  8
0
  6
Continuous
 62
     7
370
    15
100
AcDbLine
 10
-265.5322816611
 20
691.6424587058
 30
0.0
 11
-265.5322816611
 21
681.6424607919
 31
0.0
  0
LINE
  5
104
330
1F
100
AcDbEntity
  8
0
  6
Continuous
 62
     7
370
    15
100
AcDbLine
 10
-265.7101568223
 20
691.6424587058
 30
0.0
 11
-265.5322816611
 21
691.6424587058
 31
0.0
  0
LINE
  5
105
330
1F
100
AcDbEntity
  8
0
  6
Continuous
 62
     7
370
    15
100
AcDbLine
 10
-118.3836874009
 20
672.9028701471
 30
0.0
 11
160.8777824401
 21
672.9028701471
 31
0.0
  0
LINE
  5
106
330
1F
100
AcDbEntity
  8
0
  6
Continuous
 62
     7
370
    15
100
AcDbLine
 10
-397.6451572419
 20
672.9028701471
 30
0.0
 11
-118.3836874009
 21
672.9028701471
 31
0.0
  0
LINE
  5
107
330
1F
100
AcDbEntity
  8
0
  6
Continuous
 62
     7
370
    15
100
AcDbLine
 10
-118.3836874009
 20
675.8914507614
 30
0.0
 11
163.6163178443
 21
675.8914507614
 31
0.0
  0
LINE
  5
108
330
1F
100
AcDbEntity
  8
0
  6
Continuous
 62
     7
370
    15
100
AcDbLine
 10
-400.3836926461
 20
675.8914507614
 30
0.0
 11
-118.3836874009
 21
675.8914507614
 31
0.0
  0
LINE
  5
109
330
1F
100
AcDbEntity
  8
0
  6
Continuous
 62
     7
370
    15
100
AcDbLine
 10
45.7305494307
 20
671.4805952893
 30
0.0
 11
131.4505222796
 21
671.4805952893
 31
0.0
  0
LINE
  5
10A
330
1F
100
AcDbEntity
  8
0
  6
Continuous
 62
     7
370
    15
100
AcDbLine
 10
-112.3836873488
 20
671.4805952893
 30
0.0
 11
33.7305400132
 21
671.4805952893
 31
0.0
  0
LINE
  5
10B
330
1F
100
AcDbEntity
  8
0
  6
Continuous
 62
     7
370
    15
100
AcDbLine
 10
-270.4979148151
 20
671.4805952893
 30
0.0
 11
-124.3836874531
 21
671.4805952893
 31
0.0
  0
LINE
  5
10C
330
1F
100
AcDbEntity
  8
0
  6
Continuous
 62
     7
370
    15
100
AcDbLine
 10
-368.2178970815
 20
671.4805952893
 30
0.0
 11
-282.4979242326
 21
671.4805952893
 31
0.0
  0
LINE
  5
10D
330
1F
100
AcDbEntity
  8
0
  6
Continuous
 62
     7
370
    15
100
AcDbLine
 10
-381.3884970189
 20
671.4805952893
 30
0.0
 11
-380.2178915979
 21
671.4805952893
 31
0.0
  0
LINE
  5
10E
330
1F
100
AcDbEntity
  8
0
  6
Continuous
 62
     7
370
    15
100
AcDbLine
 10
143.450516796
 20
671.4805952893
 30
0.0
 11
144.6211222171
 21
671.4805952893
 31
0.0
  0
LINE
  5
10F
330
1F
100
AcDbEntity
  8
0
  6
Continuous
 62
     7
370
    15
100
AcDbLine
 10
-112.3836873488
 20
666.7613006817
 30
0.0
 11
33.7305400132
 21
666.7613006817
 31
0.0
  0
LINE
  5
110
330
1F
100
AcDbEntity
  8
0
  6
Continuous
 62
     7
370
    15
100
AcDbLine
 10
45.7305494307
 20
666.7613006817
 30
0.0
 11
131.4505222796
 21
666.7613006817
 31
0.0
  0
LINE
  5
111
330
1F
100
AcDbEntity
  8
0
  6
Continuous
 62
     7
370
    15
100
AcDbLine
 10
-368.2178970815
 20
666.7613006817
 30
0.0
 11
-282.4979242326
 21
666.7613006817
 31
0.0
  0
LINE
  5
112
330
1F
100
AcDbEntity
  8
0
  6
Continuous
 62
     7
370
    15
100
AcDbLine
 10
-270.4979148151
 20
666.7613006817
 30
0.0
 11
-124.3836874531
 21
666.7613006817
 31
0.0
  0
LINE
  5
113
330
1F
100
AcDbEntity
  8
0
  6
Continuous
 62
     7
370
    15
100
AcDbLine
 10
-112.3836873488
 20
641.5116192462
 30
0.0
 11
33.7305400132
 21
641.5116192462
 31
0.0
  0
LINE
  5
114
330
1F
100
AcDbEntity
  8
0
  6
Continuous
 62
     7
370
    15
100
AcDbLine
 10
45.7305494307
 20
641.5116192462
 30
0.0
 11
131.4505222796
 21
641.5116192462
 31
0.0
  0
LINE
  5
115
330
1F
100
AcDbEntity
  8
0
  6
Continuous
 62
     7
370
    15
100
AcDbLine
 10
-368.2178970815
 20
641.5116192462
 30
0.0
 11
-282.4979242326
 21
641.5116192462
 31
0.0
  0
LINE
  5
116
330
1F
100
AcDbEntity
  8
0
  6
Continuous
 62
     7
370
    15
100
AcDbLine
 10
-270.4979148151
 20
641.5116192462
 30
0.0
 11
-124.3836874531
 21
641.5116192462
 31
0.0
  0
LINE
  5
117
330
1F
100
AcDbEntity
  8
0
  6
Continuous
 62
     7
370
    15
100
AcDbLine
 10
-94.8802702517
 20
637.6781684035
 30
0.0
 11
33.7305400132
 21
637.6781684035
 31
0.0
  0
LINE
  5
118
330
1F
100
AcDbEntity
  8
0
  6
Continuous
 62
     7
370
    15
100
AcDbLine
 10
45.7305494307
 20
637.6781684035
 30
0.0
 11
119.278464055
 21
637.6781684035
 31
0.0
  0
LINE
  5
119
330
1F
100
AcDbEntity
  8
0
  6
Continuous
 62
     7
370
    15
100
AcDbLine
 10
-356.0458388568
 20
637.6781684035
 30
0.0
 11
-282.4979242326
 21
637.6781684035
 31
0.0
  0
LINE
  5
11A
330
1F
100
AcDbEntity
  8
0
  6
Continuous
 62
     7
370
    15
100
AcDbLine
 10
-270.4979148151
 20
637.6781684035
 30
0.0
 11
-124.3836874531
 21
637.6781684035
 31
0.0
  0
LINE
  5
11B
330
1F
100
AcDbEntity
  8
0
  6
Continuous
 62
     7
370
    15
100
AcDbLine
 10
-112.3836873488
 20
637.6781684035
 30
0.0
 11
-94.8802702517
 21
637.6781684035
 31
0.0
  0
LINE
  5
11C
330
1F
100
AcDbEntity
  8
0
  6
CENTERX2
 62
     7
370
     0
100
AcDbLine
 10
-118.3836874009
 20
718.3051739008
 30
0.0
 11
-118.3836874009
 21
515.7552243537
 31
0.0
  0
CIRCLE
  5
11D
330
1F
100
AcDbEntity
  8
0
  6
Continuous
 62
     7
370
    15
100
AcDbCircle
 10
-276.4979202676
 20
86.1541671556
 30
0.0
 40
6.499999999999988
  0
CIRCLE
  5
11E
330
1F
100
AcDbEntity
  8
0
  6
Continuous
 62
     7
370
    15
100
AcDbCircle
 10
-374.2178902843
 20
-48.3458328444
 30
0.0
 40
6.499999999999999
  0
CIRCLE
  5
11F
330
1F
100
AcDbEntity
  8
0
  6
Continuous
 62
     7
370
    15
100
AcDbCircle
 10
-118.3836874009
 20
137.5285956688
 30
0.0
 40
6.500000000000024
  0
CIRCLE
  5
120
330
1F
100
AcDbEntity
  8
0
  6
Continuous
 62
     7
370
    15
100
AcDbCircle
 10
-374.2178902843
 20
-214.5969758181
 30
0.0
 40
6.499999999999912
  0
CIRCLE
  5
121
330
1F
100
AcDbEntity
  8
0
  6
Continuous
 62
     7
370
    15
100
AcDbCircle
 10
39.7305454657
 20
86.1541671556
 30
0.0
 40
6.500000000000004
  0
CIRCLE
  5
122
330
1F
100
AcDbEntity
  8
0
  6
Continuous
 62
     7
370
    15
100
AcDbCircle
 10
-276.4979202676
 20
-349.0969758181
 30
0.0
 40
6.500000000000037
  0
CIRCLE
  5
123
330
1F
100
AcDbEntity
  8
0
  6
Continuous
 62
     7
370
    15
100
AcDbCircle
 10
137.4505154825
 20
-48.3458328444
 30
0.0
 40
6.500000000000044
  0
CIRCLE
  5
124
330
1F
100
AcDbEntity
  8
0
  6
Continuous
 62
     7
370
    15
100
AcDbCircle
 10
-118.3836874009
 20
-400.4714043312
 30
0.0
 40
6.50000000000002
  0
CIRCLE
  5
125
330
1F
100
AcDbEntity
  8
0
  6
Continuous
 62
     7
370
    15
100
AcDbCircle
 10
137.4505154825
 20
-214.5969758181
 30
0.0
 40
6.500000000000036
  0
CIRCLE
  5
126
330
1F
100
AcDbEntity
  8
0
  6
Continuous
 62
     7
370
    15
100
AcDbCircle
 10
39.7305454658
 20
-349.0969758181
 30
0.0
 40
6.500000000000022
  0
CIRCLE
  5
127
330
1F
100
AcDbEntity
  8
0
  6
Continuous
 62
     7
370
    15
100
AcDbCircle
 10
-276.4979202676
 20
86.1541671556
 30
0.0
 40
7.999999999999985
  0
CIRCLE
  5
128
330
1F
100
AcDbEntity
  8
0
  6
Continuous
 62
     7
370
    15
100
AcDbCircle
 10
-374.2178902843
 20
-48.3458328444
 30
0.0
 40
7.99999999999997
  0
CIRCLE
  5
129
330
1F
100
AcDbEntity
  8
0
  6
Continuous
 62
     7
370
    15
100
AcDbCircle
 10
-118.3836874009
 20
137.5285956688
 30
0.0
 40
8.000000000000009
  0
CIRCLE
  5
12A
330
1F
100
AcDbEntity
  8
0
  6
Continuous
 62
     7
370
    15
100
AcDbCircle
 10
-374.2178902843
 20
-214.5969758181
 30
0.0
 40
7.999999999999971
  0
CIRCLE
  5
12B
330
1F
100
AcDbEntity
  8
0
  6
Continuous
 62
     7
370
    15
100
AcDbCircle
 10
39.7305454657
 20
86.1541671556
 30
0.0
 40
8.0
  0
CIRCLE
  5
12C
330
1F
100
AcDbEntity
  8
0
  6
Continuous
 62
     7
370
    15
100
AcDbCircle
 10
-276.4979202676
 20
-349.0969758181
 30
0.0
 40
7.999999999999995
  0
CIRCLE
  5
12D
330
1F
100
AcDbEntity
  8
0
  6
Continuous
 62
     7
370
    15
100
AcDbCircle
 10
137.4505154825
 20
-48.3458328444
 30
0.0
 40
8.00000000000004
  0
CIRCLE
  5
12E
330
1F
100
AcDbEntity
  8
0
  6
Continuous
 62
     7
370
    15
100
AcDbCircle
 10
-118.3836874009
 20
-400.4714043312
 30
0.0
 40
8.000000000000004
  0
CIRCLE
  5
12F
330
1F
100
AcDbEntity
  8
0
  6
Continuous
 62
     7
370
    15
100
AcDbCircle
 10
137.4505154825
 20
-214.5969758181
 30
0.0
 40
8.000000000000036
  0
CIRCLE
  5
130
330
1F
100
AcDbEntity
  8
0
  6
Continuous
 62
     7
370
    15
100
AcDbCircle
 10
39.7305454658
 20
-349.0969758181
 30
0.0
 40
8.00000000000003
  0
LINE
  5
131
330
1F
100
AcDbEntity
  8
0
  6
Continuous
 62
     7
370
    15
100
AcDbLine
 10
-271.2723579646
 20
95.7992137499
 30
0.0
 11
-282.2379883767
 21
95.5021591015
 31
0.0
  0
LINE
  5
132
330
1F
100
AcDbEntity
  8
0
  6
Continuous
 62
     7
370
    15
100
AcDbLine
 10
-265.5322816611
 20
86.4512235946
 30
0.0
 11
-271.2723579646
 21
95.7992137499
 31
0.0
  0
LINE
  5
133
330
1F
100
AcDbEntity
  8
0
  6
Continuous
 62
     7
370
    15
100
AcDbLine
 10
-270.7578506709
 20
76.806178791
 30
0.0
 11
-265.5322816611
 21
86.4512235946
 31
0.0
  0
LINE
  5
134
330
1F
100
AcDbEntity
  8
0
  6
Continuous
 62
     7
370
    15
100
AcDbLine
 10
-281.723481083
 20
76.5091241426
 30
0.0
 11
-270.7578506709
 21
76.806178791
 31
0.0
  0
LINE
  5
135
330
1F
100
AcDbEntity
  8
0
  6
Continuous
 62
     7
370
    15
100
AcDbLine
 10
-287.4635573865
 20
85.8571142978
 30
0.0
 11
-281.723481083
 21
76.5091241426
 31
0.0
  0
LINE
  5
136
330
1F
100
AcDbEntity
  8
0
  6
Continuous
 62
     7
370
    15
100
AcDbLine
 10
-282.2379883767
 20
95.5021591015
 30
0.0
 11
-287.4635573865
 21
85.8571142978
 31
0.0
  0
LINE
  5
137
330
1F
100
AcDbEntity
  8
0
  6
Continuous
 62
     7
370
    15
100
AcDbLine
 10
-365.5211147309
 20
-41.660079258
 30
0.0
 11
-375.6595369817
 21
-37.4713181429
 31
0.0
  0
LINE
  5
138
330
1F
100
AcDbEntity
  8
0
  6
Continuous
 62
     7
370
    15
100
AcDbLine
 10
-364.0794720889
 20
-52.5345890694
 30
0.0
 11
-365.5211147309
 21
-41.660079258
 31
0.0
  0
LINE
  5
139
330
1F
100
AcDbEntity
  8
0
  6
Continuous
 62
     7
370
    15
100
AcDbLine
 10
-372.7762516976
 20
-59.2203452163
 30
0.0
 11
-364.0794720889
 21
-52.5345890694
 31
0.0
  0
LINE
  5
13A
330
1F
100
AcDbEntity
  8
0
  6
Continuous
 62
     7
370
    15
100
AcDbLine
 10
-382.9146739484
 20
-55.0315915518
 30
0.0
 11
-372.7762516976
 21
-59.2203452163
 31
0.0
  0
LINE
  5
13B
330
1F
100
AcDbEntity
  8
0
  6
Continuous
 62
     7
370
    15
100
AcDbLine
 10
-384.3563016893
 20
-44.1570742898
 30
0.0
 11
-382.9146739484
 21
-55.0315915518
 31
0.0
  0
LINE
  5
13C
330
1F
100
AcDbEntity
  8
0
  6
Continuous
 62
     7
370
    15
100
AcDbLine
 10
-375.6595369817
 20
-37.4713181429
 30
0.0
 11
-384.3563016893
 21
-44.1570742898
 31
0.0
  0
LINE
  5
13D
330
1F
100
AcDbEntity
  8
0
  6
Continuous
 62
     7
370
    15
100
AcDbLine
 10
-108.4869051741
 20
142.2600955791
 30
0.0
 11
-117.5328900029
 21
148.4652073211
 31
0.0
  0
LINE
  5
13E
330
1F
100
AcDbEntity
  8
0
  6
Continuous
 62
     7
370
    15
100
AcDbLine
 10
-109.3377028049
 20
131.3234777279
 30
0.0
 11
-108.4869051741
 21
142.2600955791
 31
0.0
  0
LINE
  5
13F
330
1F
100
AcDbEntity
  8
0
  6
Continuous
 62
     7
370
    15
100
AcDbLine
 10
-119.2344847989
 20
126.5919716186
 30
0.0
 11
-109.3377028049
 21
131.3234777279
 31
0.0
  0
LINE
  5
140
330
1F
100
AcDbEntity
  8
0
  6
Continuous
 62
     7
370
    15
100
AcDbLine
 10
-128.2804696278
 20
132.797113163
 30
0.0
 11
-119.2344847989
 21
126.5919716186
 31
0.0
  0
LINE
  5
141
330
1F
100
AcDbEntity
  8
0
  6
Continuous
 62
     7
370
    15
100
AcDbLine
 10
-127.4296719969
 20
143.7337012119
 30
0.0
 11
-128.2804696278
 21
132.797113163
 31
0.0
  0
LINE
  5
142
330
1F
100
AcDbEntity
  8
0
  6
Continuous
 62
     7
370
    15
100
AcDbLine
 10
-117.5328900029
 20
148.4652073211
 30
0.0
 11
-127.4296719969
 21
143.7337012119
 31
0.0
  0
LINE
  5
143
330
1F
100
AcDbEntity
  8
0
  6
Continuous
 62
     7
370
    15
100
AcDbLine
 10
-381.7760762216
 20
-206.6466896706
 30
0.0
 11
-384.8821338655
 21
-217.1674161129
 31
0.0
  0
LINE
  5
144
330
1F
100
AcDbEntity
  8
0
  6
Continuous
 62
     7
370
    15
100
AcDbLine
 10
-371.1118217946
 20
-204.0762468152
 30
0.0
 11
-381.7760762216
 21
-206.6466896706
 31
0.0
  0
LINE
  5
145
330
1F
100
AcDbEntity
  8
0
  6
Continuous
 62
     7
370
    15
100
AcDbLine
 10
-363.5536399127
 20
-212.0265304022
 30
0.0
 11
-371.1118217946
 21
-204.0762468152
 31
0.0
  0
LINE
  5
146
330
1F
100
AcDbEntity
  8
0
  6
Continuous
 62
     7
370
    15
100
AcDbLine
 10
-366.6596975566
 20
-222.5472642951
 30
0.0
 11
-363.5536399127
 21
-212.0265304022
 31
0.0
  0
LINE
  5
147
330
1F
100
AcDbEntity
  8
0
  6
Continuous
 62
     7
370
    15
100
AcDbLine
 10
-377.3239370824
 20
-225.1177071505
 30
0.0
 11
-366.6596975566
 21
-222.5472642951
 31
0.0
  0
LINE
  5
148
330
1F
100
AcDbEntity
  8
0
  6
Continuous
 62
     7
370
    15
100
AcDbLine
 10
-384.8821338655
 20
-217.1674161129
 30
0.0
 11
-377.3239370824
 21
-225.1177071505
 31
0.0
  0
LINE
  5
149
330
1F
100
AcDbEntity
  8
0
  6
Continuous
 62
     7
370
    15
100
AcDbLine
 10
50.5183074235
 20
84.1648490257
 30
0.0
 11
46.8472275494
 21
94.5019931621
 31
0.0
  0
LINE
  5
14A
330
1F
100
AcDbEntity
  8
0
  6
Continuous
 62
     7
370
    15
100
AcDbLine
 10
43.4016171454
 20
75.8170248098
 30
0.0
 11
50.5183074235
 21
84.1648490257
 31
0.0
  0
LINE
  5
14B
330
1F
100
AcDbEntity
  8
0
  6
Continuous
 62
     7
370
    15
100
AcDbLine
 10
32.6138618945
 20
77.8063447303
 30
0.0
 11
43.4016171454
 21
75.8170248098
 31
0.0
  0
LINE
  5
14C
330
1F
100
AcDbEntity
  8
0
  6
Continuous
 62
     7
370
    15
100
AcDbLine
 10
28.9427820205
 20
88.1434888668
 30
0.0
 11
32.6138618945
 21
77.8063447303
 31
0.0
  0
LINE
  5
14D
330
1F
100
AcDbEntity
  8
0
  6
Continuous
 62
     7
370
    15
100
AcDbLine
 10
36.0594722985
 20
96.4913130827
 30
0.0
 11
28.9427820205
 21
88.1434888668
 31
0.0
  0
LINE
  5
14E
330
1F
100
AcDbEntity
  8
0
  6
Continuous
 62
     7
370
    15
100
AcDbLine
 10
46.8472275494
 20
94.5019931621
 30
0.0
 11
36.0594722985
 21
96.4913130827
 31
0.0
  0
LINE
  5
14F
330
1F
100
AcDbEntity
  8
0
  6
Continuous
 62
     7
370
    15
100
AcDbLine
 10
-287.2856822253
 20
-347.1076576882
 30
0.0
 11
-283.6146023513
 21
-357.4448018246
 31
0.0
  0
LINE
  5
150
330
1F
100
AcDbEntity
  8
0
  6
Continuous
 62
     7
370
    15
100
AcDbLine
 10
-280.1689919473
 20
-338.7598334723
 30
0.0
 11
-287.2856822253
 21
-347.1076576882
 31
0.0
  0
LINE
  5
151
330
1F
100
AcDbEntity
  8
0
  6
Continuous
 62
     7
370
    15
100
AcDbLine
 10
-269.3812366964
 20
-340.7491533928
 30
0.0
 11
-280.1689919473
 21
-338.7598334723
 31
0.0
  0
LINE
  5
152
330
1F
100
AcDbEntity
  8
0
  6
Continuous
 62
     7
370
    15
100
AcDbLine
 10
-265.7101568223
 20
-351.0862975293
 30
0.0
 11
-269.3812366964
 21
-340.7491533928
 31
0.0
  0
LINE
  5
153
330
1F
100
AcDbEntity
  8
0
  6
Continuous
 62
     7
370
    15
100
AcDbLine
 10
-272.8268471004
 20
-359.4341217451
 30
0.0
 11
-265.7101568223
 21
-351.0862975293
 31
0.0
  0
LINE
  5
154
330
1F
100
AcDbEntity
  8
0
  6
Continuous
 62
     7
370
    15
100
AcDbLine
 10
-283.6146023513
 20
-357.4448018246
 30
0.0
 11
-272.8268471004
 21
-359.4341217451
 31
0.0
  0
LINE
  5
155
330
1F
100
AcDbEntity
  8
0
  6
Continuous
 62
     7
370
    15
100
AcDbLine
 10
145.0087014197
 20
-56.2961189919
 30
0.0
 11
148.1147590636
 21
-45.7753925495
 31
0.0
  0
LINE
  5
156
330
1F
100
AcDbEntity
  8
0
  6
Continuous
 62
     7
370
    15
100
AcDbLine
 10
134.3444469928
 20
-58.8665618472
 30
0.0
 11
145.0087014197
 21
-56.2961189919
 31
0.0
  0
LINE
  5
157
330
1F
100
AcDbEntity
  8
0
  6
Continuous
 62
     7
370
    15
100
AcDbLine
 10
126.7862651109
 20
-50.9162782603
 30
0.0
 11
134.3444469928
 21
-58.8665618472
 31
0.0
  0
LINE
  5
158
330
1F
100
AcDbEntity
  8
0
  6
Continuous
 62
     7
370
    15
100
AcDbLine
 10
129.8923227548
 20
-40.3955443673
 30
0.0
 11
126.7862651109
 21
-50.9162782603
 31
0.0
  0
LINE
  5
159
330
1F
100
AcDbEntity
  8
0
  6
Continuous
 62
     7
370
    15
100
AcDbLine
 10
140.5565622805
 20
-37.825101512
 30
0.0
 11
129.8923227548
 21
-40.3955443673
 31
0.0
  0
LINE
  5
15A
330
1F
100
AcDbEntity
  8
0
  6
Continuous
 62
     7
370
    15
100
AcDbLine
 10
148.1147590636
 20
-45.7753925495
 30
0.0
 11
140.5565622805
 21
-37.825101512
 31
0.0
  0
LINE
  5
15B
330
1F
100
AcDbEntity
  8
0
  6
Continuous
 62
     7
370
    15
100
AcDbLine
 10
-128.2804696278
 20
-405.2029042416
 30
0.0
 11
-119.2344847989
 21
-411.4080159836
 31
0.0
  0
LINE
  5
15C
330
1F
100
AcDbEntity
  8
0
  6
Continuous
 62
     7
370
    15
100
AcDbLine
 10
-127.4296719969
 20
-394.2662863903
 30
0.0
 11
-128.2804696278
 21
-405.2029042416
 31
0.0
  0
LINE
  5
15D
330
1F
100
AcDbEntity
  8
0
  6
Continuous
 62
     7
370
    15
100
AcDbLine
 10
-117.5328900029
 20
-389.5347802811
 30
0.0
 11
-127.4296719969
 21
-394.2662863903
 31
0.0
  0
LINE
  5
15E
330
1F
100
AcDbEntity
  8
0
  6
Continuous
 62
     7
370
    15
100
AcDbLine
 10
-108.4869051741
 20
-395.7399218254
 30
0.0
 11
-117.5328900029
 21
-389.5347802811
 31
0.0
  0
LINE
  5
15F
330
1F
100
AcDbEntity
  8
0
  6
Continuous
 62
     7
370
    15
100
AcDbLine
 10
-109.3377028049
 20
-406.6765098744
 30
0.0
 11
-108.4869051741
 21
-395.7399218254
 31
0.0
  0
LINE
  5
160
330
1F
100
AcDbEntity
  8
0
  6
Continuous
 62
     7
370
    15
100
AcDbLine
 10
-119.2344847989
 20
-411.4080159836
 30
0.0
 11
-109.3377028049
 21
-406.6765098744
 31
0.0
  0
LINE
  5
161
330
1F
100
AcDbEntity
  8
0
  6
Continuous
 62
     7
370
    15
100
AcDbLine
 10
138.8921621798
 20
-225.4714905196
 30
0.0
 11
147.5889268874
 21
-218.7857343726
 31
0.0
  0
LINE
  5
162
330
1F
100
AcDbEntity
  8
0
  6
Continuous
 62
     7
370
    15
100
AcDbLine
 10
128.7537399291
 20
-221.2827294045
 30
0.0
 11
138.8921621798
 21
-225.4714905196
 31
0.0
  0
LINE
  5
163
330
1F
100
AcDbEntity
  8
0
  6
Continuous
 62
     7
370
    15
100
AcDbLine
 10
127.3120972871
 20
-210.4082195931
 30
0.0
 11
128.7537399291
 21
-221.2827294045
 31
0.0
  0
LINE
  5
164
330
1F
100
AcDbEntity
  8
0
  6
Continuous
 62
     7
370
    15
100
AcDbLine
 10
136.0088768958
 20
-203.7224634462
 30
0.0
 11
127.3120972871
 21
-210.4082195931
 31
0.0
  0
LINE
  5
165
330
1F
100
AcDbEntity
  8
0
  6
Continuous
 62
     7
370
    15
100
AcDbLine
 10
146.1472991465
 20
-207.9112171107
 30
0.0
 11
136.0088768958
 21
-203.7224634462
 31
0.0
  0
LINE
  5
166
330
1F
100
AcDbEntity
  8
0
  6
Continuous
 62
     7
370
    15
100
AcDbLine
 10
147.5889268874
 20
-218.7857343726
 30
0.0
 11
146.1472991465
 21
-207.9112171107
 31
0.0
  0
LINE
  5
167
330
1F
100
AcDbEntity
  8
0
  6
Continuous
 62
     7
370
    15
100
AcDbLine
 10
34.5049831628
 20
-358.7420224123
 30
0.0
 11
45.4706135749
 21
-358.4449677639
 31
0.0
  0
LINE
  5
168
330
1F
100
AcDbEntity
  8
0
  6
Continuous
 62
     7
370
    15
100
AcDbLine
 10
28.7649068593
 20
-349.3940322571
 30
0.0
 11
34.5049831628
 21
-358.7420224123
 31
0.0
  0
LINE
  5
169
330
1F
100
AcDbEntity
  8
0
  6
Continuous
 62
     7
370
    15
100
AcDbLine
 10
33.9904758691
 20
-339.7489874535
 30
0.0
 11
28.7649068593
 21
-349.3940322571
 31
0.0
  0
LINE
  5
16A
330
1F
100
AcDbEntity
  8
0
  6
Continuous
 62
     7
370
    15
100
AcDbLine
 10
44.9561062812
 20
-339.4519328051
 30
0.0
 11
33.9904758691
 21
-339.7489874535
 31
0.0
  0
LINE
  5
16B
330
1F
100
AcDbEntity
  8
0
  6
Continuous
 62
     7
370
    15
100
AcDbLine
 10
50.6961825847
 20
-348.7999229603
 30
0.0
 11
44.9561062812
 21
-339.4519328051
 31
0.0
  0
LINE
  5
16C
330
1F
100
AcDbEntity
  8
0
  6
Continuous
 62
     7
370
    15
100
AcDbLine
 10
45.4706135749
 20
-358.4449677639
 30
0.0
 11
50.6961825847
 21
-348.7999229603
 31
0.0
  0
CIRCLE
  5
16D
330
1F
100
AcDbEntity
  8
0
  6
Continuous
 62
     7
370
    15
100
AcDbCircle
 10
-276.4979202676
 20
86.1541671556
 30
0.0
 40
11.99999999999999
  0
CIRCLE
  5
16E
330
1F
100
AcDbEntity
  8
0
  6
Continuous
 62
     7
370
    15
100
AcDbCircle
 10
-374.2178902843
 20
-48.3458328444
 30
0.0
 40
11.99999999999998
  0
CIRCLE
  5
16F
330
1F
100
AcDbEntity
  8
0
  6
Continuous
 62
     7
370
    15
100
AcDbCircle
 10
-118.3836874009
 20
137.5285956688
 30
0.0
 40
12.00000000000001
  0
CIRCLE
  5
170
330
1F
100
AcDbEntity
  8
0
  6
Continuous
 62
     7
370
    15
100
AcDbCircle
 10
-374.2178902843
 20
-214.5969758181
 30
0.0
 40
11.99999999999996
  0
CIRCLE
  5
171
330
1F
100
AcDbEntity
  8
0
  6
Continuous
 62
     7
370
    15
100
AcDbCircle
 10
39.7305454657
 20
86.1541671556
 30
0.0
 40
12.00000000000001
  0
CIRCLE
  5
172
330
1F
100
AcDbEntity
  8
0
  6
Continuous
 62
     7
370
    15
100
AcDbCircle
 10
-276.4979202676
 20
-349.0969758181
 30
0.0
 40
11.99999999999999
  0
CIRCLE
  5
173
330
1F
100
AcDbEntity
  8
0
  6
Continuous
 62
     7
370
    15
100
AcDbCircle
 10
137.4505154825
 20
-48.3458328444
 30
0.0
 40
12.00000000000004
  0
CIRCLE
  5
174
330
1F
100
AcDbEntity
  8
0
  6
Continuous
 62
     7
370
    15
100
AcDbCircle
 10
-118.3836874009
 20
-400.4714043312
 30
0.0
 40
11.99999999999998
  0
CIRCLE
  5
175
330
1F
100
AcDbEntity
  8
0
  6
Continuous
 62
     7
370
    15
100
AcDbCircle
 10
137.4505154825
 20
-214.5969758181
 30
0.0
 40
12.00000000000002
  0
CIRCLE
  5
176
330
1F
100
AcDbEntity
  8
0
  6
Continuous
 62
     7
370
    15
100
AcDbCircle
 10
39.7305454658
 20
-349.0969758181
 30
0.0
 40
11.99999999999999
  0
CIRCLE
  5
177
330
1F
100
AcDbEntity
  8
0
  6
Continuous
 62
     7
370
    15
100
AcDbCircle
 10
-118.3836874009
 20
-131.4714043312
 30
0.0
 40
255.8867513459482
  0
CIRCLE
  5
178
330
1F
100
AcDbEntity
  8
0
  6
Continuous
 62
     7
370
    15
100
AcDbCircle
 10
-118.3836874009
 20
-131.4714043312
 30
0.0
 40
282.0000000000001
  0
CIRCLE
  5
179
330
1F
100
AcDbEntity
  8
0
  6
Continuous
 62
     7
370
    15
100
AcDbCircle
 10
-118.3836874009
 20
-131.4714043312
 30
0.0
 40
251.556624327026
  0
CIRCLE
  5
17A
330
1F
100
AcDbEntity
  8
0
  6
Continuous
 62
     7
370
    15
100
AcDbCircle
 10
-118.3836874009
 20
-131.4714043312
 30
0.0
 40
238.1602540378444
  0
CIRCLE
  5
17B
330
1F
100
AcDbEntity
  8
0
  6
Continuous
 62
     7
370
    15
100
AcDbCircle
 10
-118.3836874009
 20
-131.4714043312
 30
0.0
 40
235.6602540378444
  0
CIRCLE
  5
17C
330
1F
100
AcDbEntity
  8
0
  6
Continuous
 62
     7
370
    15
100
AcDbCircle
 10
-118.3836874009
 20
-131.4714043312
 30
0.0
 40
225.0
  0
CIRCLE
  5
17D
330
1F
100
AcDbEntity
  8
0
  6
Continuous
 62
     7
370
    15
100
AcDbCircle
 10
-118.3836874009
 20
-131.4714043312
 30
0.0
 40
244.6698729810778
  0
CIRCLE
  5
17E
330
1F
100
AcDbEntity
  8
0
  6
Continuous
 62
     7
370
    15
100
AcDbCircle
 10
-118.3836874009
 20
-131.4714043312
 30
0.0
 40
251.5000000000001
  0
ARC
  5
17F
330
1F
100
AcDbEntity
  8
0
  6
Continuous
 62
     7
370
    15
100
AcDbCircle
 10
170.5151522232
 20
-85.714323307
 30
0.0
 40
15.5
100
AcDbArc
 50
235.2307056646
 51
90.0
  0
ARC
  5
180
330
1F
100
AcDbEntity
  8
0
  6
Continuous
 62
     7
370
    15
100
AcDbCircle
 10
170.5151522232
 20
-85.714323307
 30
0.0
 40
15.50000000000001
100
AcDbArc
 50
90.0
 51
142.7692943354
  0
ARC
  5
181
330
1F
100
AcDbEntity
  8
0
  6
Continuous
 62
     7
370
    15
100
AcDbCircle
 10
142.2357209242
 20
1.3208168426
 30
0.0
 40
15.50000000000002
100
AcDbArc
 50
253.2307056646
 51
108.0
  0
ARC
  5
182
330
1F
100
AcDbEntity
  8
0
  6
Continuous
 62
     7
370
    15
100
AcDbCircle
 10
142.2357209242
 20
1.3208168426
 30
0.0
 40
15.50000000000002
100
AcDbArc
 50
108.0
 51
160.7692943354
  0
ARC
  5
183
330
1F
100
AcDbEntity
  8
0
  6
Continuous
 62
     7
370
    15
100
AcDbCircle
 10
88.4450460961
 20
75.3573291658
 30
0.0
 40
15.50000000000001
100
AcDbArc
 50
271.2307056646
 51
126.0
  0
ARC
  5
184
330
1F
100
AcDbEntity
  8
0
  6
Continuous
 62
     7
370
    15
100
AcDbCircle
 10
88.4450460961
 20
75.3573291658
 30
0.0
 40
15.50000000000001
100
AcDbArc
 50
126.0
 51
178.7692943354
  0
ARC
  5
185
330
1F
100
AcDbEntity
  8
0
  6
Continuous
 62
     7
370
    15
100
AcDbCircle
 10
14.4085337729
 20
129.1480039939
 30
0.0
 40
15.49999999999998
100
AcDbArc
 50
289.2307056646
 51
144.0
  0
ARC
  5
186
330
1F
100
AcDbEntity
  8
0
  6
Continuous
 62
     7
370
    15
100
AcDbCircle
 10
14.4085337729
 20
129.1480039939
 30
0.0
 40
15.49999999999999
100
AcDbArc
 50
144.0
 51
196.7692943354
  0
ARC
  5
187
330
1F
100
AcDbEntity
  8
0
  6
Continuous
 62
     7
370
    15
100
AcDbCircle
 10
-72.6266063767
 20
157.4274352928
 30
0.0
 40
15.50000000000002
100
AcDbArc
 50
307.2307056646
 51
162.0
  0
ARC
  5
188
330
1F
100
AcDbEntity
  8
0
  6
Continuous
 62
     7
370
    15
100
AcDbCircle
 10
-72.6266063767
 20
157.4274352928
 30
0.0
 40
15.50000000000001
100
AcDbArc
 50
162.0
 51
214.7692943354
  0
ARC
  5
189
330
1F
100
AcDbEntity
  8
0
  6
Continuous
 62
     7
370
    15
100
AcDbCircle
 10
-164.1407684252
 20
157.4274352928
 30
0.0
 40
15.50000000000002
100
AcDbArc
 50
325.2307056646
 51
180.0
  0
ARC
  5
18A
330
1F
100
AcDbEntity
  8
0
  6
Continuous
 62
     7
370
    15
100
AcDbCircle
 10
-164.1407684252
 20
157.4274352928
 30
0.0
 40
15.50000000000001
100
AcDbArc
 50
180.0
 51
232.7692943354
  0
ARC
  5
18B
330
1F
100
AcDbEntity
  8
0
  6
Continuous
 62
     7
370
    15
100
AcDbCircle
 10
-251.1759085747
 20
129.1480039939
 30
0.0
 40
15.50000000000006
100
AcDbArc
 50
343.2307056646
 51
198.0
  0
ARC
  5
18C
330
1F
100
AcDbEntity
  8
0
  6
Continuous
 62
     7
370
    15
100
AcDbCircle
 10
-251.1759085747
 20
129.1480039939
 30
0.0
 40
15.49999999999998
100
AcDbArc
 50
198.0
 51
250.7692943354
  0
ARC
  5
18D
330
1F
100
AcDbEntity
  8
0
  6
Continuous
 62
     7
370
    15
100
AcDbCircle
 10
-325.212420898
 20
75.3573291658
 30
0.0
 40
15.50000000000005
100
AcDbArc
 50
1.2307056646
 51
216.0
  0
ARC
  5
18E
330
1F
100
AcDbEntity
  8
0
  6
Continuous
 62
     7
370
    15
100
AcDbCircle
 10
-325.212420898
 20
75.3573291658
 30
0.0
 40
15.50000000000001
100
AcDbArc
 50
216.0
 51
268.7692943354
  0
ARC
  5
18F
330
1F
100
AcDbEntity
  8
0
  6
Continuous
 62
     7
370
    15
100
AcDbCircle
 10
-379.003095726
 20
1.3208168426
 30
0.0
 40
15.50000000000008
100
AcDbArc
 50
19.2307056646
 51
234.0
  0
ARC
  5
190
330
1F
100
AcDbEntity
  8
0
  6
Continuous
 62
     7
370
    15
100
AcDbCircle
 10
-379.003095726
 20
1.3208168426
 30
0.0
 40
15.50000000000008
100
AcDbArc
 50
234.0
 51
286.7692943354
  0
ARC
  5
191
330
1F
100
AcDbEntity
  8
0
  6
Continuous
 62
     7
370
    15
100
AcDbCircle
 10
-407.282527025
 20
-85.714323307
 30
0.0
 40
15.49999999999999
100
AcDbArc
 50
37.2307056646
 51
252.0
  0
ARC
  5
192
330
1F
100
AcDbEntity
  8
0
  6
Continuous
 62
     7
370
    15
100
AcDbCircle
 10
-407.282527025
 20
-85.714323307
 30
0.0
 40
15.49999999999999
100
AcDbArc
 50
252.0
 51
304.7692943354
  0
ARC
  5
193
330
1F
100
AcDbEntity
  8
0
  6
Continuous
 62
     7
370
    15
100
AcDbCircle
 10
-407.282527025
 20
-177.2284853555
 30
0.0
 40
15.49999999999999
100
AcDbArc
 50
55.2307056646
 51
270.0
  0
ARC
  5
194
330
1F
100
AcDbEntity
  8
0
  6
Continuous
 62
     7
370
    15
100
AcDbCircle
 10
-407.282527025
 20
-177.2284853555
 30
0.0
 40
15.50000000000001
100
AcDbArc
 50
270.0
 51
322.7692943354
  0
ARC
  5
195
330
1F
100
AcDbEntity
  8
0
  6
Continuous
 62
     7
370
    15
100
AcDbCircle
 10
-379.003095726
 20
-264.2636255051
 30
0.0
 40
15.49999999999999
100
AcDbArc
 50
73.2307056646
 51
288.0
  0
ARC
  5
196
330
1F
100
AcDbEntity
  8
0
  6
Continuous
 62
     7
370
    15
100
AcDbCircle
 10
-379.003095726
 20
-264.2636255051
 30
0.0
 40
15.49999999999999
100
AcDbArc
 50
288.0
 51
340.7692943354
  0
ARC
  5
197
330
1F
100
AcDbEntity
  8
0
  6
Continuous
 62
     7
370
    15
100
AcDbCircle
 10
-325.212420898
 20
-338.3001378283
 30
0.0
 40
15.50000000000004
100
AcDbArc
 50
91.2307056646
 51
306.0
  0
ARC
  5
198
330
1F
100
AcDbEntity
  8
0
  6
Continuous
 62
     7
370
    15
100
AcDbCircle
 10
-325.212420898
 20
-338.3001378283
 30
0.0
 40
15.50000000000004
100
AcDbArc
 50
306.0
 51
358.7692943354
  0
ARC
  5
199
330
1F
100
AcDbEntity
  8
0
  6
Continuous
 62
     7
370
    15
100
AcDbCircle
 10
-251.1759085747
 20
-392.0908126563
 30
0.0
 40
15.50000000000004
100
AcDbArc
 50
109.2307056646
 51
324.0
  0
ARC
  5
19A
330
1F
100
AcDbEntity
  8
0
  6
Continuous
 62
     7
370
    15
100
AcDbCircle
 10
-251.1759085747
 20
-392.0908126563
 30
0.0
 40
15.50000000000004
100
AcDbArc
 50
324.0
 51
16.7692943354
  0
ARC
  5
19B
330
1F
100
AcDbEntity
  8
0
  6
Continuous
 62
     7
370
    15
100
AcDbCircle
 10
-164.1407684252
 20
-420.3702439553
 30
0.0
 40
15.49999999999998
100
AcDbArc
 50
127.2307056646
 51
342.0
  0
ARC
  5
19C
330
1F
100
AcDbEntity
  8
0
  6
Continuous
 62
     7
370
    15
100
AcDbCircle
 10
-164.1407684252
 20
-420.3702439553
 30
0.0
 40
15.50000000000002
100
AcDbArc
 50
342.0
 51
34.7692943354
  0
ARC
  5
19D
330
1F
100
AcDbEntity
  8
0
  6
Continuous
 62
     7
370
    15
100
AcDbCircle
 10
-72.6266063767
 20
-420.3702439553
 30
0.0
 40
15.50000000000001
100
AcDbArc
 50
145.2307056646
 51
0.0
  0
ARC
  5
19E
330
1F
100
AcDbEntity
  8
0
  6
Continuous
 62
     7
370
    15
100
AcDbCircle
 10
-72.6266063767
 20
-420.3702439553
 30
0.0
 40
15.50000000000001
100
AcDbArc
 50
0.0
 51
52.7692943354
  0
ARC
  5
19F
330
1F
100
AcDbEntity
  8
0
  6
Continuous
 62
     7
370
    15
100
AcDbCircle
 10
14.4085337729
 20
-392.0908126563
 30
0.0
 40
15.5
100
AcDbArc
 50
163.2307056646
 51
18.0
  0
ARC
  5
1A0
330
1F
100
AcDbEntity
  8
0
  6
Continuous
 62
     7
370
    15
100
AcDbCircle
 10
14.4085337729
 20
-392.0908126563
 30
0.0
 40
15.5
100
AcDbArc
 50
18.0
 51
70.7692943354
  0
ARC
  5
1A1
330
1F
100
AcDbEntity
  8
0
  6
Continuous
 62
     7
370
    15
100
AcDbCircle
 10
88.4450460961
 20
-338.3001378283
 30
0.0
 40
15.5
100
AcDbArc
 50
181.2307056646
 51
36.0
  0
ARC
  5
1A2
330
1F
100
AcDbEntity
  8
0
  6
Continuous
 62
     7
370
    15
100
AcDbCircle
 10
88.4450460961
 20
-338.3001378283
 30
0.0
 40
15.50000000000002
100
AcDbArc
 50
36.0
 51
88.7692943354
  0
ARC
  5
1A3
330
1F
100
AcDbEntity
  8
0
  6
Continuous
 62
     7
370
    15
100
AcDbCircle
 10
142.2357209242
 20
-264.2636255051
 30
0.0
 40
15.50000000000003
100
AcDbArc
 50
199.2307056646
 51
54.0
  0
ARC
  5
1A4
330
1F
100
AcDbEntity
  8
0
  6
Continuous
 62
     7
370
    15
100
AcDbCircle
 10
142.2357209242
 20
-264.2636255051
 30
0.0
 40
15.50000000000003
100
AcDbArc
 50
54.0
 51
106.7692943354
  0
ARC
  5
1A5
330
1F
100
AcDbEntity
  8
0
  6
Continuous
 62
     7
370
    15
100
AcDbCircle
 10
170.5151522232
 20
-177.2284853555
 30
0.0
 40
15.49999999999999
100
AcDbArc
 50
217.2307056646
 51
72.0
  0
ARC
  5
1A6
330
1F
100
AcDbEntity
  8
0
  6
Continuous
 62
     7
370
    15
100
AcDbCircle
 10
170.5151522232
 20
-177.2284853555
 30
0.0
 40
15.49999999999999
100
AcDbArc
 50
72.0
 51
124.7692943354
  0
CIRCLE
  5
1A7
330
1F
100
AcDbEntity
  8
0
  6
Continuous
 62
     7
370
    15
100
AcDbCircle
 10
-118.3836874009
 20
-131.4714043312
 30
0.0
 40
320.0
  0
INSERT
  5
1B3
330
1F
100
AcDbEntity
  8
0
  6
Continuous
 62
     7
370
     0
100
AcDbBlockReference
  2
SW_CENTERMARKSYMBOL_0
 10
-118.3836874009
 20
-131.4714043312
 30
0.0
  0
LINE
  5
1B4
330
1F
100
AcDbEntity
  8
0
  6
Continuous
 62
     7
370
    15
100
AcDbLine
 10
603.7726274852
 20
556.1424560534
 30
0.0
 11
603.7726274852
 21
531.1424575435
 31
0.0
  0
LINE
  5
1B5
330
1F
100
AcDbEntity
  8
0
  6
Continuous
 62
     7
370
    15
100
AcDbLine
 10
1243.7726131801
 20
531.1424575435
 30
0.0
 11
1243.7726131801
 21
556.1424560534
 31
0.0
  0
LINE
  5
1B6
330
1F
100
AcDbEntity
  8
0
  6
Continuous
 62
     7
370
    15
100
AcDbLine
 10
641.7726150874
 20
679.1424594508
 30
0.0
 11
641.7726150874
 21
675.8914507614
 31
0.0
  0
LINE
  5
1B7
330
1F
100
AcDbEntity
  8
0
  6
Continuous
 62
     7
370
    15
100
AcDbLine
 10
1205.7726255778
 20
675.8914507614
 30
0.0
 11
1205.7726255778
 21
679.1424594508
 31
0.0
  0
ARC
  5
1B8
330
1F
100
AcDbEntity
  8
0
  6
Continuous
 62
     7
370
    15
100
AcDbCircle
 10
644.7726203326
 20
675.8914525557
 30
0.0
 40
3.0
100
AcDbArc
 50
180.0
 51
265.0
  0
ARC
  5
1B9
330
1F
100
AcDbEntity
  8
0
  6
Continuous
 62
     7
370
    15
100
AcDbCircle
 10
1202.7726203326
 20
675.8914525557
 30
0.0
 40
3.0
100
AcDbArc
 50
275.0
 51
0.0
  0
LINE
  5
1BA
330
1F
100
AcDbEntity
  8
0
  6
Continuous
 62
     7
370
    15
100
AcDbLine
 10
644.5111504916
 20
672.9028701471
 30
0.0
 11
648.7930587653
 21
672.5282475041
 31
0.0
  0
LINE
  5
1BB
330
1F
100
AcDbEntity
  8
0
  6
Continuous
 62
     7
370
    15
100
AcDbLine
 10
1198.7521818999
 20
672.5282475041
 30
0.0
 11
1203.0340901736
 21
672.9028701471
 31
0.0
  0
LINE
  5
1BC
330
1F
100
AcDbEntity
  8
0
  6
Continuous
 62
     7
370
    15
100
AcDbLine
 10
852.6470459227
 20
679.1424594508
 30
0.0
 11
852.6470459227
 21
681.6424607919
 31
0.0
  0
LINE
  5
1BD
330
1F
100
AcDbEntity
  8
0
  6
Continuous
 62
     7
370
    15
100
AcDbLine
 10
828.6470494393
 20
681.6424607919
 30
0.0
 11
828.6470494393
 21
679.1424594508
 31
0.0
  0
LINE
  5
1BE
330
1F
100
AcDbEntity
  8
0
  6
Continuous
 62
     7
370
    15
100
AcDbLine
 10
1018.8981912259
 20
679.1424594508
 30
0.0
 11
1018.8981912259
 21
681.6424607919
 31
0.0
  0
LINE
  5
1BF
330
1F
100
AcDbEntity
  8
0
  6
Continuous
 62
     7
370
    15
100
AcDbLine
 10
994.8981947426
 20
681.6424607919
 30
0.0
 11
994.8981947426
 21
679.1424594508
 31
0.0
  0
LINE
  5
1C0
330
1F
100
AcDbEntity
  8
0
  6
Continuous
 62
     7
370
    15
100
AcDbLine
 10
848.647045267
 20
697.142458676
 30
0.0
 11
848.647045267
 21
697.6424596893
 31
0.0
  0
LINE
  5
1C1
330
1F
100
AcDbEntity
  8
0
  6
Continuous
 62
     7
370
    15
100
AcDbLine
 10
832.647050095
 20
697.6424596893
 30
0.0
 11
832.647050095
 21
697.142458676
 31
0.0
  0
LINE
  5
1C2
330
1F
100
AcDbEntity
  8
0
  6
Continuous
 62
     7
370
    15
100
AcDbLine
 10
1014.8981905703
 20
697.142458676
 30
0.0
 11
1014.8981905703
 21
697.6424596893
 31
0.0
  0
LINE
  5
1C3
330
1F
100
AcDbEntity
  8
0
  6
Continuous
 62
     7
370
    15
100
AcDbLine
 10
998.8981953982
 20
697.6424596893
 30
0.0
 11
998.8981953982
 21
697.142458676
 31
0.0
  0
ARC
  5
1C4
330
1F
100
AcDbEntity
  8
0
  6
Continuous
 62
     7
370
    15
100
AcDbCircle
 10
660.3320304515
 20
666.4996218588
 30
0.0
 40
5.000000000000036
100
AcDbArc
 50
3.0
 51
84.9993066644
  0
ARC
  5
1C5
330
1F
100
AcDbEntity
  8
0
  6
Continuous
 62
     7
370
    15
100
AcDbCircle
 10
1187.2132102138
 20
666.4996218588
 30
0.0
 40
5.000000000000264
100
AcDbArc
 50
95.0019387624
 51
177.0
  0
LINE
  5
1C6
330
1F
100
AcDbEntity
  8
0
  6
Continuous
 62
     7
370
    15
100
AcDbLine
 10
847.1470496777
 20
697.6424596893
 30
0.0
 11
847.1470496777
 21
709.1424606429
 31
0.0
  0
LINE
  5
1C7
330
1F
100
AcDbEntity
  8
0
  6
Continuous
 62
     7
370
    15
100
AcDbLine
 10
834.1470456842
 20
709.1424606429
 30
0.0
 11
834.1470456842
 21
697.6424596893
 31
0.0
  0
LINE
  5
1C8
330
1F
100
AcDbEntity
  8
0
  6
Continuous
 62
     7
370
    15
100
AcDbLine
 10
1013.398194981
 20
697.6424596893
 30
0.0
 11
1013.398194981
 21
709.1424606429
 31
0.0
  0
LINE
  5
1C9
330
1F
100
AcDbEntity
  8
0
  6
Continuous
 62
     7
370
    15
100
AcDbLine
 10
1000.3981909875
 20
709.1424606429
 30
0.0
 11
1000.3981909875
 21
697.6424596893
 31
0.0
  0
LINE
  5
1CA
330
1F
100
AcDbEntity
  8
0
  6
Continuous
 62
     7
370
    15
100
AcDbLine
 10
846.6470486645
 20
556.1424560534
 30
0.0
 11
846.6470486645
 21
671.8484751569
 31
0.0
  0
LINE
  5
1CB
330
1F
100
AcDbEntity
  8
0
  6
Continuous
 62
     7
370
    15
100
AcDbLine
 10
834.6470466975
 20
672.1722922908
 30
0.0
 11
834.6470466975
 21
556.1424560534
 31
0.0
  0
LINE
  5
1CC
330
1F
100
AcDbEntity
  8
0
  6
Continuous
 62
     7
370
    15
100
AcDbLine
 10
846.6470486645
 20
691.6424587058
 30
0.0
 11
846.6470486645
 21
697.142458676
 31
0.0
  0
LINE
  5
1CD
330
1F
100
AcDbEntity
  8
0
  6
Continuous
 62
     7
370
    15
100
AcDbLine
 10
834.6470466975
 20
697.142458676
 30
0.0
 11
834.6470466975
 21
691.6424587058
 31
0.0
  0
LINE
  5
1CE
330
1F
100
AcDbEntity
  8
0
  6
Continuous
 62
     7
370
    15
100
AcDbLine
 10
1012.8981939677
 20
556.1424560534
 30
0.0
 11
1012.8981939677
 21
672.1723705219
 31
0.0
  0
LINE
  5
1CF
330
1F
100
AcDbEntity
  8
0
  6
Continuous
 62
     7
370
    15
100
AcDbLine
 10
1000.8981920008
 20
671.8486390697
 30
0.0
 11
1000.8981920008
 21
556.1424560534
 31
0.0
  0
LINE
  5
1D0
330
1F
100
AcDbEntity
  8
0
  6
Continuous
 62
     7
370
    15
100
AcDbLine
 10
1012.8981939677
 20
691.6424587058
 30
0.0
 11
1012.8981939677
 21
697.142458676
 31
0.0
  0
LINE
  5
1D1
330
1F
100
AcDbEntity
  8
0
  6
Continuous
 62
     7
370
    15
100
AcDbLine
 10
1000.8981920008
 20
697.142458676
 30
0.0
 11
1000.8981920008
 21
691.6424587058
 31
0.0
  0
LINE
  5
1D2
330
1F
100
AcDbEntity
  8
0
  6
Continuous
 62
     7
370
    15
100
AcDbLine
 10
665.3251818541
 20
666.7613006817
 30
0.0
 11
666.6484645728
 21
641.5116192462
 31
0.0
  0
LINE
  5
1D3
330
1F
100
AcDbEntity
  8
0
  6
Continuous
 62
     7
370
    15
100
AcDbLine
 10
1180.8967760924
 20
641.5116192462
 30
0.0
 11
1182.2200588111
 21
666.7613006817
 31
0.0
  0
ARC
  5
1D4
330
1F
100
AcDbEntity
  8
0
  6
Continuous
 62
     7
370
    15
100
AcDbCircle
 10
669.1450317494
 20
641.6424590336
 30
0.0
 40
2.5
100
AcDbArc
 50
183.0
 51
270.0
  0
ARC
  5
1D5
330
1F
100
AcDbEntity
  8
0
  6
Continuous
 62
     7
370
    15
100
AcDbCircle
 10
1178.4002089158
 20
641.6424590336
 30
0.0
 40
2.500000000000021
100
AcDbArc
 50
270.0
 51
357.0
  0
ARC
  5
1D6
330
1F
100
AcDbEntity
  8
0
  6
Continuous
 62
     7
370
    15
100
AcDbCircle
 10
674.6726203326
 20
641.163256323
 30
0.0
 40
2.500000000000008
100
AcDbArc
 50
233.9320086196
 51
270.0
  0
ARC
  5
1D7
330
1F
100
AcDbEntity
  8
0
  6
Continuous
 62
     7
370
    15
100
AcDbCircle
 10
1172.8726203326
 20
641.163256323
 30
0.0
 40
2.5
100
AcDbArc
 50
270.0
 51
306.0679913804
  0
LINE
  5
1D8
330
1F
100
AcDbEntity
  8
0
  6
Continuous
 62
     7
370
    15
100
AcDbLine
 10
674.6726206664
 20
638.6632562304
 30
0.0
 11
700.147049797
 21
638.6632562304
 31
0.0
  0
LINE
  5
1D9
330
1F
100
AcDbEntity
  8
0
  6
Continuous
 62
     7
370
    15
100
AcDbLine
 10
712.1470443133
 20
638.6632562304
 30
0.0
 11
834.6470466975
 21
638.6632562304
 31
0.0
  0
LINE
  5
1DA
330
1F
100
AcDbEntity
  8
0
  6
Continuous
 62
     7
370
    15
100
AcDbLine
 10
846.6470486645
 20
638.6632562304
 30
0.0
 11
1000.8981920008
 21
638.6632562304
 31
0.0
  0
LINE
  5
1DB
330
1F
100
AcDbEntity
  8
0
  6
Continuous
 62
     7
370
    15
100
AcDbLine
 10
1012.8981939677
 20
638.6632562304
 30
0.0
 11
1135.3981963519
 21
638.6632562304
 31
0.0
  0
LINE
  5
1DC
330
1F
100
AcDbEntity
  8
0
  6
Continuous
 62
     7
370
    15
100
AcDbLine
 10
1147.3981908683
 20
638.6632562304
 30
0.0
 11
1172.8726199988
 21
638.6632562304
 31
0.0
  0
LINE
  5
1DD
330
1F
100
AcDbEntity
  8
0
  6
Continuous
 62
     7
370
    15
100
AcDbLine
 10
680.2726260547
 20
631.1424590336
 30
0.0
 11
680.2726260547
 21
556.1424560534
 31
0.0
  0
LINE
  5
1DE
330
1F
100
AcDbEntity
  8
0
  6
Continuous
 62
     7
370
    15
100
AcDbLine
 10
1167.2726146106
 20
556.1424560534
 30
0.0
 11
1167.2726146106
 21
631.1424590336
 31
0.0
  0
ARC
  5
1DF
330
1F
100
AcDbEntity
  8
0
  6
Continuous
 62
     7
370
    15
100
AcDbCircle
 10
680.6726203326
 20
635.1424590336
 30
0.0
 40
6.000000000000129
100
AcDbArc
 50
25.0
 51
35.9302218348
  0
ARC
  5
1E0
330
1F
100
AcDbEntity
  8
0
  6
Continuous
 62
     7
370
    15
100
AcDbCircle
 10
1166.8726203326
 20
635.1424590336
 30
0.0
 40
6.000000000000199
100
AcDbArc
 50
144.0697781652
 51
155.0
  0
LINE
  5
1E1
330
1F
100
AcDbEntity
  8
0
  6
Continuous
 62
     7
370
    15
100
AcDbLine
 10
686.1104688767
 20
637.6781684035
 30
0.0
 11
689.1581139687
 21
631.1424590336
 31
0.0
  0
LINE
  5
1E2
330
1F
100
AcDbEntity
  8
0
  6
Continuous
 62
     7
370
    15
100
AcDbLine
 10
1158.3871266965
 20
631.1424590336
 30
0.0
 11
1161.4347717885
 21
637.6781684035
 31
0.0
  0
LINE
  5
1E3
330
1F
100
AcDbEntity
  8
0
  6
Continuous
 62
     7
370
    15
100
AcDbLine
 10
718.1470415715
 20
679.1424594508
 30
0.0
 11
718.1470415715
 21
681.6424607919
 31
0.0
  0
LINE
  5
1E4
330
1F
100
AcDbEntity
  8
0
  6
Continuous
 62
     7
370
    15
100
AcDbLine
 10
694.1470525388
 20
681.6424607919
 30
0.0
 11
694.1470525388
 21
679.1424594508
 31
0.0
  0
LINE
  5
1E5
330
1F
100
AcDbEntity
  8
0
  6
Continuous
 62
     7
370
    15
100
AcDbLine
 10
1153.3981881265
 20
679.1424594508
 30
0.0
 11
1153.3981881265
 21
681.6424607919
 31
0.0
  0
LINE
  5
1E6
330
1F
100
AcDbEntity
  8
0
  6
Continuous
 62
     7
370
    15
100
AcDbLine
 10
1129.3981990937
 20
681.6424607919
 30
0.0
 11
1129.3981990937
 21
679.1424594508
 31
0.0
  0
LINE
  5
1E7
330
1F
100
AcDbEntity
  8
0
  6
Continuous
 62
     7
370
    15
100
AcDbLine
 10
714.1470483664
 20
697.142458676
 30
0.0
 11
714.1470483664
 21
697.6424596893
 31
0.0
  0
LINE
  5
1E8
330
1F
100
AcDbEntity
  8
0
  6
Continuous
 62
     7
370
    15
100
AcDbLine
 10
698.1470457438
 20
697.6424596893
 30
0.0
 11
698.1470457438
 21
697.142458676
 31
0.0
  0
LINE
  5
1E9
330
1F
100
AcDbEntity
  8
0
  6
Continuous
 62
     7
370
    15
100
AcDbLine
 10
1149.3981949214
 20
697.142458676
 30
0.0
 11
1149.3981949214
 21
697.6424596893
 31
0.0
  0
LINE
  5
1EA
330
1F
100
AcDbEntity
  8
0
  6
Continuous
 62
     7
370
    15
100
AcDbLine
 10
1133.3981922988
 20
697.6424596893
 30
0.0
 11
1133.3981922988
 21
697.142458676
 31
0.0
  0
LINE
  5
1EB
330
1F
100
AcDbEntity
  8
0
  6
Continuous
 62
     7
370
    15
100
AcDbLine
 10
712.6470527772
 20
697.6424596893
 30
0.0
 11
712.6470527772
 21
709.1424606429
 31
0.0
  0
LINE
  5
1EC
330
1F
100
AcDbEntity
  8
0
  6
Continuous
 62
     7
370
    15
100
AcDbLine
 10
699.6470562343
 20
709.1424606429
 30
0.0
 11
699.6470562343
 21
697.6424596893
 31
0.0
  0
LINE
  5
1ED
330
1F
100
AcDbEntity
  8
0
  6
Continuous
 62
     7
370
    15
100
AcDbLine
 10
1147.898184431
 20
697.6424596893
 30
0.0
 11
1147.898184431
 21
709.1424606429
 31
0.0
  0
LINE
  5
1EE
330
1F
100
AcDbEntity
  8
0
  6
Continuous
 62
     7
370
    15
100
AcDbLine
 10
1134.898187888
 20
709.1424606429
 30
0.0
 11
1134.898187888
 21
697.6424596893
 31
0.0
  0
LINE
  5
1EF
330
1F
100
AcDbEntity
  8
0
  6
Continuous
 62
     7
370
    15
100
AcDbLine
 10
712.1470443133
 20
556.1424560534
 30
0.0
 11
712.1470443133
 21
671.5825937377
 31
0.0
  0
LINE
  5
1F0
330
1F
100
AcDbEntity
  8
0
  6
Continuous
 62
     7
370
    15
100
AcDbLine
 10
700.147049797
 20
672.4315054404
 30
0.0
 11
700.147049797
 21
556.1424560534
 31
0.0
  0
LINE
  5
1F1
330
1F
100
AcDbEntity
  8
0
  6
Continuous
 62
     7
370
    15
100
AcDbLine
 10
712.1470443133
 20
691.6424587058
 30
0.0
 11
712.1470443133
 21
697.142458676
 31
0.0
  0
LINE
  5
1F2
330
1F
100
AcDbEntity
  8
0
  6
Continuous
 62
     7
370
    15
100
AcDbLine
 10
700.147049797
 20
697.142458676
 30
0.0
 11
700.147049797
 21
691.6424587058
 31
0.0
  0
LINE
  5
1F3
330
1F
100
AcDbEntity
  8
0
  6
Continuous
 62
     7
370
    15
100
AcDbLine
 10
1147.3981908683
 20
556.1424560534
 30
0.0
 11
1147.3981908683
 21
672.4308833169
 31
0.0
  0
LINE
  5
1F4
330
1F
100
AcDbEntity
  8
0
  6
Continuous
 62
     7
370
    15
100
AcDbLine
 10
1135.3981963519
 20
671.5840018975
 30
0.0
 11
1135.3981963519
 21
556.1424560534
 31
0.0
  0
LINE
  5
1F5
330
1F
100
AcDbEntity
  8
0
  6
Continuous
 62
     7
370
    15
100
AcDbLine
 10
1147.3981908683
 20
691.6424587058
 30
0.0
 11
1147.3981908683
 21
697.142458676
 31
0.0
  0
LINE
  5
1F6
330
1F
100
AcDbEntity
  8
0
  6
Continuous
 62
     7
370
    15
100
AcDbLine
 10
1135.3981963519
 20
697.142458676
 30
0.0
 11
1135.3981963519
 21
691.6424587058
 31
0.0
  0
LINE
  5
1F7
330
1F
100
AcDbEntity
  8
0
  6
Continuous
 62
     7
370
    15
100
AcDbLine
 10
666.7726210479
 20
679.1424594508
 30
0.0
 11
666.7726210479
 21
681.6424607919
 31
0.0
  0
LINE
  5
1F8
330
1F
100
AcDbEntity
  8
0
  6
Continuous
 62
     7
370
    15
100
AcDbLine
 10
642.7726320151
 20
681.6424607919
 30
0.0
 11
642.7726320151
 21
679.1424594508
 31
0.0
  0
LINE
  5
1F9
330
1F
100
AcDbEntity
  8
0
  6
Continuous
 62
     7
370
    15
100
AcDbLine
 10
1204.7726086501
 20
679.1424594508
 30
0.0
 11
1204.7726086501
 21
681.6424607919
 31
0.0
  0
LINE
  5
1FA
330
1F
100
AcDbEntity
  8
0
  6
Continuous
 62
     7
370
    15
100
AcDbLine
 10
1180.7726196174
 20
681.6424607919
 30
0.0
 11
1180.7726196174
 21
679.1424594508
 31
0.0
  0
LINE
  5
1FB
330
1F
100
AcDbEntity
  8
0
  6
Continuous
 62
     7
370
    15
100
AcDbLine
 10
662.7726129416
 20
697.142458676
 30
0.0
 11
662.7726129416
 21
697.6424596893
 31
0.0
  0
LINE
  5
1FC
330
1F
100
AcDbEntity
  8
0
  6
Continuous
 62
     7
370
    15
100
AcDbLine
 10
646.772610319
 20
697.6424596893
 30
0.0
 11
646.772610319
 21
697.142458676
 31
0.0
  0
LINE
  5
1FD
330
1F
100
AcDbEntity
  8
0
  6
Continuous
 62
     7
370
    15
100
AcDbLine
 10
1200.7726303462
 20
697.142458676
 30
0.0
 11
1200.7726303462
 21
697.6424596893
 31
0.0
  0
LINE
  5
1FE
330
1F
100
AcDbEntity
  8
0
  6
Continuous
 62
     7
370
    15
100
AcDbLine
 10
1184.7726277236
 20
697.6424596893
 30
0.0
 11
1184.7726277236
 21
697.142458676
 31
0.0
  0
LINE
  5
1FF
330
1F
100
AcDbEntity
  8
0
  6
Continuous
 62
     7
370
    15
100
AcDbLine
 10
661.2726322535
 20
697.6424596893
 30
0.0
 11
661.2726322535
 21
709.1424606429
 31
0.0
  0
LINE
  5
200
330
1F
100
AcDbEntity
  8
0
  6
Continuous
 62
     7
370
    15
100
AcDbLine
 10
648.2726208095
 20
709.1424606429
 30
0.0
 11
648.2726208095
 21
697.6424596893
 31
0.0
  0
LINE
  5
201
330
1F
100
AcDbEntity
  8
0
  6
Continuous
 62
     7
370
    15
100
AcDbLine
 10
1199.2726198558
 20
697.6424596893
 30
0.0
 11
1199.2726198558
 21
709.1424606429
 31
0.0
  0
LINE
  5
202
330
1F
100
AcDbEntity
  8
0
  6
Continuous
 62
     7
370
    15
100
AcDbLine
 10
1186.2726084117
 20
709.1424606429
 30
0.0
 11
1186.2726084117
 21
697.6424596893
 31
0.0
  0
LINE
  5
203
330
1F
100
AcDbEntity
  8
0
  6
Continuous
 62
     7
370
    15
100
AcDbLine
 10
660.7726088885
 20
556.1424560534
 30
0.0
 11
660.7726088885
 21
671.4801706063
 31
0.0
  0
LINE
  5
204
330
1F
100
AcDbEntity
  8
0
  6
Continuous
 62
     7
370
    15
100
AcDbLine
 10
648.7726143722
 20
672.5300393687
 30
0.0
 11
648.7726143722
 21
556.1424560534
 31
0.0
  0
LINE
  5
205
330
1F
100
AcDbEntity
  8
0
  6
Continuous
 62
     7
370
    15
100
AcDbLine
 10
660.7726088885
 20
691.6424587058
 30
0.0
 11
660.7726088885
 21
697.142458676
 31
0.0
  0
LINE
  5
206
330
1F
100
AcDbEntity
  8
0
  6
Continuous
 62
     7
370
    15
100
AcDbLine
 10
648.7726143722
 20
697.142458676
 30
0.0
 11
648.7726143722
 21
691.6424587058
 31
0.0
  0
LINE
  5
207
330
1F
100
AcDbEntity
  8
0
  6
Continuous
 62
     7
370
    15
100
AcDbLine
 10
1198.7726262931
 20
556.1424560534
 30
0.0
 11
1198.7726262931
 21
672.5300393687
 31
0.0
  0
LINE
  5
208
330
1F
100
AcDbEntity
  8
0
  6
Continuous
 62
     7
370
    15
100
AcDbLine
 10
1186.7726317767
 20
671.4801706063
 30
0.0
 11
1186.7726317767
 21
556.1424560534
 31
0.0
  0
LINE
  5
209
330
1F
100
AcDbEntity
  8
0
  6
Continuous
 62
     7
370
    15
100
AcDbLine
 10
1198.7726262931
 20
691.6424587058
 30
0.0
 11
1198.7726262931
 21
697.142458676
 31
0.0
  0
LINE
  5
20A
330
1F
100
AcDbEntity
  8
0
  6
Continuous
 62
     7
370
    15
100
AcDbLine
 10
1186.7726317767
 20
697.142458676
 30
0.0
 11
1186.7726317767
 21
691.6424587058
 31
0.0
  0
LINE
  5
20B
330
1F
100
AcDbEntity
  8
0
  6
Continuous
 62
     7
370
    15
100
AcDbLine
 10
603.7726274852
 20
531.1424575435
 30
0.0
 11
1243.7726131801
 21
531.1424575435
 31
0.0
  0
LINE
  5
20C
330
1F
100
AcDbEntity
  8
0
  6
Continuous
 62
     7
370
    15
100
AcDbLine
 10
603.7726274852
 20
556.1424560534
 30
0.0
 11
1243.7726131801
 21
556.1424560534
 31
0.0
  0
LINE
  5
20D
330
1F
100
AcDbEntity
  8
0
  6
Continuous
 62
     7
370
    15
100
AcDbLine
 10
641.7726150874
 20
679.1424594508
 30
0.0
 11
1205.7726255778
 21
679.1424594508
 31
0.0
  0
SPLINE
  5
20E
330
1F
100
AcDbEntity
  8
0
  6
Continuous
 62
     7
370
    15
100
AcDbSpline
210
0.0
220
0.0
230
1.0
 70
     8
 71
     3
 72
    34
 73
    30
 74
     0
 42
0.00000001
 43
0.00000001
 12
1.0
 22
0.0
 32
0.0
 13
1.0
 23
0.0
 33
0.0
 40
0.0
 40
0.0
 40
0.0
 40
0.0
 40
0.0516496864864951
 40
0.1047024687690372
 40
0.1580292429921044
 40
0.1854878579192384
 40
0.2129459630337286
 40
0.2663780601782044
 40
0.2938885167495616
 40
0.3213976590380819
 40
0.3750337830076114
 40
0.4026487298383517
 40
0.4302632528819236
 40
0.4840732490749052
 40
0.5117816243020636
 40
0.5394901954936491
 40
0.5933703092549315
 40
0.6211184425712528
 40
0.6488659738507869
 40
0.702683251653715
 40
0.7304030030613555
 40
0.7581225486011105
 40
0.8117755417430029
 40
0.8394106000757
 40
0.8670466770423844
 40
0.9205070426646199
 40
0.9480415841081783
 40
0.9755763263838209
 40
1.0
 40
1.0
 40
1.0
 40
1.0
 10
1186.777310741321
 20
671.4805952893473
 30
0.0
 10
1186.804958138622
 20
671.4830696788858
 30
0.0
 10
1186.861003991933
 20
671.4880856762908
 30
0.0
 10
1187.145028921452
 20
671.5134791820426
 30
0.0
 10
1187.504362709117
 20
671.5455687610299
 30
0.0
 10
1187.869462550736
 20
671.5781188616947
 30
0.0
 10
1188.280876101177
 20
671.6147628098403
 30
0.0
 10
1188.758019667116
 20
671.6571758078132
 30
0.0
 10
1189.288987576135
 20
671.7042708901231
 30
0.0
 10
1189.853886922219
 20
671.7542908148916
 30
0.0
 10
1190.463489822195
 20
671.8081409956447
 30
0.0
 10
1191.102865882378
 20
671.864467632012
 30
0.0
 10
1191.759118863985
 20
671.9221784777515
 30
0.0
 10
1192.433769322455
 20
671.9813323604051
 30
0.0
 10
1193.110235420056
 20
672.0404867134891
 30
0.0
 10
1193.783926514607
 20
672.0992769578149
 30
0.0
 10
1194.447095881936
 20
672.1569982311084
 30
0.0
 10
1195.083309927349
 20
672.2122221970099
 30
0.0
 10
1195.69703898077
 20
672.2653984862344
 30
0.0
 10
1196.272252045123
 20
672.3151217978158
 30
0.0
 10
1196.794656087928
 20
672.3601696339855
 30
0.0
 10
1197.277718259744
 20
672.4017787890741
 30
0.0
 10
1197.698810855892
 20
672.4379745244499
 30
0.0
 10
1198.047607054485
 20
672.4679137859558
 30
0.0
 10
1198.345063636246
 20
672.4934258106264
 30
0.0
 10
1198.56632887763
 20
672.5123781692515
 30
0.0
 10
1198.699509038355
 20
672.5237817901136
 30
0.0
 10
1198.768391482114
 20
672.529677136869
 30
0.0
 10
1198.757344747207
 20
672.5287325137018
 30
0.0
 10
1198.752152097599
 20
672.5282884823062
 30
0.0
  0
SPLINE
  5
20F
330
1F
100
AcDbEntity
  8
0
  6
Continuous
 62
     7
370
    15
100
AcDbSpline
210
0.0
220
0.0
230
1.0
 70
     8
 71
     3
 72
    31
 73
    27
 74
     0
 42
0.00000001
 43
0.00000001
 12
1.0
 22
0.0
 32
0.0
 13
1.0
 23
0.0
 33
0.0
 40
0.0
 40
0.0
 40
0.0
 40
0.0
 40
0.0231495446859125
 40
0.0766767127432515
 40
0.130205065817518
 40
0.183937095596679
 40
0.2376685419264723
 40
0.2735941391698001
 40
0.3096331436637439
 40
0.3455585672926719
 40
0.3815330858717998
 40
0.4176227286067771
 40
0.4535965468418022
 40
0.4895318801877925
 40
0.5255821719336559
 40
0.5615159018043046
 40
0.5973420171753335
 40
0.6332826635158902
 40
0.6691074802936785
 40
0.7226739320082768
 40
0.7762387484621517
 40
0.8296610835297975
 40
0.8830844072730192
 40
0.9364737686063315
 40
0.9898632912580003
 40
1.0
 40
1.0
 40
1.0
 40
1.0
 10
1135.419221890346
 20
671.584001897452
 30
0.0
 10
1135.414260283965
 20
671.5912679442766
 30
0.0
 10
1135.397826281809
 20
671.6153347927916
 30
0.0
 10
1135.551446159198
 20
671.6687370919774
 30
0.0
 10
1135.865555459009
 20
671.7413116418379
 30
0.0
 10
1136.349502688535
 20
671.8222216199412
 30
0.0
 10
1136.902836097472
 20
671.8985259086973
 30
0.0
 10
1137.471194679231
 20
671.9671028834734
 30
0.0
 10
1138.008150412908
 20
672.0263624221108
 30
0.0
 10
1138.588038782248
 20
672.0853147333379
 30
0.0
 10
1139.204863930152
 20
672.1431978503579
 30
0.0
 10
1139.849575476407
 20
672.199303784119
 30
0.0
 10
1140.513875410275
 20
672.2529409958566
 30
0.0
 10
1141.189706375384
 20
672.3033159614503
 30
0.0
 10
1141.868032725114
 20
672.3499295855739
 30
0.0
 10
1142.540196994151
 20
672.3922101882649
 30
0.0
 10
1143.197088352351
 20
672.4294734558279
 30
0.0
 10
1143.830913012053
 20
672.4614569571304
 30
0.0
 10
1144.533986287788
 20
672.4921697016314
 30
0.0
 10
1145.271462977269
 20
672.517023521842
 30
0.0
 10
1145.992507278796
 20
672.5310432133671
 30
0.0
 10
1146.579292454161
 20
672.5301253814404
 30
0.0
 10
1147.026218560829
 20
672.5152840488918
 30
0.0
 10
1147.295915611551
 20
672.4850500071618
 30
0.0
 10
1147.415050864719
 20
672.4563239725145
 30
0.0
 10
1147.389189563135
 20
672.4343841887622
 30
0.0
 10
1147.385062945263
 20
672.4308833168723
 30
0.0
  0
SPLINE
  5
210
330
1F
100
AcDbEntity
  8
0
  6
Continuous
 62
     7
370
    15
100
AcDbSpline
210
0.0
220
0.0
230
1.0
 70
     8
 71
     3
 72
    30
 73
    26
 74
     0
 42
0.00000001
 43
0.00000001
 12
1.0
 22
0.0
 32
0.0
 13
1.0
 23
0.0
 33
0.0
 40
0.0
 40
0.0
 40
0.0
 40
0.0
 40
0.0376137827874793
 40
0.0735384419811156
 40
0.109577672270675
 40
0.1455027439686067
 40
0.1814762101388738
 40
0.2175659306630426
 40
0.2535389222400649
 40
0.289473771691257
 40
0.3255233829900085
 40
0.3614576711239458
 40
0.3972824647784882
 40
0.4332225793292011
 40
0.4690475450538081
 40
0.5226127948772702
 40
0.5761774051752592
 40
0.6295992731490037
 40
0.6830215790383402
 40
0.7364109905100923
 40
0.789800603223496
 40
0.8432778261207241
 40
0.8967571730625741
 40
0.9504126784943114
 40
1.0
 40
1.0
 40
1.0
 40
1.0
 10
1000.916490626709
 20
671.8486390696742
 30
0.0
 10
1000.916695142774
 20
671.8684324594992
 30
0.0
 10
1000.917094990694
 20
671.9071303766293
 30
0.0
 10
1001.047487151515
 20
671.9671537551765
 30
0.0
 10
1001.236570413855
 20
672.0263485437695
 30
0.0
 10
1001.500230402645
 20
672.0853175296369
 30
0.0
 10
1001.833426890943
 20
672.1431981848607
 30
0.0
 10
1002.230736613679
 20
672.1993029713251
 30
0.0
 10
1002.686815409467
 20
672.2529414465039
 30
0.0
 10
1003.197808293312
 20
672.3033155819635
 30
0.0
 10
1003.755261545469
 20
672.3499307347583
 30
0.0
 10
1004.352040300329
 20
672.3922087264481
 30
0.0
 10
1004.981611680559
 20
672.4294740595151
 30
0.0
 10
1005.634711409147
 20
672.4614573423761
 30
0.0
 10
1006.41424532192
 20
672.4921685999672
 30
0.0
 10
1007.317396050444
 20
672.5170272775149
 30
0.0
 10
1008.320083461171
 20
672.5310305894324
 30
0.0
 10
1009.280965081627
 20
672.5301720032397
 30
0.0
 10
1010.174809686083
 20
672.5151102687931
 30
0.0
 10
1010.973986333098
 20
672.4856970664744
 30
0.0
 10
1011.660360267623
 20
672.443258704606
 30
0.0
 10
1012.21089554048
 20
672.3884296267739
 30
0.0
 10
1012.611234706342
 20
672.322944863919
 30
0.0
 10
1012.855565516227
 20
672.2505873789171
 30
0.0
 10
1012.880311029993
 20
672.1977487897068
 30
0.0
 10
1012.892196250335
 20
672.1723705219008
 30
0.0
  0
SPLINE
  5
211
330
1F
100
AcDbEntity
  8
0
  6
Continuous
 62
     7
370
    15
100
AcDbSpline
210
0.0
220
0.0
230
1.0
 70
     8
 71
     3
 72
    30
 73
    26
 74
     0
 42
0.00000001
 43
0.00000001
 12
1.0
 22
0.0
 32
0.0
 13
1.0
 23
0.0
 33
0.0
 40
0.0
 40
0.0
 40
0.0
 40
0.0
 40
0.0171489407861749
 40
0.053125654997878
 40
0.0890614117225028
 40
0.1251135859117241
 40
0.1610508853312962
 40
0.1968777613753641
 40
0.2328211574801315
 40
0.2686483788640149
 40
0.322217414957681
 40
0.375785685765231
 40
0.4292107376191417
 40
0.4826370298530201
 40
0.5360294920017454
 40
0.5894228471254668
 40
0.6429044186999178
 40
0.6963876063596789
 40
0.750045082900232
 40
0.8037039476238662
 40
0.8575515373807562
 40
0.9113998575519245
 40
0.9473662503596
 40
0.9834456593364767
 40
1.0
 40
1.0
 40
1.0
 40
1.0
 10
834.6571049813193
 20
672.1722922908045
 30
0.0
 10
834.6551217218565
 20
672.1812309210405
 30
0.0
 10
834.6489777879946
 20
672.2089218782836
 30
0.0
 10
834.7197776427303
 20
672.2528663562395
 30
0.0
 10
834.8674967835991
 20
672.3033366907833
 30
0.0
 10
835.0920397752141
 20
672.3499257139212
 30
0.0
 10
835.3852279786946
 20
672.3922094087401
 30
0.0
 10
835.7470894679034
 20
672.4294745374864
 30
0.0
 10
836.1699598482162
 20
672.4614568045541
 30
0.0
 10
836.7282254360653
 20
672.4921688612118
 30
0.0
 10
837.4520203187557
 20
672.5170271643391
 30
0.0
 10
838.3535777295713
 20
672.5310306354431
 30
0.0
 10
839.3206853421738
 20
672.5301717837594
 30
0.0
 10
840.3232420937428
 20
672.515110912012
 30
0.0
 10
841.3346035718456
 20
672.4856954187144
 30
0.0
 10
842.3268599028239
 20
672.4432635834818
 30
0.0
 10
843.2708220086587
 20
672.3884104418081
 30
0.0
 10
844.1432449382725
 20
672.323018709831
 30
0.0
 10
844.9153011221301
 20
672.2484372569717
 30
0.0
 10
845.5704158748815
 20
672.1669243817322
 30
0.0
 10
846.0828991614418
 20
672.0805415374424
 30
0.0
 10
846.406292531947
 20
672.0015841109804
 30
0.0
 10
846.5749858570306
 20
671.9327162132005
 30
0.0
 10
846.6455966229995
 20
671.8846006938461
 30
0.0
 10
846.6392989478512
 20
671.8571187607729
 30
0.0
 10
846.6373182062072
 20
671.848475156901
 30
0.0
  0
SPLINE
  5
212
330
1F
100
AcDbEntity
  8
0
  6
Continuous
 62
     7
370
    15
100
AcDbSpline
210
0.0
220
0.0
230
1.0
 70
     8
 71
     3
 72
    30
 73
    26
 74
     0
 42
0.00000001
 43
0.00000001
 12
1.0
 22
0.0
 32
0.0
 13
1.0
 23
0.0
 33
0.0
 40
0.0
 40
0.0
 40
0.0
 40
0.0
 40
0.0326343628740585
 40
0.0684603777901654
 40
0.122027976742594
 40
0.175595322247936
 40
0.2290189730647568
 40
0.2824439859895678
 40
0.3358343791531629
 40
0.3892262682145964
 40
0.4427072776090533
 40
0.4961887726769181
 40
0.5498451723470515
 40
0.6035024379098863
 40
0.6573485817437845
 40
0.7111954851673686
 40
0.7471594473183966
 40
0.7832397197492351
 40
0.8192043444120645
 40
0.8551684012521336
 40
0.8912472125736747
 40
0.9272107383045638
 40
0.9630879499769636
 40
0.9990806720850166
 40
1.0
 40
1.0
 40
1.0
 40
1.0
 10
700.1507303837699
 20
672.4315054403521
 30
0.0
 10
700.1555828217787
 20
672.4415261710869
 30
0.0
 10
700.1657622679219
 20
672.4625476635085
 30
0.0
 10
700.291919692658
 20
672.4920471443185
 30
0.0
 10
700.5576512432974
 20
672.5170652219114
 30
0.0
 10
701.0143768403874
 20
672.5310204554904
 30
0.0
 10
701.6181358314232
 20
672.5301744637471
 30
0.0
 10
702.3465032199102
 20
672.5151103960151
 30
0.0
 10
703.1837765914859
 20
672.4856954508402
 30
0.0
 10
704.1026828187881
 20
672.443262929532
 30
0.0
 10
705.0803620454991
 20
672.3884113300262
 30
0.0
 10
706.0884942322126
 20
672.3230182122795
 30
0.0
 10
707.0988173453978
 20
672.2484371680767
 30
0.0
 10
708.0845007963424
 20
672.1669266427342
 30
0.0
 10
709.0148096469976
 20
672.0805322163286
 30
0.0
 10
709.7721002794482
 20
672.0016148573644
 30
0.0
 10
710.3649310461082
 20
671.9326453999632
 30
0.0
 10
710.8206021623095
 20
671.8743158392542
 30
0.0
 10
711.2176001839956
 20
671.817549666572
 30
0.0
 10
711.5487920975747
 20
671.7631465850665
 30
0.0
 10
711.8113704750758
 20
671.7118076125676
 30
0.0
 10
712.0050169818738
 20
671.6639838009698
 30
0.0
 10
712.1132639695259
 20
671.6212919695702
 30
0.0
 10
712.1583978488277
 20
671.5941207867462
 30
0.0
 10
712.1459390018412
 20
671.5828738527592
 30
0.0
 10
712.1456287030143
 20
671.5825937377192
 30
0.0
  0
LWPOLYLINE
  5
213
330
1F
100
AcDbEntity
  8
0
  6
Continuous
 62
     7
370
    15
100
AcDbPolyline
 90
       30
 70
   128
 43
0.0
 10
648.7930885676
 20
672.5282884823
 10
648.7968436603
 20
672.5279681073
 10
648.8644651297
 20
672.5221752809
 10
648.9749721412
 20
672.5127130436
 10
649.3090561751
 20
672.4840879129
 10
649.539875162
 20
672.464287995
 10
649.8084834937
 20
672.4412247227
 10
650.4325143222
 20
672.3875656413
 10
650.8009008292
 20
672.3558261679
 10
651.1979571704
 20
672.3215758489
 10
652.0437768821
 20
672.2484446751
 10
652.5095275763
 20
672.2080811547
 10
652.9916397456
 20
672.1662275182
 10
653.9658776645
 20
672.0814175593
 10
654.4774345282
 20
672.0367625045
 10
654.9911371592
 20
671.9918392287
 10
655.9838823203
 20
671.9047754692
 10
656.4833692435
 20
671.860846846
 10
656.970309389
 20
671.8179426776
 10
657.8674785022
 20
671.7386871265
 10
658.2972577933
 20
671.7006258355
 10
658.7011686686
 20
671.6647959934
 10
659.3993476752
 20
671.6027363824
 10
659.7098282699
 20
671.5750835525
 10
659.9840990428
 20
671.5506270217
 10
660.4044011954
 20
671.5131021725
 10
660.560684574
 20
671.4991323339
 10
660.6747082595
 20
671.4889362143
 10
660.7679299239
 20
671.4805952893
 10
660.7679299239
 20
671.4805952893
  0
LINE
  5
214
330
1F
100
AcDbEntity
  8
0
  6
Continuous
 62
     7
370
    15
100
AcDbLine
 10
852.6470459227
 20
681.6424607919
 30
0.0
 11
828.6470494393
 21
681.6424607919
 31
0.0
  0
LINE
  5
215
330
1F
100
AcDbEntity
  8
0
  6
Continuous
 62
     7
370
    15
100
AcDbLine
 10
1018.8981912259
 20
681.6424607919
 30
0.0
 11
994.8981947426
 21
681.6424607919
 31
0.0
  0
LINE
  5
216
330
1F
100
AcDbEntity
  8
0
  6
Continuous
 62
     7
370
    15
100
AcDbLine
 10
1009.4686321143
 20
691.6424587058
 30
0.0
 11
1009.4686321143
 21
681.6424607919
 31
0.0
  0
LINE
  5
217
330
1F
100
AcDbEntity
  8
0
  6
Continuous
 62
     7
370
    15
100
AcDbLine
 10
1009.4686321143
 20
691.6424587058
 30
0.0
 11
1017.4189231519
 21
691.6424587058
 31
0.0
  0
LINE
  5
218
330
1F
100
AcDbEntity
  8
0
  6
Continuous
 62
     7
370
    15
100
AcDbLine
 10
1017.4189231519
 20
691.6424587058
 30
0.0
 11
1017.4189231519
 21
681.6424607919
 31
0.0
  0
LINE
  5
219
330
1F
100
AcDbEntity
  8
0
  6
Continuous
 62
     7
370
    15
100
AcDbLine
 10
998.947905672
 20
691.6424587058
 30
0.0
 11
998.947905672
 21
681.6424607919
 31
0.0
  0
LINE
  5
21A
330
1F
100
AcDbEntity
  8
0
  6
Continuous
 62
     7
370
    15
100
AcDbLine
 10
998.947905672
 20
691.6424587058
 30
0.0
 11
1009.4686321143
 21
691.6424587058
 31
0.0
  0
LINE
  5
21B
330
1F
100
AcDbEntity
  8
0
  6
Continuous
 62
     7
370
    15
100
AcDbLine
 10
836.4582902912
 20
691.6424587058
 30
0.0
 11
836.4582902912
 21
681.6424607919
 31
0.0
  0
LINE
  5
21C
330
1F
100
AcDbEntity
  8
0
  6
Continuous
 62
     7
370
    15
100
AcDbLine
 10
836.4582902912
 20
691.6424587058
 30
0.0
 11
847.3328075532
 21
691.6424587058
 31
0.0
  0
LINE
  5
21D
330
1F
100
AcDbEntity
  8
0
  6
Continuous
 62
     7
370
    15
100
AcDbLine
 10
847.3328075532
 20
691.6424587058
 30
0.0
 11
847.3328075532
 21
681.6424607919
 31
0.0
  0
LINE
  5
21E
330
1F
100
AcDbEntity
  8
0
  6
Continuous
 62
     7
370
    15
100
AcDbLine
 10
829.7725341443
 20
691.6424587058
 30
0.0
 11
829.7725341443
 21
681.6424607919
 31
0.0
  0
LINE
  5
21F
330
1F
100
AcDbEntity
  8
0
  6
Continuous
 62
     7
370
    15
100
AcDbLine
 10
829.7725341443
 20
691.6424587058
 30
0.0
 11
836.4582902912
 21
691.6424587058
 31
0.0
  0
LINE
  5
220
330
1F
100
AcDbEntity
  8
0
  6
Continuous
 62
     7
370
    15
100
AcDbLine
 10
851.5215612177
 20
691.6424587058
 30
0.0
 11
851.5215612177
 21
681.6424607919
 31
0.0
  0
LINE
  5
221
330
1F
100
AcDbEntity
  8
0
  6
Continuous
 62
     7
370
    15
100
AcDbLine
 10
847.3328075532
 20
691.6424587058
 30
0.0
 11
851.5215612177
 21
691.6424587058
 31
0.0
  0
LINE
  5
222
330
1F
100
AcDbEntity
  8
0
  6
Continuous
 62
     7
370
    15
100
AcDbLine
 10
848.647045267
 20
697.6424596893
 30
0.0
 11
832.647050095
 21
697.6424596893
 31
0.0
  0
LINE
  5
223
330
1F
100
AcDbEntity
  8
0
  6
Continuous
 62
     7
370
    15
100
AcDbLine
 10
848.647045267
 20
697.142458676
 30
0.0
 11
832.647050095
 21
697.142458676
 31
0.0
  0
LINE
  5
224
330
1F
100
AcDbEntity
  8
0
  6
Continuous
 62
     7
370
    15
100
AcDbLine
 10
1014.8981905703
 20
697.6424596893
 30
0.0
 11
998.8981953982
 21
697.6424596893
 31
0.0
  0
LINE
  5
225
330
1F
100
AcDbEntity
  8
0
  6
Continuous
 62
     7
370
    15
100
AcDbLine
 10
1014.8981905703
 20
697.142458676
 30
0.0
 11
998.8981953982
 21
697.142458676
 31
0.0
  0
LINE
  5
226
330
1F
100
AcDbEntity
  8
0
  6
Continuous
 62
     7
370
    15
100
AcDbLine
 10
996.3774628166
 20
691.6424587058
 30
0.0
 11
996.3774628166
 21
681.6424607919
 31
0.0
  0
LINE
  5
227
330
1F
100
AcDbEntity
  8
0
  6
Continuous
 62
     7
370
    15
100
AcDbLine
 10
996.3774628166
 20
691.6424587058
 30
0.0
 11
998.947905672
 21
691.6424587058
 31
0.0
  0
LINE
  5
228
330
1F
100
AcDbEntity
  8
0
  6
Continuous
 62
     7
370
    15
100
AcDbLine
 10
847.1470496777
 20
709.1424606429
 30
0.0
 11
834.1470456842
 21
709.1424606429
 31
0.0
  0
LINE
  5
229
330
1F
100
AcDbEntity
  8
0
  6
Continuous
 62
     7
370
    15
100
AcDbLine
 10
1013.398194981
 20
709.1424606429
 30
0.0
 11
1000.3981909875
 21
709.1424606429
 31
0.0
  0
LINE
  5
22A
330
1F
100
AcDbEntity
  8
0
  6
Continuous
 62
     7
370
    15
100
AcDbLine
 10
669.1450349215
 20
639.1424594136
 30
0.0
 11
700.147049797
 21
639.1424594136
 31
0.0
  0
LINE
  5
22B
330
1F
100
AcDbEntity
  8
0
  6
Continuous
 62
     7
370
    15
100
AcDbLine
 10
712.1470443133
 20
639.1424594136
 30
0.0
 11
834.6470466975
 21
639.1424594136
 31
0.0
  0
LINE
  5
22C
330
1F
100
AcDbEntity
  8
0
  6
Continuous
 62
     7
370
    15
100
AcDbLine
 10
846.6470486645
 20
639.1424594136
 30
0.0
 11
1000.8981920008
 21
639.1424594136
 31
0.0
  0
LINE
  5
22D
330
1F
100
AcDbEntity
  8
0
  6
Continuous
 62
     7
370
    15
100
AcDbLine
 10
1012.8981939677
 20
639.1424594136
 30
0.0
 11
1135.3981963519
 21
639.1424594136
 31
0.0
  0
LINE
  5
22E
330
1F
100
AcDbEntity
  8
0
  6
Continuous
 62
     7
370
    15
100
AcDbLine
 10
1147.3981908683
 20
639.1424594136
 30
0.0
 11
1178.4002057437
 21
639.1424594136
 31
0.0
  0
LINE
  5
22F
330
1F
100
AcDbEntity
  8
0
  6
Continuous
 62
     7
370
    15
100
AcDbLine
 10
680.2726260547
 20
631.1424590336
 30
0.0
 11
700.147049797
 21
631.1424590336
 31
0.0
  0
LINE
  5
230
330
1F
100
AcDbEntity
  8
0
  6
Continuous
 62
     7
370
    15
100
AcDbLine
 10
712.1470443133
 20
631.1424590336
 30
0.0
 11
834.6470466975
 21
631.1424590336
 31
0.0
  0
LINE
  5
231
330
1F
100
AcDbEntity
  8
0
  6
Continuous
 62
     7
370
    15
100
AcDbLine
 10
846.6470486645
 20
631.1424590336
 30
0.0
 11
1000.8981920008
 21
631.1424590336
 31
0.0
  0
LINE
  5
232
330
1F
100
AcDbEntity
  8
0
  6
Continuous
 62
     7
370
    15
100
AcDbLine
 10
1012.8981939677
 20
631.1424590336
 30
0.0
 11
1135.3981963519
 21
631.1424590336
 31
0.0
  0
LINE
  5
233
330
1F
100
AcDbEntity
  8
0
  6
Continuous
 62
     7
370
    15
100
AcDbLine
 10
1147.3981908683
 20
631.1424590336
 30
0.0
 11
1167.2726146106
 21
631.1424590336
 31
0.0
  0
LINE
  5
234
330
1F
100
AcDbEntity
  8
0
  6
Continuous
 62
     7
370
    15
100
AcDbLine
 10
718.1470415715
 20
681.6424607919
 30
0.0
 11
694.1470525388
 21
681.6424607919
 31
0.0
  0
LINE
  5
235
330
1F
100
AcDbEntity
  8
0
  6
Continuous
 62
     7
370
    15
100
AcDbLine
 10
1153.3981881265
 20
681.6424607919
 30
0.0
 11
1129.3981990937
 21
681.6424607919
 31
0.0
  0
LINE
  5
236
330
1F
100
AcDbEntity
  8
0
  6
Continuous
 62
     7
370
    15
100
AcDbLine
 10
706.4441017035
 20
691.6424587058
 30
0.0
 11
706.4441017035
 21
681.6424607919
 31
0.0
  0
LINE
  5
237
330
1F
100
AcDbEntity
  8
0
  6
Continuous
 62
     7
370
    15
100
AcDbLine
 10
706.4441017035
 20
691.6424587058
 30
0.0
 11
715.7920918588
 21
691.6424587058
 31
0.0
  0
LINE
  5
238
330
1F
100
AcDbEntity
  8
0
  6
Continuous
 62
     7
370
    15
100
AcDbLine
 10
715.7920918588
 20
691.6424587058
 30
0.0
 11
715.7920918588
 21
681.6424607919
 31
0.0
  0
LINE
  5
239
330
1F
100
AcDbEntity
  8
0
  6
Continuous
 62
     7
370
    15
100
AcDbLine
 10
696.7990568999
 20
691.6424587058
 30
0.0
 11
696.7990568999
 21
681.6424607919
 31
0.0
  0
LINE
  5
23A
330
1F
100
AcDbEntity
  8
0
  6
Continuous
 62
     7
370
    15
100
AcDbLine
 10
696.7990568999
 20
691.6424587058
 30
0.0
 11
706.4441017035
 21
691.6424587058
 31
0.0
  0
LINE
  5
23B
330
1F
100
AcDbEntity
  8
0
  6
Continuous
 62
     7
370
    15
100
AcDbLine
 10
1139.4088736895
 20
691.6424587058
 30
0.0
 11
1139.4088736895
 21
681.6424607919
 31
0.0
  0
LINE
  5
23C
330
1F
100
AcDbEntity
  8
0
  6
Continuous
 62
     7
370
    15
100
AcDbLine
 10
1139.4088736895
 20
691.6424587058
 30
0.0
 11
1149.746017826
 21
691.6424587058
 31
0.0
  0
LINE
  5
23D
330
1F
100
AcDbEntity
  8
0
  6
Continuous
 62
     7
370
    15
100
AcDbLine
 10
1149.746017826
 20
691.6424587058
 30
0.0
 11
1149.746017826
 21
681.6424607919
 31
0.0
  0
LINE
  5
23E
330
1F
100
AcDbEntity
  8
0
  6
Continuous
 62
     7
370
    15
100
AcDbLine
 10
1131.0610494737
 20
691.6424587058
 30
0.0
 11
1131.0610494737
 21
681.6424607919
 31
0.0
  0
LINE
  5
23F
330
1F
100
AcDbEntity
  8
0
  6
Continuous
 62
     7
370
    15
100
AcDbLine
 10
1131.0610494737
 20
691.6424587058
 30
0.0
 11
1139.4088736895
 21
691.6424587058
 31
0.0
  0
LINE
  5
240
330
1F
100
AcDbEntity
  8
0
  6
Continuous
 62
     7
370
    15
100
AcDbLine
 10
714.1470483664
 20
697.142458676
 30
0.0
 11
698.1470457438
 21
697.142458676
 31
0.0
  0
LINE
  5
241
330
1F
100
AcDbEntity
  8
0
  6
Continuous
 62
     7
370
    15
100
AcDbLine
 10
714.1470483664
 20
697.6424596893
 30
0.0
 11
698.1470457438
 21
697.6424596893
 31
0.0
  0
LINE
  5
242
330
1F
100
AcDbEntity
  8
0
  6
Continuous
 62
     7
370
    15
100
AcDbLine
 10
1149.3981949214
 20
697.142458676
 30
0.0
 11
1133.3981922988
 21
697.142458676
 31
0.0
  0
LINE
  5
243
330
1F
100
AcDbEntity
  8
0
  6
Continuous
 62
     7
370
    15
100
AcDbLine
 10
1149.3981949214
 20
697.6424596893
 30
0.0
 11
1133.3981922988
 21
697.6424596893
 31
0.0
  0
LINE
  5
244
330
1F
100
AcDbEntity
  8
0
  6
Continuous
 62
     7
370
    15
100
AcDbLine
 10
1151.7353377465
 20
691.6424587058
 30
0.0
 11
1151.7353377465
 21
681.6424607919
 31
0.0
  0
LINE
  5
245
330
1F
100
AcDbEntity
  8
0
  6
Continuous
 62
     7
370
    15
100
AcDbLine
 10
1149.746017826
 20
691.6424587058
 30
0.0
 11
1151.7353377465
 21
691.6424587058
 31
0.0
  0
LINE
  5
246
330
1F
100
AcDbEntity
  8
0
  6
Continuous
 62
     7
370
    15
100
AcDbLine
 10
712.6470527772
 20
709.1424606429
 30
0.0
 11
699.6470562343
 21
709.1424606429
 31
0.0
  0
LINE
  5
247
330
1F
100
AcDbEntity
  8
0
  6
Continuous
 62
     7
370
    15
100
AcDbLine
 10
1147.898184431
 20
709.1424606429
 30
0.0
 11
1134.898187888
 21
709.1424606429
 31
0.0
  0
LINE
  5
248
330
1F
100
AcDbEntity
  8
0
  6
Continuous
 62
     7
370
    15
100
AcDbLine
 10
696.5020022515
 20
691.6424587058
 30
0.0
 11
696.5020022515
 21
681.6424607919
 31
0.0
  0
LINE
  5
249
330
1F
100
AcDbEntity
  8
0
  6
Continuous
 62
     7
370
    15
100
AcDbLine
 10
696.5020022515
 20
691.6424587058
 30
0.0
 11
696.7990568999
 21
691.6424587058
 31
0.0
  0
LINE
  5
24A
330
1F
100
AcDbEntity
  8
0
  6
Continuous
 62
     7
370
    15
100
AcDbLine
 10
666.7364708308
 20
681.6424607919
 30
0.0
 11
642.7726320151
 21
681.6424607919
 31
0.0
  0
LINE
  5
24B
330
1F
100
AcDbEntity
  8
0
  6
Continuous
 62
     7
370
    15
100
AcDbLine
 10
666.7726210479
 20
681.6424607919
 30
0.0
 11
666.7364708308
 21
681.6424607919
 31
0.0
  0
LINE
  5
24C
330
1F
100
AcDbEntity
  8
0
  6
Continuous
 62
     7
370
    15
100
AcDbLine
 10
1204.7726086501
 20
681.6424607919
 30
0.0
 11
1180.7726196174
 21
681.6424607919
 31
0.0
  0
LINE
  5
24D
330
1F
100
AcDbEntity
  8
0
  6
Continuous
 62
     7
370
    15
100
AcDbLine
 10
659.5041028384
 20
691.6424587058
 30
0.0
 11
659.5041028384
 21
681.6424607919
 31
0.0
  0
LINE
  5
24E
330
1F
100
AcDbEntity
  8
0
  6
Continuous
 62
     7
370
    15
100
AcDbLine
 10
659.5041028384
 20
691.6424587058
 30
0.0
 11
665.7092443828
 21
691.6424587058
 31
0.0
  0
LINE
  5
24F
330
1F
100
AcDbEntity
  8
0
  6
Continuous
 62
     7
370
    15
100
AcDbLine
 10
665.7092443828
 20
691.6424587058
 30
0.0
 11
665.7092443828
 21
681.6424607919
 31
0.0
  0
LINE
  5
250
330
1F
100
AcDbEntity
  8
0
  6
Continuous
 62
     7
370
    15
100
AcDbLine
 10
648.5675147895
 20
691.6424587058
 30
0.0
 11
648.5675147895
 21
681.6424607919
 31
0.0
  0
LINE
  5
251
330
1F
100
AcDbEntity
  8
0
  6
Continuous
 62
     7
370
    15
100
AcDbLine
 10
648.5675147895
 20
691.6424587058
 30
0.0
 11
659.5041028384
 21
691.6424587058
 31
0.0
  0
LINE
  5
252
330
1F
100
AcDbEntity
  8
0
  6
Continuous
 62
     7
370
    15
100
AcDbLine
 10
1186.5675023917
 20
691.6424587058
 30
0.0
 11
1186.5675023917
 21
681.6424607919
 31
0.0
  0
LINE
  5
253
330
1F
100
AcDbEntity
  8
0
  6
Continuous
 62
     7
370
    15
100
AcDbLine
 10
1186.5675023917
 20
691.6424587058
 30
0.0
 11
1197.504120243
 21
691.6424587058
 31
0.0
  0
LINE
  5
254
330
1F
100
AcDbEntity
  8
0
  6
Continuous
 62
     7
370
    15
100
AcDbLine
 10
1197.504120243
 20
691.6424587058
 30
0.0
 11
1197.504120243
 21
681.6424607919
 31
0.0
  0
LINE
  5
255
330
1F
100
AcDbEntity
  8
0
  6
Continuous
 62
     7
370
    15
100
AcDbLine
 10
1197.504120243
 20
691.6424587058
 30
0.0
 11
1203.709231985
 21
691.6424587058
 31
0.0
  0
LINE
  5
256
330
1F
100
AcDbEntity
  8
0
  6
Continuous
 62
     7
370
    15
100
AcDbLine
 10
1203.709231985
 20
691.6424587058
 30
0.0
 11
1203.709231985
 21
681.6424607919
 31
0.0
  0
LINE
  5
257
330
1F
100
AcDbEntity
  8
0
  6
Continuous
 62
     7
370
    15
100
AcDbLine
 10
643.8360086802
 20
691.6424587058
 30
0.0
 11
643.8360086802
 21
681.6424607919
 31
0.0
  0
LINE
  5
258
330
1F
100
AcDbEntity
  8
0
  6
Continuous
 62
     7
370
    15
100
AcDbLine
 10
643.8360086802
 20
691.6424587058
 30
0.0
 11
648.5675147895
 21
691.6424587058
 31
0.0
  0
LINE
  5
259
330
1F
100
AcDbEntity
  8
0
  6
Continuous
 62
     7
370
    15
100
AcDbLine
 10
1181.8359962825
 20
691.6424587058
 30
0.0
 11
1181.8359962825
 21
681.6424607919
 31
0.0
  0
LINE
  5
25A
330
1F
100
AcDbEntity
  8
0
  6
Continuous
 62
     7
370
    15
100
AcDbLine
 10
1181.8359962825
 20
691.6424587058
 30
0.0
 11
1186.5675023917
 21
691.6424587058
 31
0.0
  0
LINE
  5
25B
330
1F
100
AcDbEntity
  8
0
  6
Continuous
 62
     7
370
    15
100
AcDbLine
 10
662.7485326651
 20
697.6424596893
 30
0.0
 11
646.772610319
 21
697.6424596893
 31
0.0
  0
LINE
  5
25C
330
1F
100
AcDbEntity
  8
0
  6
Continuous
 62
     7
370
    15
100
AcDbLine
 10
662.7726129416
 20
697.6424596893
 30
0.0
 11
662.7485326651
 21
697.6424596893
 31
0.0
  0
LINE
  5
25D
330
1F
100
AcDbEntity
  8
0
  6
Continuous
 62
     7
370
    15
100
AcDbLine
 10
662.7485326651
 20
697.142458676
 30
0.0
 11
646.772610319
 21
697.142458676
 31
0.0
  0
LINE
  5
25E
330
1F
100
AcDbEntity
  8
0
  6
Continuous
 62
     7
370
    15
100
AcDbLine
 10
662.7726129416
 20
697.142458676
 30
0.0
 11
662.7485326651
 21
697.142458676
 31
0.0
  0
LINE
  5
25F
330
1F
100
AcDbEntity
  8
0
  6
Continuous
 62
     7
370
    15
100
AcDbLine
 10
1200.7726303462
 20
697.6424596893
 30
0.0
 11
1184.7726277236
 21
697.6424596893
 31
0.0
  0
LINE
  5
260
330
1F
100
AcDbEntity
  8
0
  6
Continuous
 62
     7
370
    15
100
AcDbLine
 10
1200.7726303462
 20
697.142458676
 30
0.0
 11
1184.7726277236
 21
697.142458676
 31
0.0
  0
LINE
  5
261
330
1F
100
AcDbEntity
  8
0
  6
Continuous
 62
     7
370
    15
100
AcDbLine
 10
661.2726322535
 20
709.1424606429
 30
0.0
 11
648.2726208095
 21
709.1424606429
 31
0.0
  0
LINE
  5
262
330
1F
100
AcDbEntity
  8
0
  6
Continuous
 62
     7
370
    15
100
AcDbLine
 10
1199.2726198558
 20
709.1424606429
 30
0.0
 11
1186.2726084117
 21
709.1424606429
 31
0.0
  0
LINE
  5
263
330
1F
100
AcDbEntity
  8
0
  6
Continuous
 62
     7
370
    15
100
AcDbLine
 10
695.8099029187
 20
691.6424587058
 30
0.0
 11
695.8099029187
 21
681.6424607919
 31
0.0
  0
LINE
  5
264
330
1F
100
AcDbEntity
  8
0
  6
Continuous
 62
     7
370
    15
100
AcDbLine
 10
695.8099029187
 20
691.6424587058
 30
0.0
 11
696.5020022515
 21
691.6424587058
 31
0.0
  0
LINE
  5
265
330
1F
100
AcDbEntity
  8
0
  6
Continuous
 62
     7
370
    15
100
AcDbLine
 10
716.4841911916
 20
691.6424587058
 30
0.0
 11
716.4841911916
 21
681.6424607919
 31
0.0
  0
LINE
  5
266
330
1F
100
AcDbEntity
  8
0
  6
Continuous
 62
     7
370
    15
100
AcDbLine
 10
715.7920918588
 20
691.6424587058
 30
0.0
 11
716.4841911916
 21
691.6424587058
 31
0.0
  0
LINE
  5
267
330
1F
100
AcDbEntity
  8
0
  6
Continuous
 62
     7
370
    15
100
AcDbLine
 10
996.0236794475
 20
691.6424587058
 30
0.0
 11
996.0236794475
 21
681.6424607919
 31
0.0
  0
LINE
  5
268
330
1F
100
AcDbEntity
  8
0
  6
Continuous
 62
     7
370
    15
100
AcDbLine
 10
996.0236794475
 20
691.6424587058
 30
0.0
 11
996.3774628166
 21
691.6424587058
 31
0.0
  0
LINE
  5
269
330
1F
100
AcDbEntity
  8
0
  6
Continuous
 62
     7
370
    15
100
AcDbLine
 10
1017.7727065209
 20
691.6424587058
 30
0.0
 11
1017.7727065209
 21
681.6424607919
 31
0.0
  0
LINE
  5
26A
330
1F
100
AcDbEntity
  8
0
  6
Continuous
 62
     7
370
    15
100
AcDbLine
 10
1017.4189231519
 20
691.6424587058
 30
0.0
 11
1017.7727065209
 21
691.6424587058
 31
0.0
  0
LINE
  5
26B
330
1F
100
AcDbEntity
  8
0
  6
Continuous
 62
     7
370
    15
100
AcDbLine
 10
641.7726150874
 20
675.8914507614
 30
0.0
 11
1205.7726255778
 21
675.8914507614
 31
0.0
  0
LINE
  5
26C
330
1F
100
AcDbEntity
  8
0
  6
Continuous
 62
     7
370
    15
100
AcDbLine
 10
644.5111504916
 20
672.9028701471
 30
0.0
 11
1203.0340901736
 21
672.9028701471
 31
0.0
  0
LINE
  5
26D
330
1F
100
AcDbEntity
  8
0
  6
Continuous
 62
     7
370
    15
100
AcDbLine
 10
1147.3981908683
 20
671.4805952893
 30
0.0
 11
1186.7773107413
 21
671.4805952893
 31
0.0
  0
LINE
  5
26E
330
1F
100
AcDbEntity
  8
0
  6
Continuous
 62
     7
370
    15
100
AcDbLine
 10
1012.8981939677
 20
671.4805952893
 30
0.0
 11
1135.3981963519
 21
671.4805952893
 31
0.0
  0
LINE
  5
26F
330
1F
100
AcDbEntity
  8
0
  6
Continuous
 62
     7
370
    15
100
AcDbLine
 10
846.6470486645
 20
671.4805952893
 30
0.0
 11
1000.8981920008
 21
671.4805952893
 31
0.0
  0
LINE
  5
270
330
1F
100
AcDbEntity
  8
0
  6
Continuous
 62
     7
370
    15
100
AcDbLine
 10
712.1470443133
 20
671.4805952893
 30
0.0
 11
834.6470466975
 21
671.4805952893
 31
0.0
  0
LINE
  5
271
330
1F
100
AcDbEntity
  8
0
  6
Continuous
 62
     7
370
    15
100
AcDbLine
 10
660.7679299239
 20
671.4805952893
 30
0.0
 11
700.147049797
 21
671.4805952893
 31
0.0
  0
LINE
  5
272
330
1F
100
AcDbEntity
  8
0
  6
Continuous
 62
     7
370
    15
100
AcDbLine
 10
665.3251818541
 20
666.7613006817
 30
0.0
 11
700.147049797
 21
666.7613006817
 31
0.0
  0
LINE
  5
273
330
1F
100
AcDbEntity
  8
0
  6
Continuous
 62
     7
370
    15
100
AcDbLine
 10
712.1470443133
 20
666.7613006817
 30
0.0
 11
834.6470466975
 21
666.7613006817
 31
0.0
  0
LINE
  5
274
330
1F
100
AcDbEntity
  8
0
  6
Continuous
 62
     7
370
    15
100
AcDbLine
 10
846.6470486645
 20
666.7613006817
 30
0.0
 11
1000.8981920008
 21
666.7613006817
 31
0.0
  0
LINE
  5
275
330
1F
100
AcDbEntity
  8
0
  6
Continuous
 62
     7
370
    15
100
AcDbLine
 10
1012.8981939677
 20
666.7613006817
 30
0.0
 11
1135.3981963519
 21
666.7613006817
 31
0.0
  0
LINE
  5
276
330
1F
100
AcDbEntity
  8
0
  6
Continuous
 62
     7
370
    15
100
AcDbLine
 10
1147.3981908683
 20
666.7613006817
 30
0.0
 11
1182.2200588111
 21
666.7613006817
 31
0.0
  0
LINE
  5
277
330
1F
100
AcDbEntity
  8
0
  6
Continuous
 62
     7
370
    15
100
AcDbLine
 10
666.6484645728
 20
641.5116192462
 30
0.0
 11
700.147049797
 21
641.5116192462
 31
0.0
  0
LINE
  5
278
330
1F
100
AcDbEntity
  8
0
  6
Continuous
 62
     7
370
    15
100
AcDbLine
 10
712.1470443133
 20
641.5116192462
 30
0.0
 11
834.6470466975
 21
641.5116192462
 31
0.0
  0
LINE
  5
279
330
1F
100
AcDbEntity
  8
0
  6
Continuous
 62
     7
370
    15
100
AcDbLine
 10
846.6470486645
 20
641.5116192462
 30
0.0
 11
1000.8981920008
 21
641.5116192462
 31
0.0
  0
LINE
  5
27A
330
1F
100
AcDbEntity
  8
0
  6
Continuous
 62
     7
370
    15
100
AcDbLine
 10
1012.8981939677
 20
641.5116192462
 30
0.0
 11
1135.3981963519
 21
641.5116192462
 31
0.0
  0
LINE
  5
27B
330
1F
100
AcDbEntity
  8
0
  6
Continuous
 62
     7
370
    15
100
AcDbLine
 10
1147.3981908683
 20
641.5116192462
 30
0.0
 11
1180.8967760924
 21
641.5116192462
 31
0.0
  0
LINE
  5
27C
330
1F
100
AcDbEntity
  8
0
  6
Continuous
 62
     7
370
    15
100
AcDbLine
 10
686.1104688767
 20
637.6781684035
 30
0.0
 11
700.147049797
 21
637.6781684035
 31
0.0
  0
LINE
  5
27D
330
1F
100
AcDbEntity
  8
0
  6
Continuous
 62
     7
370
    15
100
AcDbLine
 10
712.1470443133
 20
637.6781684035
 30
0.0
 11
834.6470466975
 21
637.6781684035
 31
0.0
  0
LINE
  5
27E
330
1F
100
AcDbEntity
  8
0
  6
Continuous
 62
     7
370
    15
100
AcDbLine
 10
846.6470486645
 20
637.6781684035
 30
0.0
 11
1000.8981920008
 21
637.6781684035
 31
0.0
  0
LINE
  5
27F
330
1F
100
AcDbEntity
  8
0
  6
Continuous
 62
     7
370
    15
100
AcDbLine
 10
1012.8981939677
 20
637.6781684035
 30
0.0
 11
1135.3981963519
 21
637.6781684035
 31
0.0
  0
LINE
  5
280
330
1F
100
AcDbEntity
  8
0
  6
Continuous
 62
     7
370
    15
100
AcDbLine
 10
1147.3981908683
 20
637.6781684035
 30
0.0
 11
1161.4347717885
 21
637.6781684035
 31
0.0
  0
LINE
  5
281
330
1F
100
AcDbEntity
  8
0
  6
CENTERX2
 62
     7
370
     0
100
AcDbLine
 10
923.7726203326
 20
518.9473059275
 30
0.0
 11
923.7726203326
 21
702.3714375548
 31
0.0
  0
ENDSEC
  0
SECTION
  2
OBJECTS
  0
DICTIONARY
  5
C
330
0
100
AcDbDictionary
281
     1
  3
ACAD_GROUP
350
D
  3
ACAD_LAYOUT
350
1A
  3
ACAD_MLINESTYLE
350
17
  3
ACAD_PLOTSETTINGS
350
19
  3
ACAD_PLOTSTYLENAME
350
E
  0
DICTIONARY
  5
D
102
{ACAD_REACTORS
330
C
102
}
330
C
100
AcDbDictionary
281
     1
  0
DICTIONARY
  5
1A
102
{ACAD_REACTORS
330
C
102
}
330
C
100
AcDbDictionary
281
     1
  3
Layout1
350
1E
  3
Layout2
350
26
  3
Model
350
22
  0
DICTIONARY
  5
17
102
{ACAD_REACTORS
330
C
102
}
330
C
100
AcDbDictionary
281
     1
  3
Standard
350
18
  0
DICTIONARY
  5
19
102
{ACAD_REACTORS
330
C
102
}
330
C
100
AcDbDictionary
281
     1
  0
ACDBDICTIONARYWDFLT
  5
E
102
{ACAD_REACTORS
330
C
102
}
330
C
100
AcDbDictionary
281
     1
  3
Normal
350
F
100
AcDbDictionaryWithDefault
340
F
  0
LAYOUT
  5
1E
102
{ACAD_REACTORS
330
1A
102
}
330
1A
100
AcDbPlotSettings
  1

  2
none_device
  4

  6

 40
0.0
 41
0.0
 42
0.0
 43
0.0
 44
0.0
 45
0.0
 46
0.0
 47
0.0
 48
0.0
 49
0.0
140
0.0
141
0.0
142
1.0
143
1.0
 70
   688
 72
     0
 73
     0
 74
     5
  7

 75
    16
147
1.0
148
0.0
149
0.0
100
AcDbLayout
  1
Layout1
 70
     1
 71
     1
 10
0.0
 20
0.0
 11
420.0
 21
297.0
 12
0.0
 22
0.0
 32
0.0
 14
1.0000000000E+20
 24
1.0000000000E+20
 34
1.0000000000E+20
 15
-1.0000000000E+20
 25
-1.0000000000E+20
 35
-1.0000000000E+20
146
0.0
 13
0.0
 23
0.0
 33
0.0
 16
1.0
 26
0.0
 36
0.0
 17
0.0
 27
1.0
 37
0.0
 76
     0
330
1B
  0
LAYOUT
  5
26
102
{ACAD_REACTORS
330
1A
102
}
330
1A
100
AcDbPlotSettings
  1

  2
none_device
  4

  6

 40
0.0
 41
0.0
 42
0.0
 43
0.0
 44
0.0
 45
0.0
 46
0.0
 47
0.0
 48
0.0
 49
0.0
140
0.0
141
0.0
142
1.0
143
1.0
 70
   688
 72
     0
 73
     0
 74
     5
  7

 75
    16
147
1.0
148
0.0
149
0.0
100
AcDbLayout
  1
Layout2
 70
     1
 71
     2
 10
0.0
 20
0.0
 11
0.0
 21
0.0
 12
0.0
 22
0.0
 32
0.0
 14
0.0
 24
0.0
 34
0.0
 15
0.0
 25
0.0
 35
0.0
146
0.0
 13
0.0
 23
0.0
 33
0.0
 16
1.0
 26
0.0
 36
0.0
 17
0.0
 27
1.0
 37
0.0
 76
     0
330
23
  0
LAYOUT
  5
22
102
{ACAD_REACTORS
330
1A
102
}
330
1A
100
AcDbPlotSettings
  1

  2
none_device
  4

  6

 40
0.0
 41
0.0
 42
0.0
 43
0.0
 44
0.0
 45
0.0
 46
0.0
 47
0.0
 48
0.0
 49
0.0
140
0.0
141
0.0
142
1.0
143
1.0
 70
  1712
 72
     0
 73
     0
 74
     0
  7

 75
     0
147
1.0
148
0.0
149
0.0
100
AcDbLayout
  1
Model
 70
     1
 71
     0
 10
0.0
 20
0.0
 11
431.8
 21
279.4
 12
0.0
 22
0.0
 32
0.0
 14
0.0
 24
0.0
 34
0.0
 15
431.8
 25
279.4
 35
0.0
146
0.0
 13
0.0
 23
0.0
 33
0.0
 16
1.0
 26
0.0
 36
0.0
 17
0.0
 27
1.0
 37
0.0
 76
     0
330
1F
331
29
  0
MLINESTYLE
  5
18
102
{ACAD_REACTORS
330
17
102
}
330
17
100
AcDbMlineStyle
  2
Standard
 70
     0
  3

 62
   256
 51
90.0
 52
90.0
 71
     2
 49
0.5
 62
   256
  6
BYLAYER
 49
-0.5
 62
   256
  6
BYLAYER
  0
ACDBPLACEHOLDER
  5
F
102
{ACAD_REACTORS
330
E
102
}
330
E
  0
ENDSEC
  0
EOF
