  0
SECTION
  2
HEADER
  9
$ACADVER
  1
AC1015
  9
$ACADMAINTVER
 70
     6
  9
$DWGCODEPAGE
  3
ANSI_1252
  9
$INSBASE
 10
0.0
 20
0.0
 30
0.0
  9
$EXTMIN
 10
0.0
 20
0.0
 30
0.0
  9
$EXTMAX
 10
841.0
 20
594.0
 30
0.0
  9
$LIMMIN
 10
0.0
 20
0.0
  9
$LIMMAX
 10
841.0
 20
594.0
  9
$ORTHOMODE
 70
     0
  9
$REGENMODE
 70
     1
  9
$FILLMODE
 70
     1
  9
$QTEXTMODE
 70
     0
  9
$MIRRTEXT
 70
     1
  9
$LTSCALE
 40
1.0
  9
$ATTMODE
 70
     1
  9
$TEXTSIZE
 40
2.5
  9
$TRACEWID
 40
1.0
  9
$TEXTSTYLE
  7
Standard
  9
$CLAYER
  8
0
  9
$CELTYPE
  6
ByLayer
  9
$CECOLOR
 62
   256
  9
$CELTSCALE
 40
1.0
  9
$DISPSILH
 70
     0
  9
$DIMSCALE
 40
1.0
  9
$DIMASZ
 40
2.5
  9
$DIMEXO
 40
1.0
  9
$DIMDLI
 40
3.75
  9
$DIMRND
 40
0.0
  9
$DIMDLE
 40
0.0
  9
$DIMEXE
 40
1.0
  9
$DIMTP
 40
0.0
  9
$DIMTM
 40
0.0
  9
$DIMTXT
 40
2.5
  9
$DIMCEN
 40
2.5
  9
$DIMTSZ
 40
0.0
  9
$DIMTOL
 70
     0
  9
$DIMLIM
 70
     0
  9
$DIMTIH
 70
     1
  9
$DIMTOH
 70
     1
  9
$DIMSE1
 70
     0
  9
$DIMSE2
 70
     0
  9
$DIMTAD
 70
     1
  9
$DIMZIN
 70
     0
  9
$DIMBLK
  1

  9
$DIMASO
 70
     1
  9
$DIMSHO
 70
     1
  9
$DIMPOST
  1

  9
$DIMAPOST
  1

  9
$DIMALT
 70
     0
  9
$DIMALTD
 70
     3
  9
$DIMALTF
 40
0.0393700787
  9
$DIMLFAC
 40
1.0
  9
$DIMTOFL
 70
     1
  9
$DIMTVP
 40
0.0
  9
$DIMTIX
 70
     0
  9
$DIMSOXD
 70
     0
  9
$DIMSAH
 70
     0
  9
$DIMBLK1
  1

  9
$DIMBLK2
  1

  9
$DIMSTYLE
  2
ISO-25
  9
$DIMCLRD
 70
     0
  9
$DIMCLRE
 70
     0
  9
$DIMCLRT
 70
     0
  9
$DIMTFAC
 40
1.0
  9
$DIMGAP
 40
1.524
  9
$DIMJUST
 70
     0
  9
$DIMSD1
 70
     0
  9
$DIMSD2
 70
     0
  9
$DIMTOLJ
 70
     0
  9
$DIMTZIN
 70
     0
  9
$DIMALTZ
 70
     0
  9
$DIMALTTZ
 70
     0
  9
$DIMUPT
 70
     0
  9
$DIMDEC
 70
     2
  9
$DIMTDEC
 70
     2
  9
$DIMALTU
 70
     2
  9
$DIMALTTD
 70
     3
  9
$DIMTXSTY
  7
Standard
  9
$DIMAUNIT
 70
     0
  9
$DIMADEC
 70
     2
  9
$DIMALTRND
 40
0.0
  9
$DIMAZIN
 70
     0
  9
$DIMDSEP
 70
    44
  9
$DIMATFIT
 70
     3
  9
$DIMFRAC
 70
     0
  9
$DIMLDRBLK
  1

  9
$DIMLUNIT
 70
     2
  9
$DIMLWD
 70
    -2
  9
$DIMLWE
 70
    -2
  9
$DIMTMOVE
 70
     0
  9
$LUNITS
 70
     2
  9
$LUPREC
 70
     2
  9
$SKETCHINC
 40
1.0
  9
$FILLETRAD
 40
10.0
  9
$AUNITS
 70
     0
  9
$AUPREC
 70
     2
  9
$MENU
  1
.
  9
$ELEVATION
 40
0.0
  9
$PELEVATION
 40
0.0
  9
$THICKNESS
 40
0.0
  9
$LIMCHECK
 70
     0
  9
$CHAMFERA
 40
10.0
  9
$CHAMFERB
 40
10.0
  9
$CHAMFERC
 40
20.0
  9
$CHAMFERD
 40
0.0
  9
$SKPOLY
 70
     0
  9
$TDCREATE
 40
2458052.435594977
  9
$TDUCREATE
 40
2458052.352261643
  9
$TDUPDATE
 40
2458052.435596956
  9
$TDUUPDATE
 40
2458052.352263623
  9
$TDINDWG
 40
0.0000000116
  9
$TDUSRTIMER
 40
0.0000000116
  9
$USRTIMER
 70
     1
  9
$ANGBASE
 50
0.0
  9
$ANGDIR
 70
     0
  9
$PDMODE
 70
     0
  9
$PDSIZE
 40
-1.0
  9
$PLINEWID
 40
0.0
  9
$SPLFRAME
 70
     0
  9
$SPLINETYPE
 70
     6
  9
$SPLINESEGS
 70
     8
  9
$HANDSEED
  5
3CE
  9
$SURFTAB1
 70
     6
  9
$SURFTAB2
 70
     6
  9
$SURFTYPE
 70
     6
  9
$SURFU
 70
     6
  9
$SURFV
 70
     6
  9
$UCSBASE
  2

  9
$UCSNAME
  2

  9
$UCSORG
 10
0.0
 20
0.0
 30
0.0
  9
$UCSXDIR
 10
1.0
 20
0.0
 30
0.0
  9
$UCSYDIR
 10
0.0
 20
1.0
 30
0.0
  9
$UCSORTHOREF
  2

  9
$UCSORTHOVIEW
 70
     0
  9
$UCSORGTOP
 10
0.0
 20
0.0
 30
0.0
  9
$UCSORGBOTTOM
 10
0.0
 20
0.0
 30
0.0
  9
$UCSORGLEFT
 10
0.0
 20
0.0
 30
0.0
  9
$UCSORGRIGHT
 10
0.0
 20
0.0
 30
0.0
  9
$UCSORGFRONT
 10
0.0
 20
0.0
 30
0.0
  9
$UCSORGBACK
 10
0.0
 20
0.0
 30
0.0
  9
$PUCSBASE
  2

  9
$PUCSNAME
  2

  9
$PUCSORG
 10
0.0
 20
0.0
 30
0.0
  9
$PUCSXDIR
 10
1.0
 20
0.0
 30
0.0
  9
$PUCSYDIR
 10
0.0
 20
1.0
 30
0.0
  9
$PUCSORTHOREF
  2

  9
$PUCSORTHOVIEW
 70
     0
  9
$PUCSORGTOP
 10
0.0
 20
0.0
 30
0.0
  9
$PUCSORGBOTTOM
 10
0.0
 20
0.0
 30
0.0
  9
$PUCSORGLEFT
 10
0.0
 20
0.0
 30
0.0
  9
$PUCSORGRIGHT
 10
0.0
 20
0.0
 30
0.0
  9
$PUCSORGFRONT
 10
0.0
 20
0.0
 30
0.0
  9
$PUCSORGBACK
 10
0.0
 20
0.0
 30
0.0
  9
$USERI1
 70
     0
  9
$USERI2
 70
     0
  9
$USERI3
 70
     0
  9
$USERI4
 70
     0
  9
$USERI5
 70
     0
  9
$USERR1
 40
0.0
  9
$USERR2
 40
0.0
  9
$USERR3
 40
0.0
  9
$USERR4
 40
0.0
  9
$USERR5
 40
0.0
  9
$WORLDVIEW
 70
     1
  9
$SHADEDGE
 70
     3
  9
$SHADEDIF
 70
    70
  9
$TILEMODE
 70
     1
  9
$MAXACTVP
 70
    64
  9
$PINSBASE
 10
0.0
 20
0.0
 30
0.0
  9
$PLIMCHECK
 70
     0
  9
$PEXTMIN
 10
1.0000000000E+20
 20
1.0000000000E+20
 30
1.0000000000E+20
  9
$PEXTMAX
 10
-1.0000000000E+20
 20
-1.0000000000E+20
 30
-1.0000000000E+20
  9
$PLIMMIN
 10
0.0
 20
0.0
  9
$PLIMMAX
 10
420.0
 20
297.0
  9
$UNITMODE
 70
     0
  9
$VISRETAIN
 70
     1
  9
$PLINEGEN
 70
     0
  9
$PSLTSCALE
 70
     1
  9
$TREEDEPTH
 70
  3020
  9
$CMLSTYLE
  2
Standard
  9
$CMLJUST
 70
     0
  9
$CMLSCALE
 40
20.0
  9
$PROXYGRAPHICS
 70
     1
  9
$MEASUREMENT
 70
     1
  9
$CELWEIGHT
370
    -1
  9
$ENDCAPS
280
     0
  9
$JOINSTYLE
280
     0
  9
$LWDISPLAY
290
     1
  9
$INSUNITS
 70
     4
  9
$HYPERLINKBASE
  1

  9
$STYLESHEET
  1

  9
$XEDIT
290
     1
  9
$CEPSNTYPE
380
     0
  9
$PSTYLEMODE
290
     1
  9
$FINGERPRINTGUID
  2
{C5CA9BAA-7876-43C1-826B-C72478AE8032}
  9
$VERSIONGUID
  2
{FAEB1C32-E019-11D5-929B-00C0DF256EC4}
  9
$EXTNAMES
290
     1
  9
$PSVPSCALE
 40
0.0
  9
$OLESTARTUP
290
     0
  0
ENDSEC
  0
SECTION
  2
CLASSES
  0
CLASS
  1
ACDBDICTIONARYWDFLT
  2
AcDbDictionaryWithDefault
  3
ObjectDBX Classes
 90
        0
280
     0
281
     0
  0
CLASS
  1
VISUALSTYLE
  2
AcDbVisualStyle
  3
ObjectDBX Classes
 90
     4095
280
     0
281
     0
  0
CLASS
  1
MATERIAL
  2
AcDbMaterial
  3
ObjectDBX Classes
 90
     1153
280
     0
281
     0
  0
CLASS
  1
ACDBPLACEHOLDER
  2
AcDbPlaceHolder
  3
ObjectDBX Classes
 90
        0
280
     0
281
     0
  0
CLASS
  1
LAYOUT
  2
AcDbLayout
  3
ObjectDBX Classes
 90
        0
280
     0
281
     0
  0
ENDSEC
  0
SECTION
  2
TABLES
  0
TABLE
  2
VPORT
  5
8
330
0
100
AcDbSymbolTable
 70
     1
  0
VPORT
  5
29
330
8
100
AcDbSymbolTableRecord
100
AcDbViewportTableRecord
  2
*Active
 70
     0
 10
0.0
 20
0.0
 11
1.0
 21
1.0
 12
420.5
 22
297.0
 13
0.0
 23
0.0
 14
10.0
 24
10.0
 15
10.0
 25
10.0
 16
0.0
 26
0.0
 36
1.0
 17
0.0
 27
0.0
 37
0.0
 40
594.0
 41
1.4158249158
 42
50.0
 43
0.0
 44
0.0
 50
0.0
 51
0.0
 71
     0
 72
  2000
 73
     1
 74
     3
 75
     0
 76
     0
 77
     0
 78
     0
281
     0
 65
     1
110
0.0
120
0.0
130
0.0
111
1.0
121
0.0
131
0.0
112
0.0
122
1.0
132
0.0
 79
     0
146
0.0
  0
ENDTAB
  0
TABLE
  2
LTYPE
  5
5
330
0
100
AcDbSymbolTable
 70
     6
  0
LTYPE
  5
14
330
5
100
AcDbSymbolTableRecord
100
AcDbLinetypeTableRecord
  2
ByBlock
 70
     0
  3

 72
    65
 73
     0
 40
0.0
  0
LTYPE
  5
15
330
5
100
AcDbSymbolTableRecord
100
AcDbLinetypeTableRecord
  2
ByLayer
 70
     0
  3

 72
    65
 73
     0
 40
0.0
  0
LTYPE
  5
16
330
5
100
AcDbSymbolTableRecord
100
AcDbLinetypeTableRecord
  2
Continuous
 70
     0
  3
Solid line
 72
    65
 73
     0
 40
0.0
  0
LTYPE
  5
3F
330
5
100
AcDbSymbolTableRecord
100
AcDbLinetypeTableRecord
  2
HIDDEN
 70
     0
  3
Hidden __ __ __ __ __ __ __ __ __ __ __ __ __ __
 72
    65
 73
     2
 40
1.905
 49
1.27
 74
     0
 49
-0.635
 74
     0
  0
LTYPE
  5
40
330
5
100
AcDbSymbolTableRecord
100
AcDbLinetypeTableRecord
  2
PHANTOM
 70
     0
  3
Phantom ______  __  __  ______  __  __  ______
 72
    65
 73
     6
 40
12.7
 49
6.35
 74
     0
 49
-1.27
 74
     0
 49
1.27
 74
     0
 49
-1.27
 74
     0
 49
1.27
 74
     0
 49
-1.27
 74
     0
  0
LTYPE
  5
41
330
5
100
AcDbSymbolTableRecord
100
AcDbLinetypeTableRecord
  2
CENTER
 70
     0
  3
Center ____ _ ____ _ ____ _ ____ _ ____ _ ____
 72
    65
 73
     4
 40
10.16
 49
6.35
 74
     0
 49
-1.27
 74
     0
 49
1.27
 74
     0
 49
-1.27
 74
     0
  0
LTYPE
  5
42
330
5
100
AcDbSymbolTableRecord
100
AcDbLinetypeTableRecord
  2
CENTERX2
 70
     0
  3
Center (2x) ________  __  ________  __  _____
 72
    65
 73
     4
 40
20.32
 49
12.7
 74
     0
 49
-2.54
 74
     0
 49
2.54
 74
     0
 49
-2.54
 74
     0
  0
LTYPE
  5
43
330
5
100
AcDbSymbolTableRecord
100
AcDbLinetypeTableRecord
  2
DOT2
 70
     0
  3
Dot (.5x) ........................................
 72
    65
 73
     2
 40
0.635
 49
0.0
 74
     0
 49
-0.635
 74
     0
  0
ENDTAB
  0
TABLE
  2
LAYER
  5
2
330
0
100
AcDbSymbolTable
 70
     3
  0
LAYER
  5
10
330
2
100
AcDbSymbolTableRecord
100
AcDbLayerTableRecord
  2
0
 70
     0
 62
     7
  6
Continuous
370
    -3
390
F
  0
LAYER
  5
44
330
2
100
AcDbSymbolTableRecord
100
AcDbLayerTableRecord
  2
FORMAT
 70
     0
 62
     7
  6
Continuous
370
    -3
390
F
  0
LAYER
  5
45
330
2
100
AcDbSymbolTableRecord
100
AcDbLayerTableRecord
  2
PROTOTYPE
 70
     0
 62
     7
  6
Continuous
370
    -3
390
F
  0
ENDTAB
  0
TABLE
  2
STYLE
  5
3
330
0
100
AcDbSymbolTable
 70
     1
  0
STYLE
  5
11
330
3
100
AcDbSymbolTableRecord
100
AcDbTextStyleTableRecord
  2
Standard
 70
     0
 40
0.0
 41
1.0
 50
0.0
 71
     0
 42
2.5
  3
txt
  4

  0
ENDTAB
  0
TABLE
  2
VIEW
  5
6
330
0
100
AcDbSymbolTable
 70
     0
  0
ENDTAB
  0
TABLE
  2
UCS
  5
7
330
0
100
AcDbSymbolTable
 70
     0
  0
ENDTAB
  0
TABLE
  2
APPID
  5
9
330
0
100
AcDbSymbolTable
 70
     1
  0
APPID
  5
12
330
9
100
AcDbSymbolTableRecord
100
AcDbRegAppTableRecord
  2
ACAD
 70
     0
  0
ENDTAB
  0
TABLE
  2
DIMSTYLE
  5
A
330
0
100
AcDbSymbolTable
 70
     1
100
AcDbDimStyleTable
  0
DIMSTYLE
105
27
330
A
100
AcDbSymbolTableRecord
100
AcDbDimStyleTableRecord
  2
ISO-25
 70
     0
 41
2.5
 42
0.625
 43
3.75
 44
1.25
 73
     0
 74
     0
 77
     1
 78
     8
140
2.5
141
2.5
143
0.0393700787
147
0.625
171
     3
172
     1
178
     0
271
     2
272
     2
274
     3
278
    44
283
     0
284
     8
340
11
  0
ENDTAB
  0
TABLE
  2
BLOCK_RECORD
  5
1
330
0
100
AcDbSymbolTable
 70
     2
  0
BLOCK_RECORD
  5
1F
330
1
100
AcDbSymbolTableRecord
100
AcDbBlockTableRecord
  2
*Model_Space
340
22
  0
BLOCK_RECORD
  5
1B
330
1
100
AcDbSymbolTableRecord
100
AcDbBlockTableRecord
  2
*Paper_Space
340
1E
  0
BLOCK_RECORD
  5
23
330
1
100
AcDbSymbolTableRecord
100
AcDbBlockTableRecord
  2
*Paper_Space0
340
26
  0
BLOCK_RECORD
  5
275
330
1
100
AcDbSymbolTableRecord
100
AcDbBlockTableRecord
  2
SW_CENTERMARKSYMBOL_0
340
0
102
{BLKREFS
331
280
102
}
  0
ENDTAB
  0
ENDSEC
  0
SECTION
  2
BLOCKS
  0
BLOCK
  5
20
330
1F
100
AcDbEntity
  8
0
100
AcDbBlockBegin
  2
*Model_Space
 70
     0
 10
0.0
 20
0.0
 30
0.0
  3
*Model_Space
  1

  0
ENDBLK
  5
21
330
1F
100
AcDbEntity
  8
0
100
AcDbBlockEnd
  0
BLOCK
  5
1C
330
1B
100
AcDbEntity
 67
     1
  8
0
100
AcDbBlockBegin
  2
*Paper_Space
 70
     0
 10
0.0
 20
0.0
 30
0.0
  3
*Paper_Space
  1

  0
ENDBLK
  5
1D
330
1B
100
AcDbEntity
 67
     1
  8
0
100
AcDbBlockEnd
  0
BLOCK
  5
24
330
23
100
AcDbEntity
  8
0
100
AcDbBlockBegin
  2
*Paper_Space0
 70
     0
 10
0.0
 20
0.0
 30
0.0
  3
*Paper_Space0
  1

  0
ENDBLK
  5
25
330
23
100
AcDbEntity
  8
0
100
AcDbBlockEnd
  0
BLOCK
  5
276
330
275
100
AcDbEntity
  8
0
100
AcDbBlockBegin
  2
SW_CENTERMARKSYMBOL_0
 70
     0
 10
0.0
 20
0.0
 30
0.0
  3
SW_CENTERMARKSYMBOL_0
  1

  0
LINE
  5
278
330
275
100
AcDbEntity
  8
FORMAT
 62
     0
100
AcDbLine
 10
0.0
 20
0.0
 30
0.0
 11
0.0
 21
2.5
 31
0.0
  0
LINE
  5
279
330
275
100
AcDbEntity
  8
FORMAT
 62
     0
100
AcDbLine
 10
0.0
 20
0.0
 30
0.0
 11
-2.5
 21
0.0
 31
0.0
  0
LINE
  5
27A
330
275
100
AcDbEntity
  8
FORMAT
 62
     0
100
AcDbLine
 10
0.0
 20
0.0
 30
0.0
 11
0.0
 21
-2.5
 31
0.0
  0
LINE
  5
27B
330
275
100
AcDbEntity
  8
FORMAT
 62
     0
100
AcDbLine
 10
0.0
 20
0.0
 30
0.0
 11
2.5
 21
0.0
 31
0.0
  0
LINE
  5
27C
330
275
100
AcDbEntity
  8
FORMAT
 62
     0
100
AcDbLine
 10
0.0
 20
5.0
 30
0.0
 11
0.0
 21
102.5
 31
0.0
  0
LINE
  5
27D
330
275
100
AcDbEntity
  8
FORMAT
 62
     0
100
AcDbLine
 10
-5.0
 20
0.0
 30
0.0
 11
-102.5
 21
0.0
 31
0.0
  0
LINE
  5
27E
330
275
100
AcDbEntity
  8
FORMAT
 62
     0
100
AcDbLine
 10
0.0
 20
-5.0
 30
0.0
 11
0.0
 21
-102.5
 31
0.0
  0
LINE
  5
27F
330
275
100
AcDbEntity
  8
FORMAT
 62
     0
100
AcDbLine
 10
5.0
 20
0.0
 30
0.0
 11
102.5
 21
0.0
 31
0.0
  0
ENDBLK
  5
277
330
275
100
AcDbEntity
  8
0
100
AcDbBlockEnd
  0
ENDSEC
  0
SECTION
  2
ENTITIES
  0
LINE
  5
46
330
1F
100
AcDbEntity
  8
0
  6
Continuous
 62
     7
370
    15
100
AcDbLine
 10
629.8000807735
 20
372.7215157838
 30
0.0
 11
649.8000793952
 21
372.7215157838
 31
0.0
  0
LINE
  5
47
330
1F
100
AcDbEntity
  8
0
  6
Continuous
 62
     7
370
    15
100
AcDbLine
 10
649.8000793952
 20
572.7215150387
 30
0.0
 11
629.8000807735
 21
572.7215150387
 31
0.0
  0
LINE
  5
48
330
1F
100
AcDbEntity
  8
0
  6
Continuous
 62
     7
370
    15
100
AcDbLine
 10
736.3188066381
 20
572.7215150387
 30
0.0
 11
717.318812837
 21
572.7215150387
 31
0.0
  0
LINE
  5
49
330
1F
100
AcDbEntity
  8
0
  6
Continuous
 62
     7
370
    15
100
AcDbLine
 10
717.318812837
 20
372.7215157838
 30
0.0
 11
736.3188066381
 21
372.7215157838
 31
0.0
  0
LINE
  5
4A
330
1F
100
AcDbEntity
  8
0
  6
Continuous
 62
     7
370
    15
100
AcDbLine
 10
536.3188111085
 20
372.7215157838
 30
0.0
 11
555.3188086349
 21
372.7215157838
 31
0.0
  0
LINE
  5
4B
330
1F
100
AcDbEntity
  8
0
  6
Continuous
 62
     7
370
    15
100
AcDbLine
 10
555.3188086349
 20
572.7215150387
 30
0.0
 11
536.3188111085
 21
572.7215150387
 31
0.0
  0
LINE
  5
4C
330
1F
100
AcDbEntity
  8
0
  6
Continuous
 62
     7
370
    15
100
AcDbLine
 10
736.3188066381
 20
486.0861899347
 30
0.0
 11
738.3188106912
 21
486.0861899347
 31
0.0
  0
LINE
  5
4D
330
1F
100
AcDbEntity
  8
0
  6
Continuous
 62
     7
370
    15
100
AcDbLine
 10
738.3188106912
 20
520.5861890705
 30
0.0
 11
736.3188066381
 21
520.5861890705
 31
0.0
  0
LINE
  5
4E
330
1F
100
AcDbEntity
  8
0
  6
Continuous
 62
     7
370
    15
100
AcDbLine
 10
536.3188111085
 20
520.5861890705
 30
0.0
 11
534.3188070554
 21
520.5861890705
 31
0.0
  0
LINE
  5
4F
330
1F
100
AcDbEntity
  8
0
  6
Continuous
 62
     7
370
    15
100
AcDbLine
 10
534.3188070554
 20
486.0861899347
 30
0.0
 11
536.3188111085
 21
486.0861899347
 31
0.0
  0
LINE
  5
50
330
1F
100
AcDbEntity
  8
0
  6
Continuous
 62
     7
370
    15
100
AcDbLine
 10
736.3188066381
 20
424.8568412864
 30
0.0
 11
738.3188106912
 21
424.8568412864
 31
0.0
  0
LINE
  5
51
330
1F
100
AcDbEntity
  8
0
  6
Continuous
 62
     7
370
    15
100
AcDbLine
 10
738.3188106912
 20
459.3568408878
 30
0.0
 11
736.3188066381
 21
459.3568408878
 31
0.0
  0
LINE
  5
52
330
1F
100
AcDbEntity
  8
0
  6
Continuous
 62
     7
370
    15
100
AcDbLine
 10
536.3188111085
 20
459.3568408878
 30
0.0
 11
534.3188070554
 21
459.3568408878
 31
0.0
  0
LINE
  5
53
330
1F
100
AcDbEntity
  8
0
  6
Continuous
 62
     7
370
    15
100
AcDbLine
 10
534.3188070554
 20
424.8568412864
 30
0.0
 11
536.3188111085
 21
424.8568412864
 31
0.0
  0
LINE
  5
54
330
1F
100
AcDbEntity
  8
0
  6
Continuous
 62
     7
370
    15
100
AcDbLine
 10
752.3188092607
 20
454.1068414242
 30
0.0
 11
752.2962041992
 21
454.1459923626
 31
0.0
  0
LINE
  5
55
330
1F
100
AcDbEntity
  8
0
  6
Continuous
 62
     7
370
    15
100
AcDbLine
 10
520.3188084859
 20
430.1068410992
 30
0.0
 11
520.3814231652
 21
429.9983883525
 31
0.0
  0
LINE
  5
56
330
1F
100
AcDbEntity
  8
0
  6
Continuous
 62
     7
370
    15
100
AcDbLine
 10
752.1985121864
 20
491.127822736
 30
0.0
 11
752.3188092607
 21
491.3361893983
 31
0.0
  0
LINE
  5
57
330
1F
100
AcDbEntity
  8
0
  6
Continuous
 62
     7
370
    15
100
AcDbLine
 10
801.3188042539
 20
511.3361889512
 30
0.0
 11
752.3188092607
 21
511.3361889512
 31
0.0
  0
LINE
  5
58
330
1F
100
AcDbEntity
  8
0
  6
Continuous
 62
     7
370
    15
100
AcDbLine
 10
752.3188092607
 20
495.3361937792
 30
0.0
 11
801.3188042539
 21
495.3361937792
 31
0.0
  0
LINE
  5
59
330
1F
100
AcDbEntity
  8
0
  6
Continuous
 62
     7
370
    15
100
AcDbLine
 10
520.3188084859
 20
511.3361889512
 30
0.0
 11
471.3188060421
 21
511.3361889512
 31
0.0
  0
LINE
  5
5A
330
1F
100
AcDbEntity
  8
0
  6
Continuous
 62
     7
370
    15
100
AcDbLine
 10
471.3188060421
 20
495.3361937792
 30
0.0
 11
520.3188084859
 21
495.3361937792
 31
0.0
  0
LINE
  5
5B
330
1F
100
AcDbEntity
  8
0
  6
Continuous
 62
     7
370
    15
100
AcDbLine
 10
717.318812837
 20
511.3361889512
 30
0.0
 11
649.8000793952
 21
511.3361889512
 31
0.0
  0
LINE
  5
5C
330
1F
100
AcDbEntity
  8
0
  6
Continuous
 62
     7
370
    15
100
AcDbLine
 10
649.8000793952
 20
495.3361937792
 30
0.0
 11
717.318812837
 21
495.3361937792
 31
0.0
  0
LINE
  5
5D
330
1F
100
AcDbEntity
  8
0
  6
Continuous
 62
     7
370
    15
100
AcDbLine
 10
629.8000807735
 20
511.3361889512
 30
0.0
 11
555.3188086349
 21
511.3361889512
 31
0.0
  0
LINE
  5
5E
330
1F
100
AcDbEntity
  8
0
  6
Continuous
 62
     7
370
    15
100
AcDbLine
 10
555.3188086349
 20
495.3361937792
 30
0.0
 11
629.8000807735
 21
495.3361937792
 31
0.0
  0
LINE
  5
5F
330
1F
100
AcDbEntity
  8
0
  6
Continuous
 62
     7
370
    15
100
AcDbLine
 10
801.3188042539
 20
450.1068407686
 30
0.0
 11
752.3188092607
 21
450.1068407686
 31
0.0
  0
LINE
  5
60
330
1F
100
AcDbEntity
  8
0
  6
Continuous
 62
     7
370
    15
100
AcDbLine
 10
752.3188092607
 20
434.1068411728
 30
0.0
 11
801.3188042539
 21
434.1068411728
 31
0.0
  0
LINE
  5
61
330
1F
100
AcDbEntity
  8
0
  6
Continuous
 62
     7
370
    15
100
AcDbLine
 10
629.8000807735
 20
450.1068407686
 30
0.0
 11
555.3188086349
 21
450.1068407686
 31
0.0
  0
LINE
  5
62
330
1F
100
AcDbEntity
  8
0
  6
Continuous
 62
     7
370
    15
100
AcDbLine
 10
555.3188086349
 20
434.1068411728
 30
0.0
 11
629.8000807735
 21
434.1068411728
 31
0.0
  0
LINE
  5
63
330
1F
100
AcDbEntity
  8
0
  6
Continuous
 62
     7
370
    15
100
AcDbLine
 10
520.3188084859
 20
450.1068407686
 30
0.0
 11
471.3188060421
 21
450.1068407686
 31
0.0
  0
LINE
  5
64
330
1F
100
AcDbEntity
  8
0
  6
Continuous
 62
     7
370
    15
100
AcDbLine
 10
471.3188060421
 20
434.1068411728
 30
0.0
 11
520.3188084859
 21
434.1068411728
 31
0.0
  0
LINE
  5
65
330
1F
100
AcDbEntity
  8
0
  6
Continuous
 62
     7
370
    15
100
AcDbLine
 10
717.318812837
 20
450.1068407686
 30
0.0
 11
649.8000793952
 21
450.1068407686
 31
0.0
  0
LINE
  5
66
330
1F
100
AcDbEntity
  8
0
  6
Continuous
 62
     7
370
    15
100
AcDbLine
 10
649.8000793952
 20
434.1068411728
 30
0.0
 11
717.318812837
 21
434.1068411728
 31
0.0
  0
LINE
  5
67
330
1F
100
AcDbEntity
  8
0
  6
Continuous
 62
     7
370
    15
100
AcDbLine
 10
520.3188084859
 20
491.3361893983
 30
0.0
 11
520.8938219446
 21
490.3402442129
 31
0.0
  0
LINE
  5
68
330
1F
100
AcDbEntity
  8
0
  6
Continuous
 62
     7
370
    15
100
AcDbLine
 10
520.8938219446
 20
516.3321385176
 30
0.0
 11
520.3188084859
 21
515.3361896069
 31
0.0
  0
LINE
  5
69
330
1F
100
AcDbEntity
  8
0
  6
Continuous
 62
     7
370
    15
100
AcDbLine
 10
752.3188092607
 20
515.3361896069
 30
0.0
 11
752.1985121864
 21
515.5445599944
 31
0.0
  0
LINE
  5
6A
330
1F
100
AcDbEntity
  8
0
  6
Continuous
 62
     7
370
    15
100
AcDbLine
 10
520.3814231652
 20
454.215293938
 30
0.0
 11
520.3188084859
 21
454.1068414242
 31
0.0
  0
LINE
  5
6B
330
1F
100
AcDbEntity
  8
0
  6
Continuous
 62
     7
370
    15
100
AcDbLine
 10
752.2962041992
 20
430.0676889384
 30
0.0
 11
752.3188092607
 21
430.1068410992
 31
0.0
  0
ARC
  5
6C
330
1F
100
AcDbEntity
  8
0
  6
Continuous
 62
     7
370
    15
100
AcDbCircle
 10
620.5527650312
 20
414.221515665
 30
0.0
 40
2.000000000000073
100
AcDbArc
 50
220.0
 51
310.0
  0
ARC
  5
6D
330
1F
100
AcDbEntity
  8
0
  6
Continuous
 62
     7
370
    15
100
AcDbCircle
 10
620.5527650312
 20
531.221515665
 30
0.0
 40
2.000000000000073
100
AcDbArc
 50
50.0
 51
140.0
  0
LINE
  5
6E
330
1F
100
AcDbEntity
  8
0
  6
Continuous
 62
     7
370
    15
100
AcDbLine
 10
621.8383400562
 20
412.6894271017
 30
0.0
 11
622.6043845388
 21
413.3322147668
 31
0.0
  0
LINE
  5
6F
330
1F
100
AcDbEntity
  8
0
  6
Continuous
 62
     7
370
    15
100
AcDbLine
 10
622.6043845388
 20
532.110814193
 30
0.0
 11
621.8383400562
 21
532.7536055834
 31
0.0
  0
LINE
  5
70
330
1F
100
AcDbEntity
  8
0
  6
Continuous
 62
     7
370
    15
100
AcDbLine
 10
619.0206762265
 20
532.5070882232
 30
0.0
 11
613.8153107465
 21
526.303578356
 31
0.0
  0
LINE
  5
71
330
1F
100
AcDbEntity
  8
0
  6
Continuous
 62
     7
370
    15
100
AcDbLine
 10
613.8153107465
 20
419.1394533978
 30
0.0
 11
619.0206762265
 21
412.9359407366
 31
0.0
  0
ARC
  5
72
330
1F
100
AcDbEntity
  8
0
  6
Continuous
 62
     7
370
    15
100
AcDbCircle
 10
634.1591759108
 20
515.5446662624
 30
0.0
 40
17.49999999999991
100
AcDbArc
 50
104.4237376512
 51
128.2759459605
  0
ARC
  5
73
330
1F
100
AcDbEntity
  8
0
  6
Continuous
 62
     7
370
    15
100
AcDbCircle
 10
634.1591759108
 20
429.8983650676
 30
0.0
 40
17.50000000000003
100
AcDbArc
 50
231.7240540395
 51
255.5762623488
  0
ARC
  5
74
330
1F
100
AcDbEntity
  8
0
  6
Continuous
 62
     7
370
    15
100
AcDbCircle
 10
621.3188094744
 20
414.8643032747
 30
0.0
 40
2.00000000000003
100
AcDbArc
 50
310.0
 51
0.0
  0
ARC
  5
75
330
1F
100
AcDbEntity
  8
0
  6
Continuous
 62
     7
370
    15
100
AcDbCircle
 10
621.3188094744
 20
530.5787280553
 30
0.0
 40
1.999999999999986
100
AcDbArc
 50
0.0
 51
50.0
  0
LINE
  5
76
330
1F
100
AcDbEntity
  8
0
  6
Continuous
 62
     7
370
    15
100
AcDbLine
 10
623.3188095364
 20
414.864303732
 30
0.0
 11
623.3188095364
 21
434.1068411728
 31
0.0
  0
LINE
  5
77
330
1F
100
AcDbEntity
  8
0
  6
Continuous
 62
     7
370
    15
100
AcDbLine
 10
623.3188095364
 20
450.1068407686
 30
0.0
 11
623.3188095364
 21
495.3361937792
 31
0.0
  0
LINE
  5
78
330
1F
100
AcDbEntity
  8
0
  6
Continuous
 62
     7
370
    15
100
AcDbLine
 10
623.3188095364
 20
511.3361889512
 30
0.0
 11
623.3188095364
 21
530.5787289531
 31
0.0
  0
LINE
  5
79
330
1F
100
AcDbEntity
  8
0
  6
Continuous
 62
     7
370
    15
100
AcDbLine
 10
555.3188086349
 20
417.0967109517
 30
0.0
 11
613.8153107465
 21
419.1394533978
 31
0.0
  0
LINE
  5
7A
330
1F
100
AcDbEntity
  8
0
  6
Continuous
 62
     7
370
    15
100
AcDbLine
 10
613.8153107465
 20
526.303578356
 30
0.0
 11
555.3188086349
 21
528.3463189394
 31
0.0
  0
LINE
  5
7B
330
1F
100
AcDbEntity
  8
0
  6
Continuous
 62
     7
370
    15
100
AcDbLine
 10
736.3188066381
 20
529.3818751366
 30
0.0
 11
738.3188106912
 21
529.3818751366
 31
0.0
  0
LINE
  5
7C
330
1F
100
AcDbEntity
  8
0
  6
Continuous
 62
     7
370
    15
100
AcDbLine
 10
738.3188106912
 20
563.8818779976
 30
0.0
 11
736.3188066381
 21
563.8818779976
 31
0.0
  0
LINE
  5
7D
330
1F
100
AcDbEntity
  8
0
  6
Continuous
 62
     7
370
    15
100
AcDbLine
 10
536.3188111085
 20
563.8818779976
 30
0.0
 11
534.3188070554
 21
563.8818779976
 31
0.0
  0
LINE
  5
7E
330
1F
100
AcDbEntity
  8
0
  6
Continuous
 62
     7
370
    15
100
AcDbLine
 10
534.3188070554
 20
529.3818751366
 30
0.0
 11
536.3188111085
 21
529.3818751366
 31
0.0
  0
LINE
  5
7F
330
1F
100
AcDbEntity
  8
0
  6
Continuous
 62
     7
370
    15
100
AcDbLine
 10
736.3188066381
 20
381.5611528249
 30
0.0
 11
738.3188106912
 21
381.5611528249
 31
0.0
  0
LINE
  5
80
330
1F
100
AcDbEntity
  8
0
  6
Continuous
 62
     7
370
    15
100
AcDbLine
 10
738.3188106912
 20
416.0611528919
 30
0.0
 11
736.3188066381
 21
416.0611528919
 31
0.0
  0
LINE
  5
81
330
1F
100
AcDbEntity
  8
0
  6
Continuous
 62
     7
370
    15
100
AcDbLine
 10
536.3188111085
 20
416.0611528919
 30
0.0
 11
534.3188070554
 21
416.0611528919
 31
0.0
  0
LINE
  5
82
330
1F
100
AcDbEntity
  8
0
  6
Continuous
 62
     7
370
    15
100
AcDbLine
 10
534.3188070554
 20
381.5611528249
 30
0.0
 11
536.3188111085
 21
381.5611528249
 31
0.0
  0
LINE
  5
83
330
1F
100
AcDbEntity
  8
0
  6
Continuous
 62
     7
370
    15
100
AcDbLine
 10
717.318812837
 20
517.7215153367
 30
0.0
 11
649.8000793952
 21
517.7215153367
 31
0.0
  0
LINE
  5
84
330
1F
100
AcDbEntity
  8
0
  6
Continuous
 62
     7
370
    15
100
AcDbLine
 10
649.8000793952
 20
427.7215157186
 30
0.0
 11
717.318812837
 21
427.7215157186
 31
0.0
  0
LINE
  5
85
330
1F
100
AcDbEntity
  8
0
  6
Continuous
 62
     7
370
    15
100
AcDbLine
 10
520.3793444532
 20
410.9160063804
 30
0.0
 11
520.3188084859
 21
410.811152497
 31
0.0
  0
LINE
  5
86
330
1F
100
AcDbEntity
  8
0
  6
Continuous
 62
     7
370
    15
100
AcDbLine
 10
520.3188084859
 20
554.6318778784
 30
0.0
 11
471.3188060421
 21
554.6318778784
 31
0.0
  0
LINE
  5
87
330
1F
100
AcDbEntity
  8
0
  6
Continuous
 62
     7
370
    15
100
AcDbLine
 10
471.3188060421
 20
538.6318752558
 30
0.0
 11
520.3188084859
 21
538.6318752558
 31
0.0
  0
LINE
  5
88
330
1F
100
AcDbEntity
  8
0
  6
Continuous
 62
     7
370
    15
100
AcDbLine
 10
801.3188042539
 20
554.6318778784
 30
0.0
 11
752.3188092607
 21
554.6318778784
 31
0.0
  0
LINE
  5
89
330
1F
100
AcDbEntity
  8
0
  6
Continuous
 62
     7
370
    15
100
AcDbLine
 10
752.3188092607
 20
538.6318752558
 30
0.0
 11
801.3188042539
 21
538.6318752558
 31
0.0
  0
LINE
  5
8A
330
1F
100
AcDbEntity
  8
0
  6
Continuous
 62
     7
370
    15
100
AcDbLine
 10
629.8000807735
 20
554.6318778784
 30
0.0
 11
555.3188086349
 21
554.6318778784
 31
0.0
  0
LINE
  5
8B
330
1F
100
AcDbEntity
  8
0
  6
Continuous
 62
     7
370
    15
100
AcDbLine
 10
555.3188086349
 20
538.6318752558
 30
0.0
 11
629.8000807735
 21
538.6318752558
 31
0.0
  0
LINE
  5
8C
330
1F
100
AcDbEntity
  8
0
  6
Continuous
 62
     7
370
    15
100
AcDbLine
 10
717.318812837
 20
554.6318778784
 30
0.0
 11
649.8000793952
 21
554.6318778784
 31
0.0
  0
LINE
  5
8D
330
1F
100
AcDbEntity
  8
0
  6
Continuous
 62
     7
370
    15
100
AcDbLine
 10
649.8000793952
 20
538.6318752558
 30
0.0
 11
717.318812837
 21
538.6318752558
 31
0.0
  0
LINE
  5
8E
330
1F
100
AcDbEntity
  8
0
  6
Continuous
 62
     7
370
    15
100
AcDbLine
 10
801.3188042539
 20
406.811153704
 30
0.0
 11
752.3188092607
 21
406.811153704
 31
0.0
  0
LINE
  5
8F
330
1F
100
AcDbEntity
  8
0
  6
Continuous
 62
     7
370
    15
100
AcDbLine
 10
752.3188092607
 20
390.8111529441
 30
0.0
 11
801.3188042539
 21
390.8111529441
 31
0.0
  0
LINE
  5
90
330
1F
100
AcDbEntity
  8
0
  6
Continuous
 62
     7
370
    15
100
AcDbLine
 10
520.3188084859
 20
406.811153704
 30
0.0
 11
471.3188060421
 21
406.811153704
 31
0.0
  0
LINE
  5
91
330
1F
100
AcDbEntity
  8
0
  6
Continuous
 62
     7
370
    15
100
AcDbLine
 10
471.3188060421
 20
390.8111529441
 30
0.0
 11
520.3188084859
 21
390.8111529441
 31
0.0
  0
LINE
  5
92
330
1F
100
AcDbEntity
  8
0
  6
Continuous
 62
     7
370
    15
100
AcDbLine
 10
717.318812837
 20
406.811153704
 30
0.0
 11
649.8000793952
 21
406.811153704
 31
0.0
  0
LINE
  5
93
330
1F
100
AcDbEntity
  8
0
  6
Continuous
 62
     7
370
    15
100
AcDbLine
 10
649.8000793952
 20
390.8111529441
 30
0.0
 11
717.318812837
 21
390.8111529441
 31
0.0
  0
LINE
  5
94
330
1F
100
AcDbEntity
  8
0
  6
Continuous
 62
     7
370
    15
100
AcDbLine
 10
629.8000807735
 20
406.811153704
 30
0.0
 11
555.3188086349
 21
406.811153704
 31
0.0
  0
LINE
  5
95
330
1F
100
AcDbEntity
  8
0
  6
Continuous
 62
     7
370
    15
100
AcDbLine
 10
555.3188086349
 20
390.8111529441
 30
0.0
 11
629.8000807735
 21
390.8111529441
 31
0.0
  0
LINE
  5
96
330
1F
100
AcDbEntity
  8
0
  6
Continuous
 62
     7
370
    15
100
AcDbLine
 10
752.3188092607
 20
410.811152497
 30
0.0
 11
751.8974491256
 21
411.5409722568
 31
0.0
  0
LINE
  5
97
330
1F
100
AcDbEntity
  8
0
  6
Continuous
 62
     7
370
    15
100
AcDbLine
 10
520.8873324889
 20
559.6165994198
 30
0.0
 11
520.3188084859
 21
558.6318710835
 31
0.0
  0
LINE
  5
98
330
1F
100
AcDbEntity
  8
0
  6
Continuous
 62
     7
370
    15
100
AcDbLine
 10
751.568386783
 20
533.3321059139
 30
0.0
 11
752.3188092607
 21
534.6318746002
 31
0.0
  0
LINE
  5
99
330
1F
100
AcDbEntity
  8
0
  6
Continuous
 62
     7
370
    15
100
AcDbLine
 10
752.3188092607
 20
558.6318710835
 30
0.0
 11
751.568938126
 21
559.9307009966
 31
0.0
  0
LINE
  5
9A
330
1F
100
AcDbEntity
  8
0
  6
Continuous
 62
     7
370
    15
100
AcDbLine
 10
520.3188084859
 20
534.6318746002
 30
0.0
 11
520.8873324889
 21
533.647161165
 31
0.0
  0
LINE
  5
9B
330
1F
100
AcDbEntity
  8
0
  6
Continuous
 62
     7
370
    15
100
AcDbLine
 10
751.8970020908
 20
386.080559531
 30
0.0
 11
752.3188092607
 21
386.8111522884
 31
0.0
  0
LINE
  5
9C
330
1F
100
AcDbEntity
  8
0
  6
Continuous
 62
     7
370
    15
100
AcDbLine
 10
520.3188084859
 20
386.8111522884
 30
0.0
 11
520.3788825172
 21
386.7071086557
 31
0.0
  0
LINE
  5
9D
330
1F
100
AcDbEntity
  8
0
  6
Continuous
 62
     7
370
    15
100
AcDbLine
 10
520.8873324889
 20
411.7958677949
 30
0.0
 11
520.3793444532
 21
410.9160063804
 31
0.0
  0
LINE
  5
9E
330
1F
100
AcDbEntity
  8
0
  6
Continuous
 62
     7
370
    15
100
AcDbLine
 10
751.568938126
 20
385.5123261006
 30
0.0
 11
751.8522688049
 21
386.0030697675
 31
0.0
  0
LINE
  5
9F
330
1F
100
AcDbEntity
  8
0
  6
Continuous
 62
     7
370
    15
100
AcDbLine
 10
751.8974491256
 20
411.5409722568
 30
0.0
 11
751.568386783
 21
412.110923046
 31
0.0
  0
LINE
  5
A0
330
1F
100
AcDbEntity
  8
0
  6
Continuous
 62
     7
370
    15
100
AcDbLine
 10
520.3904234666
 20
386.6871075721
 30
0.0
 11
520.8873324889
 21
385.8264388533
 31
0.0
  0
LINE
  5
A1
330
1F
100
AcDbEntity
  8
0
  6
Continuous
 62
     7
370
    15
100
AcDbLine
 10
752.1985121864
 20
429.8984732728
 30
0.0
 11
752.2913464206
 21
430.0592853238
 31
0.0
  0
LINE
  5
A2
330
1F
100
AcDbEntity
  8
0
  6
Continuous
 62
     7
370
    15
100
AcDbLine
 10
520.3814231652
 20
429.9983883525
 30
0.0
 11
520.8938219446
 21
429.1108949824
 31
0.0
  0
LINE
  5
A3
330
1F
100
AcDbEntity
  8
0
  6
Continuous
 62
     7
370
    15
100
AcDbLine
 10
520.8938219446
 20
455.1027866096
 30
0.0
 11
520.3983583349
 21
454.2446194233
 31
0.0
  0
LINE
  5
A4
330
1F
100
AcDbEntity
  8
0
  6
Continuous
 62
     7
370
    15
100
AcDbLine
 10
752.2962041992
 20
454.1459923626
 30
0.0
 11
752.1985121864
 21
454.3152080865
 31
0.0
  0
LINE
  5
A5
330
1F
100
AcDbEntity
  8
0
  6
Continuous
 62
     7
370
    15
100
AcDbLine
 10
629.8000807735
 20
543.4321949274
 30
0.0
 11
629.8000807735
 21
572.7215150387
 31
0.0
  0
LINE
  5
A6
330
1F
100
AcDbEntity
  8
0
  6
Continuous
 62
     7
370
    15
100
AcDbLine
 10
629.8000807735
 20
372.7215157838
 30
0.0
 11
629.8000807735
 21
543.4321949274
 31
0.0
  0
LINE
  5
A7
330
1F
100
AcDbEntity
  8
0
  6
Continuous
 62
     7
370
    15
100
AcDbLine
 10
649.8000793952
 20
543.4321949274
 30
0.0
 11
649.8000793952
 21
572.7215150387
 31
0.0
  0
LINE
  5
A8
330
1F
100
AcDbEntity
  8
0
  6
Continuous
 62
     7
370
    15
100
AcDbLine
 10
649.8000793952
 20
372.7215157838
 30
0.0
 11
649.8000793952
 21
543.4321949274
 31
0.0
  0
LINE
  5
A9
330
1F
100
AcDbEntity
  8
0
  6
Continuous
 62
     7
370
    15
100
AcDbLine
 10
717.318812837
 20
472.7215172739
 30
0.0
 11
717.318812837
 21
572.7215150387
 31
0.0
  0
LINE
  5
AA
330
1F
100
AcDbEntity
  8
0
  6
Continuous
 62
     7
370
    15
100
AcDbLine
 10
717.318812837
 20
372.7215157838
 30
0.0
 11
717.318812837
 21
472.7215172739
 31
0.0
  0
LINE
  5
AB
330
1F
100
AcDbEntity
  8
0
  6
Continuous
 62
     7
370
    15
100
AcDbLine
 10
736.3188066381
 20
472.7215172739
 30
0.0
 11
736.3188066381
 21
572.7215150387
 31
0.0
  0
LINE
  5
AC
330
1F
100
AcDbEntity
  8
0
  6
Continuous
 62
     7
370
    15
100
AcDbLine
 10
736.3188066381
 20
372.7215157838
 30
0.0
 11
736.3188066381
 21
472.7215172739
 31
0.0
  0
LINE
  5
AD
330
1F
100
AcDbEntity
  8
0
  6
Continuous
 62
     7
370
    15
100
AcDbLine
 10
555.3188086349
 20
472.7215172739
 30
0.0
 11
555.3188086349
 21
372.7215157838
 31
0.0
  0
LINE
  5
AE
330
1F
100
AcDbEntity
  8
0
  6
Continuous
 62
     7
370
    15
100
AcDbLine
 10
555.3188086349
 20
572.7215150387
 30
0.0
 11
555.3188086349
 21
472.7215172739
 31
0.0
  0
LINE
  5
AF
330
1F
100
AcDbEntity
  8
0
  6
Continuous
 62
     7
370
    15
100
AcDbLine
 10
536.3188111085
 20
472.7215172739
 30
0.0
 11
536.3188111085
 21
372.7215157838
 31
0.0
  0
LINE
  5
B0
330
1F
100
AcDbEntity
  8
0
  6
Continuous
 62
     7
370
    15
100
AcDbLine
 10
536.3188111085
 20
572.7215150387
 30
0.0
 11
536.3188111085
 21
472.7215172739
 31
0.0
  0
SPLINE
  5
B1
330
1F
100
AcDbEntity
  8
0
  6
Continuous
 62
     7
370
    15
100
AcDbSpline
210
0.0
220
0.0
230
1.0
 70
     8
 71
     3
 72
     9
 73
     5
 74
     0
 42
0.00000001
 43
0.00000001
 12
1.0
 22
0.0
 32
0.0
 13
1.0
 23
0.0
 33
0.0
 40
0.0
 40
0.0
 40
0.0
 40
0.0
 40
0.4960827660427825
 40
1.0
 40
1.0
 40
1.0
 40
1.0
 10
723.4973809029256
 20
493.4077755331859
 30
0.0
 10
724.2236613109135
 20
493.1289827453625
 30
0.0
 10
725.6876920285729
 20
492.5669942891876
 30
0.0
 10
727.1522314111122
 20
492.0048100112879
 30
0.0
 10
727.8902380457828
 20
491.7215156649945
 30
0.0
  0
LINE
  5
B2
330
1F
100
AcDbEntity
  8
0
  6
Continuous
 62
     7
370
    15
100
AcDbLine
 10
723.4973781604
 20
491.7215148003
 30
0.0
 11
723.4973781604
 21
493.4077749045
 31
0.0
  0
LINE
  5
B3
330
1F
100
AcDbEntity
  8
0
  6
Continuous
 62
     7
370
    15
100
AcDbLine
 10
721.7830964225
 20
491.7215148003
 30
0.0
 11
723.4973781604
 21
491.7215148003
 31
0.0
  0
LINE
  5
B4
330
1F
100
AcDbEntity
  8
0
  6
Continuous
 62
     7
370
    15
100
AcDbLine
 10
721.7830964225
 20
496.5981358678
 30
0.0
 11
721.7830964225
 21
491.7215148003
 31
0.0
  0
SPLINE
  5
B5
330
1F
100
AcDbEntity
  8
0
  6
Continuous
 62
     7
370
    15
100
AcDbSpline
210
0.0
220
0.0
230
1.0
 70
     8
 71
     3
 72
    10
 73
     6
 74
     0
 42
0.00000001
 43
0.00000001
 12
1.0
 22
0.0
 32
0.0
 13
1.0
 23
0.0
 33
0.0
 40
0.0
 40
0.0
 40
0.0
 40
0.0
 40
0.3290388732291639
 40
0.6623721365282661
 40
1.0
 40
1.0
 40
1.0
 40
1.0
 10
727.8902380457829
 20
499.0846135130064
 30
0.0
 10
727.2206812248837
 20
498.812008534253
 30
0.0
 10
725.8728289859259
 20
498.263240723225
 30
0.0
 10
723.8371056665824
 20
497.4344105063911
 30
0.0
 10
722.4706806926712
 20
496.878079745952
 30
0.0
 10
721.7830951886399
 20
496.5981339211697
 30
0.0
  0
LINE
  5
B6
330
1F
100
AcDbEntity
  8
0
  6
Continuous
 62
     7
370
    15
100
AcDbLine
 10
727.8902404803
 20
497.1642756851
 30
0.0
 11
727.8902404803
 21
499.0846106799
 31
0.0
  0
LINE
  5
B7
330
1F
100
AcDbEntity
  8
0
  6
Continuous
 62
     7
370
    15
100
AcDbLine
 10
726.9473844069
 20
496.780399421
 30
0.0
 11
727.8902404803
 21
497.1642756851
 31
0.0
  0
LINE
  5
B8
330
1F
100
AcDbEntity
  8
0
  6
Continuous
 62
     7
370
    15
100
AcDbLine
 10
726.9473844069
 20
493.9885551126
 30
0.0
 11
726.9473844069
 21
496.780399421
 31
0.0
  0
LINE
  5
B9
330
1F
100
AcDbEntity
  8
0
  6
Continuous
 62
     7
370
    15
100
AcDbLine
 10
727.8902404803
 20
493.6266208084
 30
0.0
 11
726.9473844069
 21
493.9885551126
 31
0.0
  0
SPLINE
  5
BA
330
1F
100
AcDbEntity
  8
0
  6
Continuous
 62
     7
370
    15
100
AcDbSpline
210
0.0
220
0.0
230
1.0
 70
    24
 71
     3
 72
     9
 73
     5
 74
     0
 42
0.00000001
 43
0.00000001
 12
1.0
 22
0.0
 32
0.0
 13
1.0
 23
0.0
 33
0.0
 40
0.0
 40
0.0
 40
0.0
 40
0.0
 40
0.5002058985207641
 40
1.0
 40
1.0
 40
1.0
 40
1.0
 10
725.3188094743541
 20
494.4300776377166
 30
0.0
 10
724.9631195754073
 20
494.5666141975477
 30
0.0
 10
724.2520326010259
 20
494.8395749127948
 30
0.0
 10
723.54108171661
 20
495.1124833879987
 30
0.0
 10
723.1857526581375
 20
495.2488814341493
 30
0.0
  0
LINE
  5
BB
330
1F
100
AcDbEntity
  8
0
  6
Continuous
 62
     7
370
    15
100
AcDbLine
 10
725.3188066977
 20
494.4300765188
 30
0.0
 11
725.3188066977
 21
496.1173424513
 31
0.0
  0
SPLINE
  5
BC
330
1F
100
AcDbEntity
  8
0
  6
Continuous
 62
     7
370
    15
100
AcDbSpline
210
0.0
220
0.0
230
1.0
 70
    24
 71
     3
 72
     9
 73
     5
 74
     0
 42
0.00000001
 43
0.00000001
 12
1.0
 22
0.0
 32
0.0
 13
1.0
 23
0.0
 33
0.0
 40
0.0
 40
0.0
 40
0.0
 40
0.0
 40
0.5002237409545685
 40
1.0
 40
1.0
 40
1.0
 40
1.0
 10
723.1857526581375
 20
495.2488814341493
 30
0.0
 10
723.5414629818182
 20
495.3937063516478
 30
0.0
 10
724.2525654237008
 20
495.6832266315571
 30
0.0
 10
724.9635008343814
 20
495.9726789059057
 30
0.0
 10
725.3188094743542
 20
496.1173402807518
 30
0.0
  0
LINE
  5
BD
330
1F
100
AcDbEntity
  8
0
  6
Continuous
 62
     7
370
    15
100
AcDbLine
 10
727.8902404803
 20
491.7215148003
 30
0.0
 11
727.8902404803
 21
493.6266208084
 31
0.0
  0
LINE
  5
BE
330
1F
100
AcDbEntity
  8
0
  6
Continuous
 62
     7
370
    15
100
AcDbLine
 10
544.7473772663
 20
453.7215160222
 30
0.0
 11
544.7473772663
 21
451.8164081515
 31
0.0
  0
SPLINE
  5
BF
330
1F
100
AcDbEntity
  8
0
  6
Continuous
 62
     7
370
    15
100
AcDbSpline
210
0.0
220
0.0
230
1.0
 70
     8
 71
     3
 72
     9
 73
     5
 74
     0
 42
0.00000001
 43
0.00000001
 12
1.0
 22
0.0
 32
0.0
 13
1.0
 23
0.0
 33
0.0
 40
0.0
 40
0.0
 40
0.0
 40
0.0
 40
0.4960827660427823
 40
1.0
 40
1.0
 40
1.0
 40
1.0
 10
549.1402380457823
 20
452.0352557968078
 30
0.0
 10
548.4139576377944
 20
452.3140485846312
 30
0.0
 10
546.9499269201352
 20
452.876037040806
 30
0.0
 10
545.4853875375959
 20
453.4382213187058
 30
0.0
 10
544.7473809029252
 20
453.7215156649992
 30
0.0
  0
LINE
  5
C0
330
1F
100
AcDbEntity
  8
0
  6
Continuous
 62
     7
370
    15
100
AcDbLine
 10
549.1402395862
 20
453.7215160222
 30
0.0
 11
549.1402395862
 21
452.035255918
 31
0.0
  0
LINE
  5
C1
330
1F
100
AcDbEntity
  8
0
  6
Continuous
 62
     7
370
    15
100
AcDbLine
 10
550.854521324
 20
453.7215160222
 30
0.0
 11
549.1402395862
 21
453.7215160222
 31
0.0
  0
LINE
  5
C2
330
1F
100
AcDbEntity
  8
0
  6
Continuous
 62
     7
370
    15
100
AcDbLine
 10
550.854521324
 20
448.8448968173
 30
0.0
 11
550.854521324
 21
453.7215160222
 31
0.0
  0
SPLINE
  5
C3
330
1F
100
AcDbEntity
  8
0
  6
Continuous
 62
     7
370
    15
100
AcDbSpline
210
0.0
220
0.0
230
1.0
 70
     8
 71
     3
 72
    10
 73
     6
 74
     0
 42
0.00000001
 43
0.00000001
 12
1.0
 22
0.0
 32
0.0
 13
1.0
 23
0.0
 33
0.0
 40
0.0
 40
0.0
 40
0.0
 40
0.0
 40
0.3290388732290604
 40
0.6623721365281628
 40
1.0
 40
1.0
 40
1.0
 40
1.0
 10
544.7473809029252
 20
446.3584178169872
 30
0.0
 10
545.4169377238242
 20
446.6310227957405
 30
0.0
 10
546.7647899627816
 20
447.1797906067684
 30
0.0
 10
548.8005132821253
 20
448.0086208236024
 30
0.0
 10
550.1669382560367
 20
448.5649515840416
 30
0.0
 10
550.8545237600681
 20
448.8448974088239
 30
0.0
  0
LINE
  5
C4
330
1F
100
AcDbEntity
  8
0
  6
Continuous
 62
     7
370
    15
100
AcDbLine
 10
544.7473772663
 20
448.2787514121
 30
0.0
 11
544.7473772663
 21
446.35841828
 31
0.0
  0
LINE
  5
C5
330
1F
100
AcDbEntity
  8
0
  6
Continuous
 62
     7
370
    15
100
AcDbLine
 10
545.6902407902
 20
448.6626295389
 30
0.0
 11
544.7473772663
 21
448.2787514121
 31
0.0
  0
LINE
  5
C6
330
1F
100
AcDbEntity
  8
0
  6
Continuous
 62
     7
370
    15
100
AcDbLine
 10
545.6902407902
 20
451.4544794352
 30
0.0
 11
545.6902407902
 21
448.6626295389
 31
0.0
  0
LINE
  5
C7
330
1F
100
AcDbEntity
  8
0
  6
Continuous
 62
     7
370
    15
100
AcDbLine
 10
544.7473772663
 20
451.8164081515
 30
0.0
 11
545.6902407902
 21
451.4544794352
 31
0.0
  0
SPLINE
  5
C8
330
1F
100
AcDbEntity
  8
0
  6
Continuous
 62
     7
370
    15
100
AcDbSpline
210
0.0
220
0.0
230
1.0
 70
    24
 71
     3
 72
     9
 73
     5
 74
     0
 42
0.00000001
 43
0.00000001
 12
1.0
 22
0.0
 32
0.0
 13
1.0
 23
0.0
 33
0.0
 40
0.0
 40
0.0
 40
0.0
 40
0.0
 40
0.5002058985207972
 40
1.0
 40
1.0
 40
1.0
 40
1.0
 10
547.318809474354
 20
451.0129536922771
 30
0.0
 10
547.6744993733008
 20
450.876417132446
 30
0.0
 10
548.3855863476822
 20
450.6034564171988
 30
0.0
 10
549.0965372320981
 20
450.3305479419949
 30
0.0
 10
549.4518662905705
 20
450.1941498958443
 30
0.0
  0
LINE
  5
C9
330
1F
100
AcDbEntity
  8
0
  6
Continuous
 62
     7
370
    15
100
AcDbLine
 10
547.3188110489
 20
451.0129543037
 30
0.0
 11
547.3188110489
 21
449.3256902338
 31
0.0
  0
SPLINE
  5
CA
330
1F
100
AcDbEntity
  8
0
  6
Continuous
 62
     7
370
    15
100
AcDbSpline
210
0.0
220
0.0
230
1.0
 70
    24
 71
     3
 72
     9
 73
     5
 74
     0
 42
0.00000001
 43
0.00000001
 12
1.0
 22
0.0
 32
0.0
 13
1.0
 23
0.0
 33
0.0
 40
0.0
 40
0.0
 40
0.0
 40
0.0
 40
0.5002237409545679
 40
1.0
 40
1.0
 40
1.0
 40
1.0
 10
549.4518662905704
 20
450.1941498958443
 30
0.0
 10
549.0961559668899
 20
450.0493249783459
 30
0.0
 10
548.385053525007
 20
449.7598046984364
 30
0.0
 10
547.6741181143266
 20
449.4703524240879
 30
0.0
 10
547.3188094743538
 20
449.3256910492419
 30
0.0
  0
LINE
  5
CB
330
1F
100
AcDbEntity
  8
0
  6
Continuous
 62
     7
370
    15
100
AcDbLine
 10
721.0973822373
 20
504.3837094695
 30
0.0
 11
721.0973822373
 21
509.7215140254
 31
0.0
  0
SPLINE
  5
CC
330
1F
100
AcDbEntity
  8
0
  6
Continuous
 62
     7
370
    15
100
AcDbSpline
210
0.0
220
0.0
230
1.0
 70
     8
 71
     3
 72
    10
 73
     6
 74
     0
 42
0.00000001
 43
0.00000001
 12
1.0
 22
0.0
 32
0.0
 13
1.0
 23
0.0
 33
0.0
 40
0.0
 40
0.0
 40
0.0
 40
0.0
 40
0.3375817073229633
 40
0.6709149037431927
 40
0.9999999999999999
 40
0.9999999999999999
 40
0.9999999999999999
 40
0.9999999999999999
 10
727.8902380457829
 20
501.6180479059487
 30
0.0
 10
727.1254276857591
 20
501.9294353820208
 30
0.0
 10
725.6054322063053
 20
502.5482914811631
 30
0.0
 10
723.3411318549113
 20
503.470185206759
 30
0.0
 10
721.842093433666
 20
504.0805071849502
 30
0.0
 10
721.0973809029257
 20
504.3837111712548
 30
0.0
  0
LINE
  5
CD
330
1F
100
AcDbEntity
  8
0
  6
Continuous
 62
     7
370
    15
100
AcDbLine
 10
727.8902404803
 20
499.8249823243
 30
0.0
 11
727.8902404803
 21
501.6180465014
 31
0.0
  0
SPLINE
  5
CE
330
1F
100
AcDbEntity
  8
0
  6
Continuous
 62
     7
370
    15
100
AcDbSpline
210
0.0
220
0.0
230
1.0
 70
     8
 71
     3
 72
    10
 73
     6
 74
     0
 42
0.00000001
 43
0.00000001
 12
1.0
 22
0.0
 32
0.0
 13
1.0
 23
0.0
 33
0.0
 40
0.0
 40
0.0
 40
0.0
 40
0.0
 40
0.3380335873036442
 40
0.6713668289975253
 40
1.0
 40
1.0
 40
1.0
 40
1.0
 10
721.0973809029256
 20
497.0593201587344
 30
0.0
 10
721.8631316624403
 20
497.3710905353477
 30
0.0
 10
723.3839854430321
 20
497.9902961320217
 30
0.0
 10
725.648283810161
 20
498.9121890485161
 30
0.0
 10
727.1464657468447
 20
499.5221622690166
 30
0.0
 10
727.8902380457828
 20
499.8249834240403
 30
0.0
  0
LINE
  5
CF
330
1F
100
AcDbEntity
  8
0
  6
Continuous
 62
     7
370
    15
100
AcDbLine
 10
721.0973822373
 20
491.7215148003
 30
0.0
 11
721.0973822373
 21
497.0593193562
 31
0.0
  0
SPLINE
  5
D0
330
1F
100
AcDbEntity
  8
0
  6
Continuous
 62
     7
370
    15
100
AcDbSpline
210
0.0
220
0.0
230
1.0
 70
     8
 71
     3
 72
    10
 73
     6
 74
     0
 42
0.00000001
 43
0.00000001
 12
1.0
 22
0.0
 32
0.0
 13
1.0
 23
0.0
 33
0.0
 40
0.0
 40
0.0
 40
0.0
 40
0.0
 40
0.3292912460770234
 40
0.6626245006380309
 40
1.0
 40
1.0
 40
1.0
 40
1.0
 10
725.3188094743542
 20
500.7215156649945
 30
0.0
 10
724.6605120119755
 20
500.4534948313869
 30
0.0
 10
723.3358365689544
 20
499.9141632422676
 30
0.0
 10
721.3358275667613
 20
499.0998738544943
 30
0.0
 10
719.9938448039217
 20
498.5534946104254
 30
0.0
 10
719.3188094743543
 20
498.2786585221375
 30
0.0
  0
SPLINE
  5
D1
330
1F
100
AcDbEntity
  8
0
  6
Continuous
 62
     7
370
    15
100
AcDbSpline
210
0.0
220
0.0
230
1.0
 70
     8
 71
     3
 72
    10
 73
     6
 74
     0
 42
0.00000001
 43
0.00000001
 12
1.0
 22
0.0
 32
0.0
 13
1.0
 23
0.0
 33
0.0
 40
0.0
 40
0.0
 40
0.0
 40
0.0
 40
0.3295038435101977
 40
0.6628370791968891
 40
1.0
 40
1.0
 40
1.0
 40
1.0
 10
719.3188094743542
 20
503.1643728078517
 30
0.0
 10
719.9774974587581
 20
502.8961929709856
 30
0.0
 10
721.3025284964333
 20
502.3567165937934
 30
0.0
 10
723.3025382295377
 20
501.5424269080249
 30
0.0
 10
724.6441647285739
 20
500.9961927245847
 30
0.0
 10
725.3188094743543
 20
500.7215156649945
 30
0.0
  0
LINE
  5
D2
330
1F
100
AcDbEntity
  8
0
  6
Continuous
 62
     7
370
    15
100
AcDbLine
 10
719.3188094395
 20
509.7215140254
 30
0.0
 11
719.3188094395
 21
503.1643698008
 31
0.0
  0
LINE
  5
D3
330
1F
100
AcDbEntity
  8
0
  6
Continuous
 62
     7
370
    15
100
AcDbLine
 10
719.3188094395
 20
509.7215140254
 30
0.0
 11
721.0973822373
 21
509.7215140254
 31
0.0
  0
LINE
  5
D4
330
1F
100
AcDbEntity
  8
0
  6
Continuous
 62
     7
370
    15
100
AcDbLine
 10
719.3188094395
 20
491.7215148003
 30
0.0
 11
721.0973822373
 21
491.7215148003
 31
0.0
  0
LINE
  5
D5
330
1F
100
AcDbEntity
  8
0
  6
Continuous
 62
     7
370
    15
100
AcDbLine
 10
719.3188094395
 20
498.2786590249
 30
0.0
 11
719.3188094395
 21
491.7215148003
 31
0.0
  0
LINE
  5
D6
330
1F
100
AcDbEntity
  8
0
  6
Continuous
 62
     7
370
    15
100
AcDbLine
 10
551.5402355093
 20
441.0593204216
 30
0.0
 11
551.5402355093
 21
435.7215158657
 31
0.0
  0
SPLINE
  5
D7
330
1F
100
AcDbEntity
  8
0
  6
Continuous
 62
     7
370
    15
100
AcDbSpline
210
0.0
220
0.0
230
1.0
 70
     8
 71
     3
 72
    10
 73
     6
 74
     0
 42
0.00000001
 43
0.00000001
 12
1.0
 22
0.0
 32
0.0
 13
1.0
 23
0.0
 33
0.0
 40
0.0
 40
0.0
 40
0.0
 40
0.0
 40
0.3375817073224061
 40
0.670914903742637
 40
1.0
 40
1.0
 40
1.0
 40
1.0
 10
544.7473809029252
 20
443.8249834240451
 30
0.0
 10
545.5121912629477
 20
443.5135959479735
 30
0.0
 10
547.0321867424003
 20
442.8947398488316
 30
0.0
 10
549.2964870937942
 20
441.9728461232355
 30
0.0
 10
550.7955255150407
 20
441.3625241450438
 30
0.0
 10
551.5402380457822
 20
441.0593201587388
 30
0.0
  0
LINE
  5
D8
330
1F
100
AcDbEntity
  8
0
  6
Continuous
 62
     7
370
    15
100
AcDbLine
 10
544.7473772663
 20
445.6180475668
 30
0.0
 11
544.7473772663
 21
443.8249833898
 31
0.0
  0
SPLINE
  5
D9
330
1F
100
AcDbEntity
  8
0
  6
Continuous
 62
     7
370
    15
100
AcDbSpline
210
0.0
220
0.0
230
1.0
 70
     8
 71
     3
 72
    10
 73
     6
 74
     0
 42
0.00000001
 43
0.00000001
 12
1.0
 22
0.0
 32
0.0
 13
1.0
 23
0.0
 33
0.0
 40
0.0
 40
0.0
 40
0.0
 40
0.0
 40
0.3380335873036439
 40
0.6713668289975252
 40
1.0
 40
1.0
 40
1.0
 40
1.0
 10
551.5402380457823
 20
448.3837111712593
 30
0.0
 10
550.7744872862678
 20
448.071940794646
 30
0.0
 10
549.2536335056759
 20
447.4527351979719
 30
0.0
 10
546.989335138547
 20
446.5308422814775
 30
0.0
 10
545.4911532018633
 20
445.9208690609771
 30
0.0
 10
544.7473809029253
 20
445.6180479059533
 30
0.0
  0
LINE
  5
DA
330
1F
100
AcDbEntity
  8
0
  6
Continuous
 62
     7
370
    15
100
AcDbLine
 10
551.5402355093
 20
453.7215160222
 30
0.0
 11
551.5402355093
 21
448.3837114663
 31
0.0
  0
SPLINE
  5
DB
330
1F
100
AcDbEntity
  8
0
  6
Continuous
 62
     7
370
    15
100
AcDbSpline
210
0.0
220
0.0
230
1.0
 70
     8
 71
     3
 72
    10
 73
     6
 74
     0
 42
0.00000001
 43
0.00000001
 12
1.0
 22
0.0
 32
0.0
 13
1.0
 23
0.0
 33
0.0
 40
0.0
 40
0.0
 40
0.0
 40
0.0
 40
0.3292912460770234
 40
0.6626245006380314
 40
1.0
 40
1.0
 40
1.0
 40
1.0
 10
547.3188094743538
 20
444.7215156649991
 30
0.0
 10
547.9771069367325
 20
444.9895364986068
 30
0.0
 10
549.3017823797537
 20
445.528868087726
 30
0.0
 10
551.3017913819467
 20
446.3431574754993
 30
0.0
 10
552.6437741447862
 20
446.8895367195682
 30
0.0
 10
553.3188094743538
 20
447.1643728078562
 30
0.0
  0
SPLINE
  5
DC
330
1F
100
AcDbEntity
  8
0
  6
Continuous
 62
     7
370
    15
100
AcDbSpline
210
0.0
220
0.0
230
1.0
 70
     8
 71
     3
 72
    10
 73
     6
 74
     0
 42
0.00000001
 43
0.00000001
 12
1.0
 22
0.0
 32
0.0
 13
1.0
 23
0.0
 33
0.0
 40
0.0
 40
0.0
 40
0.0
 40
0.0
 40
0.329503843510198
 40
0.6628370791968896
 40
1.0
 40
1.0
 40
1.0
 40
1.0
 10
553.3188094743538
 20
442.2786585221419
 30
0.0
 10
552.6601214899499
 20
442.546838359008
 30
0.0
 10
551.3350904522747
 20
443.0863147362003
 30
0.0
 10
549.3350807191704
 20
443.9006044219688
 30
0.0
 10
547.9934542201343
 20
444.4468386054089
 30
0.0
 10
547.3188094743538
 20
444.7215156649991
 30
0.0
  0
LINE
  5
DD
330
1F
100
AcDbEntity
  8
0
  6
Continuous
 62
     7
370
    15
100
AcDbLine
 10
553.318808307
 20
435.7215158657
 30
0.0
 11
553.318808307
 21
442.2786582277
 31
0.0
  0
LINE
  5
DE
330
1F
100
AcDbEntity
  8
0
  6
Continuous
 62
     7
370
    15
100
AcDbLine
 10
553.318808307
 20
435.7215158657
 30
0.0
 11
551.5402355093
 21
435.7215158657
 31
0.0
  0
LINE
  5
DF
330
1F
100
AcDbEntity
  8
0
  6
Continuous
 62
     7
370
    15
100
AcDbLine
 10
553.318808307
 20
453.7215160222
 30
0.0
 11
551.5402355093
 21
453.7215160222
 31
0.0
  0
LINE
  5
E0
330
1F
100
AcDbEntity
  8
0
  6
Continuous
 62
     7
370
    15
100
AcDbLine
 10
553.318808307
 20
447.1643736602
 30
0.0
 11
553.318808307
 21
453.7215160222
 31
0.0
  0
LINE
  5
E1
330
1F
100
AcDbEntity
  8
0
  6
Continuous
 62
     7
370
    15
100
AcDbLine
 10
723.4973781604
 20
509.2072302492
 30
0.0
 11
723.4973781604
 21
509.7215140254
 31
0.0
  0
SPLINE
  5
E2
330
1F
100
AcDbEntity
  8
0
  6
Continuous
 62
     7
370
    15
100
AcDbSpline
210
0.0
220
0.0
230
1.0
 70
     8
 71
     3
 72
    19
 73
    15
 74
     0
 42
0.00000001
 43
0.00000001
 12
1.0
 22
0.0
 32
0.0
 13
1.0
 23
0.0
 33
0.0
 40
0.0
 40
0.0
 40
0.0
 40
0.0
 40
0.0628854700655804
 40
0.1259097847834389
 40
0.1886136654296095
 40
0.2513880826035954
 40
0.3764243779294074
 40
0.5010962547911536
 40
0.6254786651114281
 40
0.7497674760165846
 40
0.8122549222892118
 40
0.8744149470671956
 40
0.9373053669466085
 40
1.0
 40
1.0
 40
1.0
 40
1.0
 10
725.1741806075526
 20
507.2462481535328
 30
0.0
 10
725.1617404572562
 20
507.2999687537098
 30
0.0
 10
725.1368326900908
 20
507.4075285636256
 30
0.0
 10
725.0866906130046
 20
507.5655319863794
 30
0.0
 10
725.0275191095427
 20
507.7205009351863
 30
0.0
 10
724.9359091118018
 20
507.9215725403337
 30
0.0
 10
724.7985261740873
 20
508.1623788660121
 30
0.0
 10
724.5990964509942
 20
508.4302883681464
 30
0.0
 10
724.3673503056235
 20
508.6733500315484
 30
0.0
 10
724.1488390649907
 20
508.8520702690658
 30
0.0
 10
723.9605873332347
 20
508.9784626879548
 30
0.0
 10
723.8122853687519
 20
509.0646206462181
 30
0.0
 10
723.6583055172435
 20
509.14220113286
 30
0.0
 10
723.5509666606832
 20
509.1855762186476
 30
0.0
 10
723.4973809029258
 20
509.2072299507089
 30
0.0
  0
SPLINE
  5
E3
330
1F
100
AcDbEntity
  8
0
  6
Continuous
 62
     7
370
    15
100
AcDbSpline
210
0.0
220
0.0
230
1.0
 70
     8
 71
     3
 72
     9
 73
     5
 74
     0
 42
0.00000001
 43
0.00000001
 12
1.0
 22
0.0
 32
0.0
 13
1.0
 23
0.0
 33
0.0
 40
0.0
 40
0.0
 40
0.0
 40
0.0
 40
0.4969708259056639
 40
0.9999999999999999
 40
0.9999999999999999
 40
0.9999999999999999
 40
0.9999999999999999
 10
727.8902380457829
 20
509.292944236423
 30
0.0
 10
727.4408589169772
 20
508.9543130278997
 30
0.0
 10
726.5366224801867
 20
508.2729225098421
 30
0.0
 10
725.6301584566555
 20
507.5898523645617
 30
0.0
 10
725.1741806075526
 20
507.2462481535328
 30
0.0
  0
LINE
  5
E4
330
1F
100
AcDbEntity
  8
0
  6
Continuous
 62
     7
370
    15
100
AcDbLine
 10
727.8902404803
 20
507.0659333856
 30
0.0
 11
727.8902404803
 21
509.2929417283
 31
0.0
  0
SPLINE
  5
E5
330
1F
100
AcDbEntity
  8
0
  6
Continuous
 62
     7
370
    15
100
AcDbSpline
210
0.0
220
0.0
230
1.0
 70
     8
 71
     3
 72
     9
 73
     5
 74
     0
 42
0.00000001
 43
0.00000001
 12
1.0
 22
0.0
 32
0.0
 13
1.0
 23
0.0
 33
0.0
 40
0.0
 40
0.0
 40
0.0
 40
0.0
 40
0.5027734389685551
 40
1.0
 40
1.0
 40
1.0
 40
1.0
 10
725.4889399644277
 20
505.2564236354217
 30
0.0
 10
725.891776466329
 20
505.559982897894
 30
0.0
 10
726.6930051524104
 20
506.1637523871797
 30
0.0
 10
727.4926389049318
 20
506.766319270798
 30
0.0
 10
727.8902380457829
 20
507.0659315301309
 30
0.0
  0
SPLINE
  5
E6
330
1F
100
AcDbEntity
  8
0
  6
Continuous
 62
     7
370
    15
100
AcDbSpline
210
0.0
220
0.0
230
1.0
 70
     8
 71
     3
 72
     9
 73
     5
 74
     0
 42
0.00000001
 43
0.00000001
 12
1.0
 22
0.0
 32
0.0
 13
1.0
 23
0.0
 33
0.0
 40
0.0
 40
0.0
 40
0.0
 40
0.0
 40
0.5016388968445682
 40
0.9999999999999999
 40
0.9999999999999999
 40
0.9999999999999999
 40
0.9999999999999999
 10
727.8902380457829
 20
504.2787522737271
 30
0.0
 10
727.4886279989938
 20
504.4422649920254
 30
0.0
 10
726.6880320936219
 20
504.7682220087697
 30
0.0
 10
725.8877629684631
 20
505.0940457542099
 30
0.0
 10
725.4889399644278
 20
505.2564236354217
 30
0.0
  0
LINE
  5
E7
330
1F
100
AcDbEntity
  8
0
  6
Continuous
 62
     7
370
    15
100
AcDbLine
 10
727.8902404803
 20
502.3584181459
 30
0.0
 11
727.8902404803
 21
504.2787531407
 31
0.0
  0
SPLINE
  5
E8
330
1F
100
AcDbEntity
  8
0
  6
Continuous
 62
     7
370
    15
100
AcDbSpline
210
0.0
220
0.0
230
1.0
 70
     8
 71
     3
 72
    10
 73
     6
 74
     0
 42
0.00000001
 43
0.00000001
 12
1.0
 22
0.0
 32
0.0
 13
1.0
 23
0.0
 33
0.0
 40
0.0
 40
0.0
 40
0.0
 40
0.0
 40
0.3295549275670746
 40
0.6628881445310784
 40
1.0
 40
1.0
 40
1.0
 40
1.0
 10
721.7830951886401
 20
504.8448974088193
 30
0.0
 10
722.4536176597927
 20
504.5718992585178
 30
0.0
 10
723.8023500245313
 20
504.0227730820413
 30
0.0
 10
725.8380751691451
 20
503.1939421210212
 30
0.0
 10
727.2036183462801
 20
502.6379704066416
 30
0.0
 10
727.8902380457827
 20
502.3584178169826
 30
0.0
  0
LINE
  5
E9
330
1F
100
AcDbEntity
  8
0
  6
Continuous
 62
     7
370
    15
100
AcDbLine
 10
721.7830964225
 20
506.7652354033
 30
0.0
 11
721.7830964225
 21
504.8449004085
 31
0.0
  0
SPLINE
  5
EA
330
1F
100
AcDbEntity
  8
0
  6
Continuous
 62
     7
370
    15
100
AcDbSpline
210
0.0
220
0.0
230
1.0
 70
     8
 71
     3
 72
     9
 73
     5
 74
     0
 42
0.00000001
 43
0.00000001
 12
1.0
 22
0.0
 32
0.0
 13
1.0
 23
0.0
 33
0.0
 40
0.0
 40
0.0
 40
0.0
 40
0.0
 40
0.5014857218124665
 40
1.0
 40
1.0
 40
1.0
 40
1.0
 10
724.0102371306717
 20
505.8584669320224
 30
0.0
 10
723.6378684685174
 20
506.0100742264886
 30
0.0
 10
722.8953375330229
 20
506.3123904996586
 30
0.0
 10
722.1531074718399
 20
506.6145840606389
 30
0.0
 10
721.78309518864
 20
506.7652318655639
 30
0.0
  0
SPLINE
  5
EB
330
1F
100
AcDbEntity
  8
0
  6
Continuous
 62
     7
370
    15
100
AcDbSpline
210
0.0
220
0.0
230
1.0
 70
     8
 71
     3
 72
    26
 73
    22
 74
     0
 42
0.00000001
 43
0.00000001
 12
1.0
 22
0.0
 32
0.0
 13
1.0
 23
0.0
 33
0.0
 40
0.0
 40
0.0
 40
0.0
 40
0.0
 40
0.0180129982443826
 40
0.0359905064303128
 40
0.0718562838797781
 40
0.1254983075946004
 40
0.1879534122553136
 40
0.2503549549249855
 40
0.3127340455378733
 40
0.3750897363124585
 40
0.4374071743862988
 40
0.4996757887303027
 40
0.5619050481543522
 40
0.6241614936406139
 40
0.6865068640292119
 40
0.7489684418952363
 40
0.8115509957677223
 40
0.874248696495046
 40
0.9370569317512802
 40
0.968549133797423
 40
1.0
 40
1.0
 40
1.0
 40
1.0
 10
721.78309518864
 20
508.0072299507089
 30
0.0
 10
721.8042632146518
 20
508.0070472365886
 30
0.0
 10
721.8465575604323
 20
508.0066821683401
 30
0.0
 10
721.9309128181349
 20
508.0028010065519
 30
0.0
 10
722.0567382101823
 20
507.9917295054821
 30
0.0
 10
722.2329514051212
 20
507.9632180793315
 30
0.0
 10
722.4355824578411
 20
507.9111609322343
 30
0.0
 10
722.6411025230117
 20
507.8366640179652
 30
0.0
 10
722.8376112609102
 20
507.7434917538985
 30
0.0
 10
723.0233421515719
 20
507.6327525051765
 30
0.0
 10
723.1965575629296
 20
507.5055793565228
 30
0.0
 10
723.3553964353071
 20
507.3629779611308
 30
0.0
 10
723.4984199607006
 20
507.2063726436999
 30
0.0
 10
723.6252627100891
 20
507.0377584648834
 30
0.0
 10
723.7352587780339
 20
506.8586102205043
 30
0.0
 10
723.8278952889026
 20
506.6704745623731
 30
0.0
 10
723.9025920099245
 20
506.4748624665158
 30
0.0
 10
723.9588803216053
 20
506.2733119280209
 30
0.0
 10
723.9897004775282
 20
506.1016609086531
 30
0.0
 10
724.0050309133037
 20
505.9630141532341
 30
0.0
 10
724.0085024848302
 20
505.8933007450772
 30
0.0
 10
724.0102371306717
 20
505.8584669320224
 30
0.0
  0
LINE
  5
EC
330
1F
100
AcDbEntity
  8
0
  6
Continuous
 62
     7
370
    15
100
AcDbLine
 10
721.7830964225
 20
509.7215140254
 30
0.0
 11
721.7830964225
 21
508.0072322876
 31
0.0
  0
LINE
  5
ED
330
1F
100
AcDbEntity
  8
0
  6
Continuous
 62
     7
370
    15
100
AcDbLine
 10
721.7830964225
 20
509.7215140254
 30
0.0
 11
723.4973781604
 21
509.7215140254
 31
0.0
  0
LINE
  5
EE
330
1F
100
AcDbEntity
  8
0
  6
Continuous
 62
     7
370
    15
100
AcDbLine
 10
549.1402395862
 20
436.2358015047
 30
0.0
 11
549.1402395862
 21
435.7215158657
 31
0.0
  0
SPLINE
  5
EF
330
1F
100
AcDbEntity
  8
0
  6
Continuous
 62
     7
370
    15
100
AcDbSpline
210
0.0
220
0.0
230
1.0
 70
     8
 71
     3
 72
    19
 73
    15
 74
     0
 42
0.00000001
 43
0.00000001
 12
1.0
 22
0.0
 32
0.0
 13
1.0
 23
0.0
 33
0.0
 40
0.0
 40
0.0
 40
0.0
 40
0.0
 40
0.0628854700655823
 40
0.1259097847834428
 40
0.1886136654272763
 40
0.2513880826035912
 40
0.376424377929405
 40
0.5010962547911497
 40
0.6254786651114203
 40
0.749767476016577
 40
0.8122549222870361
 40
0.8744149470671873
 40
0.9373053669458568
 40
1.0
 40
1.0
 40
1.0
 40
1.0
 10
547.4634383411556
 20
438.1967831764608
 30
0.0
 10
547.4758784914518
 20
438.1430625762839
 30
0.0
 10
547.5007862586172
 20
438.035502766368
 30
0.0
 10
547.5509283357026
 20
437.877499343616
 30
0.0
 10
547.6100998391652
 20
437.7225303948094
 30
0.0
 10
547.7017098369048
 20
437.5214587896616
 30
0.0
 10
547.8390927746208
 20
437.2806524639815
 30
0.0
 10
548.0385224977138
 20
437.0127429618472
 30
0.0
 10
548.2702686430845
 20
436.7696812984452
 30
0.0
 10
548.4887798837158
 20
436.590961060929
 30
0.0
 10
548.6770316154715
 20
436.4645686420396
 30
0.0
 10
548.8253335799538
 20
436.3784106837768
 30
0.0
 10
548.9793134314638
 20
436.3008301971336
 30
0.0
 10
549.0866522880241
 20
436.2574551113462
 30
0.0
 10
549.1402380457823
 20
436.2358013792847
 30
0.0
  0
SPLINE
  5
F0
330
1F
100
AcDbEntity
  8
0
  6
Continuous
 62
     7
370
    15
100
AcDbSpline
210
0.0
220
0.0
230
1.0
 70
     8
 71
     3
 72
     9
 73
     5
 74
     0
 42
0.00000001
 43
0.00000001
 12
1.0
 22
0.0
 32
0.0
 13
1.0
 23
0.0
 33
0.0
 40
0.0
 40
0.0
 40
0.0
 40
0.0
 40
0.4969708259048449
 40
1.0
 40
1.0
 40
1.0
 40
1.0
 10
544.7473809029251
 20
436.1500870935705
 30
0.0
 10
545.1967600317302
 20
436.4887183020933
 30
0.0
 10
546.1009964685206
 20
437.1701088201509
 30
0.0
 10
547.0074604920517
 20
437.8531789654313
 30
0.0
 10
547.4634383411556
 20
438.1967831764608
 30
0.0
  0
LINE
  5
F1
330
1F
100
AcDbEntity
  8
0
  6
Continuous
 62
     7
370
    15
100
AcDbLine
 10
544.7473772663
 20
438.3770997652
 30
0.0
 11
544.7473772663
 21
436.1500872315
 31
0.0
  0
SPLINE
  5
F2
330
1F
100
AcDbEntity
  8
0
  6
Continuous
 62
     7
370
    15
100
AcDbSpline
210
0.0
220
0.0
230
1.0
 70
     8
 71
     3
 72
     9
 73
     5
 74
     0
 42
0.00000001
 43
0.00000001
 12
1.0
 22
0.0
 32
0.0
 13
1.0
 23
0.0
 33
0.0
 40
0.0
 40
0.0
 40
0.0
 40
0.0
 40
0.5027734389685549
 40
1.0
 40
1.0
 40
1.0
 40
1.0
 10
547.1486789842803
 20
440.186607694572
 30
0.0
 10
546.745842482379
 20
439.8830484320995
 30
0.0
 10
545.9446137962977
 20
439.279278942814
 30
0.0
 10
545.1449800437761
 20
438.6767120591956
 30
0.0
 10
544.7473809029251
 20
438.3770997998627
 30
0.0
  0
SPLINE
  5
F3
330
1F
100
AcDbEntity
  8
0
  6
Continuous
 62
     7
370
    15
100
AcDbSpline
210
0.0
220
0.0
230
1.0
 70
     8
 71
     3
 72
     9
 73
     5
 74
     0
 42
0.00000001
 43
0.00000001
 12
1.0
 22
0.0
 32
0.0
 13
1.0
 23
0.0
 33
0.0
 40
0.0
 40
0.0
 40
0.0
 40
0.0
 40
0.5016388968445671
 40
1.0
 40
1.0
 40
1.0
 40
1.0
 10
544.7473809029251
 20
441.1642790562665
 30
0.0
 10
545.1489909497142
 20
441.0007663379682
 30
0.0
 10
545.949586855086
 20
440.6748093212238
 30
0.0
 10
546.7498559802449
 20
440.3489855757837
 30
0.0
 10
547.1486789842803
 20
440.1866076945719
 30
0.0
  0
LINE
  5
F4
330
1F
100
AcDbEntity
  8
0
  6
Continuous
 62
     7
370
    15
100
AcDbLine
 10
550.854521324
 20
438.6777991445
 30
0.0
 11
550.854521324
 21
440.5981341393
 31
0.0
  0
SPLINE
  5
F5
330
1F
100
AcDbEntity
  8
0
  6
Continuous
 62
     7
370
    15
100
AcDbSpline
210
0.0
220
0.0
230
1.0
 70
     8
 71
     3
 72
     9
 73
     5
 74
     0
 42
0.00000001
 43
0.00000001
 12
1.0
 22
0.0
 32
0.0
 13
1.0
 23
0.0
 33
0.0
 40
0.0
 40
0.0
 40
0.0
 40
0.0
 40
0.5014857218122305
 40
1.0
 40
1.0
 40
1.0
 40
1.0
 10
548.6273818180363
 20
439.5845643979712
 30
0.0
 10
548.9997504801905
 20
439.432957103505
 30
0.0
 10
549.7422814156848
 20
439.1306408303351
 30
0.0
 10
550.484511476868
 20
438.8284472693549
 30
0.0
 10
550.854523760068
 20
438.6777994644298
 30
0.0
  0
SPLINE
  5
F6
330
1F
100
AcDbEntity
  8
0
  6
Continuous
 62
     7
370
    15
100
AcDbSpline
210
0.0
220
0.0
230
1.0
 70
     8
 71
     3
 72
    26
 73
    22
 74
     0
 42
0.00000001
 43
0.00000001
 12
1.0
 22
0.0
 32
0.0
 13
1.0
 23
0.0
 33
0.0
 40
0.0
 40
0.0
 40
0.0
 40
0.0
 40
0.0180129982443788
 40
0.0359905064303132
 40
0.0718562838797784
 40
0.1254983075945972
 40
0.18795341225531
 40
0.2503549549249861
 40
0.3127340455378766
 40
0.375089736312457
 40
0.4374071743863011
 40
0.4996757887303064
 40
0.5619050481543542
 40
0.6241614936406165
 40
0.6865068640292161
 40
0.7489684418952426
 40
0.8115509957677265
 40
0.8742486964950517
 40
0.9370569317512863
 40
0.96854913379905
 40
1.0
 40
1.0
 40
1.0
 40
1.0
 10
550.854523760068
 20
437.4358013792847
 30
0.0
 10
550.8333557340562
 20
437.435984093405
 30
0.0
 10
550.7910613882758
 20
437.4363491616535
 30
0.0
 10
550.7067061305731
 20
437.4402303234416
 30
0.0
 10
550.5808807385258
 20
437.4513018245115
 30
0.0
 10
550.4046675435867
 20
437.4798132506621
 30
0.0
 10
550.2020364908668
 20
437.5318703977592
 30
0.0
 10
549.9965164256962
 20
437.6063673120283
 30
0.0
 10
549.8000076877978
 20
437.699539576095
 30
0.0
 10
549.6142767971361
 20
437.810278824817
 30
0.0
 10
549.4410613857784
 20
437.9374519734708
 30
0.0
 10
549.2822225134008
 20
438.0800533688628
 30
0.0
 10
549.1391989880075
 20
438.2366586862937
 30
0.0
 10
549.0123562386188
 20
438.4052728651102
 30
0.0
 10
548.9023601706741
 20
438.5844211094893
 30
0.0
 10
548.8097236598054
 20
438.7725567676205
 30
0.0
 10
548.7350269387834
 20
438.9681688634778
 30
0.0
 10
548.6787386271028
 20
439.1697194019727
 30
0.0
 10
548.6479184711793
 20
439.3413704213423
 30
0.0
 10
548.6325880354046
 20
439.4800171767614
 30
0.0
 10
548.629116463878
 20
439.5497305849183
 30
0.0
 10
548.6273818180363
 20
439.5845643979712
 30
0.0
  0
LINE
  5
F7
330
1F
100
AcDbEntity
  8
0
  6
Continuous
 62
     7
370
    15
100
AcDbLine
 10
550.854521324
 20
435.7215158657
 30
0.0
 11
550.854521324
 21
437.4358013288
 31
0.0
  0
LINE
  5
F8
330
1F
100
AcDbEntity
  8
0
  6
Continuous
 62
     7
370
    15
100
AcDbLine
 10
550.854521324
 20
435.7215158657
 30
0.0
 11
549.1402395862
 21
435.7215158657
 31
0.0
  0
LINE
  5
F9
330
1F
100
AcDbEntity
  8
0
  6
Continuous
 62
     7
370
    15
100
AcDbLine
 10
544.7473772663
 20
443.0846136079
 30
0.0
 11
544.7473772663
 21
441.1642786131
 31
0.0
  0
SPLINE
  5
FA
330
1F
100
AcDbEntity
  8
0
  6
Continuous
 62
     7
370
    15
100
AcDbSpline
210
0.0
220
0.0
230
1.0
 70
     8
 71
     3
 72
    10
 73
     6
 74
     0
 42
0.00000001
 43
0.00000001
 12
1.0
 22
0.0
 32
0.0
 13
1.0
 23
0.0
 33
0.0
 40
0.0
 40
0.0
 40
0.0
 40
0.0
 40
0.3295549275670748
 40
0.6628881445310779
 40
1.0
 40
1.0
 40
1.0
 40
1.0
 10
550.854523760068
 20
440.5981339211742
 30
0.0
 10
550.1840012889152
 20
440.8711320714759
 30
0.0
 10
548.8352689241768
 20
441.4202582479523
 30
0.0
 10
546.799543779563
 20
442.2490892089724
 30
0.0
 10
545.434000602428
 20
442.805060923352
 30
0.0
 10
544.7473809029253
 20
443.084613513011
 30
0.0
  0
LINE
  5
FB
330
1F
100
AcDbEntity
  8
0
  6
Continuous
 62
     7
370
    15
100
AcDbLine
 10
738.3188106912
 20
520.5861890705
 30
0.0
 11
738.3188106912
 21
486.0861899347
 31
0.0
  0
LINE
  5
FC
330
1F
100
AcDbEntity
  8
0
  6
Continuous
 62
     7
370
    15
100
AcDbLine
 10
534.3188070554
 20
486.0861899347
 30
0.0
 11
534.3188070554
 21
520.5861890705
 31
0.0
  0
LINE
  5
FD
330
1F
100
AcDbEntity
  8
0
  6
Continuous
 62
     7
370
    15
100
AcDbLine
 10
738.3188106912
 20
459.3568408878
 30
0.0
 11
738.3188106912
 21
424.8568412864
 31
0.0
  0
LINE
  5
FE
330
1F
100
AcDbEntity
  8
0
  6
Continuous
 62
     7
370
    15
100
AcDbLine
 10
534.3188070554
 20
424.8568412864
 30
0.0
 11
534.3188070554
 21
459.3568408878
 31
0.0
  0
SPLINE
  5
FF
330
1F
100
AcDbEntity
  8
0
  6
Continuous
 62
     7
370
    15
100
AcDbSpline
210
0.0
220
0.0
230
1.0
 70
     8
 71
     3
 72
    12
 73
     8
 74
     0
 42
0.00000001
 43
0.00000001
 12
1.0
 22
0.0
 32
0.0
 13
1.0
 23
0.0
 33
0.0
 40
0.0
 40
0.0
 40
0.0
 40
0.0
 40
0.25
 40
0.25
 40
0.5
 40
0.5
 40
1.0
 40
1.0
 40
1.0
 40
1.0
 10
752.318809474354
 20
436.9351841912895
 30
0.0
 10
752.318809474354
 20
437.4637213668256
 30
0.0
 10
752.2939180668941
 20
437.9939515138263
 30
0.0
 10
752.1949949426104
 20
439.0577540511965
 30
0.0
 10
752.1214744254202
 20
439.5857653847323
 30
0.0
 10
751.8397197772669
 20
441.1519430959998
 30
0.0
 10
751.5704015545052
 20
442.176079639155
 30
0.0
 10
751.2470127046296
 20
443.1869563418891
 30
0.0
  0
SPLINE
  5
100
330
1F
100
AcDbEntity
  8
0
  6
Continuous
 62
     7
370
    15
100
AcDbSpline
210
0.0
220
0.0
230
1.0
 70
     8
 71
     3
 72
    10
 73
     6
 74
     0
 42
0.00000001
 43
0.00000001
 12
1.0
 22
0.0
 32
0.0
 13
1.0
 23
0.0
 33
0.0
 40
0.0
 40
0.0
 40
0.0
 40
0.0
 40
0.5000000000000003
 40
0.5000000000000003
 40
1.0
 40
1.0
 40
1.0
 40
1.0
 10
751.2470127046298
 20
443.186956341889
 30
0.0
 10
751.5741864657414
 20
444.1213179024398
 30
0.0
 10
751.8437290096596
 20
445.0625043991964
 30
0.0
 10
752.2166615179178
 20
446.9645538946351
 30
0.0
 10
752.318809474354
 20
447.9255639772262
 30
0.0
 10
752.318809474354
 20
448.8986708594372
 30
0.0
  0
LINE
  5
101
330
1F
100
AcDbEntity
  8
0
  6
Continuous
 62
     7
370
    15
100
AcDbLine
 10
752.3188092607
 20
436.9351842457
 30
0.0
 11
752.3188092607
 21
448.8986713828
 31
0.0
  0
SPLINE
  5
102
330
1F
100
AcDbEntity
  8
0
  6
Continuous
 62
     7
370
    15
100
AcDbSpline
210
0.0
220
0.0
230
1.0
 70
     8
 71
     3
 72
    12
 73
     8
 74
     0
 42
0.00000001
 43
0.00000001
 12
1.0
 22
0.0
 32
0.0
 13
1.0
 23
0.0
 33
0.0
 40
0.0
 40
0.0
 40
0.0
 40
0.0
 40
0.2499999999999992
 40
0.2499999999999992
 40
0.4999999999999983
 40
0.4999999999999983
 40
1.0
 40
1.0
 40
1.0
 40
1.0
 10
752.318809474354
 20
448.8986708594372
 30
0.0
 10
752.318809474354
 20
449.383404988649
 30
0.0
 10
752.2934762210609
 20
449.8703138740893
 30
0.0
 10
752.1954393339842
 20
450.833521072232
 30
0.0
 10
752.1228299650553
 20
451.3119031362403
 30
0.0
 10
751.8427832661213
 20
452.7385528673228
 30
0.0
 10
751.5733694372155
 20
453.6783571332804
 30
0.0
 10
751.2470127046297
 20
454.6103853769853
 30
0.0
  0
LINE
  5
103
330
1F
100
AcDbEntity
  8
0
  6
Continuous
 62
     7
370
    15
100
AcDbLine
 10
751.2470134395
 20
443.1869566457
 30
0.0
 11
738.3188106912
 21
443.1869566457
 31
0.0
  0
LINE
  5
104
330
1F
100
AcDbEntity
  8
0
  6
Continuous
 62
     7
370
    15
100
AcDbLine
 10
751.2470134395
 20
454.6103851886
 30
0.0
 11
738.3188106912
 21
454.6103851886
 31
0.0
  0
SPLINE
  5
105
330
1F
100
AcDbEntity
  8
0
  6
Continuous
 62
     7
370
    15
100
AcDbSpline
210
0.0
220
0.0
230
1.0
 70
     8
 71
     3
 72
    10
 73
     6
 74
     0
 42
0.00000001
 43
0.00000001
 12
1.0
 22
0.0
 32
0.0
 13
1.0
 23
0.0
 33
0.0
 40
0.0
 40
0.0
 40
0.0
 40
0.0
 40
0.5
 40
0.5
 40
1.0
 40
1.0
 40
1.0
 40
1.0
 10
751.2470127046296
 20
430.6834120406898
 30
0.0
 10
751.5722965013672
 20
431.7002121314325
 30
0.0
 10
751.8451234585663
 20
432.7416148950887
 30
0.0
 10
752.218176421109
 20
434.8291353195087
 30
0.0
 10
752.318809474354
 20
435.8787375124459
 30
0.0
 10
752.318809474354
 20
436.9351841912895
 30
0.0
  0
LINE
  5
106
330
1F
100
AcDbEntity
  8
0
  6
Continuous
 62
     7
370
    15
100
AcDbLine
 10
751.2470134395
 20
430.6834120403
 30
0.0
 11
738.3188106912
 21
430.6834120403
 31
0.0
  0
SPLINE
  5
107
330
1F
100
AcDbEntity
  8
0
  6
Continuous
 62
     7
370
    15
100
AcDbSpline
210
0.0
220
0.0
230
1.0
 70
     8
 71
     3
 72
    10
 73
     6
 74
     0
 42
0.00000001
 43
0.00000001
 12
1.0
 22
0.0
 32
0.0
 13
1.0
 23
0.0
 33
0.0
 40
0.0
 40
0.0
 40
0.0
 40
0.0
 40
0.5
 40
0.5
 40
1.0
 40
1.0
 40
1.0
 40
1.0
 10
521.3906062440785
 20
440.2849946984142
 30
0.0
 10
521.0653224473409
 20
439.3916920413735
 30
0.0
 10
520.7924954901418
 20
438.4767748769344
 30
0.0
 10
520.4194425275991
 20
436.6427983079519
 30
0.0
 10
520.318809474354
 20
435.7206775918712
 30
0.0
 10
520.318809474354
 20
434.792543700239
 30
0.0
  0
LINE
  5
108
330
1F
100
AcDbEntity
  8
0
  6
Continuous
 62
     7
370
    15
100
AcDbLine
 10
520.3188084859
 20
446.6883691044
 30
0.0
 11
520.3188084859
 21
434.7925434836
 31
0.0
  0
SPLINE
  5
109
330
1F
100
AcDbEntity
  8
0
  6
Continuous
 62
     7
370
    15
100
AcDbSpline
210
0.0
220
0.0
230
1.0
 70
     8
 71
     3
 72
    12
 73
     8
 74
     0
 42
0.00000001
 43
0.00000001
 12
1.0
 22
0.0
 32
0.0
 13
1.0
 23
0.0
 33
0.0
 40
0.0
 40
0.0
 40
0.0
 40
0.0
 40
0.2500000000000002
 40
0.2500000000000002
 40
0.5000000000000003
 40
0.5000000000000003
 40
1.0
 40
1.0
 40
1.0
 40
1.0
 10
520.318809474354
 20
446.6883688852753
 30
0.0
 10
520.318809474354
 20
446.1449359106494
 30
0.0
 10
520.3441427276472
 20
445.5990648278419
 30
0.0
 10
520.4421796147241
 20
444.5192181215268
 30
0.0
 10
520.5147889836529
 20
443.9829064149951
 30
0.0
 10
520.7948356825867
 20
442.3834966346849
 30
0.0
 10
521.0642495114926
 20
441.3298868369882
 30
0.0
 10
521.3906062440784
 20
440.2849946984142
 30
0.0
  0
SPLINE
  5
10A
330
1F
100
AcDbEntity
  8
0
  6
Continuous
 62
     7
370
    15
100
AcDbSpline
210
0.0
220
0.0
230
1.0
 70
     8
 71
     3
 72
    12
 73
     8
 74
     0
 42
0.00000001
 43
0.00000001
 12
1.0
 22
0.0
 32
0.0
 13
1.0
 23
0.0
 33
0.0
 40
0.0
 40
0.0
 40
0.0
 40
0.0
 40
0.2499999999999989
 40
0.2499999999999989
 40
0.4999999999999978
 40
0.4999999999999978
 40
1.0
 40
1.0
 40
1.0
 40
1.0
 10
520.318809474354
 20
434.792543700239
 30
0.0
 10
520.318809474354
 20
434.3282010358847
 30
0.0
 10
520.3437008818141
 20
433.8623710232094
 30
0.0
 10
520.4426240060977
 20
432.9277746931625
 30
0.0
 10
520.5161445232878
 20
432.463894003645
 30
0.0
 10
520.7978991714413
 20
431.0879394540624
 30
0.0
 10
521.0672173942027
 20
430.1881914077135
 30
0.0
 10
521.3906062440785
 20
429.3000927020639
 30
0.0
  0
LINE
  5
10B
330
1F
100
AcDbEntity
  8
0
  6
Continuous
 62
     7
370
    15
100
AcDbLine
 10
521.3906043071
 20
440.2849946187
 30
0.0
 11
534.3188070554
 21
440.2849946187
 31
0.0
  0
LINE
  5
10C
330
1F
100
AcDbEntity
  8
0
  6
Continuous
 62
     7
370
    15
100
AcDbLine
 10
521.3906043071
 20
429.3000926978
 30
0.0
 11
534.3188070554
 21
429.3000926978
 31
0.0
  0
SPLINE
  5
10D
330
1F
100
AcDbEntity
  8
0
  6
Continuous
 62
     7
370
    15
100
AcDbSpline
210
0.0
220
0.0
230
1.0
 70
     8
 71
     3
 72
    10
 73
     6
 74
     0
 42
0.00000001
 43
0.00000001
 12
1.0
 22
0.0
 32
0.0
 13
1.0
 23
0.0
 33
0.0
 40
0.0
 40
0.0
 40
0.0
 40
0.0
 40
0.5
 40
0.5
 40
1.0
 40
1.0
 40
1.0
 40
1.0
 10
521.3906062440783
 20
453.0917430721365
 30
0.0
 10
521.0634324829667
 20
452.0442350638766
 30
0.0
 10
520.7938899390485
 20
450.9890756542391
 30
0.0
 10
520.4209574307902
 20
448.8566976084168
 30
0.0
 10
520.318809474354
 20
447.7793140772072
 30
0.0
 10
520.318809474354
 20
446.6883688852753
 30
0.0
  0
LINE
  5
10E
330
1F
100
AcDbEntity
  8
0
  6
Continuous
 62
     7
370
    15
100
AcDbLine
 10
521.3906043071
 20
453.0917426587
 30
0.0
 11
534.3188070554
 21
453.0917426587
 31
0.0
  0
SPLINE
  5
10F
330
1F
100
AcDbEntity
  8
0
  6
Continuous
 62
     7
370
    15
100
AcDbSpline
210
0.0
220
0.0
230
1.0
 70
     8
 71
     3
 72
    12
 73
     8
 74
     0
 42
0.00000001
 43
0.00000001
 12
1.0
 22
0.0
 32
0.0
 13
1.0
 23
0.0
 33
0.0
 40
0.0
 40
0.0
 40
0.0
 40
0.0
 40
0.2499999999999996
 40
0.2499999999999996
 40
0.4999999999999991
 40
0.4999999999999991
 40
1.0
 40
1.0
 40
1.0
 40
1.0
 10
752.318809474354
 20
507.3361024797586
 30
0.0
 10
752.318809474354
 20
507.8883298738804
 30
0.0
 10
752.2939180668941
 20
508.4423261222353
 30
0.0
 10
752.1949949426104
 20
509.5538106691383
 30
0.0
 10
752.1214744254202
 20
510.1054886518451
 30
0.0
 10
751.8397197772669
 20
511.7418659517914
 30
0.0
 10
751.5704015545053
 20
512.811906585883
 30
0.0
 10
751.2470127046296
 20
513.8680930438421
 30
0.0
  0
SPLINE
  5
110
330
1F
100
AcDbEntity
  8
0
  6
Continuous
 62
     7
370
    15
100
AcDbSpline
210
0.0
220
0.0
230
1.0
 70
     8
 71
     3
 72
    10
 73
     6
 74
     0
 42
0.00000001
 43
0.00000001
 12
1.0
 22
0.0
 32
0.0
 13
1.0
 23
0.0
 33
0.0
 40
0.0
 40
0.0
 40
0.0
 40
0.0
 40
0.5
 40
0.5
 40
1.0
 40
1.0
 40
1.0
 40
1.0
 10
751.2470127046296
 20
500.804111915675
 30
0.0
 10
751.5722965013672
 20
501.8664872611446
 30
0.0
 10
751.8451234585663
 20
502.9545680263657
 30
0.0
 10
752.218176421109
 20
505.1356557861517
 30
0.0
 10
752.318809474354
 20
506.232303497417
 30
0.0
 10
752.318809474354
 20
507.3361024797586
 30
0.0
  0
LINE
  5
111
330
1F
100
AcDbEntity
  8
0
  6
Continuous
 62
     7
370
    15
100
AcDbLine
 10
751.2470134395
 20
500.8041152747
 30
0.0
 11
738.3188106912
 21
500.8041152747
 31
0.0
  0
LINE
  5
112
330
1F
100
AcDbEntity
  8
0
  6
Continuous
 62
     7
370
    15
100
AcDbLine
 10
751.2470134395
 20
513.8680899532
 30
0.0
 11
738.3188106912
 21
513.8680899532
 31
0.0
  0
SPLINE
  5
113
330
1F
100
AcDbEntity
  8
0
  6
Continuous
 62
     7
370
    15
100
AcDbSpline
210
0.0
220
0.0
230
1.0
 70
     8
 71
     3
 72
    12
 73
     8
 74
     0
 42
0.00000001
 43
0.00000001
 12
1.0
 22
0.0
 32
0.0
 13
1.0
 23
0.0
 33
0.0
 40
0.0
 40
0.0
 40
0.0
 40
0.0
 40
0.25
 40
0.25
 40
0.5
 40
0.5
 40
1.0
 40
1.0
 40
1.0
 40
1.0
 10
752.318809474354
 20
495.5381605208542
 30
0.0
 10
752.318809474354
 20
495.9850642230609
 30
0.0
 10
752.2934762210609
 20
496.433972955554
 30
0.0
 10
752.1954393339842
 20
497.3220079357649
 30
0.0
 10
752.1228299650553
 20
497.763055311204
 30
0.0
 10
751.8427832661213
 20
499.0783640715129
 30
0.0
 10
751.5733694372155
 20
499.9448225700903
 30
0.0
 10
751.2470127046297
 20
500.804111915675
 30
0.0
  0
SPLINE
  5
114
330
1F
100
AcDbEntity
  8
0
  6
Continuous
 62
     7
370
    15
100
AcDbSpline
210
0.0
220
0.0
230
1.0
 70
     8
 71
     3
 72
    10
 73
     6
 74
     0
 42
0.00000001
 43
0.00000001
 12
1.0
 22
0.0
 32
0.0
 13
1.0
 23
0.0
 33
0.0
 40
0.0
 40
0.0
 40
0.0
 40
0.0
 40
0.4999999999999989
 40
0.4999999999999989
 40
1.0
 40
1.0
 40
1.0
 40
1.0
 10
751.2470127046298
 20
490.2722091260334
 30
0.0
 10
751.5741864657414
 20
491.1336496878704
 30
0.0
 10
751.8437290096596
 20
492.0013825428923
 30
0.0
 10
752.2166615179178
 20
493.7549891285769
 30
0.0
 10
752.318809474354
 20
494.6409984641818
 30
0.0
 10
752.318809474354
 20
495.5381605208542
 30
0.0
  0
LINE
  5
115
330
1F
100
AcDbEntity
  8
0
  6
Continuous
 62
     7
370
    15
100
AcDbLine
 10
751.2470134395
 20
490.2722092361
 30
0.0
 11
738.3188106912
 21
490.2722092361
 31
0.0
  0
LINE
  5
116
330
1F
100
AcDbEntity
  8
0
  6
Continuous
 62
     7
370
    15
100
AcDbLine
 10
752.3188092607
 20
495.538164118
 30
0.0
 11
752.3188092607
 21
507.3360988886
 31
0.0
  0
SPLINE
  5
117
330
1F
100
AcDbEntity
  8
0
  6
Continuous
 62
     7
370
    15
100
AcDbSpline
210
0.0
220
0.0
230
1.0
 70
     8
 71
     3
 72
    12
 73
     8
 74
     0
 42
0.00000001
 43
0.00000001
 12
1.0
 22
0.0
 32
0.0
 13
1.0
 23
0.0
 33
0.0
 40
0.0
 40
0.0
 40
0.0
 40
0.0
 40
0.2499999999999985
 40
0.2499999999999985
 40
0.499999999999997
 40
0.499999999999997
 40
1.0
 40
1.0
 40
1.0
 40
1.0
 10
520.318809474354
 20
504.8910521717209
 30
0.0
 10
520.318809474354
 20
504.3102658061811
 30
0.0
 10
520.3437008818141
 20
503.7276191084082
 30
0.0
 10
520.4426240060977
 20
502.5586530679312
 30
0.0
 10
520.5161445232878
 20
501.9784445271467
 30
0.0
 10
520.7978991714413
 20
500.2574403994918
 30
0.0
 10
521.0672173942027
 20
499.132061583683
 30
0.0
 10
521.3906062440785
 20
498.0212534260651
 30
0.0
  0
SPLINE
  5
118
330
1F
100
AcDbEntity
  8
0
  6
Continuous
 62
     7
370
    15
100
AcDbSpline
210
0.0
220
0.0
230
1.0
 70
     8
 71
     3
 72
    10
 73
     6
 74
     0
 42
0.00000001
 43
0.00000001
 12
1.0
 22
0.0
 32
0.0
 13
1.0
 23
0.0
 33
0.0
 40
0.0
 40
0.0
 40
0.0
 40
0.0
 40
0.5
 40
0.5
 40
1.0
 40
1.0
 40
1.0
 40
1.0
 10
521.3906062440783
 20
498.0212534260651
 30
0.0
 10
521.0634324829667
 20
497.3321714472502
 30
0.0
 10
520.7938899390485
 20
496.6380561486321
 30
0.0
 10
520.4209574307902
 20
495.2353143349083
 30
0.0
 10
520.318809474354
 20
494.5265793469422
 30
0.0
 10
520.318809474354
 20
493.808923094477
 30
0.0
  0
LINE
  5
119
330
1F
100
AcDbEntity
  8
0
  6
Continuous
 62
     7
370
    15
100
AcDbLine
 10
520.3188084859
 20
504.8910493047
 30
0.0
 11
520.3188084859
 21
493.8089216144
 31
0.0
  0
SPLINE
  5
11A
330
1F
100
AcDbEntity
  8
0
  6
Continuous
 62
     7
370
    15
100
AcDbSpline
210
0.0
220
0.0
230
1.0
 70
     8
 71
     3
 72
    10
 73
     6
 74
     0
 42
0.00000001
 43
0.00000001
 12
1.0
 22
0.0
 32
0.0
 13
1.0
 23
0.0
 33
0.0
 40
0.0
 40
0.0
 40
0.0
 40
0.0
 40
0.5
 40
0.5
 40
1.0
 40
1.0
 40
1.0
 40
1.0
 10
521.3906062440785
 20
511.7608509173768
 30
0.0
 10
521.0653224473409
 20
510.6435338079719
 30
0.0
 10
520.7924954901418
 20
509.4991818982814
 30
0.0
 10
520.4194425275991
 20
507.2052970848632
 30
0.0
 10
520.318809474354
 20
506.051935181265
 30
0.0
 10
520.318809474354
 20
504.8910521717209
 30
0.0
  0
LINE
  5
11B
330
1F
100
AcDbEntity
  8
0
  6
Continuous
 62
     7
370
    15
100
AcDbLine
 10
521.3906043071
 20
511.7608496935
 30
0.0
 11
534.3188070554
 21
511.7608496935
 31
0.0
  0
LINE
  5
11C
330
1F
100
AcDbEntity
  8
0
  6
Continuous
 62
     7
370
    15
100
AcDbLine
 10
521.3906043071
 20
498.0212563665
 30
0.0
 11
534.3188070554
 21
498.0212563665
 31
0.0
  0
SPLINE
  5
11D
330
1F
100
AcDbEntity
  8
0
  6
Continuous
 62
     7
370
    15
100
AcDbSpline
210
0.0
220
0.0
230
1.0
 70
     8
 71
     3
 72
    12
 73
     8
 74
     0
 42
0.00000001
 43
0.00000001
 12
1.0
 22
0.0
 32
0.0
 13
1.0
 23
0.0
 33
0.0
 40
0.0
 40
0.0
 40
0.0
 40
0.0
 40
0.2499999999999998
 40
0.2499999999999998
 40
0.4999999999999996
 40
0.4999999999999996
 40
1.0
 40
1.0
 40
1.0
 40
1.0
 10
520.318809474354
 20
493.808923094477
 30
0.0
 10
520.318809474354
 20
493.4514366919333
 30
0.0
 10
520.3441427276472
 20
493.0923464291832
 30
0.0
 10
520.442179614724
 20
492.3819910912414
 30
0.0
 10
520.5147889836528
 20
492.0291892710315
 30
0.0
 10
520.7948356825867
 20
490.9770498623954
 30
0.0
 10
521.0642495114926
 20
490.2839539446834
 30
0.0
 10
521.3906062440784
 20
489.5965927628889
 30
0.0
  0
LINE
  5
11E
330
1F
100
AcDbEntity
  8
0
  6
Continuous
 62
     7
370
    15
100
AcDbLine
 10
521.3906043071
 20
489.5965943129
 30
0.0
 11
534.3188070554
 21
489.5965943129
 31
0.0
  0
LINE
  5
11F
330
1F
100
AcDbEntity
  8
0
  6
Continuous
 62
     7
370
    15
100
AcDbLine
 10
520.3188084859
 20
514.4183227808
 30
0.0
 11
520.3188084859
 21
504.8910493047
 31
0.0
  0
SPLINE
  5
120
330
1F
100
AcDbEntity
  8
0
  6
Continuous
 62
     7
370
    15
100
AcDbSpline
210
0.0
220
0.0
230
1.0
 70
     8
 71
     3
 72
    12
 73
     8
 74
     0
 42
0.00000001
 43
0.00000001
 12
1.0
 22
0.0
 32
0.0
 13
1.0
 23
0.0
 33
0.0
 40
0.0
 40
0.0
 40
0.0
 40
0.0
 40
0.2500000000000002
 40
0.2500000000000002
 40
0.5000000000000004
 40
0.5000000000000004
 40
1.0
 40
1.0
 40
1.0
 40
1.0
 10
520.318809474354
 20
514.4183193314445
 30
0.0
 10
520.318809474354
 20
514.1927888653047
 30
0.0
 10
520.3441427276472
 20
513.9662465583299
 30
0.0
 10
520.4421796147241
 20
513.5180986865477
 30
0.0
 10
520.5147889836529
 20
513.2955236224311
 30
0.0
 10
520.7948356825867
 20
512.6317515472264
 30
0.0
 10
521.0642495114926
 20
512.1944922716593
 30
0.0
 10
521.3906062440784
 20
511.7608509173768
 30
0.0
  0
SPLINE
  5
121
330
1F
100
AcDbEntity
  8
0
  6
Continuous
 62
     7
370
    15
100
AcDbSpline
210
0.0
220
0.0
230
1.0
 70
     8
 71
     3
 72
    10
 73
     6
 74
     0
 42
0.00000001
 43
0.00000001
 12
1.0
 22
0.0
 32
0.0
 13
1.0
 23
0.0
 33
0.0
 40
0.0
 40
0.0
 40
0.0
 40
0.0
 40
0.5
 40
0.5
 40
1.0
 40
1.0
 40
1.0
 40
1.0
 10
751.2470127046298
 20
513.8680930438421
 30
0.0
 10
751.5741864657413
 20
514.0752004422034
 30
0.0
 10
751.8437290096596
 20
514.2838206326583
 30
0.0
 10
752.2166615179178
 20
514.7054224399096
 30
0.0
 10
752.318809474354
 20
514.9184366588239
 30
0.0
 10
752.318809474354
 20
515.134132213105
 30
0.0
  0
LINE
  5
122
330
1F
100
AcDbEntity
  8
0
  6
Continuous
 62
     7
370
    15
100
AcDbLine
 10
752.3188092607
 20
507.3360988886
 30
0.0
 11
752.3188092607
 21
515.1341298611
 31
0.0
  0
SPLINE
  5
123
330
1F
100
AcDbEntity
  8
0
  6
Continuous
 62
     7
370
    15
100
AcDbSpline
210
0.0
220
0.0
230
1.0
 70
     8
 71
     3
 72
    12
 73
     8
 74
     0
 42
0.00000001
 43
0.00000001
 12
1.0
 22
0.0
 32
0.0
 13
1.0
 23
0.0
 33
0.0
 40
0.0
 40
0.0
 40
0.0
 40
0.0
 40
0.2499999999999988
 40
0.2499999999999988
 40
0.4999999999999976
 40
0.4999999999999976
 40
1.0
 40
1.0
 40
1.0
 40
1.0
 10
520.318809474354
 20
454.0026662608224
 30
0.0
 10
520.318809474354
 20
453.9253592530421
 30
0.0
 10
520.3441427276472
 20
453.8477054079205
 30
0.0
 10
520.442179614724
 20
453.6940899270344
 30
0.0
 10
520.5147889836528
 20
453.6177959676956
 30
0.0
 10
520.7948356825868
 20
453.3902691334704
 30
0.0
 10
521.0642495114926
 20
453.2403860298845
 30
0.0
 10
521.3906062440784
 20
453.0917430721364
 30
0.0
  0
LINE
  5
124
330
1F
100
AcDbEntity
  8
0
  6
Continuous
 62
     7
370
    15
100
AcDbLine
 10
520.3188084859
 20
454.0026655437
 30
0.0
 11
520.3188084859
 21
446.6883691044
 31
0.0
  0
SPLINE
  5
125
330
1F
100
AcDbEntity
  8
0
  6
Continuous
 62
     7
370
    15
100
AcDbSpline
210
0.0
220
0.0
230
1.0
 70
     8
 71
     3
 72
    10
 73
     6
 74
     0
 42
0.00000001
 43
0.00000001
 12
1.0
 22
0.0
 32
0.0
 13
1.0
 23
0.0
 33
0.0
 40
0.0
 40
0.0
 40
0.0
 40
0.0
 40
0.5
 40
0.5
 40
1.0
 40
1.0
 40
1.0
 40
1.0
 10
521.3906062440783
 20
517.0757877455123
 30
0.0
 10
521.0634324829667
 20
516.6410607774797
 30
0.0
 10
520.7938899390485
 20
516.2031583964706
 30
0.0
 10
520.4209574307902
 20
515.3181988207438
 30
0.0
 10
520.318809474354
 20
514.8710731928364
 30
0.0
 10
520.318809474354
 20
514.4183193314445
 30
0.0
  0
LINE
  5
126
330
1F
100
AcDbEntity
  8
0
  6
Continuous
 62
     7
370
    15
100
AcDbLine
 10
521.3906043071
 20
517.0757884176
 30
0.0
 11
534.3188070554
 21
517.0757884176
 31
0.0
  0
SPLINE
  5
127
330
1F
100
AcDbEntity
  8
0
  6
Continuous
 62
     7
370
    15
100
AcDbSpline
210
0.0
220
0.0
230
1.0
 70
     8
 71
     3
 72
    12
 73
     8
 74
     0
 42
0.00000001
 43
0.00000001
 12
1.0
 22
0.0
 32
0.0
 13
1.0
 23
0.0
 33
0.0
 40
0.0
 40
0.0
 40
0.0
 40
0.0
 40
0.2499999999999986
 40
0.2499999999999986
 40
0.4999999999999971
 40
0.4999999999999971
 40
1.0
 40
1.0
 40
1.0
 40
1.0
 10
752.318809474354
 20
430.1433544076384
 30
0.0
 10
752.318809474354
 20
430.1891872947123
 30
0.0
 10
752.2934762210609
 20
430.2352258107086
 30
0.0
 10
752.1954393339842
 20
430.3262995851364
 30
0.0
 10
752.1228299650552
 20
430.3715318677355
 30
0.0
 10
751.8427832661213
 20
430.5064253527993
 30
0.0
 10
751.5733694372155
 20
430.5952863184245
 30
0.0
 10
751.2470127046297
 20
430.6834120406899
 30
0.0
  0
LINE
  5
128
330
1F
100
AcDbEntity
  8
0
  6
Continuous
 62
     7
370
    15
100
AcDbLine
 10
752.3188092607
 20
430.1433544156
 30
0.0
 11
752.3188092607
 21
436.9351842457
 31
0.0
  0
SPLINE
  5
129
330
1F
100
AcDbEntity
  8
0
  6
Continuous
 62
     7
370
    15
100
AcDbSpline
210
0.0
220
0.0
230
1.0
 70
     8
 71
     3
 72
    13
 73
     9
 74
     0
 42
0.00000001
 43
0.00000001
 12
1.0
 22
0.0
 32
0.0
 13
1.0
 23
0.0
 33
0.0
 40
0.0
 40
0.0
 40
0.0
 40
0.0
 40
0.1905440844861977
 40
0.381143034236557
 40
0.5716405505613924
 40
0.7657376994830398
 40
0.9599573370944476
 40
1.0
 40
1.0
 40
1.0
 40
1.0
 10
751.247013439532
 20
454.6103851885674
 30
0.0
 10
751.350949530758
 20
454.5813141876185
 30
0.0
 10
751.5588516405686
 20
454.5231638150167
 30
0.0
 10
751.8187913250281
 20
454.4349002381716
 30
0.0
 10
752.0362474071621
 20
454.3453594535949
 30
0.0
 10
752.1921590773293
 20
454.2544982735099
 30
0.0
 10
752.2781715159765
 20
454.1869016581638
 30
0.0
 10
752.2898431211344
 20
454.1498119760034
 30
0.0
 10
752.291838158961
 20
454.1434722037194
 30
0.0
  0
LINE
  5
12A
330
1F
100
AcDbEntity
  8
0
  6
Continuous
 62
     7
370
    15
100
AcDbLine
 10
752.3188092607
 20
448.8986713828
 30
0.0
 11
752.3188092607
 21
454.1068414242
 31
0.0
  0
SPLINE
  5
12B
330
1F
100
AcDbEntity
  8
0
  6
Continuous
 62
     7
370
    15
100
AcDbSpline
210
0.0
220
0.0
230
1.0
 70
     8
 71
     3
 72
    12
 73
     8
 74
     0
 42
0.00000001
 43
0.00000001
 12
1.0
 22
0.0
 32
0.0
 13
1.0
 23
0.0
 33
0.0
 40
0.0
 40
0.0
 40
0.0
 40
0.0
 40
0.213477461201281
 40
0.4270136476605497
 40
0.6404403260667886
 40
0.8578970097794647
 40
1.0
 40
1.0
 40
1.0
 40
1.0
 10
521.3906043070514
 20
429.3000926978094
 30
0.0
 10
521.2867225533679
 20
429.3491284355191
 30
0.0
 10
521.0789304692942
 20
429.4472134001205
 30
0.0
 10
520.8181757930446
 20
429.5960798701724
 30
0.0
 10
520.6038627152179
 20
429.74713635725
 30
0.0
 10
520.4554973267948
 20
429.8824676161567
 30
0.0
 10
520.406592348743
 20
429.9679691142518
 30
0.0
 10
520.387264420386
 20
430.0017604969581
 30
0.0
  0
LINE
  5
12C
330
1F
100
AcDbEntity
  8
0
  6
Continuous
 62
     7
370
    15
100
AcDbLine
 10
520.3188084859
 20
434.7925434836
 30
0.0
 11
520.3188084859
 21
430.1068410992
 31
0.0
  0
SPLINE
  5
12D
330
1F
100
AcDbEntity
  8
0
  6
Continuous
 62
     7
370
    15
100
AcDbSpline
210
0.0
220
0.0
230
1.0
 70
     8
 71
     3
 72
    12
 73
     8
 74
     0
 42
0.00000001
 43
0.00000001
 12
1.0
 22
0.0
 32
0.0
 13
1.0
 23
0.0
 33
0.0
 40
0.0
 40
0.0
 40
0.0
 40
0.0
 40
0.0872175859383178
 40
0.3123256859365289
 40
0.5415001386744015
 40
0.7707796400702778
 40
1.0
 40
1.0
 40
1.0
 40
1.0
 10
752.1935799020488
 20
491.1306651325104
 30
0.0
 10
752.180524842259
 20
491.1052818504652
 30
0.0
 10
752.1337747463938
 20
491.0143844598667
 30
0.0
 10
751.9991602980624
 20
490.8578926247827
 30
0.0
 10
751.7932919974942
 20
490.6616547322768
 30
0.0
 10
751.5426909678282
 20
490.465844664299
 30
0.0
 10
751.345564139896
 20
490.3367488282047
 30
0.0
 10
751.247013439532
 20
490.2722092361329
 30
0.0
  0
LINE
  5
12E
330
1F
100
AcDbEntity
  8
0
  6
Continuous
 62
     7
370
    15
100
AcDbLine
 10
752.3188092607
 20
491.3361893983
 30
0.0
 11
752.3188092607
 21
495.538164118
 31
0.0
  0
SPLINE
  5
12F
330
1F
100
AcDbEntity
  8
0
  6
Continuous
 62
     7
370
    15
100
AcDbSpline
210
0.0
220
0.0
230
1.0
 70
     8
 71
     3
 72
    12
 73
     8
 74
     0
 42
0.00000001
 43
0.00000001
 12
1.0
 22
0.0
 32
0.0
 13
1.0
 23
0.0
 33
0.0
 40
0.0
 40
0.0
 40
0.0
 40
0.0
 40
0.2500000000000007
 40
0.2500000000000007
 40
0.5000000000000014
 40
0.5000000000000014
 40
1.0
 40
1.0
 40
1.0
 40
1.0
 10
752.318809474354
 20
515.134132213105
 30
0.0
 10
752.318809474354
 20
515.2415767277731
 30
0.0
 10
752.2934762210609
 20
515.3495032914932
 30
0.0
 10
752.1954393339842
 20
515.5630045155509
 30
0.0
 10
752.1228299650552
 20
515.6690410530996
 30
0.0
 10
751.8427832661213
 20
515.9852673691769
 30
0.0
 10
751.5733694372155
 20
516.1935811790646
 30
0.0
 10
751.2470127046297
 20
516.4001713823678
 30
0.0
  0
LINE
  5
130
330
1F
100
AcDbEntity
  8
0
  6
Continuous
 62
     7
370
    15
100
AcDbLine
 10
751.2470134395
 20
516.400169769
 30
0.0
 11
738.3188106912
 21
516.400169769
 31
0.0
  0
SPLINE
  5
131
330
1F
100
AcDbEntity
  8
0
  6
Continuous
 62
     7
370
    15
100
AcDbSpline
210
0.0
220
0.0
230
1.0
 70
     8
 71
     3
 72
    10
 73
     6
 74
     0
 42
0.00000001
 43
0.00000001
 12
1.0
 22
0.0
 32
0.0
 13
1.0
 23
0.0
 33
0.0
 40
0.0
 40
0.0
 40
0.0
 40
0.0
 40
0.5
 40
0.5
 40
1.0
 40
1.0
 40
1.0
 40
1.0
 10
521.3906062440783
 20
454.9135894495083
 30
0.0
 10
521.0634324829667
 20
454.7645743666453
 30
0.0
 10
520.7938899390485
 20
454.6144708203039
 30
0.0
 10
520.4209574307902
 20
454.3111256537869
 30
0.0
 10
520.318809474354
 20
454.1578605761812
 30
0.0
 10
520.318809474354
 20
454.0026662608224
 30
0.0
  0
LINE
  5
132
330
1F
100
AcDbEntity
  8
0
  6
Continuous
 62
     7
370
    15
100
AcDbLine
 10
521.3906043071
 20
454.9135902912
 30
0.0
 11
534.3188070554
 21
454.9135902912
 31
0.0
  0
LINE
  5
133
330
1F
100
AcDbEntity
  8
0
  6
Continuous
 62
     7
370
    15
100
AcDbLine
 10
801.3188042539
 20
510.8089933188
 30
0.0
 11
801.3188042539
 21
495.3361937792
 31
0.0
  0
LINE
  5
134
330
1F
100
AcDbEntity
  8
0
  6
Continuous
 62
     7
370
    15
100
AcDbLine
 10
801.3188042539
 20
511.3361889512
 30
0.0
 11
801.3188042539
 21
510.8089933188
 31
0.0
  0
LINE
  5
135
330
1F
100
AcDbEntity
  8
0
  6
Continuous
 62
     7
370
    15
100
AcDbLine
 10
471.3188060421
 20
510.8089933188
 30
0.0
 11
471.3188060421
 21
495.3361937792
 31
0.0
  0
LINE
  5
136
330
1F
100
AcDbEntity
  8
0
  6
Continuous
 62
     7
370
    15
100
AcDbLine
 10
471.3188060421
 20
511.3361889512
 30
0.0
 11
471.3188060421
 21
510.8089933188
 31
0.0
  0
LINE
  5
137
330
1F
100
AcDbEntity
  8
0
  6
Continuous
 62
     7
370
    15
100
AcDbLine
 10
801.3188042539
 20
445.371352324
 30
0.0
 11
801.3188042539
 21
434.1068411728
 31
0.0
  0
LINE
  5
138
330
1F
100
AcDbEntity
  8
0
  6
Continuous
 62
     7
370
    15
100
AcDbLine
 10
801.3188042539
 20
450.1068407686
 30
0.0
 11
801.3188042539
 21
445.371352324
 31
0.0
  0
LINE
  5
139
330
1F
100
AcDbEntity
  8
0
  6
Continuous
 62
     7
370
    15
100
AcDbLine
 10
471.3188060421
 20
445.371352324
 30
0.0
 11
471.3188060421
 21
434.1068411728
 31
0.0
  0
LINE
  5
13A
330
1F
100
AcDbEntity
  8
0
  6
Continuous
 62
     7
370
    15
100
AcDbLine
 10
471.3188060421
 20
450.1068407686
 30
0.0
 11
471.3188060421
 21
445.371352324
 31
0.0
  0
SPLINE
  5
13B
330
1F
100
AcDbEntity
  8
0
  6
Continuous
 62
     7
370
    15
100
AcDbSpline
210
0.0
220
0.0
230
1.0
 70
     8
 71
     3
 72
    10
 73
     6
 74
     0
 42
0.00000001
 43
0.00000001
 12
1.0
 22
0.0
 32
0.0
 13
1.0
 23
0.0
 33
0.0
 40
0.0
 40
0.0
 40
0.0
 40
0.0
 40
0.5
 40
0.5
 40
1.0
 40
1.0
 40
1.0
 40
1.0
 10
751.2470127046298
 20
429.6032967745869
 30
0.0
 10
751.5741864657413
 20
429.6916431180981
 30
0.0
 10
751.8437290096597
 20
429.7806347772815
 30
0.0
 10
752.2166615179178
 20
429.960478560667
 30
0.0
 10
752.318809474354
 20
430.0513445920395
 30
0.0
 10
752.318809474354
 20
430.1433544076384
 30
0.0
  0
LINE
  5
13C
330
1F
100
AcDbEntity
  8
0
  6
Continuous
 62
     7
370
    15
100
AcDbLine
 10
751.2470134395
 20
429.6032967528
 30
0.0
 11
738.3188106912
 21
429.6032967528
 31
0.0
  0
SPLINE
  5
13D
330
1F
100
AcDbEntity
  8
0
  6
Continuous
 62
     7
370
    15
100
AcDbSpline
210
0.0
220
0.0
230
1.0
 70
     8
 71
     3
 72
     9
 73
     5
 74
     0
 42
0.00000001
 43
0.00000001
 12
1.0
 22
0.0
 32
0.0
 13
1.0
 23
0.0
 33
0.0
 40
0.0
 40
0.0
 40
0.0
 40
0.0
 40
0.5789187623492226
 40
1.0
 40
1.0
 40
1.0
 40
1.0
 10
521.3906043070514
 20
489.5965943128941
 30
0.0
 10
521.285508061566
 20
489.7395437254386
 30
0.0
 10
521.1039692130772
 20
489.9864685477824
 30
0.0
 10
520.9586073686398
 20
490.2368716857305
 30
0.0
 10
520.8973982232768
 20
490.3423117489693
 30
0.0
  0
LINE
  5
13E
330
1F
100
AcDbEntity
  8
0
  6
Continuous
 62
     7
370
    15
100
AcDbLine
 10
520.3188084859
 20
493.8089216144
 30
0.0
 11
520.3188084859
 21
491.3361893983
 31
0.0
  0
LINE
  5
13F
330
1F
100
AcDbEntity
  8
0
  6
Continuous
 62
     7
370
    15
100
AcDbLine
 10
520.3188084859
 20
515.3361896069
 30
0.0
 11
520.3188084859
 21
514.4183227808
 31
0.0
  0
LINE
  5
140
330
1F
100
AcDbEntity
  8
0
  6
Continuous
 62
     7
370
    15
100
AcDbLine
 10
752.3188092607
 20
515.1341298611
 30
0.0
 11
752.3188092607
 21
515.3361896069
 31
0.0
  0
LINE
  5
141
330
1F
100
AcDbEntity
  8
0
  6
Continuous
 62
     7
370
    15
100
AcDbLine
 10
520.3188084859
 20
454.1068414242
 30
0.0
 11
520.3188084859
 21
454.0026655437
 31
0.0
  0
LINE
  5
142
330
1F
100
AcDbEntity
  8
0
  6
Continuous
 62
     7
370
    15
100
AcDbLine
 10
752.3188092607
 20
430.1068410992
 30
0.0
 11
752.3188092607
 21
430.1433544156
 31
0.0
  0
LINE
  5
143
330
1F
100
AcDbEntity
  8
0
  6
Continuous
 62
     7
370
    15
100
AcDbLine
 10
613.8153107465
 20
419.1394533978
 30
0.0
 11
613.8153107465
 21
434.1068411728
 31
0.0
  0
LINE
  5
144
330
1F
100
AcDbEntity
  8
0
  6
Continuous
 62
     7
370
    15
100
AcDbLine
 10
613.8153107465
 20
450.1068407686
 30
0.0
 11
613.8153107465
 21
495.3361937792
 31
0.0
  0
LINE
  5
145
330
1F
100
AcDbEntity
  8
0
  6
Continuous
 62
     7
370
    15
100
AcDbLine
 10
613.8153107465
 20
511.3361889512
 30
0.0
 11
613.8153107465
 21
526.303578356
 31
0.0
  0
LINE
  5
146
330
1F
100
AcDbEntity
  8
0
  6
Continuous
 62
     7
370
    15
100
AcDbLine
 10
738.3188106912
 20
563.8818779976
 30
0.0
 11
738.3188106912
 21
529.3818751366
 31
0.0
  0
LINE
  5
147
330
1F
100
AcDbEntity
  8
0
  6
Continuous
 62
     7
370
    15
100
AcDbLine
 10
534.3188070554
 20
529.3818751366
 30
0.0
 11
534.3188070554
 21
563.8818779976
 31
0.0
  0
LINE
  5
148
330
1F
100
AcDbEntity
  8
0
  6
Continuous
 62
     7
370
    15
100
AcDbLine
 10
738.3188106912
 20
416.0611528919
 30
0.0
 11
738.3188106912
 21
381.5611528249
 31
0.0
  0
LINE
  5
149
330
1F
100
AcDbEntity
  8
0
  6
Continuous
 62
     7
370
    15
100
AcDbLine
 10
534.3188070554
 20
381.5611528249
 30
0.0
 11
534.3188070554
 21
416.0611528919
 31
0.0
  0
SPLINE
  5
14A
330
1F
100
AcDbEntity
  8
0
  6
Continuous
 62
     7
370
    15
100
AcDbSpline
210
0.0
220
0.0
230
1.0
 70
     8
 71
     3
 72
    12
 73
     8
 74
     0
 42
0.00000001
 43
0.00000001
 12
1.0
 22
0.0
 32
0.0
 13
1.0
 23
0.0
 33
0.0
 40
0.0
 40
0.0
 40
0.0
 40
0.0
 40
0.25
 40
0.25
 40
0.5
 40
0.5
 40
1.0
 40
1.0
 40
1.0
 40
1.0
 10
752.318809474354
 20
396.6183088985555
 30
0.0
 10
752.318809474354
 20
397.1963819635639
 30
0.0
 10
752.2934762210609
 20
397.7770485492733
 30
0.0
 10
752.1954393339842
 20
398.9257280082045
 30
0.0
 10
752.1228299650553
 20
399.4962258735724
 30
0.0
 10
751.8427832661213
 20
401.1975869559481
 30
0.0
 10
751.5733694372155
 20
402.3183570849534
 30
0.0
 10
751.2470127046297
 20
403.4298538644126
 30
0.0
  0
SPLINE
  5
14B
330
1F
100
AcDbEntity
  8
0
  6
Continuous
 62
     7
370
    15
100
AcDbSpline
210
0.0
220
0.0
230
1.0
 70
     8
 71
     3
 72
    10
 73
     6
 74
     0
 42
0.00000001
 43
0.00000001
 12
1.0
 22
0.0
 32
0.0
 13
1.0
 23
0.0
 33
0.0
 40
0.0
 40
0.0
 40
0.0
 40
0.0
 40
0.5
 40
0.5
 40
1.0
 40
1.0
 40
1.0
 40
1.0
 10
751.2470127046298
 20
403.4298538644126
 30
0.0
 10
751.5741864657413
 20
404.1663538290699
 30
0.0
 10
751.8437290096596
 20
404.9082334727366
 30
0.0
 10
752.2166615179178
 20
406.4075025408491
 30
0.0
 10
752.318809474354
 20
407.1650079025279
 30
0.0
 10
752.318809474354
 20
407.9320484301089
 30
0.0
  0
LINE
  5
14C
330
1F
100
AcDbEntity
  8
0
  6
Continuous
 62
     7
370
    15
100
AcDbLine
 10
752.3188092607
 20
396.61831055
 30
0.0
 11
752.3188092607
 21
407.9320488514
 31
0.0
  0
SPLINE
  5
14D
330
1F
100
AcDbEntity
  8
0
  6
Continuous
 62
     7
370
    15
100
AcDbSpline
210
0.0
220
0.0
230
1.0
 70
     8
 71
     3
 72
    10
 73
     6
 74
     0
 42
0.00000001
 43
0.00000001
 12
1.0
 22
0.0
 32
0.0
 13
1.0
 23
0.0
 33
0.0
 40
0.0
 40
0.0
 40
0.0
 40
0.0
 40
0.5
 40
0.5
 40
1.0
 40
1.0
 40
1.0
 40
1.0
 10
751.2470127046298
 20
389.8067639326985
 30
0.0
 10
751.5741864657413
 20
390.9210433254283
 30
0.0
 10
751.8437290096597
 20
392.043461843409
 30
0.0
 10
752.2166615179178
 20
394.311764228912
 30
0.0
 10
752.318809474354
 20
395.4578235023753
 30
0.0
 10
752.318809474354
 20
396.6183088985555
 30
0.0
  0
LINE
  5
14E
330
1F
100
AcDbEntity
  8
0
  6
Continuous
 62
     7
370
    15
100
AcDbLine
 10
751.2470134395
 20
389.8067625255
 30
0.0
 11
738.3188106912
 21
389.8067625255
 31
0.0
  0
LINE
  5
14F
330
1F
100
AcDbEntity
  8
0
  6
Continuous
 62
     7
370
    15
100
AcDbLine
 10
751.2470134395
 20
403.4298529864
 30
0.0
 11
738.3188106912
 21
403.4298529864
 31
0.0
  0
SPLINE
  5
150
330
1F
100
AcDbEntity
  8
0
  6
Continuous
 62
     7
370
    15
100
AcDbSpline
210
0.0
220
0.0
230
1.0
 70
     8
 71
     3
 72
    12
 73
     8
 74
     0
 42
0.00000001
 43
0.00000001
 12
1.0
 22
0.0
 32
0.0
 13
1.0
 23
0.0
 33
0.0
 40
0.0
 40
0.0
 40
0.0
 40
0.0
 40
0.2500000000000002
 40
0.2500000000000002
 40
0.5000000000000004
 40
0.5000000000000004
 40
1.0
 40
1.0
 40
1.0
 40
1.0
 10
520.318809474354
 20
556.1450824528189
 30
0.0
 10
520.318809474354
 20
555.7880691621854
 30
0.0
 10
520.3437008818141
 20
555.4299123127985
 30
0.0
 10
520.4426240060977
 20
554.7113410144492
 30
0.0
 10
520.5161445232878
 20
554.3546829165846
 30
0.0
 10
520.7978991714413
 20
553.2967700879375
 30
0.0
 10
521.0672173942028
 20
552.6049921501623
 30
0.0
 10
521.3906062440785
 20
551.9221708941138
 30
0.0
  0
SPLINE
  5
151
330
1F
100
AcDbEntity
  8
0
  6
Continuous
 62
     7
370
    15
100
AcDbSpline
210
0.0
220
0.0
230
1.0
 70
     8
 71
     3
 72
    10
 73
     6
 74
     0
 42
0.00000001
 43
0.00000001
 12
1.0
 22
0.0
 32
0.0
 13
1.0
 23
0.0
 33
0.0
 40
0.0
 40
0.0
 40
0.0
 40
0.0
 40
0.5
 40
0.5
 40
1.0
 40
1.0
 40
1.0
 40
1.0
 10
521.3906062440783
 20
551.9221708941138
 30
0.0
 10
521.0634324829667
 20
550.7986467312239
 30
0.0
 10
520.7938899390485
 20
549.6669159157261
 30
0.0
 10
520.4209574307902
 20
547.379794251733
 30
0.0
 10
520.318809474354
 20
546.2242265420174
 30
0.0
 10
520.318809474354
 20
545.0541130213005
 30
0.0
  0
LINE
  5
152
330
1F
100
AcDbEntity
  8
0
  6
Continuous
 62
     7
370
    15
100
AcDbLine
 10
520.3188084859
 20
556.1450758965
 30
0.0
 11
520.3188084859
 21
545.0541118176
 31
0.0
  0
SPLINE
  5
153
330
1F
100
AcDbEntity
  8
0
  6
Continuous
 62
     7
370
    15
100
AcDbSpline
210
0.0
220
0.0
230
1.0
 70
     8
 71
     3
 72
    12
 73
     8
 74
     0
 42
0.00000001
 43
0.00000001
 12
1.0
 22
0.0
 32
0.0
 13
1.0
 23
0.0
 33
0.0
 40
0.0
 40
0.0
 40
0.0
 40
0.0
 40
0.2500000000000017
 40
0.2500000000000017
 40
0.5000000000000033
 40
0.5000000000000033
 40
1.0
 40
1.0
 40
1.0
 40
1.0
 10
520.318809474354
 20
545.0541130213005
 30
0.0
 10
520.318809474354
 20
544.471243894679
 30
0.0
 10
520.3441427276473
 20
543.8857597298601
 30
0.0
 10
520.4421796147241
 20
542.7275500959523
 30
0.0
 10
520.5147889836528
 20
542.152319017643
 30
0.0
 10
520.7948356825868
 20
540.4368423622175
 30
0.0
 10
521.0642495114926
 20
539.3067736117778
 30
0.0
 10
521.3906062440784
 20
538.186055148487
 30
0.0
  0
LINE
  5
154
330
1F
100
AcDbEntity
  8
0
  6
Continuous
 62
     7
370
    15
100
AcDbLine
 10
521.3906043071
 20
551.9221687705
 30
0.0
 11
534.3188070554
 21
551.9221687705
 31
0.0
  0
LINE
  5
155
330
1F
100
AcDbEntity
  8
0
  6
Continuous
 62
     7
370
    15
100
AcDbLine
 10
521.3906043071
 20
538.1860548646
 30
0.0
 11
534.3188070554
 21
538.1860548646
 31
0.0
  0
SPLINE
  5
156
330
1F
100
AcDbEntity
  8
0
  6
Continuous
 62
     7
370
    15
100
AcDbSpline
210
0.0
220
0.0
230
1.0
 70
     8
 71
     3
 72
    12
 73
     8
 74
     0
 42
0.00000001
 43
0.00000001
 12
1.0
 22
0.0
 32
0.0
 13
1.0
 23
0.0
 33
0.0
 40
0.0
 40
0.0
 40
0.0
 40
0.0
 40
0.2500000000000001
 40
0.2500000000000001
 40
0.5000000000000002
 40
0.5000000000000002
 40
1.0
 40
1.0
 40
1.0
 40
1.0
 10
520.318809474354
 20
394.2082827514162
 30
0.0
 10
520.318809474354
 20
393.6652829345995
 30
0.0
 10
520.3441427276472
 20
393.1198469529604
 30
0.0
 10
520.442179614724
 20
392.0408609673881
 30
0.0
 10
520.5147889836528
 20
391.504976742468
 30
0.0
 10
520.7948356825868
 20
389.9068418145659
 30
0.0
 10
521.0642495114927
 20
388.8540718247812
 30
0.0
 10
521.3906062440784
 20
387.8100125454752
 30
0.0
  0
SPLINE
  5
157
330
1F
100
AcDbEntity
  8
0
  6
Continuous
 62
     7
370
    15
100
AcDbSpline
210
0.0
220
0.0
230
1.0
 70
     8
 71
     3
 72
    10
 73
     6
 74
     0
 42
0.00000001
 43
0.00000001
 12
1.0
 22
0.0
 32
0.0
 13
1.0
 23
0.0
 33
0.0
 40
0.0
 40
0.0
 40
0.0
 40
0.0
 40
0.5
 40
0.5
 40
1.0
 40
1.0
 40
1.0
 40
1.0
 10
521.3906062440783
 20
400.6065529573572
 30
0.0
 10
521.0634324829667
 20
399.5598798934145
 30
0.0
 10
520.7938899390485
 20
398.5055615268486
 30
0.0
 10
520.4209574307902
 20
396.3748831500669
 30
0.0
 10
520.318809474354
 20
395.2983583762601
 30
0.0
 10
520.318809474354
 20
394.2082827514162
 30
0.0
  0
LINE
  5
158
330
1F
100
AcDbEntity
  8
0
  6
Continuous
 62
     7
370
    15
100
AcDbLine
 10
521.3906043071
 20
400.6065523268
 30
0.0
 11
534.3188070554
 21
400.6065523268
 31
0.0
  0
LINE
  5
159
330
1F
100
AcDbEntity
  8
0
  6
Continuous
 62
     7
370
    15
100
AcDbLine
 10
521.3906043071
 20
387.8100143762
 30
0.0
 11
534.3188070554
 21
387.8100143762
 31
0.0
  0
SPLINE
  5
15A
330
1F
100
AcDbEntity
  8
0
  6
Continuous
 62
     7
370
    15
100
AcDbSpline
210
0.0
220
0.0
230
1.0
 70
     8
 71
     3
 72
    12
 73
     8
 74
     0
 42
0.00000001
 43
0.00000001
 12
1.0
 22
0.0
 32
0.0
 13
1.0
 23
0.0
 33
0.0
 40
0.0
 40
0.0
 40
0.0
 40
0.0
 40
0.2499999999999997
 40
0.2499999999999997
 40
0.4999999999999994
 40
0.4999999999999994
 40
1.0
 40
1.0
 40
1.0
 40
1.0
 10
520.318809474354
 20
406.1071232166651
 30
0.0
 10
520.318809474354
 20
405.6403081952522
 30
0.0
 10
520.3441427276472
 20
405.1713988115606
 30
0.0
 10
520.442179614724
 20
404.2437983771591
 30
0.0
 10
520.5147889836528
 20
403.7831006049252
 30
0.0
 10
520.7948356825868
 20
402.4091896615241
 30
0.0
 10
521.0642495114926
 20
401.5041270259504
 30
0.0
 10
521.3906062440784
 20
400.6065529573572
 30
0.0
  0
SPLINE
  5
15B
330
1F
100
AcDbEntity
  8
0
  6
Continuous
 62
     7
370
    15
100
AcDbSpline
210
0.0
220
0.0
230
1.0
 70
     8
 71
     3
 72
    10
 73
     6
 74
     0
 42
0.00000001
 43
0.00000001
 12
1.0
 22
0.0
 32
0.0
 13
1.0
 23
0.0
 33
0.0
 40
0.0
 40
0.0
 40
0.0
 40
0.0
 40
0.5
 40
0.5
 40
1.0
 40
1.0
 40
1.0
 40
1.0
 10
521.3906062440783
 20
411.607693475973
 30
0.0
 10
521.0634324829667
 20
410.707872345975
 30
0.0
 10
520.7938899390485
 20
409.8014785763607
 30
0.0
 10
520.4209574307902
 20
407.9697419140682
 30
0.0
 10
520.318809474354
 20
407.0442573747139
 30
0.0
 10
520.318809474354
 20
406.1071232166651
 30
0.0
  0
LINE
  5
15C
330
1F
100
AcDbEntity
  8
0
  6
Continuous
 62
     7
370
    15
100
AcDbLine
 10
521.3906043071
 20
411.6076940687
 30
0.0
 11
534.3188070554
 21
411.6076940687
 31
0.0
  0
LINE
  5
15D
330
1F
100
AcDbEntity
  8
0
  6
Continuous
 62
     7
370
    15
100
AcDbLine
 10
520.3188084859
 20
406.107124129
 30
0.0
 11
520.3188084859
 21
394.2082824201
 31
0.0
  0
SPLINE
  5
15E
330
1F
100
AcDbEntity
  8
0
  6
Continuous
 62
     7
370
    15
100
AcDbSpline
210
0.0
220
0.0
230
1.0
 70
     8
 71
     3
 72
    12
 73
     8
 74
     0
 42
0.00000001
 43
0.00000001
 12
1.0
 22
0.0
 32
0.0
 13
1.0
 23
0.0
 33
0.0
 40
0.0
 40
0.0
 40
0.0
 40
0.0
 40
0.2500000000000014
 40
0.2500000000000014
 40
0.5000000000000029
 40
0.5000000000000029
 40
1.0
 40
1.0
 40
1.0
 40
1.0
 10
752.318809474354
 20
547.5672855253578
 30
0.0
 10
752.318809474354
 20
548.1534699150193
 30
0.0
 10
752.2934762210609
 20
548.7422842167824
 30
0.0
 10
752.1954393339842
 20
549.9070815552305
 30
0.0
 10
752.1228299650553
 20
550.4855844526265
 30
0.0
 10
751.8427832661213
 20
552.2108184550997
 30
0.0
 10
751.5733694372155
 20
553.3473148493963
 30
0.0
 10
751.2470127046297
 20
554.4744077736594
 30
0.0
  0
SPLINE
  5
15F
330
1F
100
AcDbEntity
  8
0
  6
Continuous
 62
     7
370
    15
100
AcDbSpline
210
0.0
220
0.0
230
1.0
 70
     8
 71
     3
 72
    10
 73
     6
 74
     0
 42
0.00000001
 43
0.00000001
 12
1.0
 22
0.0
 32
0.0
 13
1.0
 23
0.0
 33
0.0
 40
0.0
 40
0.0
 40
0.0
 40
0.0
 40
0.5
 40
0.5
 40
1.0
 40
1.0
 40
1.0
 40
1.0
 10
751.2470127046298
 20
540.6601632770561
 30
0.0
 10
751.5741864657413
 20
541.790077859273
 30
0.0
 10
751.8437290096597
 20
542.9282457721785
 30
0.0
 10
752.2166615179178
 20
545.228376205335
 30
0.0
 10
752.318809474354
 20
546.390516592764
 30
0.0
 10
752.318809474354
 20
547.5672855253578
 30
0.0
  0
LINE
  5
160
330
1F
100
AcDbEntity
  8
0
  6
Continuous
 62
     7
370
    15
100
AcDbLine
 10
751.2470134395
 20
540.6601617129
 30
0.0
 11
738.3188106912
 21
540.6601617129
 31
0.0
  0
LINE
  5
161
330
1F
100
AcDbEntity
  8
0
  6
Continuous
 62
     7
370
    15
100
AcDbLine
 10
751.2470134395
 20
554.4744098575
 30
0.0
 11
738.3188106912
 21
554.4744098575
 31
0.0
  0
LINE
  5
162
330
1F
100
AcDbEntity
  8
0
  6
Continuous
 62
     7
370
    15
100
AcDbLine
 10
752.3188092607
 20
536.738898793
 30
0.0
 11
752.3188092607
 21
547.5672820599
 31
0.0
  0
SPLINE
  5
163
330
1F
100
AcDbEntity
  8
0
  6
Continuous
 62
     7
370
    15
100
AcDbSpline
210
0.0
220
0.0
230
1.0
 70
     8
 71
     3
 72
    12
 73
     8
 74
     0
 42
0.00000001
 43
0.00000001
 12
1.0
 22
0.0
 32
0.0
 13
1.0
 23
0.0
 33
0.0
 40
0.0
 40
0.0
 40
0.0
 40
0.0
 40
0.25
 40
0.25
 40
0.5
 40
0.5
 40
1.0
 40
1.0
 40
1.0
 40
1.0
 10
752.318809474354
 20
536.7388985231752
 30
0.0
 10
752.318809474354
 20
537.0716831625406
 30
0.0
 10
752.2934762210609
 20
537.4059608378277
 30
0.0
 10
752.1954393339842
 20
538.0672317093247
 30
0.0
 10
752.1228299650553
 20
538.3956554638245
 30
0.0
 10
751.8427832661213
 20
539.3750936499315
 30
0.0
 10
751.5733694372155
 20
540.020297700716
 30
0.0
 10
751.2470127046297
 20
540.6601632770562
 30
0.0
  0
SPLINE
  5
164
330
1F
100
AcDbEntity
  8
0
  6
Continuous
 62
     7
370
    15
100
AcDbSpline
210
0.0
220
0.0
230
1.0
 70
     8
 71
     3
 72
    12
 73
     8
 74
     0
 42
0.00000001
 43
0.00000001
 12
1.0
 22
0.0
 32
0.0
 13
1.0
 23
0.0
 33
0.0
 40
0.0
 40
0.0
 40
0.0
 40
0.0
 40
0.2499999999999998
 40
0.2499999999999998
 40
0.4999999999999996
 40
0.4999999999999996
 40
1.0
 40
1.0
 40
1.0
 40
1.0
 10
752.318809474354
 20
407.9320484301089
 30
0.0
 10
752.318809474354
 20
408.3141346418129
 30
0.0
 10
752.2934762210609
 20
408.6979350805924
 30
0.0
 10
752.1954393339842
 20
409.457172293831
 30
0.0
 10
752.1228299650553
 20
409.8342515617614
 30
0.0
 10
751.8427832661213
 20
410.9587921260173
 30
0.0
 10
751.5733694372155
 20
411.6995822418421
 30
0.0
 10
751.2470127046297
 20
412.4342429958051
 30
0.0
  0
LINE
  5
165
330
1F
100
AcDbEntity
  8
0
  6
Continuous
 62
     7
370
    15
100
AcDbLine
 10
751.2470134395
 20
412.4342428536
 30
0.0
 11
738.3188106912
 21
412.4342428536
 31
0.0
  0
SPLINE
  5
166
330
1F
100
AcDbEntity
  8
0
  6
Continuous
 62
     7
370
    15
100
AcDbSpline
210
0.0
220
0.0
230
1.0
 70
     8
 71
     3
 72
    10
 73
     6
 74
     0
 42
0.00000001
 43
0.00000001
 12
1.0
 22
0.0
 32
0.0
 13
1.0
 23
0.0
 33
0.0
 40
0.0
 40
0.0
 40
0.0
 40
0.0
 40
0.5000000000000013
 40
0.5000000000000013
 40
1.0
 40
1.0
 40
1.0
 40
1.0
 10
751.2470127046296
 20
554.4744077736593
 30
0.0
 10
751.5722965013672
 20
554.9600333048106
 30
0.0
 10
751.8451234585663
 20
555.4574091162874
 30
0.0
 10
752.2181764211089
 20
556.4544125824826
 30
0.0
 10
752.318809474354
 20
556.9557044559622
 30
0.0
 10
752.318809474354
 20
557.4602652680799
 30
0.0
  0
LINE
  5
167
330
1F
100
AcDbEntity
  8
0
  6
Continuous
 62
     7
370
    15
100
AcDbLine
 10
752.3188092607
 20
547.5672820599
 30
0.0
 11
752.3188092607
 21
557.4602672846
 31
0.0
  0
SPLINE
  5
168
330
1F
100
AcDbEntity
  8
0
  6
Continuous
 62
     7
370
    15
100
AcDbSpline
210
0.0
220
0.0
230
1.0
 70
     8
 71
     3
 72
    12
 73
     8
 74
     0
 42
0.00000001
 43
0.00000001
 12
1.0
 22
0.0
 32
0.0
 13
1.0
 23
0.0
 33
0.0
 40
0.0
 40
0.0
 40
0.0
 40
0.0
 40
0.2500000000000004
 40
0.2500000000000004
 40
0.5000000000000008
 40
0.5000000000000008
 40
1.0
 40
1.0
 40
1.0
 40
1.0
 10
752.318809474354
 20
387.4974135325377
 30
0.0
 10
752.318809474354
 20
387.6926505802774
 30
0.0
 10
752.2939180668941
 20
387.8885129969901
 30
0.0
 10
752.1949949426104
 20
388.2814724261229
 30
0.0
 10
752.1214744254202
 20
388.4765152323891
 30
0.0
 10
751.8397197772669
 20
389.0550476928038
 30
0.0
 10
751.5704015545052
 20
389.4333548477644
 30
0.0
 10
751.2470127046296
 20
389.8067639326985
 30
0.0
  0
LINE
  5
169
330
1F
100
AcDbEntity
  8
0
  6
Continuous
 62
     7
370
    15
100
AcDbLine
 10
752.3188092607
 20
387.4974140913
 30
0.0
 11
752.3188092607
 21
396.61831055
 31
0.0
  0
SPLINE
  5
16A
330
1F
100
AcDbEntity
  8
0
  6
Continuous
 62
     7
370
    15
100
AcDbSpline
210
0.0
220
0.0
230
1.0
 70
     8
 71
     3
 72
    10
 73
     6
 74
     0
 42
0.00000001
 43
0.00000001
 12
1.0
 22
0.0
 32
0.0
 13
1.0
 23
0.0
 33
0.0
 40
0.0
 40
0.0
 40
0.0
 40
0.0
 40
0.5
 40
0.5
 40
1.0
 40
1.0
 40
1.0
 40
1.0
 10
521.3906062440783
 20
538.1860551484871
 30
0.0
 10
521.0634324829667
 20
537.7533439143485
 30
0.0
 10
520.7938899390485
 20
537.3174719909294
 30
0.0
 10
520.4209574307902
 20
536.4366157792518
 30
0.0
 10
520.318809474354
 20
535.9915633751134
 30
0.0
 10
520.318809474354
 20
535.5409088343787
 30
0.0
  0
LINE
  5
16B
330
1F
100
AcDbEntity
  8
0
  6
Continuous
 62
     7
370
    15
100
AcDbLine
 10
520.3188084859
 20
545.0541118176
 30
0.0
 11
520.3188084859
 21
535.5409124882
 31
0.0
  0
SPLINE
  5
16C
330
1F
100
AcDbEntity
  8
0
  6
Continuous
 62
     7
370
    15
100
AcDbSpline
210
0.0
220
0.0
230
1.0
 70
     8
 71
     3
 72
    10
 73
     6
 74
     0
 42
0.00000001
 43
0.00000001
 12
1.0
 22
0.0
 32
0.0
 13
1.0
 23
0.0
 33
0.0
 40
0.0
 40
0.0
 40
0.0
 40
0.0
 40
0.5
 40
0.5
 40
1.0
 40
1.0
 40
1.0
 40
1.0
 10
521.3906062440785
 20
560.3679940115239
 30
0.0
 10
521.0653224473409
 20
559.6811716589727
 30
0.0
 10
520.7924954901418
 20
558.9777308326001
 30
0.0
 10
520.4194425275991
 20
557.5676643879248
 30
0.0
 10
520.318809474354
 20
556.8586850576125
 30
0.0
 10
520.318809474354
 20
556.1450824528189
 30
0.0
  0
LINE
  5
16D
330
1F
100
AcDbEntity
  8
0
  6
Continuous
 62
     7
370
    15
100
AcDbLine
 10
521.3906043071
 20
560.367990473
 30
0.0
 11
534.3188070554
 21
560.367990473
 31
0.0
  0
SPLINE
  5
16E
330
1F
100
AcDbEntity
  8
0
  6
Continuous
 62
     7
370
    15
100
AcDbSpline
210
0.0
220
0.0
230
1.0
 70
     8
 71
     3
 72
    10
 73
     6
 74
     0
 42
0.00000001
 43
0.00000001
 12
1.0
 22
0.0
 32
0.0
 13
1.0
 23
0.0
 33
0.0
 40
0.0
 40
0.0
 40
0.0
 40
0.0
 40
0.5
 40
0.5
 40
1.0
 40
1.0
 40
1.0
 40
1.0
 10
751.2470127046298
 20
532.817633769294
 30
0.0
 10
751.5741864657414
 20
533.4591012382147
 30
0.0
 10
751.8437290096597
 20
534.1052542322451
 30
0.0
 10
752.2166615179178
 20
535.4110687339478
 30
0.0
 10
752.318809474354
 20
536.0708312191721
 30
0.0
 10
752.318809474354
 20
536.7388985231752
 30
0.0
  0
LINE
  5
16F
330
1F
100
AcDbEntity
  8
0
  6
Continuous
 62
     7
370
    15
100
AcDbLine
 10
751.2470134395
 20
532.8176358731
 30
0.0
 11
738.3188106912
 21
532.8176358731
 31
0.0
  0
SPLINE
  5
170
330
1F
100
AcDbEntity
  8
0
  6
Continuous
 62
     7
370
    15
100
AcDbSpline
210
0.0
220
0.0
230
1.0
 70
     8
 71
     3
 72
    12
 73
     8
 74
     0
 42
0.00000001
 43
0.00000001
 12
1.0
 22
0.0
 32
0.0
 13
1.0
 23
0.0
 33
0.0
 40
0.0
 40
0.0
 40
0.0
 40
0.0
 40
0.2499999999999996
 40
0.2499999999999996
 40
0.4999999999999991
 40
0.4999999999999991
 40
1.0
 40
1.0
 40
1.0
 40
1.0
 10
752.318809474354
 20
557.4602652680799
 30
0.0
 10
752.318809474354
 20
557.7126955628248
 30
0.0
 10
752.2939180668941
 20
557.9659344237513
 30
0.0
 10
752.1949949426104
 20
558.4740084069796
 30
0.0
 10
752.1214744254202
 20
558.7261875586502
 30
0.0
 10
751.8397197772669
 20
559.4741968181263
 30
0.0
 10
751.5704015545053
 20
559.9633262519936
 30
0.0
 10
751.2470127046296
 20
560.4461227625004
 30
0.0
  0
LINE
  5
171
330
1F
100
AcDbEntity
  8
0
  6
Continuous
 62
     7
370
    15
100
AcDbLine
 10
751.2470134395
 20
560.4461172612
 30
0.0
 11
738.3188106912
 21
560.4461172612
 31
0.0
  0
SPLINE
  5
172
330
1F
100
AcDbEntity
  8
0
  6
Continuous
 62
     7
370
    15
100
AcDbSpline
210
0.0
220
0.0
230
1.0
 70
     8
 71
     3
 72
    10
 73
     6
 74
     0
 42
0.00000001
 43
0.00000001
 12
1.0
 22
0.0
 32
0.0
 13
1.0
 23
0.0
 33
0.0
 40
0.0
 40
0.0
 40
0.0
 40
0.0
 40
0.5
 40
0.5
 40
1.0
 40
1.0
 40
1.0
 40
1.0
 10
521.3906062440785
 20
387.8100125454752
 30
0.0
 10
521.0653224473409
 20
387.6640089219893
 30
0.0
 10
520.7924954901418
 20
387.514472569282
 30
0.0
 10
520.4194425275991
 20
387.2147228457707
 30
0.0
 10
520.318809474354
 20
387.0640091265423
 30
0.0
 10
520.318809474354
 20
386.9123125988422
 30
0.0
  0
LINE
  5
173
330
1F
100
AcDbEntity
  8
0
  6
Continuous
 62
     7
370
    15
100
AcDbLine
 10
520.3188084859
 20
394.2082824201
 30
0.0
 11
520.3188084859
 21
386.9123125465
 31
0.0
  0
SPLINE
  5
174
330
1F
100
AcDbEntity
  8
0
  6
Continuous
 62
     7
370
    15
100
AcDbSpline
210
0.0
220
0.0
230
1.0
 70
     8
 71
     3
 72
    12
 73
     8
 74
     0
 42
0.00000001
 43
0.00000001
 12
1.0
 22
0.0
 32
0.0
 13
1.0
 23
0.0
 33
0.0
 40
0.0
 40
0.0
 40
0.0
 40
0.0
 40
0.2499999999999994
 40
0.2499999999999994
 40
0.4999999999999989
 40
0.4999999999999989
 40
1.0
 40
1.0
 40
1.0
 40
1.0
 10
520.318809474354
 20
535.5409088343787
 30
0.0
 10
520.318809474354
 20
535.3164241036962
 30
0.0
 10
520.3441427276472
 20
535.0909322238637
 30
0.0
 10
520.442179614724
 20
534.6448623157718
 30
0.0
 10
520.5147889836528
 20
534.4233192835596
 30
0.0
 10
520.7948356825867
 20
533.7626249743286
 30
0.0
 10
521.0642495114927
 20
533.3273931744122
 30
0.0
 10
521.3906062440784
 20
532.8957625202704
 30
0.0
  0
LINE
  5
175
330
1F
100
AcDbEntity
  8
0
  6
Continuous
 62
     7
370
    15
100
AcDbLine
 10
521.3906043071
 20
532.8957626612
 30
0.0
 11
534.3188070554
 21
532.8957626612
 31
0.0
  0
SPLINE
  5
176
330
1F
100
AcDbEntity
  8
0
  6
Continuous
 62
     7
370
    15
100
AcDbSpline
210
0.0
220
0.0
230
1.0
 70
     8
 71
     3
 72
    10
 73
     6
 74
     0
 42
0.00000001
 43
0.00000001
 12
1.0
 22
0.0
 32
0.0
 13
1.0
 23
0.0
 33
0.0
 40
0.0
 40
0.0
 40
0.0
 40
0.0
 40
0.5
 40
0.5
 40
1.0
 40
1.0
 40
1.0
 40
1.0
 10
751.2470127046296
 20
385.188063132377
 30
0.0
 10
751.5722965013672
 20
385.5636602654578
 30
0.0
 10
751.8451234585663
 20
385.9483454124921
 30
0.0
 10
752.2181764211089
 20
386.7194573486518
 30
0.0
 10
752.318809474354
 20
387.1071712937348
 30
0.0
 10
752.318809474354
 20
387.4974135325377
 30
0.0
  0
LINE
  5
177
330
1F
100
AcDbEntity
  8
0
  6
Continuous
 62
     7
370
    15
100
AcDbLine
 10
751.2470134395
 20
385.1880619318
 30
0.0
 11
738.3188106912
 21
385.1880619318
 31
0.0
  0
SPLINE
  5
178
330
1F
100
AcDbEntity
  8
0
  6
Continuous
 62
     7
370
    15
100
AcDbSpline
210
0.0
220
0.0
230
1.0
 70
     8
 71
     3
 72
    12
 73
     8
 74
     0
 42
0.00000001
 43
0.00000001
 12
1.0
 22
0.0
 32
0.0
 13
1.0
 23
0.0
 33
0.0
 40
0.0
 40
0.0
 40
0.0
 40
0.0
 40
0.187607859111012
 40
0.4282526744949217
 40
0.6689238140248409
 40
0.8343943088687112
 40
1.0
 40
1.0
 40
1.0
 40
1.0
 10
520.3842767375667
 20
410.9131621212838
 30
0.0
 10
520.4118696336823
 20
410.9573012655447
 30
0.0
 10
520.4748559691938
 20
411.0580577406157
 30
0.0
 10
520.663875302908
 20
411.214148093803
 30
0.0
 10
520.8990643520784
 20
411.3637378896412
 30
0.0
 10
521.1460717288271
 20
411.4948407428171
 30
0.0
 10
521.3090712604727
 20
411.5700660538587
 30
0.0
 10
521.3906043070514
 20
411.6076940686581
 30
0.0
  0
LINE
  5
179
330
1F
100
AcDbEntity
  8
0
  6
Continuous
 62
     7
370
    15
100
AcDbLine
 10
520.3188084859
 20
410.811152497
 30
0.0
 11
520.3188084859
 21
406.107124129
 31
0.0
  0
SPLINE
  5
17A
330
1F
100
AcDbEntity
  8
0
  6
Continuous
 62
     7
370
    15
100
AcDbSpline
210
0.0
220
0.0
230
1.0
 70
     8
 71
     3
 72
    12
 73
     8
 74
     0
 42
0.00000001
 43
0.00000001
 12
1.0
 22
0.0
 32
0.0
 13
1.0
 23
0.0
 33
0.0
 40
0.0
 40
0.0
 40
0.0
 40
0.0
 40
0.2500000000000001
 40
0.2500000000000001
 40
0.5000000000000001
 40
0.5000000000000001
 40
1.0
 40
1.0
 40
1.0
 40
1.0
 10
520.318809474354
 20
386.9123125988422
 30
0.0
 10
520.318809474354
 20
386.8364192708636
 30
0.0
 10
520.3437008818141
 20
386.7602828469506
 30
0.0
 10
520.4426240060977
 20
386.6075300821312
 30
0.0
 10
520.5161445232878
 20
386.531712260477
 30
0.0
 10
520.7978991714413
 20
386.3068228029033
 30
0.0
 10
521.0672173942027
 20
386.1597657288468
 30
0.0
 10
521.3906062440785
 20
386.0146126522092
 30
0.0
  0
LINE
  5
17B
330
1F
100
AcDbEntity
  8
0
  6
Continuous
 62
     7
370
    15
100
AcDbLine
 10
521.3906043071
 20
386.0146144421
 30
0.0
 11
534.3188070554
 21
386.0146144421
 31
0.0
  0
LINE
  5
17C
330
1F
100
AcDbEntity
  8
0
  6
Continuous
 62
     7
370
    15
100
AcDbLine
 10
471.3188060421
 20
554.6318778784
 30
0.0
 11
471.3188060421
 21
538.6318752558
 31
0.0
  0
LINE
  5
17D
330
1F
100
AcDbEntity
  8
0
  6
Continuous
 62
     7
370
    15
100
AcDbLine
 10
801.3188042539
 20
554.6318778784
 30
0.0
 11
801.3188042539
 21
538.6318752558
 31
0.0
  0
LINE
  5
17E
330
1F
100
AcDbEntity
  8
0
  6
Continuous
 62
     7
370
    15
100
AcDbLine
 10
801.3188042539
 20
395.9550673158
 30
0.0
 11
801.3188042539
 21
390.8111529441
 31
0.0
  0
LINE
  5
17F
330
1F
100
AcDbEntity
  8
0
  6
Continuous
 62
     7
370
    15
100
AcDbLine
 10
801.3188042539
 20
406.811153704
 30
0.0
 11
801.3188042539
 21
395.9550673158
 31
0.0
  0
LINE
  5
180
330
1F
100
AcDbEntity
  8
0
  6
Continuous
 62
     7
370
    15
100
AcDbLine
 10
471.3188060421
 20
395.9550673158
 30
0.0
 11
471.3188060421
 21
390.8111529441
 31
0.0
  0
LINE
  5
181
330
1F
100
AcDbEntity
  8
0
  6
Continuous
 62
     7
370
    15
100
AcDbLine
 10
471.3188060421
 20
406.811153704
 30
0.0
 11
471.3188060421
 21
395.9550673158
 31
0.0
  0
SPLINE
  5
182
330
1F
100
AcDbEntity
  8
0
  6
Continuous
 62
     7
370
    15
100
AcDbSpline
210
0.0
220
0.0
230
1.0
 70
     8
 71
     3
 72
    10
 73
     6
 74
     0
 42
0.00000001
 43
0.00000001
 12
1.0
 22
0.0
 32
0.0
 13
1.0
 23
0.0
 33
0.0
 40
0.0
 40
0.0
 40
0.0
 40
0.0
 40
0.4635442144220421
 40
0.9270490799534953
 40
1.0
 40
1.0
 40
1.0
 40
1.0
 10
751.247013439532
 20
412.4342428536294
 30
0.0
 10
751.3601195415705
 20
412.2970160815457
 30
0.0
 10
751.5863221444066
 20
412.0225741861512
 30
0.0
 10
751.799384591348
 20
411.7234998546434
 30
0.0
 10
751.8827979499079
 20
411.5611416258433
 30
0.0
 10
751.8941410678584
 20
411.5390630454896
 30
0.0
  0
LINE
  5
183
330
1F
100
AcDbEntity
  8
0
  6
Continuous
 62
     7
370
    15
100
AcDbLine
 10
752.3188092607
 20
407.9320488514
 30
0.0
 11
752.3188092607
 21
410.811152497
 31
0.0
  0
SPLINE
  5
184
330
1F
100
AcDbEntity
  8
0
  6
Continuous
 62
     7
370
    15
100
AcDbSpline
210
0.0
220
0.0
230
1.0
 70
     8
 71
     3
 72
     9
 73
     5
 74
     0
 42
0.00000001
 43
0.00000001
 12
1.0
 22
0.0
 32
0.0
 13
1.0
 23
0.0
 33
0.0
 40
0.0
 40
0.0
 40
0.0
 40
0.0
 40
0.459270933994626
 40
1.0
 40
1.0
 40
1.0
 40
1.0
 10
520.8893962997157
 20
559.6154073269246
 30
0.0
 10
520.9579933729032
 20
559.7314026147455
 30
0.0
 10
521.1073541708764
 20
559.9839665791401
 30
0.0
 10
521.2911957965227
 20
560.233214745059
 30
0.0
 10
521.3906043070514
 20
560.3679904730199
 30
0.0
  0
LINE
  5
185
330
1F
100
AcDbEntity
  8
0
  6
Continuous
 62
     7
370
    15
100
AcDbLine
 10
520.3188084859
 20
558.6318710835
 30
0.0
 11
520.3188084859
 21
556.1450758965
 31
0.0
  0
SPLINE
  5
186
330
1F
100
AcDbEntity
  8
0
  6
Continuous
 62
     7
370
    15
100
AcDbSpline
210
0.0
220
0.0
230
1.0
 70
     8
 71
     3
 72
     9
 73
     5
 74
     0
 42
0.00000001
 43
0.00000001
 12
1.0
 22
0.0
 32
0.0
 13
1.0
 23
0.0
 33
0.0
 40
0.0
 40
0.0
 40
0.0
 40
0.0
 40
0.2696058801822443
 40
1.0
 40
1.0
 40
1.0
 40
1.0
 10
751.5659876960475
 20
533.3334917218564
 30
0.0
 10
751.5399412804582
 20
533.2868403421688
 30
0.0
 10
751.4433320537908
 20
533.1138048740402
 30
0.0
 10
751.3298789323254
 20
532.9426479118308
 30
0.0
 10
751.247013439532
 20
532.8176358730672
 30
0.0
  0
LINE
  5
187
330
1F
100
AcDbEntity
  8
0
  6
Continuous
 62
     7
370
    15
100
AcDbLine
 10
752.3188092607
 20
534.6318746002
 30
0.0
 11
752.3188092607
 21
536.738898793
 31
0.0
  0
LINE
  5
188
330
1F
100
AcDbEntity
  8
0
  6
Continuous
 62
     7
370
    15
100
AcDbLine
 10
752.3188092607
 20
557.4602672846
 30
0.0
 11
752.3188092607
 21
558.6318710835
 31
0.0
  0
LINE
  5
189
330
1F
100
AcDbEntity
  8
0
  6
Continuous
 62
     7
370
    15
100
AcDbLine
 10
520.3188084859
 20
535.5409124882
 30
0.0
 11
520.3188084859
 21
534.6318746002
 31
0.0
  0
LINE
  5
18A
330
1F
100
AcDbEntity
  8
0
  6
Continuous
 62
     7
370
    15
100
AcDbLine
 10
752.3188092607
 20
386.8111522884
 30
0.0
 11
752.3188092607
 21
387.4974140913
 31
0.0
  0
LINE
  5
18B
330
1F
100
AcDbEntity
  8
0
  6
Continuous
 62
     7
370
    15
100
AcDbLine
 10
520.3188084859
 20
386.9123125465
 30
0.0
 11
520.3188084859
 21
386.8111522884
 31
0.0
  0
SPLINE
  5
18C
330
1F
100
AcDbEntity
  8
0
  6
Continuous
 62
     7
370
    15
100
AcDbSpline
210
0.0
220
0.0
230
1.0
 70
     8
 71
     3
 72
     9
 73
     5
 74
     0
 42
0.00000001
 43
0.00000001
 12
1.0
 22
0.0
 32
0.0
 13
1.0
 23
0.0
 33
0.0
 40
0.0
 40
0.0
 40
0.0
 40
0.0
 40
0.6355963650537583
 40
1.0
 40
1.0
 40
1.0
 40
1.0
 10
521.3906043070514
 20
412.5472681612847
 30
0.0
 10
521.2744071190787
 20
412.2967272643
 30
0.0
 10
521.0915911145175
 20
411.9025448700009
 30
0.0
 10
520.9494815048312
 20
411.5022549497432
 30
0.0
 10
520.8976962465007
 20
411.356387847769
 30
0.0
  0
LINE
  5
18D
330
1F
100
AcDbEntity
  8
0
  6
Continuous
 62
     7
370
    15
100
AcDbLine
 10
521.3906043071
 20
412.5472681613
 30
0.0
 11
534.3188070554
 21
412.5472681613
 31
0.0
  0
LINE
  5
18E
330
1F
100
AcDbEntity
  8
0
  6
Continuous
 62
     7
370
    15
100
AcDbLine
 10
751.2470134395
 20
384.996909836
 30
0.0
 11
751.4644362825
 21
385.4519577713
 31
0.0
  0
LINE
  5
18F
330
1F
100
AcDbEntity
  8
0
  6
Continuous
 62
     7
370
    15
100
AcDbLine
 10
751.2470134395
 20
384.996909836
 30
0.0
 11
738.3188106912
 21
384.996909836
 31
0.0
  0
SPLINE
  5
190
330
1F
100
AcDbEntity
  8
0
  6
Continuous
 62
     7
370
    15
100
AcDbSpline
210
0.0
220
0.0
230
1.0
 70
     8
 71
     3
 72
    10
 73
     6
 74
     0
 42
0.00000001
 43
0.00000001
 12
1.0
 22
0.0
 32
0.0
 13
1.0
 23
0.0
 33
0.0
 40
0.0
 40
0.0
 40
0.0
 40
0.0
 40
0.119116321158786
 40
0.5593770285306822
 40
1.0
 40
1.0
 40
1.0
 40
1.0
 10
751.7503001588542
 20
411.7675835282681
 30
0.0
 10
751.7343179336547
 20
411.8020437229011
 30
0.0
 10
751.6592644938362
 20
411.9638707596063
 30
0.0
 10
751.4896359019178
 20
412.249862866144
 30
0.0
 10
751.3279097636606
 20
412.5001845151032
 30
0.0
 10
751.247013439532
 20
412.6253968120692
 30
0.0
  0
LINE
  5
191
330
1F
100
AcDbEntity
  8
0
  6
Continuous
 62
     7
370
    15
100
AcDbLine
 10
751.2470134395
 20
412.6253968121
 30
0.0
 11
738.3188106912
 21
412.6253968121
 31
0.0
  0
SPLINE
  5
192
330
1F
100
AcDbEntity
  8
0
  6
Continuous
 62
     7
370
    15
100
AcDbSpline
210
0.0
220
0.0
230
1.0
 70
     8
 71
     3
 72
    11
 73
     7
 74
     0
 42
0.00000001
 43
0.00000001
 12
1.0
 22
0.0
 32
0.0
 13
1.0
 23
0.0
 33
0.0
 40
0.0
 40
0.0
 40
0.0
 40
0.0
 40
0.1325130680296982
 40
0.4216124957841814
 40
0.7108423209089271
 40
0.9999999999999999
 40
0.9999999999999999
 40
0.9999999999999999
 40
0.9999999999999999
 10
520.5697216886241
 20
386.4920066685555
 30
0.0
 10
520.5932254504723
 20
386.4284776040765
 30
0.0
 10
520.6680066010449
 20
386.2263492568271
 30
0.0
 10
520.8466236535993
 20
385.8888246593047
 30
0.0
 10
521.0943535641762
 20
385.4795784793499
 30
0.0
 10
521.291862271608
 20
385.2098726951854
 30
0.0
 10
521.3906043070514
 20
385.0750366241811
 30
0.0
  0
LINE
  5
193
330
1F
100
AcDbEntity
  8
0
  6
Continuous
 62
     7
370
    15
100
AcDbLine
 10
521.3906043071
 20
385.0750366242
 30
0.0
 11
534.3188070554
 21
385.0750366242
 31
0.0
  0
SPLINE
  5
194
330
1F
100
AcDbEntity
  8
0
  6
Continuous
 62
     7
370
    15
100
AcDbSpline
210
0.0
220
0.0
230
1.0
 70
     8
 71
     3
 72
     9
 73
     5
 74
     0
 42
0.00000001
 43
0.00000001
 12
1.0
 22
0.0
 32
0.0
 13
1.0
 23
0.0
 33
0.0
 40
0.0
 40
0.0
 40
0.0
 40
0.0
 40
0.4592718181381722
 40
1.0
 40
1.0
 40
1.0
 40
1.0
 10
520.8893962997157
 20
411.7946757019637
 30
0.0
 10
520.9579933015413
 20
411.9106755982714
 30
0.0
 10
521.1073536565998
 20
412.1632491107894
 30
0.0
 10
521.2911957215313
 20
412.4124942761704
 30
0.0
 10
521.3906043070514
 20
412.5472681612847
 30
0.0
  0
LINE
  5
195
330
1F
100
AcDbEntity
  8
0
  6
Continuous
 62
     7
370
    15
100
AcDbLine
 10
751.5681483644
 20
385.512780586
 30
0.0
 11
751.2470134395
 21
384.996909836
 31
0.0
  0
LINE
  5
196
330
1F
100
AcDbEntity
  8
0
  6
Continuous
 62
     7
370
    15
100
AcDbLine
 10
751.2470134395
 20
429.0428600057
 30
0.0
 11
751.4691897529
 21
429.6673413615
 31
0.0
  0
LINE
  5
197
330
1F
100
AcDbEntity
  8
0
  6
Continuous
 62
     7
370
    15
100
AcDbLine
 10
751.2470134395
 20
429.0428600057
 30
0.0
 11
738.3188106912
 21
429.0428600057
 31
0.0
  0
SPLINE
  5
198
330
1F
100
AcDbEntity
  8
0
  6
Continuous
 62
     7
370
    15
100
AcDbSpline
210
0.0
220
0.0
230
1.0
 70
     8
 71
     3
 72
     9
 73
     5
 74
     0
 42
0.00000001
 43
0.00000001
 12
1.0
 22
0.0
 32
0.0
 13
1.0
 23
0.0
 33
0.0
 40
0.0
 40
0.0
 40
0.0
 40
0.0
 40
0.4561114213642211
 40
1.0
 40
1.0
 40
1.0
 40
1.0
 10
520.8920934098918
 20
429.5587313377438
 30
0.0
 10
520.9598384142286
 20
429.3763441555103
 30
0.0
 10
521.1083657283092
 20
428.9764699719436
 30
0.0
 10
521.2911759275993
 20
428.5818648098256
 30
0.0
 10
521.3906043070514
 20
428.3672435690788
 30
0.0
  0
LINE
  5
199
330
1F
100
AcDbEntity
  8
0
  6
Continuous
 62
     7
370
    15
100
AcDbLine
 10
521.3906043071
 20
428.3672435691
 30
0.0
 11
534.3188070554
 21
428.3672435691
 31
0.0
  0
SPLINE
  5
19A
330
1F
100
AcDbEntity
  8
0
  6
Continuous
 62
     7
370
    15
100
AcDbSpline
210
0.0
220
0.0
230
1.0
 70
     8
 71
     3
 72
    11
 73
     7
 74
     0
 42
0.00000001
 43
0.00000001
 12
1.0
 22
0.0
 32
0.0
 13
1.0
 23
0.0
 33
0.0
 40
0.0
 40
0.0
 40
0.0
 40
0.0
 40
0.3061769374148368
 40
0.6124389533636899
 40
0.9185428745324818
 40
1.0
 40
1.0
 40
1.0
 40
1.0
 10
521.3906043070514
 20
455.8464383722422
 30
0.0
 10
521.2864517814774
 20
455.7033984222468
 30
0.0
 10
521.0781177890761
 20
455.4172787752084
 30
0.0
 10
520.8214253020926
 20
454.9827764898209
 30
0.0
 10
520.6488900964684
 20
454.6525670813032
 30
0.0
 10
520.5845117929464
 20
454.4662219939397
 30
0.0
 10
520.570980836745
 20
454.4270562023995
 30
0.0
  0
LINE
  5
19B
330
1F
100
AcDbEntity
  8
0
  6
Continuous
 62
     7
370
    15
100
AcDbLine
 10
521.3906043071
 20
455.8464383722
 30
0.0
 11
534.3188070554
 21
455.8464383722
 31
0.0
  0
SPLINE
  5
19C
330
1F
100
AcDbEntity
  8
0
  6
Continuous
 62
     7
370
    15
100
AcDbSpline
210
0.0
220
0.0
230
1.0
 70
     8
 71
     3
 72
    12
 73
     8
 74
     0
 42
0.00000001
 43
0.00000001
 12
1.0
 22
0.0
 32
0.0
 13
1.0
 23
0.0
 33
0.0
 40
0.0
 40
0.0
 40
0.0
 40
0.0
 40
0.0872170048401934
 40
0.3123259944346398
 40
0.541499863614008
 40
0.770779410063598
 40
1.0
 40
1.0
 40
1.0
 40
1.0
 10
752.1935799020488
 20
429.9013171826629
 30
0.0
 10
752.1805247971529
 20
429.875932641844
 30
0.0
 10
752.1337741821033
 20
429.7850300481464
 30
0.0
 10
751.9991612240275
 20
429.6285448132736
 30
0.0
 10
751.7932915077457
 20
429.4323021218215
 30
0.0
 10
751.5426909044082
 20
429.2364989364685
 30
0.0
 10
751.3455641452703
 20
429.1074007825797
 30
0.0
 10
751.247013439532
 20
429.0428600057168
 30
0.0
  0
SPLINE
  5
19D
330
1F
100
AcDbEntity
  8
0
  6
Continuous
 62
     7
370
    15
100
AcDbSpline
210
0.0
220
0.0
230
1.0
 70
     8
 71
     3
 72
    13
 73
     9
 74
     0
 42
0.00000001
 43
0.00000001
 12
1.0
 22
0.0
 32
0.0
 13
1.0
 23
0.0
 33
0.0
 40
0.0
 40
0.0
 40
0.0
 40
0.0
 40
0.0078560561202936
 40
0.2042115602530716
 40
0.400466261688579
 40
0.6002674316190559
 40
0.8001581162768582
 40
0.9999999999999999
 40
0.9999999999999999
 40
0.9999999999999999
 40
0.9999999999999999
 10
752.2615142959315
 20
454.1840555162308
 30
0.0
 10
752.260811683888
 20
454.1866863424557
 30
0.0
 10
752.2425478757543
 20
454.2550724537437
 30
0.0
 10
752.1564707480435
 20
454.3885822544297
 30
0.0
 10
752.0023314851913
 20
454.5851905652499
 30
0.0
 10
751.7924411058648
 20
454.7813644580874
 30
0.0
 10
751.5429016853888
 20
454.9771876717745
 30
0.0
 10
751.3456348271112
 20
455.1062822016208
 30
0.0
 10
751.247013439532
 20
455.1708215863583
 30
0.0
  0
LINE
  5
19E
330
1F
100
AcDbEntity
  8
0
  6
Continuous
 62
     7
370
    15
100
AcDbLine
 10
751.2470134395
 20
455.1708215864
 30
0.0
 11
738.3188106912
 21
455.1708215864
 31
0.0
  0
SPLINE
  5
19F
330
1F
100
AcDbEntity
  8
0
  6
Continuous
 62
     7
370
    15
100
AcDbSpline
210
0.0
220
0.0
230
1.0
 70
     8
 71
     3
 72
     9
 73
     5
 74
     0
 42
0.00000001
 43
0.00000001
 12
1.0
 22
0.0
 32
0.0
 13
1.0
 23
0.0
 33
0.0
 40
0.0
 40
0.0
 40
0.0
 40
0.0
 40
0.5789170969465866
 40
1.0
 40
1.0
 40
1.0
 40
1.0
 10
521.3906043070514
 20
428.3672435690788
 30
0.0
 10
521.2855079009659
 20
428.5101936957208
 30
0.0
 10
521.1039682528194
 20
428.7571204619124
 30
0.0
 10
520.9586072544578
 20
429.0075229925235
 30
0.0
 10
520.8973982232768
 20
429.1129632170451
 30
0.0
  0
LINE
  5
1A0
330
1F
100
AcDbEntity
  8
0
  6
Continuous
 62
     8
370
    15
100
AcDbLine
 10
619.0206762265
 20
412.9359407366
 30
0.0
 11
619.0206762265
 21
434.1068411728
 31
0.0
  0
LINE
  5
1A1
330
1F
100
AcDbEntity
  8
0
  6
Continuous
 62
     8
370
    15
100
AcDbLine
 10
619.0206762265
 20
450.1068407686
 30
0.0
 11
619.0206762265
 21
495.3361937792
 31
0.0
  0
LINE
  5
1A2
330
1F
100
AcDbEntity
  8
0
  6
Continuous
 62
     8
370
    15
100
AcDbLine
 10
619.0206762265
 20
511.3361889512
 30
0.0
 11
619.0206762265
 21
532.5070882232
 31
0.0
  0
LINE
  5
1A3
330
1F
100
AcDbEntity
  8
0
  6
Continuous
 62
     8
370
    15
100
AcDbLine
 10
621.8383400562
 20
412.6894271017
 30
0.0
 11
621.8383400562
 21
434.1068411728
 31
0.0
  0
LINE
  5
1A4
330
1F
100
AcDbEntity
  8
0
  6
Continuous
 62
     8
370
    15
100
AcDbLine
 10
621.8383400562
 20
450.1068407686
 30
0.0
 11
621.8383400562
 21
495.3361937792
 31
0.0
  0
LINE
  5
1A5
330
1F
100
AcDbEntity
  8
0
  6
Continuous
 62
     8
370
    15
100
AcDbLine
 10
621.8383400562
 20
511.3361889512
 30
0.0
 11
621.8383400562
 21
532.7536055834
 31
0.0
  0
LINE
  5
1A6
330
1F
100
AcDbEntity
  8
0
  6
Continuous
 62
     8
370
    15
100
AcDbLine
 10
622.6043845388
 20
413.3322147668
 30
0.0
 11
622.6043845388
 21
434.1068411728
 31
0.0
  0
LINE
  5
1A7
330
1F
100
AcDbEntity
  8
0
  6
Continuous
 62
     8
370
    15
100
AcDbLine
 10
622.6043845388
 20
450.1068407686
 30
0.0
 11
622.6043845388
 21
495.3361937792
 31
0.0
  0
LINE
  5
1A8
330
1F
100
AcDbEntity
  8
0
  6
Continuous
 62
     8
370
    15
100
AcDbLine
 10
622.6043845388
 20
511.3361889512
 30
0.0
 11
622.6043845388
 21
532.110814193
 31
0.0
  0
LINE
  5
1A9
330
1F
100
AcDbEntity
  8
FORMAT
  6
CENTERX2
370
     0
100
AcDbLine
 10
513.3355675326
 20
472.721515665
 30
0.0
 11
757.1643913307
 21
472.721515665
 31
0.0
  0
CIRCLE
  5
1AA
330
1F
100
AcDbEntity
  8
0
  6
Continuous
 62
     7
370
    15
100
AcDbCircle
 10
123.3620677429
 20
503.3361902542
 30
0.0
 40
8.000000000000037
  0
CIRCLE
  5
1AB
330
1F
100
AcDbEntity
  8
0
  6
Continuous
 62
     7
370
    15
100
AcDbCircle
 10
271.1827929447
 20
442.1068410758
 30
0.0
 40
8.000000000000046
  0
CIRCLE
  5
1AC
330
1F
100
AcDbEntity
  8
0
  6
Continuous
 62
     7
370
    15
100
AcDbCircle
 10
271.1827929447
 20
503.3361902542
 30
0.0
 40
7.999999999999975
  0
CIRCLE
  5
1AD
330
1F
100
AcDbEntity
  8
0
  6
Continuous
 62
     7
370
    15
100
AcDbCircle
 10
227.887104933
 20
398.8111530641
 30
0.0
 40
7.999999999999987
  0
CIRCLE
  5
1AE
330
1F
100
AcDbEntity
  8
0
  6
Continuous
 62
     7
370
    15
100
AcDbCircle
 10
227.887104933
 20
546.6318782659
 30
0.0
 40
8.00000000000002
  0
CIRCLE
  5
1AF
330
1F
100
AcDbEntity
  8
0
  6
Continuous
 62
     7
370
    15
100
AcDbCircle
 10
166.6577557546
 20
398.8111530641
 30
0.0
 40
8.0
  0
CIRCLE
  5
1B0
330
1F
100
AcDbEntity
  8
0
  6
Continuous
 62
     7
370
    15
100
AcDbCircle
 10
166.6577557546
 20
546.6318782659
 30
0.0
 40
7.999999999999946
  0
CIRCLE
  5
1B1
330
1F
100
AcDbEntity
  8
0
  6
Continuous
 62
     7
370
    15
100
AcDbCircle
 10
123.3620677429
 20
442.1068410758
 30
0.0
 40
8.000000000000034
  0
ARC
  5
1B2
330
1F
100
AcDbEntity
  8
0
  6
Continuous
 62
     7
370
    15
100
AcDbCircle
 10
271.1827929447
 20
503.3361902542
 30
0.0
 40
11.99999999999999
100
AcDbArc
 50
85.5292238792
 51
145.5292238792
  0
ARC
  5
1B3
330
1F
100
AcDbEntity
  8
0
  6
Continuous
 62
     7
370
    15
100
AcDbCircle
 10
271.1827929447
 20
503.3361902542
 30
0.0
 40
12.00000000000001
100
AcDbArc
 50
25.5292238792
 51
85.5292238792
  0
ARC
  5
1B4
330
1F
100
AcDbEntity
  8
0
  6
Continuous
 62
     7
370
    15
100
AcDbCircle
 10
271.1827929447
 20
503.3361902542
 30
0.0
 40
12.00000000000001
100
AcDbArc
 50
325.5292238792
 51
25.5292238792
  0
ARC
  5
1B5
330
1F
100
AcDbEntity
  8
0
  6
Continuous
 62
     7
370
    15
100
AcDbCircle
 10
271.1827929447
 20
503.3361902542
 30
0.0
 40
12.00000000000009
100
AcDbArc
 50
265.5292238792
 51
325.5292238792
  0
ARC
  5
1B6
330
1F
100
AcDbEntity
  8
0
  6
Continuous
 62
     7
370
    15
100
AcDbCircle
 10
271.1827929447
 20
503.3361902542
 30
0.0
 40
12.00000000000009
100
AcDbArc
 50
205.5292238792
 51
265.5292238792
  0
ARC
  5
1B7
330
1F
100
AcDbEntity
  8
0
  6
Continuous
 62
     7
370
    15
100
AcDbCircle
 10
271.1827929447
 20
503.3361902542
 30
0.0
 40
12.00000000000003
100
AcDbArc
 50
145.5292238792
 51
205.5292238792
  0
ARC
  5
1B8
330
1F
100
AcDbEntity
  8
0
  6
Continuous
 62
     7
370
    15
100
AcDbCircle
 10
271.1827929447
 20
442.1068410758
 30
0.0
 40
11.99999999999999
100
AcDbArc
 50
40.5292238792
 51
100.5292238792
  0
ARC
  5
1B9
330
1F
100
AcDbEntity
  8
0
  6
Continuous
 62
     7
370
    15
100
AcDbCircle
 10
271.1827929447
 20
442.1068410758
 30
0.0
 40
11.99999999999999
100
AcDbArc
 50
340.5292238792
 51
40.5292238792
  0
ARC
  5
1BA
330
1F
100
AcDbEntity
  8
0
  6
Continuous
 62
     7
370
    15
100
AcDbCircle
 10
271.1827929447
 20
442.1068410758
 30
0.0
 40
12.00000000000002
100
AcDbArc
 50
280.5292238792
 51
340.5292238792
  0
ARC
  5
1BB
330
1F
100
AcDbEntity
  8
0
  6
Continuous
 62
     7
370
    15
100
AcDbCircle
 10
271.1827929447
 20
442.1068410758
 30
0.0
 40
12.00000000000004
100
AcDbArc
 50
220.5292238792
 51
280.5292238792
  0
ARC
  5
1BC
330
1F
100
AcDbEntity
  8
0
  6
Continuous
 62
     7
370
    15
100
AcDbCircle
 10
271.1827929447
 20
442.1068410758
 30
0.0
 40
12.00000000000004
100
AcDbArc
 50
160.5292238792
 51
220.5292238792
  0
ARC
  5
1BD
330
1F
100
AcDbEntity
  8
0
  6
Continuous
 62
     7
370
    15
100
AcDbCircle
 10
271.1827929447
 20
442.1068410758
 30
0.0
 40
11.99999999999999
100
AcDbArc
 50
100.5292238792
 51
160.5292238792
  0
SPLINE
  5
1BE
330
1F
100
AcDbEntity
  8
0
  6
Continuous
 62
     7
370
    15
100
AcDbSpline
210
0.0
220
0.0
230
1.0
 70
    24
 71
     3
 72
    12
 73
     8
 74
     0
 42
0.00000001
 43
0.00000001
 12
1.0
 22
0.0
 32
0.0
 13
1.0
 23
0.0
 33
0.0
 40
0.0
 40
0.0
 40
0.0
 40
0.0
 40
0.249999999999999
 40
0.249999999999999
 40
0.499999999999998
 40
0.499999999999998
 40
1.0
 40
1.0
 40
1.0
 40
1.0
 10
280.3036883107603
 20
449.9048708091357
 30
0.0
 10
280.6857745224643
 20
449.457967106929
 30
0.0
 10
281.0695749612439
 20
449.0090583744359
 30
0.0
 10
281.8288121744825
 20
448.1210233942251
 30
0.0
 10
282.2058914424129
 20
447.679976018786
 30
0.0
 10
283.3304320066688
 20
446.364667258477
 30
0.0
 10
284.0712221224935
 20
445.4982087598995
 30
0.0
 10
284.8058828764566
 20
444.6389194143149
 30
0.0
  0
SPLINE
  5
1BF
330
1F
100
AcDbEntity
  8
0
  6
Continuous
 62
     7
370
    15
100
AcDbSpline
210
0.0
220
0.0
230
1.0
 70
    24
 71
     3
 72
    10
 73
     6
 74
     0
 42
0.00000001
 43
0.00000001
 12
1.0
 22
0.0
 32
0.0
 13
1.0
 23
0.0
 33
0.0
 40
0.0
 40
0.0
 40
0.0
 40
0.0
 40
0.5
 40
0.5
 40
1.0
 40
1.0
 40
1.0
 40
1.0
 10
284.8058828764566
 20
444.6389194143149
 30
0.0
 10
284.4302857433757
 20
443.5765440688454
 30
0.0
 10
284.0456005963416
 20
442.4884633036243
 30
0.0
 10
283.2744886601818
 20
440.3073755438382
 30
0.0
 10
282.8867747150988
 20
439.2107278325729
 30
0.0
 10
282.4965324762958
 20
438.1069288502313
 30
0.0
  0
SPLINE
  5
1C0
330
1F
100
AcDbEntity
  8
0
  6
Continuous
 62
     7
370
    15
100
AcDbSpline
210
0.0
220
0.0
230
1.0
 70
    24
 71
     3
 72
    10
 73
     6
 74
     0
 42
0.00000001
 43
0.00000001
 12
1.0
 22
0.0
 32
0.0
 13
1.0
 23
0.0
 33
0.0
 40
0.0
 40
0.0
 40
0.0
 40
0.0
 40
0.5
 40
0.5
 40
1.0
 40
1.0
 40
1.0
 40
1.0
 10
284.9970374413443
 20
502.2560749881009
 30
0.0
 10
284.3555699724236
 20
501.32171342755
 30
0.0
 10
283.7094169783932
 20
500.3805269307935
 30
0.0
 10
282.4036024766904
 20
498.4784774353548
 30
0.0
 10
281.7438399914662
 20
497.5174673527637
 30
0.0
 10
281.0757726874632
 20
496.5443604705526
 30
0.0
  0
SPLINE
  5
1C1
330
1F
100
AcDbEntity
  8
0
  6
Continuous
 62
     7
370
    15
100
AcDbSpline
210
0.0
220
0.0
230
1.0
 70
    24
 71
     3
 72
    12
 73
     8
 74
     0
 42
0.00000001
 43
0.00000001
 12
1.0
 22
0.0
 32
0.0
 13
1.0
 23
0.0
 33
0.0
 40
0.0
 40
0.0
 40
0.0
 40
0.0
 40
0.2500000000000004
 40
0.2500000000000004
 40
0.5000000000000009
 40
0.5000000000000009
 40
1.0
 40
1.0
 40
1.0
 40
1.0
 10
282.0111799469237
 20
508.5078471387005
 30
0.0
 10
282.2636102416687
 20
507.9793099631643
 30
0.0
 10
282.5168491025952
 20
507.4490798161636
 30
0.0
 10
283.0249230858234
 20
506.3852772787935
 30
0.0
 10
283.2771022374941
 20
505.8572659452576
 30
0.0
 10
284.0251114969701
 20
504.29108823399
 30
0.0
 10
284.5142409308374
 20
503.2669516908348
 30
0.0
 10
284.9970374413443
 20
502.2560749881009
 30
0.0
  0
SPLINE
  5
1C2
330
1F
100
AcDbEntity
  8
0
  6
Continuous
 62
     7
370
    15
100
AcDbSpline
210
0.0
220
0.0
230
1.0
 70
    24
 71
     3
 72
    12
 73
     8
 74
     0
 42
0.00000001
 43
0.00000001
 12
1.0
 22
0.0
 32
0.0
 13
1.0
 23
0.0
 33
0.0
 40
0.0
 40
0.0
 40
0.0
 40
0.0
 40
0.2500000000000009
 40
0.2500000000000009
 40
0.5000000000000018
 40
0.5000000000000018
 40
1.0
 40
1.0
 40
1.0
 40
1.0
 10
272.1182002042015
 20
515.2996769223514
 30
0.0
 10
272.704384593863
 20
515.2538440352776
 30
0.0
 10
273.2931988956261
 20
515.2078055192811
 30
0.0
 10
274.4579962340743
 20
515.1167317448534
 30
0.0
 10
275.0364991314703
 20
515.0714994622543
 30
0.0
 10
276.7617331339435
 20
514.9366059771905
 30
0.0
 10
277.89822952824
 20
514.8477450115654
 30
0.0
 10
279.0253224525032
 20
514.7596192893001
 30
0.0
  0
SPLINE
  5
1C3
330
1F
100
AcDbEntity
  8
0
  6
Continuous
 62
     7
370
    15
100
AcDbSpline
210
0.0
220
0.0
230
1.0
 70
    24
 71
     3
 72
    10
 73
     6
 74
     0
 42
0.00000001
 43
0.00000001
 12
1.0
 22
0.0
 32
0.0
 13
1.0
 23
0.0
 33
0.0
 40
0.0
 40
0.0
 40
0.0
 40
0.0
 40
0.5
 40
0.5
 40
1.0
 40
1.0
 40
1.0
 40
1.0
 10
279.0253224525031
 20
514.7596192893001
 30
0.0
 10
279.5109479836544
 20
513.7428191985573
 30
0.0
 10
280.0083237951312
 20
512.7014164349011
 30
0.0
 10
281.0053272613264
 20
510.6138960104811
 30
0.0
 10
281.5066191348061
 20
509.564293817544
 30
0.0
 10
282.0111799469237
 20
508.5078471387005
 30
0.0
  0
SPLINE
  5
1C4
330
1F
100
AcDbEntity
  8
0
  6
Continuous
 62
     7
370
    15
100
AcDbSpline
210
0.0
220
0.0
230
1.0
 70
    24
 71
     3
 72
    10
 73
     6
 74
     0
 42
0.00000001
 43
0.00000001
 12
1.0
 22
0.0
 32
0.0
 13
1.0
 23
0.0
 33
0.0
 40
0.0
 40
0.0
 40
0.0
 40
0.0
 40
0.5
 40
0.5
 40
1.0
 40
1.0
 40
1.0
 40
1.0
 10
280.1871820761352
 20
431.5749382861477
 30
0.0
 10
279.0729026834053
 20
431.3678308877865
 30
0.0
 10
277.9504841654247
 20
431.1592106973316
 30
0.0
 10
275.6821817799218
 20
430.7376088900803
 30
0.0
 10
274.5361225064584
 20
430.524594671166
 30
0.0
 10
273.3756371102781
 20
430.3088991168848
 30
0.0
  0
SPLINE
  5
1C5
330
1F
100
AcDbEntity
  8
0
  6
Continuous
 62
     7
370
    15
100
AcDbSpline
210
0.0
220
0.0
230
1.0
 70
    24
 71
     3
 72
    12
 73
     8
 74
     0
 42
0.00000001
 43
0.00000001
 12
1.0
 22
0.0
 32
0.0
 13
1.0
 23
0.0
 33
0.0
 40
0.0
 40
0.0
 40
0.0
 40
0.0
 40
0.2500000000000004
 40
0.2500000000000004
 40
0.5000000000000009
 40
0.5000000000000009
 40
1.0
 40
1.0
 40
1.0
 40
1.0
 10
282.4965324762958
 20
438.1069288502313
 30
0.0
 10
282.3012954285562
 20
437.5547014561095
 30
0.0
 10
282.1054330118436
 20
437.0007052077546
 30
0.0
 10
281.7124735827107
 20
435.8892206608515
 30
0.0
 10
281.5174307764445
 20
435.3375426781448
 30
0.0
 10
280.9388983160298
 20
433.7011653781985
 30
0.0
 10
280.5605911610692
 20
432.631124744107
 30
0.0
 10
280.1871820761351
 20
431.5749382861477
 30
0.0
  0
SPLINE
  5
1C6
330
1F
100
AcDbEntity
  8
0
  6
Continuous
 62
     7
370
    15
100
AcDbSpline
210
0.0
220
0.0
230
1.0
 70
    24
 71
     3
 72
    10
 73
     6
 74
     0
 42
0.00000001
 43
0.00000001
 12
1.0
 22
0.0
 32
0.0
 13
1.0
 23
0.0
 33
0.0
 40
0.0
 40
0.0
 40
0.0
 40
0.0
 40
0.5
 40
0.5
 40
1.0
 40
1.0
 40
1.0
 40
1.0
 10
277.1545079335822
 20
490.8326459530045
 30
0.0
 10
276.0245933513652
 20
490.9209922965157
 30
0.0
 10
274.8864254384599
 20
491.0099839556991
 30
0.0
 10
272.5862950053033
 20
491.1898277390845
 30
0.0
 10
271.4241546178743
 20
491.2806937704571
 30
0.0
 10
270.2473856852806
 20
491.3727035860559
 30
0.0
  0
SPLINE
  5
1C7
330
1F
100
AcDbEntity
  8
0
  6
Continuous
 62
     7
370
    15
100
AcDbSpline
210
0.0
220
0.0
230
1.0
 70
    24
 71
     3
 72
    12
 73
     8
 74
     0
 42
0.00000001
 43
0.00000001
 12
1.0
 22
0.0
 32
0.0
 13
1.0
 23
0.0
 33
0.0
 40
0.0
 40
0.0
 40
0.0
 40
0.0
 40
0.2499999999999986
 40
0.2499999999999986
 40
0.4999999999999971
 40
0.4999999999999971
 40
1.0
 40
1.0
 40
1.0
 40
1.0
 10
281.0757726874632
 20
496.5443604705526
 30
0.0
 10
280.7429880480977
 20
496.059626341341
 30
0.0
 10
280.4087103728108
 20
495.5727174559007
 30
0.0
 10
279.7474395013136
 20
494.6095102577579
 30
0.0
 10
279.4190157468138
 20
494.1311281937496
 30
0.0
 10
278.4395775607069
 20
492.7044784626671
 30
0.0
 10
277.7943735099224
 20
491.7646741967094
 30
0.0
 10
277.1545079335821
 20
490.8326459530045
 30
0.0
  0
SPLINE
  5
1C8
330
1F
100
AcDbEntity
  8
0
  6
Continuous
 62
     7
370
    15
100
AcDbSpline
210
0.0
220
0.0
230
1.0
 70
    24
 71
     3
 72
    12
 73
     8
 74
     0
 42
0.00000001
 43
0.00000001
 12
1.0
 22
0.0
 32
0.0
 13
1.0
 23
0.0
 33
0.0
 40
0.0
 40
0.0
 40
0.0
 40
0.0
 40
0.2499999999999986
 40
0.2499999999999986
 40
0.4999999999999971
 40
0.4999999999999971
 40
1.0
 40
1.0
 40
1.0
 40
1.0
 10
268.989948779207
 20
453.9047830346935
 30
0.0
 10
269.5680218442153
 20
454.0122275493617
 30
0.0
 10
270.1486884299247
 20
454.1201541130818
 30
0.0
 10
271.2973678888559
 20
454.3336553371395
 30
0.0
 10
271.8678657542238
 20
454.4396918746882
 30
0.0
 10
273.5692268365995
 20
454.7559181907654
 30
0.0
 10
274.6899969656048
 20
454.9642320006533
 30
0.0
 10
275.801493745064
 20
455.1708222039564
 30
0.0
  0
SPLINE
  5
1C9
330
1F
100
AcDbEntity
  8
0
  6
Continuous
 62
     7
370
    15
100
AcDbSpline
210
0.0
220
0.0
230
1.0
 70
    24
 71
     3
 72
    10
 73
     6
 74
     0
 42
0.00000001
 43
0.00000001
 12
1.0
 22
0.0
 32
0.0
 13
1.0
 23
0.0
 33
0.0
 40
0.0
 40
0.0
 40
0.0
 40
0.0
 40
0.5
 40
0.5
 40
1.0
 40
1.0
 40
1.0
 40
1.0
 10
275.801493745064
 20
455.1708222039565
 30
0.0
 10
276.5379937097213
 20
454.3093816421195
 30
0.0
 10
277.279873353388
 20
453.4416487870976
 30
0.0
 10
278.7791424215006
 20
451.6880422014129
 30
0.0
 10
279.5366477831793
 20
450.802032865808
 30
0.0
 10
280.3036883107603
 20
449.9048708091357
 30
0.0
  0
SPLINE
  5
1CA
330
1F
100
AcDbEntity
  8
0
  6
Continuous
 62
     7
370
    15
100
AcDbSpline
210
0.0
220
0.0
230
1.0
 70
    24
 71
     3
 72
    12
 73
     8
 74
     0
 42
0.00000001
 43
0.00000001
 12
1.0
 22
0.0
 32
0.0
 13
1.0
 23
0.0
 33
0.0
 40
0.0
 40
0.0
 40
0.0
 40
0.0
 40
0.2500000000000004
 40
0.2500000000000004
 40
0.5000000000000009
 40
0.5000000000000009
 40
1.0
 40
1.0
 40
1.0
 40
1.0
 10
260.3544059425585
 20
498.164533369707
 30
0.0
 10
260.6068362373034
 20
497.6359961941709
 30
0.0
 10
260.86007509823
 20
497.1057660471702
 30
0.0
 10
261.3681490814582
 20
496.0419635098
 30
0.0
 10
261.6203282331289
 20
495.5139521762641
 30
0.0
 10
262.3683374926048
 20
493.9477744649966
 30
0.0
 10
262.8574669264722
 20
492.9236379218414
 30
0.0
 10
263.340263436979
 20
491.9127612191074
 30
0.0
  0
SPLINE
  5
1CB
330
1F
100
AcDbEntity
  8
0
  6
Continuous
 62
     7
370
    15
100
AcDbSpline
210
0.0
220
0.0
230
1.0
 70
    24
 71
     3
 72
    12
 73
     8
 74
     0
 42
0.00000001
 43
0.00000001
 12
1.0
 22
0.0
 32
0.0
 13
1.0
 23
0.0
 33
0.0
 40
0.0
 40
0.0
 40
0.0
 40
0.0
 40
0.2499999999999986
 40
0.2499999999999986
 40
0.4999999999999971
 40
0.4999999999999971
 40
1.0
 40
1.0
 40
1.0
 40
1.0
 10
270.2473856852806
 20
491.3727035860559
 30
0.0
 10
269.6612012956191
 20
491.4185364731299
 30
0.0
 10
269.072386993856
 20
491.4645749891262
 30
0.0
 10
267.9075896554078
 20
491.555648763554
 30
0.0
 10
267.3290867580118
 20
491.600881046153
 30
0.0
 10
265.6038527555386
 20
491.7357745312169
 30
0.0
 10
264.4673563612422
 20
491.8246354968421
 30
0.0
 10
263.340263436979
 20
491.9127612191074
 30
0.0
  0
SPLINE
  5
1CC
330
1F
100
AcDbEntity
  8
0
  6
Continuous
 62
     7
370
    15
100
AcDbSpline
210
0.0
220
0.0
230
1.0
 70
    24
 71
     3
 72
    12
 73
     8
 74
     0
 42
0.00000001
 43
0.00000001
 12
1.0
 22
0.0
 32
0.0
 13
1.0
 23
0.0
 33
0.0
 40
0.0
 40
0.0
 40
0.0
 40
0.0
 40
0.2500000000000008
 40
0.2500000000000008
 40
0.5000000000000017
 40
0.5000000000000017
 40
1.0
 40
1.0
 40
1.0
 40
1.0
 10
261.2898132020189
 20
510.1280200378548
 30
0.0
 10
261.6225978413844
 20
510.6127541670666
 30
0.0
 10
261.9568755166713
 20
511.0996630525067
 30
0.0
 10
262.6181463881685
 20
512.0628702506494
 30
0.0
 10
262.9465701426683
 20
512.5412523146579
 30
0.0
 10
263.9260083287753
 20
513.9679020457404
 30
0.0
 10
264.5712123795597
 20
514.9077063116979
 30
0.0
 10
265.2110779559
 20
515.8397345554029
 30
0.0
  0
SPLINE
  5
1CD
330
1F
100
AcDbEntity
  8
0
  6
Continuous
 62
     7
370
    15
100
AcDbSpline
210
0.0
220
0.0
230
1.0
 70
    24
 71
     3
 72
    10
 73
     6
 74
     0
 42
0.00000001
 43
0.00000001
 12
1.0
 22
0.0
 32
0.0
 13
1.0
 23
0.0
 33
0.0
 40
0.0
 40
0.0
 40
0.0
 40
0.0
 40
0.5
 40
0.5
 40
1.0
 40
1.0
 40
1.0
 40
1.0
 10
265.2110779558999
 20
515.8397345554029
 30
0.0
 10
266.3409925381169
 20
515.7513882118916
 30
0.0
 10
267.4791604510222
 20
515.6623965527083
 30
0.0
 10
269.7792908841789
 20
515.4825527693229
 30
0.0
 10
270.9414312716078
 20
515.3916867379503
 30
0.0
 10
272.1182002042015
 20
515.2996769223514
 30
0.0
  0
SPLINE
  5
1CE
330
1F
100
AcDbEntity
  8
0
  6
Continuous
 62
     7
370
    15
100
AcDbSpline
210
0.0
220
0.0
230
1.0
 70
    24
 71
     3
 72
    10
 73
     6
 74
     0
 42
0.00000001
 43
0.00000001
 12
1.0
 22
0.0
 32
0.0
 13
1.0
 23
0.0
 33
0.0
 40
0.0
 40
0.0
 40
0.0
 40
0.0
 40
0.5
 40
0.5
 40
1.0
 40
1.0
 40
1.0
 40
1.0
 10
266.5640921444211
 20
429.0428599476219
 30
0.0
 10
265.8275921797638
 20
429.9043005094589
 30
0.0
 10
265.0857125360971
 20
430.7720333644808
 30
0.0
 10
263.5864434679846
 20
432.5256399501654
 30
0.0
 10
262.8289381063058
 20
433.4116492857704
 30
0.0
 10
262.0618975787248
 20
434.3088113424427
 30
0.0
  0
SPLINE
  5
1CF
330
1F
100
AcDbEntity
  8
0
  6
Continuous
 62
     7
370
    15
100
AcDbSpline
210
0.0
220
0.0
230
1.0
 70
    24
 71
     3
 72
    12
 73
     8
 74
     0
 42
0.00000001
 43
0.00000001
 12
1.0
 22
0.0
 32
0.0
 13
1.0
 23
0.0
 33
0.0
 40
0.0
 40
0.0
 40
0.0
 40
0.0
 40
0.2500000000000014
 40
0.2500000000000014
 40
0.5000000000000029
 40
0.5000000000000029
 40
1.0
 40
1.0
 40
1.0
 40
1.0
 10
273.3756371102781
 20
430.3088991168848
 30
0.0
 10
272.7975640452699
 20
430.2014546022167
 30
0.0
 10
272.2168974595604
 20
430.0935280384965
 30
0.0
 10
271.0682180006293
 20
429.8800268144388
 30
0.0
 10
270.4977201352613
 20
429.7739902768902
 30
0.0
 10
268.7963590528856
 20
429.457763960813
 30
0.0
 10
267.6755889238802
 20
429.2494501509251
 30
0.0
 10
266.5640921444211
 20
429.0428599476219
 30
0.0
  0
SPLINE
  5
1D0
330
1F
100
AcDbEntity
  8
0
  6
Continuous
 62
     7
370
    15
100
AcDbSpline
210
0.0
220
0.0
230
1.0
 70
    24
 71
     3
 72
    10
 73
     6
 74
     0
 42
0.00000001
 43
0.00000001
 12
1.0
 22
0.0
 32
0.0
 13
1.0
 23
0.0
 33
0.0
 40
0.0
 40
0.0
 40
0.0
 40
0.0
 40
0.5
 40
0.5
 40
1.0
 40
1.0
 40
1.0
 40
1.0
 10
262.17840381335
 20
452.6387438654307
 30
0.0
 10
261.8028066802691
 20
451.5763685199611
 30
0.0
 10
261.4181215332349
 20
450.48828775474
 30
0.0
 10
260.6470095970752
 20
448.307199994954
 30
0.0
 10
260.2592956519922
 20
447.2105522836887
 30
0.0
 10
259.8690534131892
 20
446.1067533013471
 30
0.0
  0
SPLINE
  5
1D1
330
1F
100
AcDbEntity
  8
0
  6
Continuous
 62
     7
370
    15
100
AcDbSpline
210
0.0
220
0.0
230
1.0
 70
    24
 71
     3
 72
    10
 73
     6
 74
     0
 42
0.00000001
 43
0.00000001
 12
1.0
 22
0.0
 32
0.0
 13
1.0
 23
0.0
 33
0.0
 40
0.0
 40
0.0
 40
0.0
 40
0.0
 40
0.5
 40
0.5
 40
1.0
 40
1.0
 40
1.0
 40
1.0
 10
262.17840381335
 20
452.6387438654307
 30
0.0
 10
263.2926832060798
 20
452.8458512637918
 30
0.0
 10
264.4151017240605
 20
453.0544714542468
 30
0.0
 10
266.6834041095634
 20
453.4760732614981
 30
0.0
 10
267.8294633830268
 20
453.6890874804124
 30
0.0
 10
268.989948779207
 20
453.9047830346935
 30
0.0
  0
SPLINE
  5
1D2
330
1F
100
AcDbEntity
  8
0
  6
Continuous
 62
     7
370
    15
100
AcDbSpline
210
0.0
220
0.0
230
1.0
 70
    24
 71
     3
 72
    10
 73
     6
 74
     0
 42
0.00000001
 43
0.00000001
 12
1.0
 22
0.0
 32
0.0
 13
1.0
 23
0.0
 33
0.0
 40
0.0
 40
0.0
 40
0.0
 40
0.0
 40
0.5
 40
0.5
 40
1.0
 40
1.0
 40
1.0
 40
1.0
 10
257.3685484481379
 20
504.4163055203066
 30
0.0
 10
258.0100159170585
 20
505.3506670808573
 30
0.0
 10
258.6561689110889
 20
506.2918535776139
 30
0.0
 10
259.9619834127917
 20
508.1939030730526
 30
0.0
 10
260.6217458980159
 20
509.1549131556437
 30
0.0
 10
261.2898132020189
 20
510.1280200378548
 30
0.0
  0
SPLINE
  5
1D3
330
1F
100
AcDbEntity
  8
0
  6
Continuous
 62
     7
370
    15
100
AcDbSpline
210
0.0
220
0.0
230
1.0
 70
    24
 71
     3
 72
    10
 73
     6
 74
     0
 42
0.00000001
 43
0.00000001
 12
1.0
 22
0.0
 32
0.0
 13
1.0
 23
0.0
 33
0.0
 40
0.0
 40
0.0
 40
0.0
 40
0.0
 40
0.5
 40
0.5
 40
1.0
 40
1.0
 40
1.0
 40
1.0
 10
257.3685484481379
 20
504.4163055203066
 30
0.0
 10
257.8541739792891
 20
503.3995054295639
 30
0.0
 10
258.351549790766
 20
502.3581026659078
 30
0.0
 10
259.3485532569612
 20
500.2705822414878
 30
0.0
 10
259.8498451304408
 20
499.2209800485505
 30
0.0
 10
260.3544059425585
 20
498.164533369707
 30
0.0
  0
SPLINE
  5
1D4
330
1F
100
AcDbEntity
  8
0
  6
Continuous
 62
     7
370
    15
100
AcDbSpline
210
0.0
220
0.0
230
1.0
 70
    24
 71
     3
 72
    12
 73
     8
 74
     0
 42
0.00000001
 43
0.00000001
 12
1.0
 22
0.0
 32
0.0
 13
1.0
 23
0.0
 33
0.0
 40
0.0
 40
0.0
 40
0.0
 40
0.0
 40
0.25
 40
0.25
 40
0.5
 40
0.5
 40
1.0
 40
1.0
 40
1.0
 40
1.0
 10
262.0618975787248
 20
434.3088113424427
 30
0.0
 10
261.6798113670208
 20
434.7557150446494
 30
0.0
 10
261.2960109282413
 20
435.2046237771425
 30
0.0
 10
260.5367737150027
 20
436.0926587573534
 30
0.0
 10
260.1596944470722
 20
436.5337061327924
 30
0.0
 10
259.0351538828164
 20
437.8490148931014
 30
0.0
 10
258.2943637669916
 20
438.7154733916788
 30
0.0
 10
257.5597030130285
 20
439.5747627372635
 30
0.0
  0
SPLINE
  5
1D5
330
1F
100
AcDbEntity
  8
0
  6
Continuous
 62
     7
370
    15
100
AcDbSpline
210
0.0
220
0.0
230
1.0
 70
    24
 71
     3
 72
    12
 73
     8
 74
     0
 42
0.00000001
 43
0.00000001
 12
1.0
 22
0.0
 32
0.0
 13
1.0
 23
0.0
 33
0.0
 40
0.0
 40
0.0
 40
0.0
 40
0.0
 40
0.2500000000000004
 40
0.2500000000000004
 40
0.5000000000000009
 40
0.5000000000000009
 40
1.0
 40
1.0
 40
1.0
 40
1.0
 10
259.8690534131892
 20
446.1067533013471
 30
0.0
 10
259.6738163654496
 20
445.5545259072253
 30
0.0
 10
259.4779539487369
 20
445.0005296588704
 30
0.0
 10
259.0849945196042
 20
443.8890451119673
 30
0.0
 10
258.8899517133378
 20
443.3373671292606
 30
0.0
 10
258.3114192529231
 20
441.7009898293143
 30
0.0
 10
257.9331120979626
 20
440.6309491952228
 30
0.0
 10
257.5597030130285
 20
439.5747627372635
 30
0.0
  0
ARC
  5
1D6
330
1F
100
AcDbEntity
  8
0
  6
Continuous
 62
     7
370
    15
100
AcDbCircle
 10
227.887104933
 20
546.6318782659
 30
0.0
 40
12.00000000000009
100
AcDbArc
 50
130.5292238792
 51
190.5292238792
  0
ARC
  5
1D7
330
1F
100
AcDbEntity
  8
0
  6
Continuous
 62
     7
370
    15
100
AcDbCircle
 10
227.887104933
 20
546.6318782659
 30
0.0
 40
12.00000000000009
100
AcDbArc
 50
70.5292238792
 51
130.5292238792
  0
ARC
  5
1D8
330
1F
100
AcDbEntity
  8
0
  6
Continuous
 62
     7
370
    15
100
AcDbCircle
 10
227.887104933
 20
546.6318782659
 30
0.0
 40
12.00000000000004
100
AcDbArc
 50
10.5292238792
 51
70.5292238792
  0
ARC
  5
1D9
330
1F
100
AcDbEntity
  8
0
  6
Continuous
 62
     7
370
    15
100
AcDbCircle
 10
227.887104933
 20
546.6318782659
 30
0.0
 40
12.0
100
AcDbArc
 50
310.5292238792
 51
10.5292238792
  0
ARC
  5
1DA
330
1F
100
AcDbEntity
  8
0
  6
Continuous
 62
     7
370
    15
100
AcDbCircle
 10
227.887104933
 20
546.6318782659
 30
0.0
 40
11.99999999999994
100
AcDbArc
 50
250.5292238792
 51
310.5292238792
  0
ARC
  5
1DB
330
1F
100
AcDbEntity
  8
0
  6
Continuous
 62
     7
370
    15
100
AcDbCircle
 10
227.887104933
 20
546.6318782659
 30
0.0
 40
11.99999999999998
100
AcDbArc
 50
190.5292238792
 51
250.5292238792
  0
SPLINE
  5
1DC
330
1F
100
AcDbEntity
  8
0
  6
Continuous
 62
     7
370
    15
100
AcDbSpline
210
0.0
220
0.0
230
1.0
 70
    24
 71
     3
 72
    12
 73
     8
 74
     0
 42
0.00000001
 43
0.00000001
 12
1.0
 22
0.0
 32
0.0
 13
1.0
 23
0.0
 33
0.0
 40
0.0
 40
0.0
 40
0.0
 40
0.0
 40
0.25
 40
0.25
 40
0.5
 40
0.5
 40
1.0
 40
1.0
 40
1.0
 40
1.0
 10
239.6850468919495
 20
548.8247224314334
 30
0.0
 10
239.7924914066176
 20
548.2466493664252
 30
0.0
 10
239.9004179703378
 20
547.6659827807157
 30
0.0
 10
240.1139191943955
 20
546.5173033217847
 30
0.0
 10
240.2199557319441
 20
545.9468054564167
 30
0.0
 10
240.5361820480213
 20
544.245444374041
 30
0.0
 10
240.7444958579092
 20
543.1246742450355
 30
0.0
 10
240.9510860612123
 20
542.0131774655764
 30
0.0
  0
SPLINE
  5
1DD
330
1F
100
AcDbEntity
  8
0
  6
Continuous
 62
     7
370
    15
100
AcDbSpline
210
0.0
220
0.0
230
1.0
 70
    24
 71
     3
 72
    10
 73
     6
 74
     0
 42
0.00000001
 43
0.00000001
 12
1.0
 22
0.0
 32
0.0
 13
1.0
 23
0.0
 33
0.0
 40
0.0
 40
0.0
 40
0.0
 40
0.0
 40
0.5
 40
0.5
 40
1.0
 40
1.0
 40
1.0
 40
1.0
 10
240.9510860612124
 20
542.0131774655764
 30
0.0
 10
240.0896454993753
 20
541.276677500919
 30
0.0
 10
239.2219126443534
 20
540.5347978572524
 30
0.0
 10
237.4683060586687
 20
539.03552878914
 30
0.0
 10
236.5822967230638
 20
538.2780234274611
 30
0.0
 10
235.6851346663915
 20
537.5109828998802
 30
0.0
  0
SPLINE
  5
1DE
330
1F
100
AcDbEntity
  8
0
  6
Continuous
 62
     7
370
    15
100
AcDbSpline
210
0.0
220
0.0
230
1.0
 70
    24
 71
     3
 72
    10
 73
     6
 74
     0
 42
0.00000001
 43
0.00000001
 12
1.0
 22
0.0
 32
0.0
 13
1.0
 23
0.0
 33
0.0
 40
0.0
 40
0.0
 40
0.0
 40
0.0
 40
0.5
 40
0.5
 40
1.0
 40
1.0
 40
1.0
 40
1.0
 10
240.3906492342469
 20
404.7828680529335
 30
0.0
 10
240.3023028907357
 20
403.6529534707165
 30
0.0
 10
240.2133112315523
 20
402.5147855578112
 30
0.0
 10
240.0334674481668
 20
400.2146551246545
 30
0.0
 10
239.9426014167943
 20
399.0525147372255
 30
0.0
 10
239.8505916011954
 20
397.8757458046318
 30
0.0
  0
ARC
  5
1DF
330
1F
100
AcDbEntity
  8
0
  6
Continuous
 62
     7
370
    15
100
AcDbCircle
 10
227.887104933
 20
398.8111530641
 30
0.0
 40
12.00000000000007
100
AcDbArc
 50
355.5292238792
 51
55.5292238792
  0
SPLINE
  5
1E0
330
1F
100
AcDbEntity
  8
0
  6
Continuous
 62
     7
370
    15
100
AcDbSpline
210
0.0
220
0.0
230
1.0
 70
    24
 71
     3
 72
    12
 73
     8
 74
     0
 42
0.00000001
 43
0.00000001
 12
1.0
 22
0.0
 32
0.0
 13
1.0
 23
0.0
 33
0.0
 40
0.0
 40
0.0
 40
0.0
 40
0.0
 40
0.2500000000000008
 40
0.2500000000000008
 40
0.5000000000000017
 40
0.5000000000000017
 40
1.0
 40
1.0
 40
1.0
 40
1.0
 10
234.6789347166987
 20
408.7041328068145
 30
0.0
 10
235.1636688459105
 20
408.3713481674489
 30
0.0
 10
235.6505777313508
 20
408.037070492162
 30
0.0
 10
236.6137849294935
 20
407.375799620665
 30
0.0
 10
237.0921669935018
 20
407.047375866165
 30
0.0
 10
238.5188167245844
 20
406.0679376800581
 30
0.0
 10
239.4586209905419
 20
405.4227336292737
 30
0.0
 10
240.3906492342469
 20
404.7828680529334
 30
0.0
  0
SPLINE
  5
1E1
330
1F
100
AcDbEntity
  8
0
  6
Continuous
 62
     7
370
    15
100
AcDbSpline
210
0.0
220
0.0
230
1.0
 70
    24
 71
     3
 72
    12
 73
     8
 74
     0
 42
0.00000001
 43
0.00000001
 12
1.0
 22
0.0
 32
0.0
 13
1.0
 23
0.0
 33
0.0
 40
0.0
 40
0.0
 40
0.0
 40
0.0
 40
0.2500000000000006
 40
0.2500000000000006
 40
0.5000000000000011
 40
0.5000000000000011
 40
1.0
 40
1.0
 40
1.0
 40
1.0
 10
235.6851346663915
 20
537.5109828998802
 30
0.0
 10
235.2382309641848
 20
537.1288966881762
 30
0.0
 10
234.7893222316918
 20
536.7450962493967
 30
0.0
 10
233.9012872514809
 20
535.9858590361581
 30
0.0
 10
233.4602398760418
 20
535.6087797682276
 30
0.0
 10
232.1449311157328
 20
534.4842392039718
 30
0.0
 10
231.2784726171554
 20
533.7434490881469
 30
0.0
 10
230.4191832715707
 20
533.0087883341839
 30
0.0
  0
SPLINE
  5
1E2
330
1F
100
AcDbEntity
  8
0
  6
Continuous
 62
     7
370
    15
100
AcDbSpline
210
0.0
220
0.0
230
1.0
 70
    24
 71
     3
 72
    12
 73
     8
 74
     0
 42
0.00000001
 43
0.00000001
 12
1.0
 22
0.0
 32
0.0
 13
1.0
 23
0.0
 33
0.0
 40
0.0
 40
0.0
 40
0.0
 40
0.0
 40
0.25
 40
0.25
 40
0.5
 40
0.5
 40
1.0
 40
1.0
 40
1.0
 40
1.0
 10
223.8871927074871
 20
535.3181387343448
 30
0.0
 10
224.4394201016089
 20
535.122901686605
 30
0.0
 10
224.9934163499638
 20
534.9270392698924
 30
0.0
 10
226.1049008968668
 20
534.5340798407597
 30
0.0
 10
226.6565788795736
 20
534.3390370344933
 30
0.0
 10
228.2929561795199
 20
533.7605045740786
 30
0.0
 10
229.3629968136114
 20
533.382197419118
 30
0.0
 10
230.4191832715707
 20
533.0087883341839
 30
0.0
  0
ARC
  5
1E3
330
1F
100
AcDbEntity
  8
0
  6
Continuous
 62
     7
370
    15
100
AcDbCircle
 10
227.887104933
 20
398.8111530641
 30
0.0
 40
11.99999999999998
100
AcDbArc
 50
295.5292238792
 51
355.5292238792
  0
ARC
  5
1E4
330
1F
100
AcDbEntity
  8
0
  6
Continuous
 62
     7
370
    15
100
AcDbCircle
 10
227.887104933
 20
398.8111530641
 30
0.0
 40
11.99999999999998
100
AcDbArc
 50
235.5292238792
 51
295.5292238792
  0
ARC
  5
1E5
330
1F
100
AcDbEntity
  8
0
  6
Continuous
 62
     7
370
    15
100
AcDbCircle
 10
227.887104933
 20
398.8111530641
 30
0.0
 40
12.00000000000001
100
AcDbArc
 50
175.5292238792
 51
235.5292238792
  0
ARC
  5
1E6
330
1F
100
AcDbEntity
  8
0
  6
Continuous
 62
     7
370
    15
100
AcDbCircle
 10
227.887104933
 20
398.8111530641
 30
0.0
 40
12.00000000000004
100
AcDbArc
 50
115.5292238792
 51
175.5292238792
  0
ARC
  5
1E7
330
1F
100
AcDbEntity
  8
0
  6
Continuous
 62
     7
370
    15
100
AcDbCircle
 10
227.887104933
 20
398.8111530641
 30
0.0
 40
12.00000000000007
100
AcDbArc
 50
55.5292238792
 51
115.5292238792
  0
SPLINE
  5
1E8
330
1F
100
AcDbEntity
  8
0
  6
Continuous
 62
     7
370
    15
100
AcDbSpline
210
0.0
220
0.0
230
1.0
 70
    24
 71
     3
 72
    10
 73
     6
 74
     0
 42
0.00000001
 43
0.00000001
 12
1.0
 22
0.0
 32
0.0
 13
1.0
 23
0.0
 33
0.0
 40
0.0
 40
0.0
 40
0.0
 40
0.0
 40
0.5
 40
0.5
 40
1.0
 40
1.0
 40
1.0
 40
1.0
 10
238.4190077226868
 20
555.6362673972906
 30
0.0
 10
238.6261151210479
 20
554.5219880045606
 30
0.0
 10
238.8347353115028
 20
553.3995694865799
 30
0.0
 10
239.2563371187541
 20
551.1312671010771
 30
0.0
 10
239.4693513376684
 20
549.9852078276137
 30
0.0
 10
239.6850468919495
 20
548.8247224314334
 30
0.0
  0
SPLINE
  5
1E9
330
1F
100
AcDbEntity
  8
0
  6
Continuous
 62
     7
370
    15
100
AcDbSpline
210
0.0
220
0.0
230
1.0
 70
    24
 71
     3
 72
    12
 73
     8
 74
     0
 42
0.00000001
 43
0.00000001
 12
1.0
 22
0.0
 32
0.0
 13
1.0
 23
0.0
 33
0.0
 40
0.0
 40
0.0
 40
0.0
 40
0.0
 40
0.2500000000000012
 40
0.2500000000000012
 40
0.5000000000000023
 40
0.5000000000000023
 40
1.0
 40
1.0
 40
1.0
 40
1.0
 10
231.8870171586032
 20
557.9456177974513
 30
0.0
 10
232.439244552725
 20
557.7503807497118
 30
0.0
 10
232.9932408010798
 20
557.554518332999
 30
0.0
 10
234.1047253479829
 20
557.1615589038662
 30
0.0
 10
234.6564033306896
 20
556.9665160976
 30
0.0
 10
236.2927806306359
 20
556.3879836371852
 30
0.0
 10
237.3628212647274
 20
556.0096764822247
 30
0.0
 10
238.4190077226867
 20
555.6362673972906
 30
0.0
  0
SPLINE
  5
1EA
330
1F
100
AcDbEntity
  8
0
  6
Continuous
 62
     7
370
    15
100
AcDbSpline
210
0.0
220
0.0
230
1.0
 70
    24
 71
     3
 72
    10
 73
     6
 74
     0
 42
0.00000001
 43
0.00000001
 12
1.0
 22
0.0
 32
0.0
 13
1.0
 23
0.0
 33
0.0
 40
0.0
 40
0.0
 40
0.0
 40
0.0
 40
0.5
 40
0.5
 40
1.0
 40
1.0
 40
1.0
 40
1.0
 10
239.3105339681439
 20
390.9686235563302
 30
0.0
 10
238.2937338774013
 20
390.482998025179
 30
0.0
 10
237.2523311137452
 20
389.9856222137021
 30
0.0
 10
235.1648106893251
 20
388.9886187475069
 30
0.0
 10
234.1152084963879
 20
388.4873268740273
 30
0.0
 10
233.0587618175443
 20
387.9827660619097
 30
0.0
  0
SPLINE
  5
1EB
330
1F
100
AcDbEntity
  8
0
  6
Continuous
 62
     7
370
    15
100
AcDbSpline
210
0.0
220
0.0
230
1.0
 70
    24
 71
     3
 72
    12
 73
     8
 74
     0
 42
0.00000001
 43
0.00000001
 12
1.0
 22
0.0
 32
0.0
 13
1.0
 23
0.0
 33
0.0
 40
0.0
 40
0.0
 40
0.0
 40
0.0
 40
0.25
 40
0.25
 40
0.5
 40
0.5
 40
1.0
 40
1.0
 40
1.0
 40
1.0
 10
239.8505916011954
 20
397.8757458046318
 30
0.0
 10
239.8047587141215
 20
397.2895614149704
 30
0.0
 10
239.7587201981252
 20
396.7007471132072
 30
0.0
 10
239.6676464236974
 20
395.5359497747591
 30
0.0
 10
239.6224141410983
 20
394.9574468773631
 30
0.0
 10
239.4875206560345
 20
393.2322128748899
 30
0.0
 10
239.3986596904093
 20
392.0957164805934
 30
0.0
 10
239.3105339681439
 20
390.9686235563302
 30
0.0
  0
SPLINE
  5
1EC
330
1F
100
AcDbEntity
  8
0
  6
Continuous
 62
     7
370
    15
100
AcDbSpline
210
0.0
220
0.0
230
1.0
 70
    24
 71
     3
 72
    12
 73
     8
 74
     0
 42
0.00000001
 43
0.00000001
 12
1.0
 22
0.0
 32
0.0
 13
1.0
 23
0.0
 33
0.0
 40
0.0
 40
0.0
 40
0.0
 40
0.0
 40
0.2500000000000006
 40
0.2500000000000006
 40
0.5000000000000011
 40
0.5000000000000011
 40
1.0
 40
1.0
 40
1.0
 40
1.0
 10
220.0890751996988
 20
555.7527736319159
 30
0.0
 10
220.5359789019054
 20
556.1348598436199
 30
0.0
 10
220.9848876343985
 20
556.5186602823994
 30
0.0
 10
221.8729226146094
 20
557.2778974956381
 30
0.0
 10
222.3139699900485
 20
557.6549767635685
 30
0.0
 10
223.6292787503574
 20
558.7795173278242
 30
0.0
 10
224.4957372489349
 20
559.520307443649
 30
0.0
 10
225.3550265945196
 20
560.2549681976121
 30
0.0
  0
SPLINE
  5
1ED
330
1F
100
AcDbEntity
  8
0
  6
Continuous
 62
     7
370
    15
100
AcDbSpline
210
0.0
220
0.0
230
1.0
 70
    24
 71
     3
 72
    10
 73
     6
 74
     0
 42
0.00000001
 43
0.00000001
 12
1.0
 22
0.0
 32
0.0
 13
1.0
 23
0.0
 33
0.0
 40
0.0
 40
0.0
 40
0.0
 40
0.0
 40
0.5
 40
0.5
 40
1.0
 40
1.0
 40
1.0
 40
1.0
 10
225.3550265945196
 20
560.2549681976121
 30
0.0
 10
226.4174019399891
 20
559.8793710645313
 30
0.0
 10
227.5054827052103
 20
559.4946859174971
 30
0.0
 10
229.6865704649962
 20
558.7235739813372
 30
0.0
 10
230.7832181762615
 20
558.3358600362542
 30
0.0
 10
231.8870171586032
 20
557.9456177974513
 30
0.0
  0
SPLINE
  5
1EE
330
1F
100
AcDbEntity
  8
0
  6
Continuous
 62
     7
370
    15
100
AcDbSpline
210
0.0
220
0.0
230
1.0
 70
    24
 71
     3
 72
    10
 73
     6
 74
     0
 42
0.00000001
 43
0.00000001
 12
1.0
 22
0.0
 32
0.0
 13
1.0
 23
0.0
 33
0.0
 40
0.0
 40
0.0
 40
0.0
 40
0.0
 40
0.5
 40
0.5
 40
1.0
 40
1.0
 40
1.0
 40
1.0
 10
228.9672201991506
 20
412.6253975606955
 30
0.0
 10
227.950420108408
 20
412.1397720295443
 30
0.0
 10
226.9090173447518
 20
411.6423962180674
 30
0.0
 10
224.8214969203318
 20
410.6453927518722
 30
0.0
 10
223.7718947273946
 20
410.1441008783926
 30
0.0
 10
222.715448048551
 20
409.639540066275
 30
0.0
  0
SPLINE
  5
1EF
330
1F
100
AcDbEntity
  8
0
  6
Continuous
 62
     7
370
    15
100
AcDbSpline
210
0.0
220
0.0
230
1.0
 70
    24
 71
     3
 72
    10
 73
     6
 74
     0
 42
0.00000001
 43
0.00000001
 12
1.0
 22
0.0
 32
0.0
 13
1.0
 23
0.0
 33
0.0
 40
0.0
 40
0.0
 40
0.0
 40
0.0
 40
0.5
 40
0.5
 40
1.0
 40
1.0
 40
1.0
 40
1.0
 10
228.9672201991506
 20
412.6253975606955
 30
0.0
 10
229.9015817597013
 20
411.9839300917749
 30
0.0
 10
230.842768256458
 20
411.3377770977445
 30
0.0
 10
232.7448177518966
 20
410.0319625960417
 30
0.0
 10
233.7058278344877
 20
409.3722001108175
 30
0.0
 10
234.6789347166987
 20
408.7041328068145
 30
0.0
  0
SPLINE
  5
1F0
330
1F
100
AcDbEntity
  8
0
  6
Continuous
 62
     7
370
    15
100
AcDbSpline
210
0.0
220
0.0
230
1.0
 70
    24
 71
     3
 72
    10
 73
     6
 74
     0
 42
0.00000001
 43
0.00000001
 12
1.0
 22
0.0
 32
0.0
 13
1.0
 23
0.0
 33
0.0
 40
0.0
 40
0.0
 40
0.0
 40
0.0
 40
0.5
 40
0.5
 40
1.0
 40
1.0
 40
1.0
 40
1.0
 10
226.8069896669448
 20
384.9969085674891
 30
0.0
 10
225.872628106394
 20
385.6383760364099
 30
0.0
 10
224.9314416096374
 20
386.2845290304402
 30
0.0
 10
223.0293921141987
 20
387.590343532143
 30
0.0
 10
222.0683820316076
 20
388.2501060173672
 30
0.0
 10
221.0952751493966
 20
388.9181733213703
 30
0.0
  0
SPLINE
  5
1F1
330
1F
100
AcDbEntity
  8
0
  6
Continuous
 62
     7
370
    15
100
AcDbSpline
210
0.0
220
0.0
230
1.0
 70
    24
 71
     3
 72
    12
 73
     8
 74
     0
 42
0.00000001
 43
0.00000001
 12
1.0
 22
0.0
 32
0.0
 13
1.0
 23
0.0
 33
0.0
 40
0.0
 40
0.0
 40
0.0
 40
0.0
 40
0.2500000000000008
 40
0.2500000000000008
 40
0.5000000000000017
 40
0.5000000000000017
 40
1.0
 40
1.0
 40
1.0
 40
1.0
 10
233.0587618175443
 20
387.9827660619097
 30
0.0
 10
232.5302246420082
 20
387.7303357671647
 30
0.0
 10
231.9999944950075
 20
387.4770969062382
 30
0.0
 10
230.9361919576374
 20
386.9690229230101
 30
0.0
 10
230.4081806241015
 20
386.7168437713393
 30
0.0
 10
228.842002912834
 20
385.9688345118633
 30
0.0
 10
227.8178663696788
 20
385.479705077996
 30
0.0
 10
226.8069896669448
 20
384.9969085674891
 30
0.0
  0
SPLINE
  5
1F2
330
1F
100
AcDbEntity
  8
0
  6
Continuous
 62
     7
370
    15
100
AcDbSpline
210
0.0
220
0.0
230
1.0
 70
    24
 71
     3
 72
    10
 73
     6
 74
     0
 42
0.00000001
 43
0.00000001
 12
1.0
 22
0.0
 32
0.0
 13
1.0
 23
0.0
 33
0.0
 40
0.0
 40
0.0
 40
0.0
 40
0.0
 40
0.5
 40
0.5
 40
1.0
 40
1.0
 40
1.0
 40
1.0
 10
215.3835606318485
 20
392.8394380752512
 30
0.0
 10
215.4719069753597
 20
393.9693526574682
 30
0.0
 10
215.5608986345431
 20
395.1075205703735
 30
0.0
 10
215.7407424179285
 20
397.4076510035301
 30
0.0
 10
215.8316084493011
 20
398.5697913909592
 30
0.0
 10
215.9236182648999
 20
399.7465603235529
 30
0.0
  0
SPLINE
  5
1F3
330
1F
100
AcDbEntity
  8
0
  6
Continuous
 62
     7
370
    15
100
AcDbSpline
210
0.0
220
0.0
230
1.0
 70
    24
 71
     3
 72
    12
 73
     8
 74
     0
 42
0.00000001
 43
0.00000001
 12
1.0
 22
0.0
 32
0.0
 13
1.0
 23
0.0
 33
0.0
 40
0.0
 40
0.0
 40
0.0
 40
0.0
 40
0.2499999999999994
 40
0.2499999999999994
 40
0.4999999999999988
 40
0.4999999999999988
 40
1.0
 40
1.0
 40
1.0
 40
1.0
 10
221.0952751493966
 20
388.9181733213703
 30
0.0
 10
220.6105410201849
 20
389.2509579607358
 30
0.0
 10
220.1236321347446
 20
389.5852356360227
 30
0.0
 10
219.1604249366019
 20
390.2465065075198
 30
0.0
 10
218.6820428725935
 20
390.5749302620197
 30
0.0
 10
217.255393141511
 20
391.5543684481266
 30
0.0
 10
216.3155888755534
 20
392.199572498911
 30
0.0
 10
215.3835606318485
 20
392.8394380752513
 30
0.0
  0
SPLINE
  5
1F4
330
1F
100
AcDbEntity
  8
0
  6
Continuous
 62
     7
370
    15
100
AcDbSpline
210
0.0
220
0.0
230
1.0
 70
    24
 71
     3
 72
    10
 73
     6
 74
     0
 42
0.00000001
 43
0.00000001
 12
1.0
 22
0.0
 32
0.0
 13
1.0
 23
0.0
 33
0.0
 40
0.0
 40
0.0
 40
0.0
 40
0.0
 40
0.5
 40
0.5
 40
1.0
 40
1.0
 40
1.0
 40
1.0
 10
217.3552021434035
 20
537.6274891345055
 30
0.0
 10
217.1480947450424
 20
538.7417685272353
 30
0.0
 10
216.9394745545875
 20
539.8641870452161
 30
0.0
 10
216.5178727473361
 20
542.132489430719
 30
0.0
 10
216.3048585284219
 20
543.2785487041823
 30
0.0
 10
216.0891629741407
 20
544.4390341003626
 30
0.0
  0
SPLINE
  5
1F5
330
1F
100
AcDbEntity
  8
0
  6
Continuous
 62
     7
370
    15
100
AcDbSpline
210
0.0
220
0.0
230
1.0
 70
    24
 71
     3
 72
    10
 73
     6
 74
     0
 42
0.00000001
 43
0.00000001
 12
1.0
 22
0.0
 32
0.0
 13
1.0
 23
0.0
 33
0.0
 40
0.0
 40
0.0
 40
0.0
 40
0.0
 40
0.5
 40
0.5
 40
1.0
 40
1.0
 40
1.0
 40
1.0
 10
217.3552021434035
 20
537.6274891345055
 30
0.0
 10
218.4175774888731
 20
537.2518920014246
 30
0.0
 10
219.5056582540942
 20
536.8672068543905
 30
0.0
 10
221.6867460138802
 20
536.0960949182307
 30
0.0
 10
222.7833937251455
 20
535.7083809731477
 30
0.0
 10
223.8871927074871
 20
535.3181387343448
 30
0.0
  0
SPLINE
  5
1F6
330
1F
100
AcDbEntity
  8
0
  6
Continuous
 62
     7
370
    15
100
AcDbSpline
210
0.0
220
0.0
230
1.0
 70
    24
 71
     3
 72
    12
 73
     8
 74
     0
 42
0.00000001
 43
0.00000001
 12
1.0
 22
0.0
 32
0.0
 13
1.0
 23
0.0
 33
0.0
 40
0.0
 40
0.0
 40
0.0
 40
0.0
 40
0.2500000000000014
 40
0.2500000000000014
 40
0.5000000000000029
 40
0.5000000000000029
 40
1.0
 40
1.0
 40
1.0
 40
1.0
 10
216.0891629741407
 20
544.4390341003626
 30
0.0
 10
215.9817184594726
 20
545.0171071653709
 30
0.0
 10
215.8737918957525
 20
545.5977737510805
 30
0.0
 10
215.6602906716948
 20
546.7464532100115
 30
0.0
 10
215.5542541341461
 20
547.3169510753795
 30
0.0
 10
215.238027818069
 20
549.0183121577551
 30
0.0
 10
215.0297140081811
 20
550.1390822867604
 30
0.0
 10
214.8231238048779
 20
551.2505790662196
 30
0.0
  0
SPLINE
  5
1F7
330
1F
100
AcDbEntity
  8
0
  6
Continuous
 62
     7
370
    15
100
AcDbSpline
210
0.0
220
0.0
230
1.0
 70
    24
 71
     3
 72
    10
 73
     6
 74
     0
 42
0.00000001
 43
0.00000001
 12
1.0
 22
0.0
 32
0.0
 13
1.0
 23
0.0
 33
0.0
 40
0.0
 40
0.0
 40
0.0
 40
0.0
 40
0.5
 40
0.5
 40
1.0
 40
1.0
 40
1.0
 40
1.0
 10
214.8231238048779
 20
551.2505790662195
 30
0.0
 10
215.6845643667149
 20
551.987079030877
 30
0.0
 10
216.5522972217368
 20
552.7289586745436
 30
0.0
 10
218.3059038074215
 20
554.2282277426561
 30
0.0
 10
219.1919131430264
 20
554.9857331043348
 30
0.0
 10
220.0890751996988
 20
555.7527736319159
 30
0.0
  0
SPLINE
  5
1F8
330
1F
100
AcDbEntity
  8
0
  6
Continuous
 62
     7
370
    15
100
AcDbSpline
210
0.0
220
0.0
230
1.0
 70
    24
 71
     3
 72
    12
 73
     8
 74
     0
 42
0.00000001
 43
0.00000001
 12
1.0
 22
0.0
 32
0.0
 13
1.0
 23
0.0
 33
0.0
 40
0.0
 40
0.0
 40
0.0
 40
0.0
 40
0.2499999999999997
 40
0.2499999999999997
 40
0.4999999999999993
 40
0.4999999999999993
 40
1.0
 40
1.0
 40
1.0
 40
1.0
 10
215.9236182648999
 20
399.7465603235529
 30
0.0
 10
215.9694511519739
 20
400.3327447132143
 30
0.0
 10
216.0154896679702
 20
400.9215590149774
 30
0.0
 10
216.106563442398
 20
402.0863563534256
 30
0.0
 10
216.151795724997
 20
402.6648592508216
 30
0.0
 10
216.2866892100609
 20
404.3900932532948
 30
0.0
 10
216.375550175686
 20
405.5265896475913
 30
0.0
 10
216.4636758979514
 20
406.6536825718545
 30
0.0
  0
SPLINE
  5
1F9
330
1F
100
AcDbEntity
  8
0
  6
Continuous
 62
     7
370
    15
100
AcDbSpline
210
0.0
220
0.0
230
1.0
 70
    24
 71
     3
 72
    12
 73
     8
 74
     0
 42
0.00000001
 43
0.00000001
 12
1.0
 22
0.0
 32
0.0
 13
1.0
 23
0.0
 33
0.0
 40
0.0
 40
0.0
 40
0.0
 40
0.0
 40
0.2499999999999998
 40
0.2499999999999998
 40
0.4999999999999996
 40
0.4999999999999996
 40
1.0
 40
1.0
 40
1.0
 40
1.0
 10
222.715448048551
 20
409.639540066275
 30
0.0
 10
222.186910873015
 20
409.38710977153
 30
0.0
 10
221.6566807260142
 20
409.1338709106035
 30
0.0
 10
220.592878188644
 20
408.6257969273753
 30
0.0
 10
220.0648668551082
 20
408.3736177757046
 30
0.0
 10
218.4986891438406
 20
407.6256085162286
 30
0.0
 10
217.4745526006854
 20
407.1364790823613
 30
0.0
 10
216.4636758979514
 20
406.6536825718544
 30
0.0
  0
SPLINE
  5
1FA
330
1F
100
AcDbEntity
  8
0
  6
Continuous
 62
     7
370
    15
100
AcDbSpline
210
0.0
220
0.0
230
1.0
 70
    24
 71
     3
 72
    12
 73
     8
 74
     0
 42
0.00000001
 43
0.00000001
 12
1.0
 22
0.0
 32
0.0
 13
1.0
 23
0.0
 33
0.0
 40
0.0
 40
0.0
 40
0.0
 40
0.0
 40
0.2499999999999974
 40
0.2499999999999974
 40
0.4999999999999982
 40
0.4999999999999982
 40
1.0
 40
1.0
 40
1.0
 40
1.0
 10
173.4495855382818
 20
556.5248580086193
 30
0.0
 10
173.9343196674935
 20
556.1920733692536
 30
0.0
 10
174.4212285529338
 20
555.8577956939668
 30
0.0
 10
175.3844357510765
 20
555.1965248224698
 30
0.0
 10
175.8628178150848
 20
554.8681010679697
 30
0.0
 10
177.2894675461673
 20
553.8886628818628
 30
0.0
 10
178.2292718121249
 20
553.2434588310784
 30
0.0
 10
179.1613000558299
 20
552.6035932547381
 30
0.0
  0
SPLINE
  5
1FB
330
1F
100
AcDbEntity
  8
0
  6
Continuous
 62
     7
370
    15
100
AcDbSpline
210
0.0
220
0.0
230
1.0
 70
    24
 71
     3
 72
    10
 73
     6
 74
     0
 42
0.00000001
 43
0.00000001
 12
1.0
 22
0.0
 32
0.0
 13
1.0
 23
0.0
 33
0.0
 40
0.0
 40
0.0
 40
0.0
 40
0.0
 40
0.5
 40
0.5
 40
1.0
 40
1.0
 40
1.0
 40
1.0
 10
179.1613000558298
 20
552.6035932547381
 30
0.0
 10
179.0729537123186
 20
551.4736786725213
 30
0.0
 10
178.9839620531352
 20
550.335510759616
 30
0.0
 10
178.8041182697498
 20
548.0353803264593
 30
0.0
 10
178.7132522383772
 20
546.8732399390303
 30
0.0
 10
178.6212424227783
 20
545.6964710064366
 30
0.0
  0
ARC
  5
1FC
330
1F
100
AcDbEntity
  8
0
  6
Continuous
 62
     7
370
    15
100
AcDbCircle
 10
166.6577557546
 20
546.6318782659
 30
0.0
 40
12.00000000000004
100
AcDbArc
 50
355.5292238792
 51
55.5292238792
  0
SPLINE
  5
1FD
330
1F
100
AcDbEntity
  8
0
  6
Continuous
 62
     7
370
    15
100
AcDbSpline
210
0.0
220
0.0
230
1.0
 70
    24
 71
     3
 72
    10
 73
     6
 74
     0
 42
0.00000001
 43
0.00000001
 12
1.0
 22
0.0
 32
0.0
 13
1.0
 23
0.0
 33
0.0
 40
0.0
 40
0.0
 40
0.0
 40
0.0
 40
0.5
 40
0.5
 40
1.0
 40
1.0
 40
1.0
 40
1.0
 10
179.7217368828004
 20
394.1924522637697
 30
0.0
 10
178.8602963209634
 20
393.4559522991123
 30
0.0
 10
177.9925634659415
 20
392.7140726554455
 30
0.0
 10
176.2389568802568
 20
391.2148035873331
 30
0.0
 10
175.352947544652
 20
390.4572982256543
 30
0.0
 10
174.4557854879796
 20
389.6902576980733
 30
0.0
  0
ARC
  5
1FE
330
1F
100
AcDbEntity
  8
0
  6
Continuous
 62
     7
370
    15
100
AcDbCircle
 10
166.6577557546
 20
398.8111530641
 30
0.0
 40
12.00000000000002
100
AcDbArc
 50
310.5292238792
 51
10.5292238792
  0
SPLINE
  5
1FF
330
1F
100
AcDbEntity
  8
0
  6
Continuous
 62
     7
370
    15
100
AcDbSpline
210
0.0
220
0.0
230
1.0
 70
    24
 71
     3
 72
    12
 73
     8
 74
     0
 42
0.00000001
 43
0.00000001
 12
1.0
 22
0.0
 32
0.0
 13
1.0
 23
0.0
 33
0.0
 40
0.0
 40
0.0
 40
0.0
 40
0.0
 40
0.2500000000000004
 40
0.2500000000000004
 40
0.4999999999999993
 40
0.4999999999999993
 40
1.0
 40
1.0
 40
1.0
 40
1.0
 10
178.4556977135375
 20
401.0039972296266
 30
0.0
 10
178.5631422282056
 20
400.4259241646183
 30
0.0
 10
178.6710687919258
 20
399.8452575789089
 30
0.0
 10
178.8845700159835
 20
398.6965781199777
 30
0.0
 10
178.9906065535322
 20
398.1260802546098
 30
0.0
 10
179.3068328696093
 20
396.4247191722341
 30
0.0
 10
179.5151466794973
 20
395.3039490432287
 30
0.0
 10
179.7217368828004
 20
394.1924522637696
 30
0.0
  0
SPLINE
  5
200
330
1F
100
AcDbEntity
  8
0
  6
Continuous
 62
     7
370
    15
100
AcDbSpline
210
0.0
220
0.0
230
1.0
 70
    24
 71
     3
 72
    10
 73
     6
 74
     0
 42
0.00000001
 43
0.00000001
 12
1.0
 22
0.0
 32
0.0
 13
1.0
 23
0.0
 33
0.0
 40
0.0
 40
0.0
 40
0.0
 40
0.0
 40
0.5
 40
0.5
 40
1.0
 40
1.0
 40
1.0
 40
1.0
 10
169.1898340931588
 20
385.188063132377
 30
0.0
 10
168.1274587476892
 20
385.5636602654578
 30
0.0
 10
167.0393779824681
 20
385.9483454124921
 30
0.0
 10
164.8582902226821
 20
386.7194573486518
 30
0.0
 10
163.7616425114169
 20
387.1071712937348
 30
0.0
 10
162.6578435290752
 20
387.4974135325378
 30
0.0
  0
ARC
  5
201
330
1F
100
AcDbEntity
  8
0
  6
Continuous
 62
     7
370
    15
100
AcDbCircle
 10
166.6577557546
 20
398.8111530641
 30
0.0
 40
12.00000000000002
100
AcDbArc
 50
250.5292238792
 51
310.5292238792
  0
SPLINE
  5
202
330
1F
100
AcDbEntity
  8
0
  6
Continuous
 62
     7
370
    15
100
AcDbSpline
210
0.0
220
0.0
230
1.0
 70
    24
 71
     3
 72
    12
 73
     8
 74
     0
 42
0.00000001
 43
0.00000001
 12
1.0
 22
0.0
 32
0.0
 13
1.0
 23
0.0
 33
0.0
 40
0.0
 40
0.0
 40
0.0
 40
0.0
 40
0.2500000000000005
 40
0.2500000000000005
 40
0.500000000000001
 40
0.500000000000001
 40
1.0
 40
1.0
 40
1.0
 40
1.0
 10
174.4557854879796
 20
389.6902576980733
 30
0.0
 10
174.0088817857729
 20
389.3081714863693
 30
0.0
 10
173.5599730532799
 20
388.9243710475898
 30
0.0
 10
172.671938073069
 20
388.1651338343512
 30
0.0
 10
172.2308906976299
 20
387.7880545664207
 30
0.0
 10
170.9155819373209
 20
386.6635140021648
 30
0.0
 10
170.0491234387435
 20
385.9227238863401
 30
0.0
 10
169.1898340931588
 20
385.188063132377
 30
0.0
  0
ARC
  5
203
330
1F
100
AcDbEntity
  8
0
  6
Continuous
 62
     7
370
    15
100
AcDbCircle
 10
166.6577557546
 20
546.6318782659
 30
0.0
 40
11.99999999999999
100
AcDbArc
 50
175.5292238792
 51
235.5292238792
  0
ARC
  5
204
330
1F
100
AcDbEntity
  8
0
  6
Continuous
 62
     7
370
    15
100
AcDbCircle
 10
166.6577557546
 20
546.6318782659
 30
0.0
 40
11.99999999999999
100
AcDbArc
 50
115.5292238792
 51
175.5292238792
  0
ARC
  5
205
330
1F
100
AcDbEntity
  8
0
  6
Continuous
 62
     7
370
    15
100
AcDbCircle
 10
166.6577557546
 20
546.6318782659
 30
0.0
 40
12.00000000000004
100
AcDbArc
 50
55.5292238792
 51
115.5292238792
  0
ARC
  5
206
330
1F
100
AcDbEntity
  8
0
  6
Continuous
 62
     7
370
    15
100
AcDbCircle
 10
166.6577557546
 20
546.6318782659
 30
0.0
 40
12.00000000000002
100
AcDbArc
 50
295.5292238792
 51
355.5292238792
  0
ARC
  5
207
330
1F
100
AcDbEntity
  8
0
  6
Continuous
 62
     7
370
    15
100
AcDbCircle
 10
166.6577557546
 20
546.6318782659
 30
0.0
 40
12.00000000000002
100
AcDbArc
 50
235.5292238792
 51
295.5292238792
  0
ARC
  5
208
330
1F
100
AcDbEntity
  8
0
  6
Continuous
 62
     7
370
    15
100
AcDbCircle
 10
166.6577557546
 20
398.8111530641
 30
0.0
 40
12.00000000000002
100
AcDbArc
 50
190.5292238792
 51
250.5292238792
  0
ARC
  5
209
330
1F
100
AcDbEntity
  8
0
  6
Continuous
 62
     7
370
    15
100
AcDbCircle
 10
166.6577557546
 20
398.8111530641
 30
0.0
 40
11.99999999999998
100
AcDbArc
 50
130.5292238792
 51
190.5292238792
  0
ARC
  5
20A
330
1F
100
AcDbEntity
  8
0
  6
Continuous
 62
     7
370
    15
100
AcDbCircle
 10
166.6577557546
 20
398.8111530641
 30
0.0
 40
11.99999999999998
100
AcDbArc
 50
70.5292238792
 51
130.5292238792
  0
ARC
  5
20B
330
1F
100
AcDbEntity
  8
0
  6
Continuous
 62
     7
370
    15
100
AcDbCircle
 10
166.6577557546
 20
398.8111530641
 30
0.0
 40
12.00000000000001
100
AcDbArc
 50
10.5292238792
 51
70.5292238792
  0
SPLINE
  5
20C
330
1F
100
AcDbEntity
  8
0
  6
Continuous
 62
     7
370
    15
100
AcDbSpline
210
0.0
220
0.0
230
1.0
 70
    24
 71
     3
 72
    12
 73
     8
 74
     0
 42
0.00000001
 43
0.00000001
 12
1.0
 22
0.0
 32
0.0
 13
1.0
 23
0.0
 33
0.0
 40
0.0
 40
0.0
 40
0.0
 40
0.0
 40
0.250000000000001
 40
0.250000000000001
 40
0.500000000000002
 40
0.500000000000002
 40
1.0
 40
1.0
 40
1.0
 40
1.0
 10
171.8294126391272
 20
535.8034912637145
 30
0.0
 10
172.3579498146633
 20
536.0559215584595
 30
0.0
 10
172.8881799616641
 20
536.309160419386
 30
0.0
 10
173.9519824990342
 20
536.8172344026142
 30
0.0
 10
174.47999383257
 20
537.0694135542849
 30
0.0
 10
176.0461715438376
 20
537.8174228137609
 30
0.0
 10
177.0703080869928
 20
538.3065522476281
 30
0.0
 10
178.0811847897268
 20
538.789348758135
 30
0.0
  0
SPLINE
  5
20D
330
1F
100
AcDbEntity
  8
0
  6
Continuous
 62
     7
370
    15
100
AcDbSpline
210
0.0
220
0.0
230
1.0
 70
    24
 71
     3
 72
    12
 73
     8
 74
     0
 42
0.00000001
 43
0.00000001
 12
1.0
 22
0.0
 32
0.0
 13
1.0
 23
0.0
 33
0.0
 40
0.0
 40
0.0
 40
0.0
 40
0.0
 40
0.2499999999999986
 40
0.2499999999999986
 40
0.4999999999999971
 40
0.4999999999999971
 40
1.0
 40
1.0
 40
1.0
 40
1.0
 10
178.6212424227783
 20
545.6964710064366
 30
0.0
 10
178.5754095357044
 20
545.1102866167752
 30
0.0
 10
178.5293710197081
 20
544.521472315012
 30
0.0
 10
178.4382972452803
 20
543.3566749765638
 30
0.0
 10
178.3930649626813
 20
542.7781720791678
 30
0.0
 10
178.2581714776174
 20
541.0529380766947
 30
0.0
 10
178.1693105119922
 20
539.9164416823982
 30
0.0
 10
178.0811847897268
 20
538.789348758135
 30
0.0
  0
SPLINE
  5
20E
330
1F
100
AcDbEntity
  8
0
  6
Continuous
 62
     7
370
    15
100
AcDbSpline
210
0.0
220
0.0
230
1.0
 70
    24
 71
     3
 72
    12
 73
     8
 74
     0
 42
0.00000001
 43
0.00000001
 12
1.0
 22
0.0
 32
0.0
 13
1.0
 23
0.0
 33
0.0
 40
0.0
 40
0.0
 40
0.0
 40
0.0
 40
0.2499999999999996
 40
0.2499999999999996
 40
0.4999999999999991
 40
0.4999999999999991
 40
1.0
 40
1.0
 40
1.0
 40
1.0
 10
161.486098870134
 20
557.4602652680799
 30
0.0
 10
162.0146360456701
 20
557.7126955628248
 30
0.0
 10
162.5448661926708
 20
557.9659344237513
 30
0.0
 10
163.608668730041
 20
558.4740084069796
 30
0.0
 10
164.1366800635768
 20
558.7261875586502
 30
0.0
 10
165.7028577748444
 20
559.4741968181263
 30
0.0
 10
166.7269943179996
 20
559.9633262519936
 30
0.0
 10
167.7378710207336
 20
560.4461227625004
 30
0.0
  0
SPLINE
  5
20F
330
1F
100
AcDbEntity
  8
0
  6
Continuous
 62
     7
370
    15
100
AcDbSpline
210
0.0
220
0.0
230
1.0
 70
    24
 71
     3
 72
    10
 73
     6
 74
     0
 42
0.00000001
 43
0.00000001
 12
1.0
 22
0.0
 32
0.0
 13
1.0
 23
0.0
 33
0.0
 40
0.0
 40
0.0
 40
0.0
 40
0.0
 40
0.5
 40
0.5
 40
1.0
 40
1.0
 40
1.0
 40
1.0
 10
167.7378710207336
 20
560.4461227625004
 30
0.0
 10
168.6722325812843
 20
559.8046552935797
 30
0.0
 10
169.613419078041
 20
559.1585022995494
 30
0.0
 10
171.5154685734796
 20
557.8526877978464
 30
0.0
 10
172.4764786560707
 20
557.1929253126224
 30
0.0
 10
173.4495855382818
 20
556.5248580086193
 30
0.0
  0
SPLINE
  5
210
330
1F
100
AcDbEntity
  8
0
  6
Continuous
 62
     7
370
    15
100
AcDbSpline
210
0.0
220
0.0
230
1.0
 70
    24
 71
     3
 72
    10
 73
     6
 74
     0
 42
0.00000001
 43
0.00000001
 12
1.0
 22
0.0
 32
0.0
 13
1.0
 23
0.0
 33
0.0
 40
0.0
 40
0.0
 40
0.0
 40
0.0
 40
0.5
 40
0.5
 40
1.0
 40
1.0
 40
1.0
 40
1.0
 10
177.1896585442747
 20
407.8155421954837
 30
0.0
 10
176.1272831988052
 20
408.1911393285645
 30
0.0
 10
175.039202433584
 20
408.5758244755987
 30
0.0
 10
172.858114673798
 20
409.3469364117585
 30
0.0
 10
171.7614669625327
 20
409.7346503568414
 30
0.0
 10
170.6576679801911
 20
410.1248925956444
 30
0.0
  0
SPLINE
  5
211
330
1F
100
AcDbEntity
  8
0
  6
Continuous
 62
     7
370
    15
100
AcDbSpline
210
0.0
220
0.0
230
1.0
 70
    24
 71
     3
 72
    10
 73
     6
 74
     0
 42
0.00000001
 43
0.00000001
 12
1.0
 22
0.0
 32
0.0
 13
1.0
 23
0.0
 33
0.0
 40
0.0
 40
0.0
 40
0.0
 40
0.0
 40
0.5
 40
0.5
 40
1.0
 40
1.0
 40
1.0
 40
1.0
 10
177.1896585442747
 20
407.8155421954837
 30
0.0
 10
177.3967659426358
 20
406.7012628027538
 30
0.0
 10
177.6053861330908
 20
405.5788442847731
 30
0.0
 10
178.0269879403421
 20
403.3105418992702
 30
0.0
 10
178.2400021592564
 20
402.1644826258068
 30
0.0
 10
178.4556977135375
 20
401.0039972296266
 30
0.0
  0
SPLINE
  5
212
330
1F
100
AcDbEntity
  8
0
  6
Continuous
 62
     7
370
    15
100
AcDbSpline
210
0.0
220
0.0
230
1.0
 70
    24
 71
     3
 72
    10
 73
     6
 74
     0
 42
0.00000001
 43
0.00000001
 12
1.0
 22
0.0
 32
0.0
 13
1.0
 23
0.0
 33
0.0
 40
0.0
 40
0.0
 40
0.0
 40
0.0
 40
0.5
 40
0.5
 40
1.0
 40
1.0
 40
1.0
 40
1.0
 10
165.5776404885276
 20
532.817633769294
 30
0.0
 10
164.6432789279769
 20
533.4591012382147
 30
0.0
 10
163.7020924312203
 20
534.1052542322451
 30
0.0
 10
161.8000429357816
 20
535.4110687339478
 30
0.0
 10
160.8390328531905
 20
536.0708312191721
 30
0.0
 10
159.8659259709795
 20
536.7388985231752
 30
0.0
  0
SPLINE
  5
213
330
1F
100
AcDbEntity
  8
0
  6
Continuous
 62
     7
370
    15
100
AcDbSpline
210
0.0
220
0.0
230
1.0
 70
    24
 71
     3
 72
    10
 73
     6
 74
     0
 42
0.00000001
 43
0.00000001
 12
1.0
 22
0.0
 32
0.0
 13
1.0
 23
0.0
 33
0.0
 40
0.0
 40
0.0
 40
0.0
 40
0.0
 40
0.5000000000000003
 40
0.5000000000000003
 40
1.0
 40
1.0
 40
1.0
 40
1.0
 10
165.5776404885275
 20
532.817633769294
 30
0.0
 10
166.5944405792702
 20
533.3032593004452
 30
0.0
 10
167.6358433429264
 20
533.8006351119221
 30
0.0
 10
169.7233637673464
 20
534.7976385781172
 30
0.0
 10
170.7729659602836
 20
535.2989304515969
 30
0.0
 10
171.8294126391272
 20
535.8034912637145
 30
0.0
  0
SPLINE
  5
214
330
1F
100
AcDbEntity
  8
0
  6
Continuous
 62
     7
370
    15
100
AcDbSpline
210
0.0
220
0.0
230
1.0
 70
    24
 71
     3
 72
    12
 73
     8
 74
     0
 42
0.00000001
 43
0.00000001
 12
1.0
 22
0.0
 32
0.0
 13
1.0
 23
0.0
 33
0.0
 40
0.0
 40
0.0
 40
0.0
 40
0.0
 40
0.2499999999999998
 40
0.2499999999999998
 40
0.4999999999999996
 40
0.4999999999999996
 40
1.0
 40
1.0
 40
1.0
 40
1.0
 10
158.8597260212867
 20
407.9320484301089
 30
0.0
 10
159.3066297234934
 20
408.3141346418129
 30
0.0
 10
159.7555384559865
 20
408.6979350805925
 30
0.0
 10
160.6435734361973
 20
409.457172293831
 30
0.0
 10
161.0846208116364
 20
409.8342515617614
 30
0.0
 10
162.3999295719454
 20
410.9587921260173
 30
0.0
 10
163.2663880705228
 20
411.6995822418421
 30
0.0
 10
164.1256774161075
 20
412.4342429958052
 30
0.0
  0
SPLINE
  5
215
330
1F
100
AcDbEntity
  8
0
  6
Continuous
 62
     7
370
    15
100
AcDbSpline
210
0.0
220
0.0
230
1.0
 70
    24
 71
     3
 72
    12
 73
     8
 74
     0
 42
0.00000001
 43
0.00000001
 12
1.0
 22
0.0
 32
0.0
 13
1.0
 23
0.0
 33
0.0
 40
0.0
 40
0.0
 40
0.0
 40
0.0
 40
0.2500000000000006
 40
0.2500000000000006
 40
0.5000000000000012
 40
0.5000000000000012
 40
1.0
 40
1.0
 40
1.0
 40
1.0
 10
170.6576679801911
 20
410.1248925956444
 30
0.0
 10
170.1054405860693
 20
410.3201296433841
 30
0.0
 10
169.5514443377144
 20
410.5159920600967
 30
0.0
 10
168.4399597908114
 20
410.9089514892295
 30
0.0
 10
167.8882818081046
 20
411.1039942954958
 30
0.0
 10
166.2519045081583
 20
411.6825267559105
 30
0.0
 10
165.1818638740668
 20
412.0608339108711
 30
0.0
 10
164.1256774161075
 20
412.4342429958052
 30
0.0
  0
SPLINE
  5
216
330
1F
100
AcDbEntity
  8
0
  6
Continuous
 62
     7
370
    15
100
AcDbSpline
210
0.0
220
0.0
230
1.0
 70
    24
 71
     3
 72
    12
 73
     8
 74
     0
 42
0.00000001
 43
0.00000001
 12
1.0
 22
0.0
 32
0.0
 13
1.0
 23
0.0
 33
0.0
 40
0.0
 40
0.0
 40
0.0
 40
0.0
 40
0.2500000000000014
 40
0.2500000000000014
 40
0.5000000000000029
 40
0.5000000000000029
 40
1.0
 40
1.0
 40
1.0
 40
1.0
 10
154.6942690864829
 20
547.5672855253579
 30
0.0
 10
154.7401019735568
 20
548.1534699150193
 30
0.0
 10
154.7861404895532
 20
548.7422842167824
 30
0.0
 10
154.8772142639809
 20
549.9070815552305
 30
0.0
 10
154.92244654658
 20
550.4855844526265
 30
0.0
 10
155.0573400316438
 20
552.2108184550997
 30
0.0
 10
155.146200997269
 20
553.3473148493963
 30
0.0
 10
155.2343267195344
 20
554.4744077736594
 30
0.0
  0
SPLINE
  5
217
330
1F
100
AcDbEntity
  8
0
  6
Continuous
 62
     7
370
    15
100
AcDbSpline
210
0.0
220
0.0
230
1.0
 70
    24
 71
     3
 72
    10
 73
     6
 74
     0
 42
0.00000001
 43
0.00000001
 12
1.0
 22
0.0
 32
0.0
 13
1.0
 23
0.0
 33
0.0
 40
0.0
 40
0.0
 40
0.0
 40
0.0
 40
0.5000000000000013
 40
0.5000000000000013
 40
1.0
 40
1.0
 40
1.0
 40
1.0
 10
155.2343267195344
 20
554.4744077736594
 30
0.0
 10
156.251126810277
 20
554.9600333048106
 30
0.0
 10
157.2925295739332
 20
555.4574091162875
 30
0.0
 10
159.3800499983533
 20
556.4544125824826
 30
0.0
 10
160.4296521912904
 20
556.9557044559623
 30
0.0
 10
161.486098870134
 20
557.4602652680799
 30
0.0
  0
SPLINE
  5
218
330
1F
100
AcDbEntity
  8
0
  6
Continuous
 62
     7
370
    15
100
AcDbSpline
210
0.0
220
0.0
230
1.0
 70
    24
 71
     3
 72
    10
 73
     6
 74
     0
 42
0.00000001
 43
0.00000001
 12
1.0
 22
0.0
 32
0.0
 13
1.0
 23
0.0
 33
0.0
 40
0.0
 40
0.0
 40
0.0
 40
0.0
 40
0.5
 40
0.5
 40
1.0
 40
1.0
 40
1.0
 40
1.0
 10
156.1258529649916
 20
389.8067639326985
 30
0.0
 10
155.9187455666305
 20
390.9210433254284
 30
0.0
 10
155.7101253761755
 20
392.043461843409
 30
0.0
 10
155.2885235689242
 20
394.311764228912
 30
0.0
 10
155.07550935001
 20
395.4578235023753
 30
0.0
 10
154.8598137957288
 20
396.6183088985556
 30
0.0
  0
SPLINE
  5
219
330
1F
100
AcDbEntity
  8
0
  6
Continuous
 62
     7
370
    15
100
AcDbSpline
210
0.0
220
0.0
230
1.0
 70
    24
 71
     3
 72
    12
 73
     8
 74
     0
 42
0.00000001
 43
0.00000001
 12
1.0
 22
0.0
 32
0.0
 13
1.0
 23
0.0
 33
0.0
 40
0.0
 40
0.0
 40
0.0
 40
0.0
 40
0.2500000000000004
 40
0.2500000000000004
 40
0.5000000000000008
 40
0.5000000000000008
 40
1.0
 40
1.0
 40
1.0
 40
1.0
 10
162.6578435290752
 20
387.4974135325378
 30
0.0
 10
162.1056161349534
 20
387.6926505802775
 30
0.0
 10
161.5516198865985
 20
387.8885129969901
 30
0.0
 10
160.4401353396955
 20
388.2814724261229
 30
0.0
 10
159.8884573569887
 20
388.4765152323892
 30
0.0
 10
158.2520800570424
 20
389.0550476928038
 30
0.0
 10
157.1820394229509
 20
389.4333548477644
 30
0.0
 10
156.1258529649916
 20
389.8067639326985
 30
0.0
  0
SPLINE
  5
21A
330
1F
100
AcDbEntity
  8
0
  6
Continuous
 62
     7
370
    15
100
AcDbSpline
210
0.0
220
0.0
230
1.0
 70
    24
 71
     3
 72
    10
 73
     6
 74
     0
 42
0.00000001
 43
0.00000001
 12
1.0
 22
0.0
 32
0.0
 13
1.0
 23
0.0
 33
0.0
 40
0.0
 40
0.0
 40
0.0
 40
0.0
 40
0.5
 40
0.5
 40
1.0
 40
1.0
 40
1.0
 40
1.0
 10
154.1542114534314
 20
540.6601632770561
 30
0.0
 10
154.2425577969426
 20
541.7900778592731
 30
0.0
 10
154.331549456126
 20
542.9282457721785
 30
0.0
 10
154.5113932395114
 20
545.228376205335
 30
0.0
 10
154.602259270884
 20
546.390516592764
 30
0.0
 10
154.6942690864829
 20
547.5672855253579
 30
0.0
  0
SPLINE
  5
21B
330
1F
100
AcDbEntity
  8
0
  6
Continuous
 62
     7
370
    15
100
AcDbSpline
210
0.0
220
0.0
230
1.0
 70
    24
 71
     3
 72
    12
 73
     8
 74
     0
 42
0.00000001
 43
0.00000001
 12
1.0
 22
0.0
 32
0.0
 13
1.0
 23
0.0
 33
0.0
 40
0.0
 40
0.0
 40
0.0
 40
0.0
 40
0.25
 40
0.25
 40
0.5
 40
0.5
 40
1.0
 40
1.0
 40
1.0
 40
1.0
 10
159.8659259709795
 20
536.7388985231752
 30
0.0
 10
159.3811918417677
 20
537.0716831625406
 30
0.0
 10
158.8942829563275
 20
537.4059608378277
 30
0.0
 10
157.9310757581847
 20
538.0672317093247
 30
0.0
 10
157.4526936941764
 20
538.3956554638245
 30
0.0
 10
156.0260439630939
 20
539.3750936499315
 30
0.0
 10
155.0862396971363
 20
540.020297700716
 30
0.0
 10
154.1542114534314
 20
540.6601632770562
 30
0.0
  0
SPLINE
  5
21C
330
1F
100
AcDbEntity
  8
0
  6
Continuous
 62
     7
370
    15
100
AcDbSpline
210
0.0
220
0.0
230
1.0
 70
    24
 71
     3
 72
    12
 73
     8
 74
     0
 42
0.00000001
 43
0.00000001
 12
1.0
 22
0.0
 32
0.0
 13
1.0
 23
0.0
 33
0.0
 40
0.0
 40
0.0
 40
0.0
 40
0.0
 40
0.25
 40
0.25
 40
0.5
 40
0.5
 40
1.0
 40
1.0
 40
1.0
 40
1.0
 10
154.8598137957288
 20
396.6183088985556
 30
0.0
 10
154.7523692810607
 20
397.1963819635639
 30
0.0
 10
154.6444427173405
 20
397.7770485492733
 30
0.0
 10
154.4309414932829
 20
398.9257280082045
 30
0.0
 10
154.3249049557342
 20
399.4962258735724
 30
0.0
 10
154.0086786396569
 20
401.1975869559481
 30
0.0
 10
153.8003648297691
 20
402.3183570849534
 30
0.0
 10
153.5937746264659
 20
403.4298538644127
 30
0.0
  0
SPLINE
  5
21D
330
1F
100
AcDbEntity
  8
0
  6
Continuous
 62
     7
370
    15
100
AcDbSpline
210
0.0
220
0.0
230
1.0
 70
    24
 71
     3
 72
    10
 73
     6
 74
     0
 42
0.00000001
 43
0.00000001
 12
1.0
 22
0.0
 32
0.0
 13
1.0
 23
0.0
 33
0.0
 40
0.0
 40
0.0
 40
0.0
 40
0.0
 40
0.5
 40
0.5
 40
1.0
 40
1.0
 40
1.0
 40
1.0
 10
153.5937746264659
 20
403.4298538644126
 30
0.0
 10
154.4552151883029
 20
404.16635382907
 30
0.0
 10
155.3229480433248
 20
404.9082334727366
 30
0.0
 10
157.0765546290095
 20
406.4075025408491
 30
0.0
 10
157.9625639646144
 20
407.1650079025279
 30
0.0
 10
158.8597260212867
 20
407.9320484301089
 30
0.0
  0
SPLINE
  5
21E
330
1F
100
AcDbEntity
  8
0
  6
Continuous
 62
     7
370
    15
100
AcDbSpline
210
0.0
220
0.0
230
1.0
 70
    24
 71
     3
 72
    10
 73
     6
 74
     0
 42
0.00000001
 43
0.00000001
 12
1.0
 22
0.0
 32
0.0
 13
1.0
 23
0.0
 33
0.0
 40
0.0
 40
0.0
 40
0.0
 40
0.0
 40
0.5
 40
0.5
 40
1.0
 40
1.0
 40
1.0
 40
1.0
 10
132.366456874328
 20
492.8042874645591
 30
0.0
 10
131.2521774815981
 20
492.597180066198
 30
0.0
 10
130.1297589636174
 20
492.3885598757431
 30
0.0
 10
127.8614565781145
 20
491.9669580684917
 30
0.0
 10
126.7153973046511
 20
491.7539438495774
 30
0.0
 10
125.5549119084709
 20
491.5382482952962
 30
0.0
  0
ARC
  5
21F
330
1F
100
AcDbEntity
  8
0
  6
Continuous
 62
     7
370
    15
100
AcDbCircle
 10
123.3620677429
 20
503.3361902542
 30
0.0
 40
12.0
100
AcDbArc
 50
280.5292238792
 51
340.5292238792
  0
SPLINE
  5
220
330
1F
100
AcDbEntity
  8
0
  6
Continuous
 62
     7
370
    15
100
AcDbSpline
210
0.0
220
0.0
230
1.0
 70
    24
 71
     3
 72
    10
 73
     6
 74
     0
 42
0.00000001
 43
0.00000001
 12
1.0
 22
0.0
 32
0.0
 13
1.0
 23
0.0
 33
0.0
 40
0.0
 40
0.0
 40
0.0
 40
0.0
 40
0.5
 40
0.5
 40
1.0
 40
1.0
 40
1.0
 40
1.0
 10
132.3664568743279
 20
492.8042874645591
 30
0.0
 10
132.7420540074088
 20
493.8666628100286
 30
0.0
 10
133.126739154443
 20
494.9547435752498
 30
0.0
 10
133.8978510906027
 20
497.1358313350357
 30
0.0
 10
134.2855650356857
 20
498.2324790463011
 30
0.0
 10
134.6758072744887
 20
499.3362780286427
 30
0.0
  0
SPLINE
  5
221
330
1F
100
AcDbEntity
  8
0
  6
Continuous
 62
     7
370
    15
100
AcDbSpline
210
0.0
220
0.0
230
1.0
 70
    24
 71
     3
 72
    10
 73
     6
 74
     0
 42
0.00000001
 43
0.00000001
 12
1.0
 22
0.0
 32
0.0
 13
1.0
 23
0.0
 33
0.0
 40
0.0
 40
0.0
 40
0.0
 40
0.0
 40
0.5
 40
0.5
 40
1.0
 40
1.0
 40
1.0
 40
1.0
 10
129.3337827317775
 20
429.6032967745869
 30
0.0
 10
128.2038681495606
 20
429.6916431180982
 30
0.0
 10
127.0657002366553
 20
429.7806347772815
 30
0.0
 10
124.7655698034986
 20
429.960478560667
 30
0.0
 10
123.6034294160696
 20
430.0513445920395
 30
0.0
 10
122.4266604834759
 20
430.1433544076384
 30
0.0
  0
ARC
  5
222
330
1F
100
AcDbEntity
  8
0
  6
Continuous
 62
     7
370
    15
100
AcDbCircle
 10
123.3620677429
 20
442.1068410758
 30
0.0
 40
12.0
100
AcDbArc
 50
265.5292238792
 51
325.5292238792
  0
SPLINE
  5
223
330
1F
100
AcDbEntity
  8
0
  6
Continuous
 62
     7
370
    15
100
AcDbSpline
210
0.0
220
0.0
230
1.0
 70
    24
 71
     3
 72
    12
 73
     8
 74
     0
 42
0.00000001
 43
0.00000001
 12
1.0
 22
0.0
 32
0.0
 13
1.0
 23
0.0
 33
0.0
 40
0.0
 40
0.0
 40
0.0
 40
0.0
 40
0.2499999999999996
 40
0.2499999999999996
 40
0.4999999999999992
 40
0.4999999999999992
 40
1.0
 40
1.0
 40
1.0
 40
1.0
 10
133.2550474856586
 20
435.3150112921351
 30
0.0
 10
132.922262846293
 20
434.8302771629233
 30
0.0
 10
132.5879851710061
 20
434.343368277483
 30
0.0
 10
131.926714299509
 20
433.3801610793403
 30
0.0
 10
131.5982905450091
 20
432.901779015332
 30
0.0
 10
130.6188523589022
 20
431.4751292842494
 30
0.0
 10
129.9736483081177
 20
430.5353250182918
 30
0.0
 10
129.3337827317775
 20
429.6032967745869
 30
0.0
  0
ARC
  5
224
330
1F
100
AcDbEntity
  8
0
  6
Continuous
 62
     7
370
    15
100
AcDbCircle
 10
123.3620677429
 20
503.3361902542
 30
0.0
 40
12.0
100
AcDbArc
 50
220.5292238792
 51
280.5292238792
  0
ARC
  5
225
330
1F
100
AcDbEntity
  8
0
  6
Continuous
 62
     7
370
    15
100
AcDbCircle
 10
123.3620677429
 20
503.3361902542
 30
0.0
 40
12.00000000000002
100
AcDbArc
 50
160.5292238792
 51
220.5292238792
  0
ARC
  5
226
330
1F
100
AcDbEntity
  8
0
  6
Continuous
 62
     7
370
    15
100
AcDbCircle
 10
123.3620677429
 20
503.3361902542
 30
0.0
 40
12.00000000000006
100
AcDbArc
 50
100.5292238792
 51
160.5292238792
  0
ARC
  5
227
330
1F
100
AcDbEntity
  8
0
  6
Continuous
 62
     7
370
    15
100
AcDbCircle
 10
123.3620677429
 20
503.3361902542
 30
0.0
 40
12.00000000000006
100
AcDbArc
 50
40.5292238792
 51
100.5292238792
  0
ARC
  5
228
330
1F
100
AcDbEntity
  8
0
  6
Continuous
 62
     7
370
    15
100
AcDbCircle
 10
123.3620677429
 20
503.3361902542
 30
0.0
 40
12.00000000000002
100
AcDbArc
 50
340.5292238792
 51
40.5292238792
  0
SPLINE
  5
229
330
1F
100
AcDbEntity
  8
0
  6
Continuous
 62
     7
370
    15
100
AcDbSpline
210
0.0
220
0.0
230
1.0
 70
    24
 71
     3
 72
    12
 73
     8
 74
     0
 42
0.00000001
 43
0.00000001
 12
1.0
 22
0.0
 32
0.0
 13
1.0
 23
0.0
 33
0.0
 40
0.0
 40
0.0
 40
0.0
 40
0.0
 40
0.2500000000000001
 40
0.2500000000000001
 40
0.5000000000000001
 40
0.5000000000000001
 40
1.0
 40
1.0
 40
1.0
 40
1.0
 10
124.297475002397
 20
454.0703277439338
 30
0.0
 10
124.8836593920585
 20
454.0244948568599
 30
0.0
 10
125.4724736938216
 20
453.9784563408636
 30
0.0
 10
126.6372710322697
 20
453.8873825664358
 30
0.0
 10
127.2157739296658
 20
453.8421502838368
 30
0.0
 10
128.9410079321389
 20
453.707256798773
 30
0.0
 10
130.0775043264354
 20
453.6183958331477
 30
0.0
 10
131.2045972506986
 20
453.5302701108824
 30
0.0
  0
SPLINE
  5
22A
330
1F
100
AcDbEntity
  8
0
  6
Continuous
 62
     7
370
    15
100
AcDbSpline
210
0.0
220
0.0
230
1.0
 70
    24
 71
     3
 72
    12
 73
     8
 74
     0
 42
0.00000001
 43
0.00000001
 12
1.0
 22
0.0
 32
0.0
 13
1.0
 23
0.0
 33
0.0
 40
0.0
 40
0.0
 40
0.0
 40
0.0
 40
0.2500000000000004
 40
0.2500000000000004
 40
0.5000000000000009
 40
0.5000000000000009
 40
1.0
 40
1.0
 40
1.0
 40
1.0
 10
134.1904547451191
 20
447.2784979602828
 30
0.0
 10
133.9380244503741
 20
447.8070351358189
 30
0.0
 10
133.6847855894476
 20
448.3372652828197
 30
0.0
 10
133.1767116062194
 20
449.4010678201898
 30
0.0
 10
132.9245324545487
 20
449.9290791537256
 30
0.0
 10
132.1765231950727
 20
451.4952568649932
 30
0.0
 10
131.6873937612054
 20
452.5193934081484
 30
0.0
 10
131.2045972506986
 20
453.5302701108824
 30
0.0
  0
ARC
  5
22B
330
1F
100
AcDbEntity
  8
0
  6
Continuous
 62
     7
370
    15
100
AcDbCircle
 10
123.3620677429
 20
442.1068410758
 30
0.0
 40
12.00000000000001
100
AcDbArc
 50
25.5292238792
 51
85.5292238792
  0
ARC
  5
22C
330
1F
100
AcDbEntity
  8
0
  6
Continuous
 62
     7
370
    15
100
AcDbCircle
 10
123.3620677429
 20
442.1068410758
 30
0.0
 40
11.99999999999998
100
AcDbArc
 50
205.5292238792
 51
265.5292238792
  0
ARC
  5
22D
330
1F
100
AcDbEntity
  8
0
  6
Continuous
 62
     7
370
    15
100
AcDbCircle
 10
123.3620677429
 20
442.1068410758
 30
0.0
 40
12.00000000000001
100
AcDbArc
 50
145.5292238792
 51
205.5292238792
  0
ARC
  5
22E
330
1F
100
AcDbEntity
  8
0
  6
Continuous
 62
     7
370
    15
100
AcDbCircle
 10
123.3620677429
 20
442.1068410758
 30
0.0
 40
12.00000000000001
100
AcDbArc
 50
85.5292238792
 51
145.5292238792
  0
ARC
  5
22F
330
1F
100
AcDbEntity
  8
0
  6
Continuous
 62
     7
370
    15
100
AcDbCircle
 10
123.3620677429
 20
442.1068410758
 30
0.0
 40
12.00000000000001
100
AcDbArc
 50
325.5292238792
 51
25.5292238792
  0
SPLINE
  5
230
330
1F
100
AcDbEntity
  8
0
  6
Continuous
 62
     7
370
    15
100
AcDbSpline
210
0.0
220
0.0
230
1.0
 70
    24
 71
     3
 72
    10
 73
     6
 74
     0
 42
0.00000001
 43
0.00000001
 12
1.0
 22
0.0
 32
0.0
 13
1.0
 23
0.0
 33
0.0
 40
0.0
 40
0.0
 40
0.0
 40
0.0
 40
0.5
 40
0.5
 40
1.0
 40
1.0
 40
1.0
 40
1.0
 10
137.1763122395396
 20
441.0267258096832
 30
0.0
 10
136.6906867083884
 20
442.0435259004258
 30
0.0
 10
136.1933108969116
 20
443.0849286640819
 30
0.0
 10
135.1963074307163
 20
445.172449088502
 30
0.0
 10
134.6950155572367
 20
446.2220512814392
 30
0.0
 10
134.1904547451191
 20
447.2784979602828
 30
0.0
  0
SPLINE
  5
231
330
1F
100
AcDbEntity
  8
0
  6
Continuous
 62
     7
370
    15
100
AcDbSpline
210
0.0
220
0.0
230
1.0
 70
    24
 71
     3
 72
    10
 73
     6
 74
     0
 42
0.00000001
 43
0.00000001
 12
1.0
 22
0.0
 32
0.0
 13
1.0
 23
0.0
 33
0.0
 40
0.0
 40
0.0
 40
0.0
 40
0.0
 40
0.5
 40
0.5
 40
1.0
 40
1.0
 40
1.0
 40
1.0
 10
137.1763122395397
 20
441.0267258096832
 30
0.0
 10
136.534844770619
 20
440.0923642491325
 30
0.0
 10
135.8886917765886
 20
439.1511777523758
 30
0.0
 10
134.5828772748858
 20
437.2491282569372
 30
0.0
 10
133.9231147896616
 20
436.288118174346
 30
0.0
 10
133.2550474856586
 20
435.3150112921351
 30
0.0
  0
SPLINE
  5
232
330
1F
100
AcDbEntity
  8
0
  6
Continuous
 62
     7
370
    15
100
AcDbSpline
210
0.0
220
0.0
230
1.0
 70
    24
 71
     3
 72
    12
 73
     8
 74
     0
 42
0.00000001
 43
0.00000001
 12
1.0
 22
0.0
 32
0.0
 13
1.0
 23
0.0
 33
0.0
 40
0.0
 40
0.0
 40
0.0
 40
0.0
 40
0.2500000000000007
 40
0.2500000000000007
 40
0.5000000000000014
 40
0.5000000000000014
 40
1.0
 40
1.0
 40
1.0
 40
1.0
 10
121.1692235773999
 20
515.1341322131051
 30
0.0
 10
121.7472966424082
 20
515.2415767277731
 30
0.0
 10
122.3279632281177
 20
515.3495032914933
 30
0.0
 10
123.4766426870488
 20
515.5630045155509
 30
0.0
 10
124.0471405524168
 20
515.6690410530996
 30
0.0
 10
125.7485016347924
 20
515.9852673691769
 30
0.0
 10
126.8692717637978
 20
516.1935811790647
 30
0.0
 10
127.980768543257
 20
516.4001713823678
 30
0.0
  0
SPLINE
  5
233
330
1F
100
AcDbEntity
  8
0
  6
Continuous
 62
     7
370
    15
100
AcDbSpline
210
0.0
220
0.0
230
1.0
 70
    24
 71
     3
 72
    10
 73
     6
 74
     0
 42
0.00000001
 43
0.00000001
 12
1.0
 22
0.0
 32
0.0
 13
1.0
 23
0.0
 33
0.0
 40
0.0
 40
0.0
 40
0.0
 40
0.0
 40
0.5
 40
0.5
 40
1.0
 40
1.0
 40
1.0
 40
1.0
 10
127.980768543257
 20
516.400171382368
 30
0.0
 10
128.7172685079143
 20
515.5387308205309
 30
0.0
 10
129.459148151581
 20
514.670997965509
 30
0.0
 10
130.9584172196935
 20
512.9173913798243
 30
0.0
 10
131.7159225813722
 20
512.0313820442194
 30
0.0
 10
132.4829631089532
 20
511.1342199875471
 30
0.0
  0
SPLINE
  5
234
330
1F
100
AcDbEntity
  8
0
  6
Continuous
 62
     7
370
    15
100
AcDbSpline
210
0.0
220
0.0
230
1.0
 70
    24
 71
     3
 72
    12
 73
     8
 74
     0
 42
0.00000001
 43
0.00000001
 12
1.0
 22
0.0
 32
0.0
 13
1.0
 23
0.0
 33
0.0
 40
0.0
 40
0.0
 40
0.0
 40
0.0
 40
0.25
 40
0.25
 40
0.5
 40
0.5
 40
1.0
 40
1.0
 40
1.0
 40
1.0
 10
132.4829631089532
 20
511.1342199875471
 30
0.0
 10
132.8650493206572
 20
510.6873162853404
 30
0.0
 10
133.2488497594368
 20
510.2384075528473
 30
0.0
 10
134.0080869726754
 20
509.3503725726364
 30
0.0
 10
134.3851662406058
 20
508.9093251971973
 30
0.0
 10
135.5097068048617
 20
507.5940164368884
 30
0.0
 10
136.2504969206864
 20
506.727557938311
 30
0.0
 10
136.9851576746495
 20
505.8682685927263
 30
0.0
  0
SPLINE
  5
235
330
1F
100
AcDbEntity
  8
0
  6
Continuous
 62
     7
370
    15
100
AcDbSpline
210
0.0
220
0.0
230
1.0
 70
    24
 71
     3
 72
    12
 73
     8
 74
     0
 42
0.00000001
 43
0.00000001
 12
1.0
 22
0.0
 32
0.0
 13
1.0
 23
0.0
 33
0.0
 40
0.0
 40
0.0
 40
0.0
 40
0.0
 40
0.2500000000000016
 40
0.2500000000000016
 40
0.5000000000000032
 40
0.5000000000000032
 40
1.0
 40
1.0
 40
1.0
 40
1.0
 10
134.6758072744887
 20
499.3362780286427
 30
0.0
 10
134.8710443222284
 20
499.8885054227645
 30
0.0
 10
135.0669067389411
 20
500.4425016711194
 30
0.0
 10
135.4598661680738
 20
501.5539862180225
 30
0.0
 10
135.6549089743401
 20
502.1056642007292
 30
0.0
 10
136.2334414347548
 20
503.7420415006755
 30
0.0
 10
136.6117485897154
 20
504.812082134767
 30
0.0
 10
136.9851576746495
 20
505.8682685927263
 30
0.0
  0
SPLINE
  5
236
330
1F
100
AcDbEntity
  8
0
  6
Continuous
 62
     7
370
    15
100
AcDbSpline
210
0.0
220
0.0
230
1.0
 70
    24
 71
     3
 72
    10
 73
     6
 74
     0
 42
0.00000001
 43
0.00000001
 12
1.0
 22
0.0
 32
0.0
 13
1.0
 23
0.0
 33
0.0
 40
0.0
 40
0.0
 40
0.0
 40
0.0
 40
0.4999999999999989
 40
0.4999999999999989
 40
1.0
 40
1.0
 40
1.0
 40
1.0
 10
118.7433669426139
 20
490.2722091260334
 30
0.0
 10
118.0068669779565
 20
491.1336496878704
 30
0.0
 10
117.2649873342898
 20
492.0013825428923
 30
0.0
 10
115.7657182661773
 20
493.754989128577
 30
0.0
 10
115.0082129044986
 20
494.6409984641818
 30
0.0
 10
114.2411723769176
 20
495.5381605208543
 30
0.0
  0
SPLINE
  5
237
330
1F
100
AcDbEntity
  8
0
  6
Continuous
 62
     7
370
    15
100
AcDbSpline
210
0.0
220
0.0
230
1.0
 70
    24
 71
     3
 72
    12
 73
     8
 74
     0
 42
0.00000001
 43
0.00000001
 12
1.0
 22
0.0
 32
0.0
 13
1.0
 23
0.0
 33
0.0
 40
0.0
 40
0.0
 40
0.0
 40
0.0
 40
0.2500000000000013
 40
0.2500000000000013
 40
0.5000000000000027
 40
0.5000000000000027
 40
1.0
 40
1.0
 40
1.0
 40
1.0
 10
125.5549119084709
 20
491.5382482952962
 30
0.0
 10
124.9768388434626
 20
491.4308037806282
 30
0.0
 10
124.3961722577531
 20
491.322877216908
 30
0.0
 10
123.247492798822
 20
491.1093759928503
 30
0.0
 10
122.6769949334541
 20
491.0033394553017
 30
0.0
 10
120.9756338510784
 20
490.6871131392245
 30
0.0
 10
119.854863722073
 20
490.4787993293366
 30
0.0
 10
118.7433669426138
 20
490.2722091260334
 30
0.0
  0
SPLINE
  5
238
330
1F
100
AcDbEntity
  8
0
  6
Continuous
 62
     7
370
    15
100
AcDbSpline
210
0.0
220
0.0
230
1.0
 70
    24
 71
     3
 72
    12
 73
     8
 74
     0
 42
0.00000001
 43
0.00000001
 12
1.0
 22
0.0
 32
0.0
 13
1.0
 23
0.0
 33
0.0
 40
0.0
 40
0.0
 40
0.0
 40
0.0
 40
0.2499999999999992
 40
0.2499999999999992
 40
0.4999999999999983
 40
0.4999999999999983
 40
1.0
 40
1.0
 40
1.0
 40
1.0
 10
113.4690880002144
 20
448.8986708594372
 30
0.0
 10
113.8018726395799
 20
449.383404988649
 30
0.0
 10
114.1361503148668
 20
449.8703138740893
 30
0.0
 10
114.7974211863639
 20
450.833521072232
 30
0.0
 10
115.1258449408638
 20
451.3119031362403
 30
0.0
 10
116.1052831269707
 20
452.7385528673228
 30
0.0
 10
116.7504871777552
 20
453.6783571332804
 30
0.0
 10
117.3903527540954
 20
454.6103853769854
 30
0.0
  0
SPLINE
  5
239
330
1F
100
AcDbEntity
  8
0
  6
Continuous
 62
     7
370
    15
100
AcDbSpline
210
0.0
220
0.0
230
1.0
 70
    24
 71
     3
 72
    10
 73
     6
 74
     0
 42
0.00000001
 43
0.00000001
 12
1.0
 22
0.0
 32
0.0
 13
1.0
 23
0.0
 33
0.0
 40
0.0
 40
0.0
 40
0.0
 40
0.0
 40
0.4999999999999984
 40
0.4999999999999984
 40
1.0
 40
1.0
 40
1.0
 40
1.0
 10
117.3903527540954
 20
454.6103853769853
 30
0.0
 10
118.5202673363123
 20
454.5220390334741
 30
0.0
 10
119.6584352492177
 20
454.4330473742908
 30
0.0
 10
121.9585656823743
 20
454.2532035909053
 30
0.0
 10
123.1207060698033
 20
454.1623375595327
 30
0.0
 10
124.297475002397
 20
454.0703277439338
 30
0.0
  0
SPLINE
  5
23A
330
1F
100
AcDbEntity
  8
0
  6
Continuous
 62
     7
370
    15
100
AcDbSpline
210
0.0
220
0.0
230
1.0
 70
    24
 71
     3
 72
    10
 73
     6
 74
     0
 42
0.00000001
 43
0.00000001
 12
1.0
 22
0.0
 32
0.0
 13
1.0
 23
0.0
 33
0.0
 40
0.0
 40
0.0
 40
0.0
 40
0.0
 40
0.5
 40
0.5
 40
1.0
 40
1.0
 40
1.0
 40
1.0
 10
115.5195382351743
 20
430.6834120406899
 30
0.0
 10
115.0339127040231
 20
431.7002121314325
 30
0.0
 10
114.5365368925462
 20
432.7416148950887
 30
0.0
 10
113.539533426351
 20
434.8291353195087
 30
0.0
 10
113.0382415528714
 20
435.8787375124459
 30
0.0
 10
112.5336807407538
 20
436.9351841912895
 30
0.0
  0
SPLINE
  5
23B
330
1F
100
AcDbEntity
  8
0
  6
Continuous
 62
     7
370
    15
100
AcDbSpline
210
0.0
220
0.0
230
1.0
 70
    24
 71
     3
 72
    12
 73
     8
 74
     0
 42
0.00000001
 43
0.00000001
 12
1.0
 22
0.0
 32
0.0
 13
1.0
 23
0.0
 33
0.0
 40
0.0
 40
0.0
 40
0.0
 40
0.0
 40
0.2499999999999986
 40
0.2499999999999986
 40
0.4999999999999971
 40
0.4999999999999971
 40
1.0
 40
1.0
 40
1.0
 40
1.0
 10
122.4266604834759
 20
430.1433544076384
 30
0.0
 10
121.8404760938144
 20
430.1891872947123
 30
0.0
 10
121.2516617920513
 20
430.2352258107086
 30
0.0
 10
120.0868644536031
 20
430.3262995851364
 30
0.0
 10
119.5083615562071
 20
430.3715318677355
 30
0.0
 10
117.7831275537339
 20
430.5064253527994
 30
0.0
 10
116.6466311594375
 20
430.5952863184245
 30
0.0
 10
115.5195382351743
 20
430.6834120406899
 30
0.0
  0
SPLINE
  5
23C
330
1F
100
AcDbEntity
  8
0
  6
Continuous
 62
     7
370
    15
100
AcDbSpline
210
0.0
220
0.0
230
1.0
 70
    24
 71
     3
 72
    12
 73
     8
 74
     0
 42
0.00000001
 43
0.00000001
 12
1.0
 22
0.0
 32
0.0
 13
1.0
 23
0.0
 33
0.0
 40
0.0
 40
0.0
 40
0.0
 40
0.0
 40
0.2499999999999996
 40
0.2499999999999996
 40
0.4999999999999991
 40
0.4999999999999991
 40
1.0
 40
1.0
 40
1.0
 40
1.0
 10
112.0483282113821
 20
507.3361024797587
 30
0.0
 10
112.2435652591218
 20
507.8883298738804
 30
0.0
 10
112.4394276758345
 20
508.4423261222354
 30
0.0
 10
112.8323871049672
 20
509.5538106691384
 30
0.0
 10
113.0274299112335
 20
510.1054886518451
 30
0.0
 10
113.6059623716483
 20
511.7418659517914
 30
0.0
 10
113.9842695266087
 20
512.811906585883
 30
0.0
 10
114.3576786115429
 20
513.8680930438422
 30
0.0
  0
SPLINE
  5
23D
330
1F
100
AcDbEntity
  8
0
  6
Continuous
 62
     7
370
    15
100
AcDbSpline
210
0.0
220
0.0
230
1.0
 70
    24
 71
     3
 72
    10
 73
     6
 74
     0
 42
0.00000001
 43
0.00000001
 12
1.0
 22
0.0
 32
0.0
 13
1.0
 23
0.0
 33
0.0
 40
0.0
 40
0.0
 40
0.0
 40
0.0
 40
0.5
 40
0.5
 40
1.0
 40
1.0
 40
1.0
 40
1.0
 10
114.3576786115429
 20
513.8680930438422
 30
0.0
 10
115.4719580042727
 20
514.0752004422034
 30
0.0
 10
116.5943765222534
 20
514.2838206326583
 30
0.0
 10
118.8626789077563
 20
514.7054224399096
 30
0.0
 10
120.0087381812197
 20
514.9184366588239
 30
0.0
 10
121.1692235773999
 20
515.1341322131051
 30
0.0
  0
SPLINE
  5
23E
330
1F
100
AcDbEntity
  8
0
  6
Continuous
 62
     7
370
    15
100
AcDbSpline
210
0.0
220
0.0
230
1.0
 70
    24
 71
     3
 72
    10
 73
     6
 74
     0
 42
0.00000001
 43
0.00000001
 12
1.0
 22
0.0
 32
0.0
 13
1.0
 23
0.0
 33
0.0
 40
0.0
 40
0.0
 40
0.0
 40
0.0
 40
0.5
 40
0.5
 40
1.0
 40
1.0
 40
1.0
 40
1.0
 10
109.7389778112213
 20
500.8041119156751
 30
0.0
 10
110.1145749443022
 20
501.8664872611446
 30
0.0
 10
110.4992600913364
 20
502.9545680263657
 30
0.0
 10
111.2703720274961
 20
505.1356557861517
 30
0.0
 10
111.6580859725792
 20
506.232303497417
 30
0.0
 10
112.0483282113821
 20
507.3361024797587
 30
0.0
  0
SPLINE
  5
23F
330
1F
100
AcDbEntity
  8
0
  6
Continuous
 62
     7
370
    15
100
AcDbSpline
210
0.0
220
0.0
230
1.0
 70
    24
 71
     3
 72
    12
 73
     8
 74
     0
 42
0.00000001
 43
0.00000001
 12
1.0
 22
0.0
 32
0.0
 13
1.0
 23
0.0
 33
0.0
 40
0.0
 40
0.0
 40
0.0
 40
0.0
 40
0.25
 40
0.25
 40
0.5
 40
0.5
 40
1.0
 40
1.0
 40
1.0
 40
1.0
 10
114.2411723769176
 20
495.5381605208543
 30
0.0
 10
113.8590861652136
 20
495.9850642230609
 30
0.0
 10
113.475285726434
 20
496.4339729555541
 30
0.0
 10
112.7160485131955
 20
497.3220079357649
 30
0.0
 10
112.338969245265
 20
497.763055311204
 30
0.0
 10
111.2144286810091
 20
499.078364071513
 30
0.0
 10
110.4736385651844
 20
499.9448225700904
 30
0.0
 10
109.7389778112213
 20
500.8041119156751
 30
0.0
  0
SPLINE
  5
240
330
1F
100
AcDbEntity
  8
0
  6
Continuous
 62
     7
370
    15
100
AcDbSpline
210
0.0
220
0.0
230
1.0
 70
    24
 71
     3
 72
    12
 73
     8
 74
     0
 42
0.00000001
 43
0.00000001
 12
1.0
 22
0.0
 32
0.0
 13
1.0
 23
0.0
 33
0.0
 40
0.0
 40
0.0
 40
0.0
 40
0.0
 40
0.25
 40
0.25
 40
0.5
 40
0.5
 40
1.0
 40
1.0
 40
1.0
 40
1.0
 10
112.5336807407538
 20
436.9351841912895
 30
0.0
 10
112.2812504460088
 20
437.4637213668256
 30
0.0
 10
112.0280115850823
 20
437.9939515138263
 30
0.0
 10
111.5199376018541
 20
439.0577540511965
 30
0.0
 10
111.2677584501834
 20
439.5857653847323
 30
0.0
 10
110.5197491907074
 20
441.1519430959999
 30
0.0
 10
110.0306197568402
 20
442.1760796391551
 30
0.0
 10
109.5478232463333
 20
443.1869563418891
 30
0.0
  0
SPLINE
  5
241
330
1F
100
AcDbEntity
  8
0
  6
Continuous
 62
     7
370
    15
100
AcDbSpline
210
0.0
220
0.0
230
1.0
 70
    24
 71
     3
 72
    10
 73
     6
 74
     0
 42
0.00000001
 43
0.00000001
 12
1.0
 22
0.0
 32
0.0
 13
1.0
 23
0.0
 33
0.0
 40
0.0
 40
0.0
 40
0.0
 40
0.0
 40
0.5000000000000003
 40
0.5000000000000003
 40
1.0
 40
1.0
 40
1.0
 40
1.0
 10
109.5478232463333
 20
443.1869563418891
 30
0.0
 10
110.1892907152539
 20
444.1213179024398
 30
0.0
 10
110.8354437092843
 20
445.0625043991965
 30
0.0
 10
112.1412582109871
 20
446.9645538946351
 30
0.0
 10
112.8010206962114
 20
447.9255639772262
 30
0.0
 10
113.4690880002144
 20
448.8986708594372
 30
0.0
  0
CIRCLE
  5
242
330
1F
100
AcDbEntity
  8
0
  6
Continuous
 62
     7
370
    15
100
AcDbCircle
 10
271.1827929447
 20
442.1068410758
 30
0.0
 40
17.25000000000002
  0
CIRCLE
  5
243
330
1F
100
AcDbEntity
  8
0
  6
Continuous
 62
     7
370
    15
100
AcDbCircle
 10
271.1827929447
 20
503.3361902542
 30
0.0
 40
17.25000000000004
  0
CIRCLE
  5
244
330
1F
100
AcDbEntity
  8
0
  6
Continuous
 62
     7
370
    15
100
AcDbCircle
 10
227.887104933
 20
546.6318782659
 30
0.0
 40
17.24999999999989
  0
CIRCLE
  5
245
330
1F
100
AcDbEntity
  8
0
  6
Continuous
 62
     7
370
    15
100
AcDbCircle
 10
227.887104933
 20
398.8111530641
 30
0.0
 40
17.25000000000004
  0
CIRCLE
  5
246
330
1F
100
AcDbEntity
  8
0
  6
Continuous
 62
     7
370
    15
100
AcDbCircle
 10
166.6577557546
 20
546.6318782659
 30
0.0
 40
17.24999999999999
  0
CIRCLE
  5
247
330
1F
100
AcDbEntity
  8
0
  6
Continuous
 62
     7
370
    15
100
AcDbCircle
 10
166.6577557546
 20
398.8111530641
 30
0.0
 40
17.24999999999996
  0
CIRCLE
  5
248
330
1F
100
AcDbEntity
  8
0
  6
Continuous
 62
     7
370
    15
100
AcDbCircle
 10
123.3620677429
 20
503.3361902542
 30
0.0
 40
17.24999999999998
  0
CIRCLE
  5
249
330
1F
100
AcDbEntity
  8
0
  6
Continuous
 62
     7
370
    15
100
AcDbCircle
 10
123.3620677429
 20
442.1068410758
 30
0.0
 40
17.25000000000001
  0
CIRCLE
  5
24A
330
1F
100
AcDbEntity
  8
0
  6
Continuous
 62
     7
370
    15
100
AcDbCircle
 10
197.2724303438
 20
472.721515665
 30
0.0
 40
40.0
  0
CIRCLE
  5
24B
330
1F
100
AcDbEntity
  8
0
  6
Continuous
 62
     7
370
    15
100
AcDbCircle
 10
197.2724303438
 20
472.721515665
 30
0.0
 40
100.0
  0
LINE
  5
24C
330
1F
100
AcDbEntity
  8
0
  6
Continuous
 62
     7
370
    15
100
AcDbLine
 10
104.1997162051
 20
509.2929417283
 30
0.0
 11
102.6997131652
 21
509.2929417283
 31
0.0
  0
LINE
  5
24D
330
1F
100
AcDbEntity
  8
0
  6
Continuous
 62
     7
370
    15
100
AcDbLine
 10
103.3551183886
 20
507.0659333856
 30
0.0
 11
101.8551227993
 21
507.0659333856
 31
0.0
  0
ARC
  5
24E
330
1F
100
AcDbEntity
  8
0
  6
Continuous
 62
     7
370
    15
100
AcDbCircle
 10
195.7724303438
 20
472.721515665
 30
0.0
 40
100.0
100
AcDbArc
 50
158.5484523262
 51
159.9131496715
  0
LINE
  5
24F
330
1F
100
AcDbEntity
  8
0
  6
Continuous
 62
     7
370
    15
100
AcDbLine
 10
102.7130348033
 20
505.2564257772
 30
0.0
 11
101.2130317635
 21
505.2564257772
 31
0.0
  0
SPLINE
  5
250
330
1F
100
AcDbEntity
  8
0
  6
Continuous
 62
     7
370
    15
100
AcDbSpline
210
0.0
220
0.0
230
1.0
 70
     8
 71
     3
 72
     9
 73
     5
 74
     0
 42
0.00000001
 43
0.00000001
 12
1.0
 22
0.0
 32
0.0
 13
1.0
 23
0.0
 33
0.0
 40
0.0
 40
0.0
 40
0.0
 40
0.0
 40
0.5027734389685551
 40
1.0
 40
1.0
 40
1.0
 40
1.0
 10
101.2130322738646
 20
505.2564236354217
 30
0.0
 10
101.3182936633929
 20
505.559982897894
 30
0.0
 10
101.5276551398945
 20
506.1637523871797
 30
0.0
 10
101.7463697368085
 20
506.766319270798
 30
0.0
 10
101.8551204436795
 20
507.0659315301309
 30
0.0
  0
LINE
  5
251
330
1F
100
AcDbEntity
  8
0
  6
Continuous
 62
     7
370
    15
100
AcDbLine
 10
102.3822811789
 20
504.2787531407
 30
0.0
 11
100.8822781391
 21
504.2787531407
 31
0.0
  0
LINE
  5
252
330
1F
100
AcDbEntity
  8
0
  6
Continuous
 62
     7
370
    15
100
AcDbLine
 10
101.7650825328
 20
502.3584181459
 30
0.0
 11
100.265079493
 21
502.3584181459
 31
0.0
  0
ARC
  5
253
330
1F
100
AcDbEntity
  8
0
  6
Continuous
 62
     7
370
    15
100
AcDbCircle
 10
195.7724303438
 20
472.721515665
 30
0.0
 40
100.0
100
AcDbArc
 50
161.6046295381
 51
162.7603519382
  0
SPLINE
  5
254
330
1F
100
AcDbEntity
  8
0
  6
Continuous
 62
     7
370
    15
100
AcDbSpline
210
0.0
220
0.0
230
1.0
 70
     8
 71
     3
 72
     9
 73
     5
 74
     0
 42
0.00000001
 43
0.00000001
 12
1.0
 22
0.0
 32
0.0
 13
1.0
 23
0.0
 33
0.0
 40
0.0
 40
0.0
 40
0.0
 40
0.0
 40
0.5016388968445682
 40
0.9999999999999999
 40
0.9999999999999999
 40
0.9999999999999999
 40
0.9999999999999999
 10
100.8822790233753
 20
504.2787522737271
 30
0.0
 10
100.9368921684756
 20
504.4422649920255
 30
0.0
 10
101.0457616071172
 20
504.7682220087698
 30
0.0
 10
101.1573973579354
 20
505.0940457542099
 30
0.0
 10
101.2130322738647
 20
505.2564236354217
 30
0.0
  0
LINE
  5
255
330
1F
100
AcDbEntity
  8
0
  6
Continuous
 62
     7
370
    15
100
AcDbLine
 10
101.538473124
 20
501.6180465014
 30
0.0
 11
100.0384775347
 21
501.6180465014
 31
0.0
  0
LINE
  5
256
330
1F
100
AcDbEntity
  8
0
  6
Continuous
 62
     7
370
    15
100
AcDbLine
 10
100.0384775347
 20
501.6180465014
 30
0.0
 11
100.2678660101
 21
502.3584181459
 31
0.0
  0
LINE
  5
257
330
1F
100
AcDbEntity
  8
0
  6
Continuous
 62
     7
370
    15
100
AcDbLine
 10
100.9032217211
 20
504.3406451137
 30
0.0
 11
100.9172511644
 21
504.3837094695
 31
0.0
  0
LINE
  5
258
330
1F
100
AcDbEntity
  8
0
  6
Continuous
 62
     7
370
    15
100
AcDbLine
 10
101.0154721684
 20
499.8249823243
 30
0.0
 11
99.5154691286
 21
499.8249823243
 31
0.0
  0
ARC
  5
259
330
1F
100
AcDbEntity
  8
0
  6
Continuous
 62
     7
370
    15
100
AcDbCircle
 10
195.7724303438
 20
472.721515665
 30
0.0
 40
100.0
100
AcDbArc
 50
163.2039784736
 51
164.2741545337
  0
LINE
  5
25A
330
1F
100
AcDbEntity
  8
0
  6
Continuous
 62
     7
370
    15
100
AcDbLine
 10
98.7792772598
 20
497.0593193562
 30
0.0
 11
98.7840754337
 21
497.0778787525
 31
0.0
  0
LINE
  5
25B
330
1F
100
AcDbEntity
  8
0
  6
Continuous
 62
     7
370
    15
100
AcDbLine
 10
99.3126568741
 20
499.0846106799
 30
0.0
 11
99.5154691286
 21
499.8249823243
 31
0.0
  0
LINE
  5
25C
330
1F
100
AcDbEntity
  8
0
  6
Continuous
 62
     7
370
    15
100
AcDbLine
 10
100.8100671119
 20
499.0846106799
 30
0.0
 11
99.3100715227
 21
499.0846106799
 31
0.0
  0
LINE
  5
25D
330
1F
100
AcDbEntity
  8
0
  6
Continuous
 62
     7
370
    15
100
AcDbLine
 10
100.3056777067
 20
497.1642756851
 30
0.0
 11
98.8056746668
 21
497.1642756851
 31
0.0
  0
ARC
  5
25E
330
1F
100
AcDbEntity
  8
0
  6
Continuous
 62
     7
370
    15
100
AcDbCircle
 10
195.7724303438
 20
472.721515665
 30
0.0
 40
100.0
100
AcDbArc
 50
164.714378821
 51
165.851988795
  0
LINE
  5
25F
330
1F
100
AcDbEntity
  8
0
  6
Continuous
 62
     7
370
    15
100
AcDbLine
 10
100.2097216792
 20
496.780399421
 30
0.0
 11
98.7097186393
 21
496.780399421
 31
0.0
  0
LINE
  5
260
330
1F
100
AcDbEntity
  8
0
  6
Continuous
 62
     7
370
    15
100
AcDbLine
 10
98.7097186393
 20
496.780399421
 30
0.0
 11
98.8056746668
 21
497.1642756851
 31
0.0
  0
LINE
  5
261
330
1F
100
AcDbEntity
  8
0
  6
Continuous
 62
     7
370
    15
100
AcDbLine
 10
99.5600310511
 20
493.9885551126
 30
0.0
 11
98.0600280113
 21
493.9885551126
 31
0.0
  0
LINE
  5
262
330
1F
100
AcDbEntity
  8
0
  6
Continuous
 62
     7
370
    15
100
AcDbLine
 10
99.481956417
 20
493.6266208084
 30
0.0
 11
97.9819608278
 21
493.6266208084
 31
0.0
  0
LINE
  5
263
330
1F
100
AcDbEntity
  8
0
  6
Continuous
 62
     7
370
    15
100
AcDbLine
 10
97.9819608278
 20
493.6266208084
 30
0.0
 11
98.0600280113
 21
493.9885551126
 31
0.0
  0
LINE
  5
264
330
1F
100
AcDbEntity
  8
0
  6
Continuous
 62
     7
370
    15
100
AcDbLine
 10
99.0940195865
 20
491.7215148003
 30
0.0
 11
97.5940239973
 21
491.7215148003
 31
0.0
  0
ARC
  5
265
330
1F
100
AcDbEntity
  8
0
  6
Continuous
 62
     7
370
    15
100
AcDbCircle
 10
195.7724303438
 20
472.721515665
 30
0.0
 40
100.0
100
AcDbArc
 50
167.9332511556
 51
169.0472158011
  0
ARC
  5
266
330
1F
100
AcDbEntity
  8
0
  6
Continuous
 62
     7
370
    15
100
AcDbCircle
 10
195.7724303438
 20
472.721515665
 30
0.0
 40
100.0
100
AcDbArc
 50
166.0787021427
 51
167.7211112804
  0
SPLINE
  5
267
330
1F
100
AcDbEntity
  8
0
  6
Continuous
 62
     7
370
    15
100
AcDbSpline
210
0.0
220
0.0
230
1.0
 70
     8
 71
     3
 72
     9
 73
     5
 74
     0
 42
0.00000001
 43
0.00000001
 12
1.0
 22
0.0
 32
0.0
 13
1.0
 23
0.0
 33
0.0
 40
0.0
 40
0.0
 40
0.0
 40
0.0
 40
0.5014857218124665
 40
1.0
 40
1.0
 40
1.0
 40
1.0
 10
101.4223245636829
 20
505.8584669320224
 30
0.0
 10
101.4757759388216
 20
506.0100742264887
 30
0.0
 10
101.5823619747023
 20
506.3123904996586
 30
0.0
 10
101.6913641963553
 20
506.6145840606389
 30
0.0
 10
101.7457033602035
 20
506.7652318655639
 30
0.0
  0
LINE
  5
268
330
1F
100
AcDbEntity
  8
0
  6
Continuous
 62
     7
370
    15
100
AcDbLine
 10
104.3692541666
 20
509.7215140254
 30
0.0
 11
102.8692585773
 21
509.7215140254
 31
0.0
  0
ARC
  5
269
330
1F
100
AcDbEntity
  8
0
  6
Continuous
 62
     7
370
    15
100
AcDbCircle
 10
195.7724303438
 20
472.721515665
 30
0.0
 40
100.0
100
AcDbArc
 50
158.2843827167
 51
158.5484523262
  0
LINE
  5
26A
330
1F
100
AcDbEntity
  8
0
  6
Continuous
 62
     7
370
    15
100
AcDbLine
 10
102.0189163632
 20
442.2786582277
 30
0.0
 11
100.5189133234
 21
442.2786582277
 31
0.0
  0
LINE
  5
26B
330
1F
100
AcDbEntity
  8
0
  6
Continuous
 62
     7
370
    15
100
AcDbLine
 10
104.3692541666
 20
435.7215158657
 30
0.0
 11
102.8692585773
 21
435.7215158657
 31
0.0
  0
ARC
  5
26C
330
1F
100
AcDbEntity
  8
0
  6
Continuous
 62
     7
370
    15
100
AcDbCircle
 10
195.7724303438
 20
472.721515665
 30
0.0
 40
100.0
100
AcDbArc
 50
197.7237887068
 51
201.7156172833
  0
LINE
  5
26D
330
1F
100
AcDbEntity
  8
0
  6
Continuous
 62
     7
370
    15
100
AcDbLine
 10
101.272427792
 20
444.7215154783
 30
0.0
 11
99.7724322028
 21
444.7215154783
 31
0.0
  0
SPLINE
  5
26E
330
1F
100
AcDbEntity
  8
0
  6
Continuous
 62
     7
370
    15
100
AcDbSpline
210
0.0
220
0.0
230
1.0
 70
     8
 71
     3
 72
    10
 73
     6
 74
     0
 42
0.00000001
 43
0.00000001
 12
1.0
 22
0.0
 32
0.0
 13
1.0
 23
0.0
 33
0.0
 40
0.0
 40
0.0
 40
0.0
 40
0.0
 40
0.329503843510198
 40
0.6628370791968896
 40
1.0
 40
1.0
 40
1.0
 40
1.0
 10
100.5189136162174
 20
442.2786585221419
 30
0.0
 10
100.4339529640577
 20
442.546838359008
 30
0.0
 10
100.2630442732082
 20
443.0863147362003
 30
0.0
 10
100.0141557895265
 20
443.9006044219688
 30
0.0
 10
99.85331172439527
 20
444.4468386054089
 30
0.0
 10
99.77243034384058
 20
444.7215156649992
 30
0.0
  0
LINE
  5
26F
330
1F
100
AcDbEntity
  8
0
  6
Continuous
 62
     7
370
    15
100
AcDbLine
 10
99.0940195865
 20
453.7215160222
 30
0.0
 11
97.5940239973
 21
453.7215160222
 31
0.0
  0
LINE
  5
270
330
1F
100
AcDbEntity
  8
0
  6
Continuous
 62
     7
370
    15
100
AcDbLine
 10
100.5934116787
 20
447.1643736602
 30
0.0
 11
99.0934160895
 21
447.1643736602
 31
0.0
  0
ARC
  5
271
330
1F
100
AcDbEntity
  8
0
  6
Continuous
 62
     7
370
    15
100
AcDbCircle
 10
195.7724303438
 20
472.721515665
 30
0.0
 40
100.0
100
AcDbArc
 50
190.9527841989
 51
194.8074476071
  0
SPLINE
  5
272
330
1F
100
AcDbEntity
  8
0
  6
Continuous
 62
     7
370
    15
100
AcDbSpline
210
0.0
220
0.0
230
1.0
 70
     8
 71
     3
 72
    10
 73
     6
 74
     0
 42
0.00000001
 43
0.00000001
 12
1.0
 22
0.0
 32
0.0
 13
1.0
 23
0.0
 33
0.0
 40
0.0
 40
0.0
 40
0.0
 40
0.0
 40
0.3292912460770234
 40
0.6626245006380314
 40
1.0
 40
1.0
 40
1.0
 40
1.0
 10
99.77243034384058
 20
444.7215156649992
 30
0.0
 10
99.69498866988623
 20
444.9895364986068
 30
0.0
 10
99.53915473520408
 20
445.5288680877261
 30
0.0
 10
99.31274815533449
 20
446.3431574754994
 30
0.0
 10
99.16681769666793
 20
446.8895367195682
 30
0.0
 10
99.09341271861034
 20
447.1643728078562
 30
0.0
  0
LINE
  5
273
330
1F
100
AcDbEntity
  8
0
  6
Continuous
 62
     7
370
    15
100
AcDbLine
 10
99.3100715227
 20
446.35841828
 30
0.0
 11
99.2062551326
 21
446.7584082873
 31
0.0
  0
LINE
  5
274
330
1F
100
AcDbEntity
  8
0
  6
Continuous
 62
     7
370
    15
100
AcDbLine
 10
100.3933114356
 20
442.6896797509
 30
0.0
 11
100.265079493
 21
443.0846136079
 31
0.0
  0
INSERT
  5
280
330
1F
100
AcDbEntity
  8
FORMAT
100
AcDbBlockReference
  2
SW_CENTERMARKSYMBOL_0
 10
197.2724303438
 20
472.721515665
 30
0.0
  0
LINE
  5
281
330
1F
100
AcDbEntity
  8
0
  6
Continuous
 62
     7
370
    15
100
AcDbLine
 10
97.2724271364
 20
240.9305747649
 30
0.0
 11
97.2724271364
 21
221.9305772385
 31
0.0
  0
LINE
  5
282
330
1F
100
AcDbEntity
  8
0
  6
Continuous
 62
     7
370
    15
100
AcDbLine
 10
297.2724301166
 20
221.9305772385
 30
0.0
 11
297.2724301166
 21
240.9305747649
 31
0.0
  0
LINE
  5
283
330
1F
100
AcDbEntity
  8
0
  6
Continuous
 62
     7
370
    15
100
AcDbLine
 10
97.2724271364
 20
147.4493050998
 30
0.0
 11
97.2724271364
 21
127.4493064782
 31
0.0
  0
LINE
  5
284
330
1F
100
AcDbEntity
  8
0
  6
Continuous
 62
     7
370
    15
100
AcDbLine
 10
297.2724301166
 20
127.4493064782
 30
0.0
 11
297.2724301166
 21
147.4493050998
 31
0.0
  0
LINE
  5
285
330
1F
100
AcDbEntity
  8
0
  6
Continuous
 62
     7
370
    15
100
AcDbLine
 10
297.2724301166
 20
40.9305792352
 30
0.0
 11
297.2724301166
 21
59.9305730364
 31
0.0
  0
LINE
  5
286
330
1F
100
AcDbEntity
  8
0
  6
Continuous
 62
     7
370
    15
100
AcDbLine
 10
97.2724271364
 20
59.9305730364
 30
0.0
 11
97.2724271364
 21
40.9305792352
 31
0.0
  0
LINE
  5
287
330
1F
100
AcDbEntity
  8
0
  6
Continuous
 62
     7
370
    15
100
AcDbLine
 10
245.1371041483
 20
240.9305747649
 30
0.0
 11
245.1371041483
 21
242.930578818
 31
0.0
  0
LINE
  5
288
330
1F
100
AcDbEntity
  8
0
  6
Continuous
 62
     7
370
    15
100
AcDbLine
 10
210.6371050126
 20
242.930578818
 30
0.0
 11
210.6371050126
 21
240.9305747649
 31
0.0
  0
LINE
  5
289
330
1F
100
AcDbEntity
  8
0
  6
Continuous
 62
     7
370
    15
100
AcDbLine
 10
210.6371050126
 20
40.9305792352
 30
0.0
 11
210.6371050126
 21
38.9305751821
 31
0.0
  0
LINE
  5
28A
330
1F
100
AcDbEntity
  8
0
  6
Continuous
 62
     7
370
    15
100
AcDbLine
 10
245.1371041483
 20
38.9305751821
 30
0.0
 11
245.1371041483
 21
40.9305792352
 31
0.0
  0
LINE
  5
28B
330
1F
100
AcDbEntity
  8
0
  6
Continuous
 62
     7
370
    15
100
AcDbLine
 10
183.9077557547
 20
240.9305747649
 30
0.0
 11
183.9077557547
 21
242.930578818
 31
0.0
  0
LINE
  5
28C
330
1F
100
AcDbEntity
  8
0
  6
Continuous
 62
     7
370
    15
100
AcDbLine
 10
149.4077568299
 20
242.930578818
 30
0.0
 11
149.4077568299
 21
240.9305747649
 31
0.0
  0
LINE
  5
28D
330
1F
100
AcDbEntity
  8
0
  6
Continuous
 62
     7
370
    15
100
AcDbLine
 10
149.4077568299
 20
40.9305792352
 30
0.0
 11
149.4077568299
 21
38.9305751821
 31
0.0
  0
LINE
  5
28E
330
1F
100
AcDbEntity
  8
0
  6
Continuous
 62
     7
370
    15
100
AcDbLine
 10
183.9077557547
 20
38.9305751821
 30
0.0
 11
183.9077557547
 21
40.9305792352
 31
0.0
  0
LINE
  5
28F
330
1F
100
AcDbEntity
  8
0
  6
Continuous
 62
     7
370
    15
100
AcDbLine
 10
178.6577555708
 20
24.9305766126
 30
0.0
 11
178.6969079062
 21
24.9531816742
 31
0.0
  0
LINE
  5
290
330
1F
100
AcDbEntity
  8
0
  6
Continuous
 62
     7
370
    15
100
AcDbLine
 10
154.6577562935
 20
256.9305773875
 30
0.0
 11
154.5493037797
 21
256.8679627082
 31
0.0
  0
LINE
  5
291
330
1F
100
AcDbEntity
  8
0
  6
Continuous
 62
     7
370
    15
100
AcDbLine
 10
215.6787378139
 20
25.050873687
 30
0.0
 11
215.8871044762
 21
24.9305766126
 31
0.0
  0
LINE
  5
292
330
1F
100
AcDbEntity
  8
0
  6
Continuous
 62
     7
370
    15
100
AcDbLine
 10
235.8871040291
 20
256.9305773875
 30
0.0
 11
235.8871040291
 21
305.9305798313
 31
0.0
  0
LINE
  5
293
330
1F
100
AcDbEntity
  8
0
  6
Continuous
 62
     7
370
    15
100
AcDbLine
 10
219.8871051318
 20
305.9305798313
 30
0.0
 11
219.8871051318
 21
256.9305773875
 31
0.0
  0
LINE
  5
294
330
1F
100
AcDbEntity
  8
0
  6
Continuous
 62
     7
370
    15
100
AcDbLine
 10
235.8871040291
 20
147.4493050998
 30
0.0
 11
235.8871040291
 21
221.9305772385
 31
0.0
  0
LINE
  5
295
330
1F
100
AcDbEntity
  8
0
  6
Continuous
 62
     7
370
    15
100
AcDbLine
 10
219.8871051318
 20
221.9305772385
 30
0.0
 11
219.8871051318
 21
147.4493050998
 31
0.0
  0
LINE
  5
296
330
1F
100
AcDbEntity
  8
0
  6
Continuous
 62
     7
370
    15
100
AcDbLine
 10
235.8871040291
 20
59.9305730364
 30
0.0
 11
235.8871040291
 21
127.4493064782
 31
0.0
  0
LINE
  5
297
330
1F
100
AcDbEntity
  8
0
  6
Continuous
 62
     7
370
    15
100
AcDbLine
 10
219.8871051318
 20
127.4493064782
 30
0.0
 11
219.8871051318
 21
59.9305730364
 31
0.0
  0
LINE
  5
298
330
1F
100
AcDbEntity
  8
0
  6
Continuous
 62
     7
370
    15
100
AcDbLine
 10
174.6577558464
 20
256.9305773875
 30
0.0
 11
174.6577558464
 21
305.9305798313
 31
0.0
  0
LINE
  5
299
330
1F
100
AcDbEntity
  8
0
  6
Continuous
 62
     7
370
    15
100
AcDbLine
 10
158.6577550865
 20
305.9305798313
 30
0.0
 11
158.6577550865
 21
256.9305773875
 31
0.0
  0
LINE
  5
29A
330
1F
100
AcDbEntity
  8
0
  6
Continuous
 62
     7
370
    15
100
AcDbLine
 10
235.8871040291
 20
-24.0694183806
 30
0.0
 11
235.8871040291
 21
24.9305766126
 31
0.0
  0
LINE
  5
29B
330
1F
100
AcDbEntity
  8
0
  6
Continuous
 62
     7
370
    15
100
AcDbLine
 10
219.8871051318
 20
24.9305766126
 30
0.0
 11
219.8871051318
 21
-24.0694183806
 31
0.0
  0
LINE
  5
29C
330
1F
100
AcDbEntity
  8
0
  6
Continuous
 62
     7
370
    15
100
AcDbLine
 10
174.6577558464
 20
147.4493050998
 30
0.0
 11
174.6577558464
 21
221.9305772385
 31
0.0
  0
LINE
  5
29D
330
1F
100
AcDbEntity
  8
0
  6
Continuous
 62
     7
370
    15
100
AcDbLine
 10
158.6577550865
 20
221.9305772385
 30
0.0
 11
158.6577550865
 21
147.4493050998
 31
0.0
  0
LINE
  5
29E
330
1F
100
AcDbEntity
  8
0
  6
Continuous
 62
     7
370
    15
100
AcDbLine
 10
174.6577558464
 20
59.9305730364
 30
0.0
 11
174.6577558464
 21
127.4493064782
 31
0.0
  0
LINE
  5
29F
330
1F
100
AcDbEntity
  8
0
  6
Continuous
 62
     7
370
    15
100
AcDbLine
 10
158.6577550865
 20
127.4493064782
 30
0.0
 11
158.6577550865
 21
59.9305730364
 31
0.0
  0
LINE
  5
2A0
330
1F
100
AcDbEntity
  8
0
  6
Continuous
 62
     7
370
    15
100
AcDbLine
 10
174.6577558464
 20
-24.0694183806
 30
0.0
 11
174.6577558464
 21
24.9305766126
 31
0.0
  0
LINE
  5
2A1
330
1F
100
AcDbEntity
  8
0
  6
Continuous
 62
     7
370
    15
100
AcDbLine
 10
158.6577550865
 20
24.9305766126
 30
0.0
 11
158.6577550865
 21
-24.0694183806
 31
0.0
  0
LINE
  5
2A2
330
1F
100
AcDbEntity
  8
0
  6
Continuous
 62
     7
370
    15
100
AcDbLine
 10
215.8871044762
 20
256.9305773875
 30
0.0
 11
214.8911592907
 21
256.3555639288
 31
0.0
  0
LINE
  5
2A3
330
1F
100
AcDbEntity
  8
0
  6
Continuous
 62
     7
370
    15
100
AcDbLine
 10
240.8830498702
 20
256.3555639288
 30
0.0
 11
239.8871046848
 21
256.9305773875
 31
0.0
  0
LINE
  5
2A4
330
1F
100
AcDbEntity
  8
0
  6
Continuous
 62
     7
370
    15
100
AcDbLine
 10
239.8871046848
 20
24.9305766126
 30
0.0
 11
240.095471347
 21
25.050873687
 31
0.0
  0
LINE
  5
2A5
330
1F
100
AcDbEntity
  8
0
  6
Continuous
 62
     7
370
    15
100
AcDbLine
 10
178.7662085503
 20
256.8679627082
 30
0.0
 11
178.6577555708
 21
256.9305773875
 31
0.0
  0
LINE
  5
2A6
330
1F
100
AcDbEntity
  8
0
  6
Continuous
 62
     7
370
    15
100
AcDbLine
 10
154.6186034924
 20
24.9531816742
 30
0.0
 11
154.6577562935
 21
24.9305766126
 31
0.0
  0
ARC
  5
2A7
330
1F
100
AcDbEntity
  8
0
  6
Continuous
 62
     7
370
    15
100
AcDbCircle
 10
138.7724303438
 20
156.6966208421
 30
0.0
 40
2.000000000000004
100
AcDbArc
 50
130.0
 51
220.0
  0
ARC
  5
2A8
330
1F
100
AcDbEntity
  8
0
  6
Continuous
 62
     7
370
    15
100
AcDbCircle
 10
255.7724303438
 20
156.6966208421
 30
0.0
 40
2.000000000000023
100
AcDbArc
 50
320.0
 51
50.0
  0
LINE
  5
2A9
330
1F
100
AcDbEntity
  8
0
  6
Continuous
 62
     7
370
    15
100
AcDbLine
 10
137.240340317
 20
155.4110458171
 30
0.0
 11
137.8831279821
 21
154.6450013345
 31
0.0
  0
LINE
  5
2AA
330
1F
100
AcDbEntity
  8
0
  6
Continuous
 62
     7
370
    15
100
AcDbLine
 10
256.6617292709
 20
154.6450013345
 30
0.0
 11
257.3045206613
 21
155.4110458171
 31
0.0
  0
LINE
  5
2AB
330
1F
100
AcDbEntity
  8
0
  6
Continuous
 62
     7
370
    15
100
AcDbLine
 10
257.0580033011
 20
158.2287096469
 30
0.0
 11
250.8544934339
 21
163.4340751268
 31
0.0
  0
LINE
  5
2AC
330
1F
100
AcDbEntity
  8
0
  6
Continuous
 62
     7
370
    15
100
AcDbLine
 10
143.6903675444
 20
163.4340751268
 30
0.0
 11
137.4868539519
 21
158.2287096469
 31
0.0
  0
ARC
  5
2AD
330
1F
100
AcDbEntity
  8
0
  6
Continuous
 62
     7
370
    15
100
AcDbCircle
 10
240.0955809412
 20
143.0902099626
 30
0.0
 40
17.50000000000005
100
AcDbArc
 50
14.4237376512
 51
38.2759459605
  0
ARC
  5
2AE
330
1F
100
AcDbEntity
  8
0
  6
Continuous
 62
     7
370
    15
100
AcDbCircle
 10
154.4492797465
 20
143.0902099626
 30
0.0
 40
17.50000000000004
100
AcDbArc
 50
141.7240540395
 51
165.5762623488
  0
ARC
  5
2AF
330
1F
100
AcDbEntity
  8
0
  6
Continuous
 62
     7
370
    15
100
AcDbCircle
 10
139.4152179535
 20
155.930576399
 30
0.0
 40
2.0
100
AcDbArc
 50
220.0
 51
270.0
  0
ARC
  5
2B0
330
1F
100
AcDbEntity
  8
0
  6
Continuous
 62
     7
370
    15
100
AcDbCircle
 10
255.1296427342
 20
155.930576399
 30
0.0
 40
2.0
100
AcDbArc
 50
270.0
 51
320.0
  0
LINE
  5
2B1
330
1F
100
AcDbEntity
  8
0
  6
Continuous
 62
     7
370
    15
100
AcDbLine
 10
139.4152169473
 20
153.930576337
 30
0.0
 11
158.6577550865
 21
153.930576337
 31
0.0
  0
LINE
  5
2B2
330
1F
100
AcDbEntity
  8
0
  6
Continuous
 62
     7
370
    15
100
AcDbLine
 10
174.6577558464
 20
153.930576337
 30
0.0
 11
219.8871051318
 21
153.930576337
 31
0.0
  0
LINE
  5
2B3
330
1F
100
AcDbEntity
  8
0
  6
Continuous
 62
     7
370
    15
100
AcDbLine
 10
235.8871040291
 20
153.930576337
 30
0.0
 11
255.129644031
 21
153.930576337
 31
0.0
  0
LINE
  5
2B4
330
1F
100
AcDbEntity
  8
0
  6
Continuous
 62
     7
370
    15
100
AcDbLine
 10
141.6476269609
 20
221.9305772385
 30
0.0
 11
143.6903675444
 21
163.4340751268
 31
0.0
  0
LINE
  5
2B5
330
1F
100
AcDbEntity
  8
0
  6
Continuous
 62
     7
370
    15
100
AcDbLine
 10
250.8544934339
 20
163.4340751268
 30
0.0
 11
252.8972340173
 21
221.9305772385
 31
0.0
  0
LINE
  5
2B6
330
1F
100
AcDbEntity
  8
0
  6
Continuous
 62
     7
370
    15
100
AcDbLine
 10
288.4327930755
 20
240.9305747649
 30
0.0
 11
288.4327930755
 21
242.930578818
 31
0.0
  0
LINE
  5
2B7
330
1F
100
AcDbEntity
  8
0
  6
Continuous
 62
     7
370
    15
100
AcDbLine
 10
253.9327902145
 20
242.930578818
 30
0.0
 11
253.9327902145
 21
240.9305747649
 31
0.0
  0
LINE
  5
2B8
330
1F
100
AcDbEntity
  8
0
  6
Continuous
 62
     7
370
    15
100
AcDbLine
 10
253.9327902145
 20
40.9305792352
 30
0.0
 11
253.9327902145
 21
38.9305751821
 31
0.0
  0
LINE
  5
2B9
330
1F
100
AcDbEntity
  8
0
  6
Continuous
 62
     7
370
    15
100
AcDbLine
 10
288.4327930755
 20
38.9305751821
 30
0.0
 11
288.4327930755
 21
40.9305792352
 31
0.0
  0
LINE
  5
2BA
330
1F
100
AcDbEntity
  8
0
  6
Continuous
 62
     7
370
    15
100
AcDbLine
 10
140.6120670385
 20
240.9305747649
 30
0.0
 11
140.6120670385
 21
242.930578818
 31
0.0
  0
LINE
  5
2BB
330
1F
100
AcDbEntity
  8
0
  6
Continuous
 62
     7
370
    15
100
AcDbLine
 10
106.1120641775
 20
242.930578818
 30
0.0
 11
106.1120641775
 21
240.9305747649
 31
0.0
  0
LINE
  5
2BC
330
1F
100
AcDbEntity
  8
0
  6
Continuous
 62
     7
370
    15
100
AcDbLine
 10
106.1120641775
 20
40.9305792352
 30
0.0
 11
106.1120641775
 21
38.9305751821
 31
0.0
  0
LINE
  5
2BD
330
1F
100
AcDbEntity
  8
0
  6
Continuous
 62
     7
370
    15
100
AcDbLine
 10
140.6120670385
 20
38.9305751821
 30
0.0
 11
140.6120670385
 21
40.9305792352
 31
0.0
  0
LINE
  5
2BE
330
1F
100
AcDbEntity
  8
0
  6
Continuous
 62
     7
370
    15
100
AcDbLine
 10
242.2724304146
 20
59.9305730364
 30
0.0
 11
242.2724304146
 21
127.4493064782
 31
0.0
  0
LINE
  5
2BF
330
1F
100
AcDbEntity
  8
0
  6
Continuous
 62
     7
370
    15
100
AcDbLine
 10
152.2724305636
 20
127.4493064782
 30
0.0
 11
152.2724305636
 21
59.9305730364
 31
0.0
  0
LINE
  5
2C0
330
1F
100
AcDbEntity
  8
0
  6
Continuous
 62
     7
370
    15
100
AcDbLine
 10
135.4669195957
 20
256.8700414202
 30
0.0
 11
135.3620675749
 21
256.9305773875
 31
0.0
  0
LINE
  5
2C1
330
1F
100
AcDbEntity
  8
0
  6
Continuous
 62
     7
370
    15
100
AcDbLine
 10
131.3620669193
 20
256.9305773875
 30
0.0
 11
131.3620669193
 21
305.9305798313
 31
0.0
  0
LINE
  5
2C2
330
1F
100
AcDbEntity
  8
0
  6
Continuous
 62
     7
370
    15
100
AcDbLine
 10
115.3620642967
 20
305.9305798313
 30
0.0
 11
115.3620642967
 21
256.9305773875
 31
0.0
  0
LINE
  5
2C3
330
1F
100
AcDbEntity
  8
0
  6
Continuous
 62
     7
370
    15
100
AcDbLine
 10
131.3620669193
 20
147.4493050998
 30
0.0
 11
131.3620669193
 21
221.9305772385
 31
0.0
  0
LINE
  5
2C4
330
1F
100
AcDbEntity
  8
0
  6
Continuous
 62
     7
370
    15
100
AcDbLine
 10
115.3620642967
 20
221.9305772385
 30
0.0
 11
115.3620642967
 21
147.4493050998
 31
0.0
  0
LINE
  5
2C5
330
1F
100
AcDbEntity
  8
0
  6
Continuous
 62
     7
370
    15
100
AcDbLine
 10
131.3620669193
 20
59.9305730364
 30
0.0
 11
131.3620669193
 21
127.4493064782
 31
0.0
  0
LINE
  5
2C6
330
1F
100
AcDbEntity
  8
0
  6
Continuous
 62
     7
370
    15
100
AcDbLine
 10
115.3620642967
 20
127.4493064782
 30
0.0
 11
115.3620642967
 21
59.9305730364
 31
0.0
  0
LINE
  5
2C7
330
1F
100
AcDbEntity
  8
0
  6
Continuous
 62
     7
370
    15
100
AcDbLine
 10
131.3620669193
 20
-24.0694183806
 30
0.0
 11
131.3620669193
 21
24.9305766126
 31
0.0
  0
LINE
  5
2C8
330
1F
100
AcDbEntity
  8
0
  6
Continuous
 62
     7
370
    15
100
AcDbLine
 10
115.3620642967
 20
24.9305766126
 30
0.0
 11
115.3620642967
 21
-24.0694183806
 31
0.0
  0
LINE
  5
2C9
330
1F
100
AcDbEntity
  8
0
  6
Continuous
 62
     7
370
    15
100
AcDbLine
 10
279.1827929563
 20
256.9305773875
 30
0.0
 11
279.1827929563
 21
305.9305798313
 31
0.0
  0
LINE
  5
2CA
330
1F
100
AcDbEntity
  8
0
  6
Continuous
 62
     7
370
    15
100
AcDbLine
 10
263.1827903337
 20
305.9305798313
 30
0.0
 11
263.1827903337
 21
256.9305773875
 31
0.0
  0
LINE
  5
2CB
330
1F
100
AcDbEntity
  8
0
  6
Continuous
 62
     7
370
    15
100
AcDbLine
 10
279.1827929563
 20
147.4493050998
 30
0.0
 11
279.1827929563
 21
221.9305772385
 31
0.0
  0
LINE
  5
2CC
330
1F
100
AcDbEntity
  8
0
  6
Continuous
 62
     7
370
    15
100
AcDbLine
 10
263.1827903337
 20
221.9305772385
 30
0.0
 11
263.1827903337
 21
147.4493050998
 31
0.0
  0
LINE
  5
2CD
330
1F
100
AcDbEntity
  8
0
  6
Continuous
 62
     7
370
    15
100
AcDbLine
 10
279.1827929563
 20
59.9305730364
 30
0.0
 11
279.1827929563
 21
127.4493064782
 31
0.0
  0
LINE
  5
2CE
330
1F
100
AcDbEntity
  8
0
  6
Continuous
 62
     7
370
    15
100
AcDbLine
 10
263.1827903337
 20
127.4493064782
 30
0.0
 11
263.1827903337
 21
59.9305730364
 31
0.0
  0
LINE
  5
2CF
330
1F
100
AcDbEntity
  8
0
  6
Continuous
 62
     7
370
    15
100
AcDbLine
 10
279.1827929563
 20
-24.0694183806
 30
0.0
 11
279.1827929563
 21
24.9305766126
 31
0.0
  0
LINE
  5
2D0
330
1F
100
AcDbEntity
  8
0
  6
Continuous
 62
     7
370
    15
100
AcDbLine
 10
263.1827903337
 20
24.9305766126
 30
0.0
 11
263.1827903337
 21
-24.0694183806
 31
0.0
  0
LINE
  5
2D1
330
1F
100
AcDbEntity
  8
0
  6
Continuous
 62
     7
370
    15
100
AcDbLine
 10
135.3620675749
 20
24.9305766126
 30
0.0
 11
136.0918891973
 21
25.3519367477
 31
0.0
  0
LINE
  5
2D2
330
1F
100
AcDbEntity
  8
0
  6
Continuous
 62
     7
370
    15
100
AcDbLine
 10
284.1675070471
 20
256.3620533845
 30
0.0
 11
283.182793612
 21
256.9305773875
 31
0.0
  0
LINE
  5
2D3
330
1F
100
AcDbEntity
  8
0
  6
Continuous
 62
     7
370
    15
100
AcDbLine
 10
257.8830209918
 20
25.6809990904
 30
0.0
 11
259.182789678
 21
24.9305766126
 31
0.0
  0
LINE
  5
2D4
330
1F
100
AcDbEntity
  8
0
  6
Continuous
 62
     7
370
    15
100
AcDbLine
 10
283.182793612
 20
24.9305766126
 30
0.0
 11
284.4816160745
 21
25.6804477474
 31
0.0
  0
LINE
  5
2D5
330
1F
100
AcDbEntity
  8
0
  6
Continuous
 62
     7
370
    15
100
AcDbLine
 10
259.182789678
 20
256.9305773875
 30
0.0
 11
258.1980762429
 21
256.3620533845
 31
0.0
  0
LINE
  5
2D6
330
1F
100
AcDbEntity
  8
0
  6
Continuous
 62
     7
370
    15
100
AcDbLine
 10
110.6314746088
 20
25.3523837826
 30
0.0
 11
111.3620710916
 21
24.9305766126
 31
0.0
  0
LINE
  5
2D7
330
1F
100
AcDbEntity
  8
0
  6
Continuous
 62
     7
370
    15
100
AcDbLine
 10
111.3620710916
 20
256.9305773875
 30
0.0
 11
111.2580237336
 21
256.8705033562
 31
0.0
  0
LINE
  5
2D8
330
1F
100
AcDbEntity
  8
0
  6
Continuous
 62
     7
370
    15
100
AcDbLine
 10
136.3467810101
 20
256.3620533845
 30
0.0
 11
135.4669195957
 21
256.8700414202
 31
0.0
  0
LINE
  5
2D9
330
1F
100
AcDbEntity
  8
0
  6
Continuous
 62
     7
370
    15
100
AcDbLine
 10
110.0632411785
 20
25.6804477474
 30
0.0
 11
110.5539811201
 21
25.3971170685
 31
0.0
  0
LINE
  5
2DA
330
1F
100
AcDbEntity
  8
0
  6
Continuous
 62
     7
370
    15
100
AcDbLine
 10
136.0918891973
 20
25.3519367477
 30
0.0
 11
136.6618362612
 21
25.6809990904
 31
0.0
  0
LINE
  5
2DB
330
1F
100
AcDbEntity
  8
0
  6
Continuous
 62
     7
370
    15
100
AcDbLine
 10
111.2380263752
 20
256.8589624068
 30
0.0
 11
110.3773502058
 21
256.3620533845
 31
0.0
  0
LINE
  5
2DC
330
1F
100
AcDbEntity
  8
0
  6
Continuous
 62
     7
370
    15
100
AcDbLine
 10
154.4493877686
 20
25.050873687
 30
0.0
 11
154.6101992375
 21
24.9580394527
 31
0.0
  0
LINE
  5
2DD
330
1F
100
AcDbEntity
  8
0
  6
Continuous
 62
     7
370
    15
100
AcDbLine
 10
154.5493037797
 20
256.8679627082
 30
0.0
 11
153.6618092454
 21
256.3555639288
 31
0.0
  0
LINE
  5
2DE
330
1F
100
AcDbEntity
  8
0
  6
Continuous
 62
     7
370
    15
100
AcDbLine
 10
179.6537016875
 20
256.3555639288
 30
0.0
 11
178.7955340355
 21
256.8510275385
 31
0.0
  0
LINE
  5
2DF
330
1F
100
AcDbEntity
  8
0
  6
Continuous
 62
     7
370
    15
100
AcDbLine
 10
178.6969079062
 20
24.9531816742
 30
0.0
 11
178.86612363
 21
25.050873687
 31
0.0
  0
LINE
  5
2E0
330
1F
100
AcDbEntity
  8
0
  6
Continuous
 62
     7
370
    15
100
AcDbLine
 10
297.2724301166
 20
221.9305772385
 30
0.0
 11
97.2724271364
 21
221.9305772385
 31
0.0
  0
LINE
  5
2E1
330
1F
100
AcDbEntity
  8
0
  6
Continuous
 62
     7
370
    15
100
AcDbLine
 10
297.2724301166
 20
240.9305747649
 30
0.0
 11
97.2724271364
 21
240.9305747649
 31
0.0
  0
LINE
  5
2E2
330
1F
100
AcDbEntity
  8
0
  6
Continuous
 62
     7
370
    15
100
AcDbLine
 10
126.5617509729
 20
127.4493064782
 30
0.0
 11
297.2724301166
 21
127.4493064782
 31
0.0
  0
LINE
  5
2E3
330
1F
100
AcDbEntity
  8
0
  6
Continuous
 62
     7
370
    15
100
AcDbLine
 10
97.2724271364
 20
127.4493064782
 30
0.0
 11
126.5617509729
 21
127.4493064782
 31
0.0
  0
LINE
  5
2E4
330
1F
100
AcDbEntity
  8
0
  6
Continuous
 62
     7
370
    15
100
AcDbLine
 10
126.5617509729
 20
147.4493050998
 30
0.0
 11
297.2724301166
 21
147.4493050998
 31
0.0
  0
LINE
  5
2E5
330
1F
100
AcDbEntity
  8
0
  6
Continuous
 62
     7
370
    15
100
AcDbLine
 10
97.2724271364
 20
147.4493050998
 30
0.0
 11
126.5617509729
 21
147.4493050998
 31
0.0
  0
LINE
  5
2E6
330
1F
100
AcDbEntity
  8
0
  6
Continuous
 62
     7
370
    15
100
AcDbLine
 10
97.2724271364
 20
40.9305792352
 30
0.0
 11
297.2724301166
 21
40.9305792352
 31
0.0
  0
LINE
  5
2E7
330
1F
100
AcDbEntity
  8
0
  6
Continuous
 62
     7
370
    15
100
AcDbLine
 10
97.2724271364
 20
59.9305730364
 30
0.0
 11
297.2724301166
 21
59.9305730364
 31
0.0
  0
LINE
  5
2E8
330
1F
100
AcDbEntity
  8
0
  6
Continuous
 62
     7
370
    15
100
AcDbLine
 10
102.3263049669
 20
55.4662894508
 30
0.0
 11
102.4172467536
 21
56.1520036361
 31
0.0
  0
LINE
  5
2E9
330
1F
100
AcDbEntity
  8
0
  6
Continuous
 62
     7
370
    15
100
AcDbLine
 10
104.3692541666
 20
57.9305764338
 30
0.0
 11
104.3692541666
 21
56.1520036361
 31
0.0
  0
SPLINE
  5
2EA
330
1F
100
AcDbEntity
  8
0
  6
Continuous
 62
     7
370
    15
100
AcDbSpline
210
0.0
220
0.0
230
1.0
 70
     8
 71
     3
 72
     9
 73
     5
 74
     0
 42
0.00000001
 43
0.00000001
 12
1.0
 22
0.0
 32
0.0
 13
1.0
 23
0.0
 33
0.0
 40
0.0
 40
0.0
 40
0.0
 40
0.0
 40
0.4993694063897371
 40
1.0
 40
1.0
 40
1.0
 40
1.0
 10
104.1997135453866
 20
49.35914782758258
 30
0.0
 10
104.067091945087
 20
49.81069697835218
 30
0.0
 10
103.8015138007263
 20
50.71493569420414
 30
0.0
 10
103.5481154088687
 20
51.62140100112305
 30
0.0
 10
103.4212564215331
 20
52.07520526581297
 30
0.0
  0
SPLINE
  5
2EB
330
1F
100
AcDbEntity
  8
0
  6
Continuous
 62
     7
370
    15
100
AcDbSpline
210
0.0
220
0.0
230
1.0
 70
     8
 71
     3
 72
    14
 73
    10
 74
     0
 42
0.00000001
 43
0.00000001
 12
1.0
 22
0.0
 32
0.0
 13
1.0
 23
0.0
 33
0.0
 40
0.0
 40
0.0
 40
0.0
 40
0.0
 40
0.25
 40
0.25
 40
0.5
 40
0.5
 40
0.75
 40
0.75
 40
1.0
 40
1.0
 40
1.0
 40
1.0
 10
103.4212564215331
 20
52.07520526581297
 30
0.0
 10
103.5008223358181
 20
52.12114411970283
 30
0.0
 10
103.5776739813458
 20
52.19327470171979
 30
0.0
 10
103.7259615092853
 20
52.38710098306586
 30
0.0
 10
103.7978013160092
 20
52.51045863785192
 30
0.0
 10
103.9278285922118
 20
52.79685528219497
 30
0.0
 10
103.9874523666585
 20
52.96232483635256
 30
0.0
 10
104.0908159454631
 20
53.33336815291968
 30
0.0
 10
104.1334657843814
 20
53.53434495092528
 30
0.0
 10
104.1660790402826
 20
53.75200497043971
 30
0.0
  0
LINE
  5
2EC
330
1F
100
AcDbEntity
  8
0
  6
Continuous
 62
     7
370
    15
100
AcDbLine
 10
104.3692541666
 20
55.4662894508
 30
0.0
 11
104.3692541666
 21
53.752007713
 31
0.0
  0
LINE
  5
2ED
330
1F
100
AcDbEntity
  8
0
  6
Continuous
 62
     7
370
    15
100
AcDbLine
 10
210.6371050126
 20
242.930578818
 30
0.0
 11
245.1371041483
 21
242.930578818
 31
0.0
  0
LINE
  5
2EE
330
1F
100
AcDbEntity
  8
0
  6
Continuous
 62
     7
370
    15
100
AcDbLine
 10
245.1371041483
 20
38.9305751821
 30
0.0
 11
210.6371050126
 21
38.9305751821
 31
0.0
  0
LINE
  5
2EF
330
1F
100
AcDbEntity
  8
0
  6
Continuous
 62
     7
370
    15
100
AcDbLine
 10
149.4077568299
 20
242.930578818
 30
0.0
 11
183.9077557547
 21
242.930578818
 31
0.0
  0
LINE
  5
2F0
330
1F
100
AcDbEntity
  8
0
  6
Continuous
 62
     7
370
    15
100
AcDbLine
 10
183.9077557547
 20
38.9305751821
 30
0.0
 11
149.4077568299
 21
38.9305751821
 31
0.0
  0
SPLINE
  5
2F1
330
1F
100
AcDbEntity
  8
0
  6
Continuous
 62
     7
370
    15
100
AcDbSpline
210
0.0
220
0.0
230
1.0
 70
     8
 71
     3
 72
    12
 73
     8
 74
     0
 42
0.00000001
 43
0.00000001
 12
1.0
 22
0.0
 32
0.0
 13
1.0
 23
0.0
 33
0.0
 40
0.0
 40
0.0
 40
0.0
 40
0.0
 40
0.2499999999999996
 40
0.2499999999999996
 40
0.4999999999999991
 40
0.4999999999999991
 40
1.0
 40
1.0
 40
1.0
 40
1.0
 10
161.486098870134
 20
24.93057639901147
 30
0.0
 10
162.0146360456701
 20
24.93057639901147
 30
0.0
 10
162.5448661926708
 20
24.95546780647148
 30
0.0
 10
163.608668730041
 20
25.05439093075518
 30
0.0
 10
164.1366800635768
 20
25.12791144794532
 30
0.0
 10
165.7028577748444
 20
25.40966609609871
 30
0.0
 10
166.7269943179996
 20
25.67898431886012
 30
0.0
 10
167.7378710207336
 20
26.00237316873596
 30
0.0
  0
SPLINE
  5
2F2
330
1F
100
AcDbEntity
  8
0
  6
Continuous
 62
     7
370
    15
100
AcDbSpline
210
0.0
220
0.0
230
1.0
 70
     8
 71
     3
 72
    10
 73
     6
 74
     0
 42
0.00000001
 43
0.00000001
 12
1.0
 22
0.0
 32
0.0
 13
1.0
 23
0.0
 33
0.0
 40
0.0
 40
0.0
 40
0.0
 40
0.0
 40
0.5000000000000013
 40
0.5000000000000013
 40
1.0
 40
1.0
 40
1.0
 40
1.0
 10
155.2343267195344
 20
26.00237316873594
 30
0.0
 10
156.251126810277
 20
25.67708937199836
 30
0.0
 10
157.2925295739332
 20
25.40426241479926
 30
0.0
 10
159.3800499983533
 20
25.03120945225657
 30
0.0
 10
160.4296521912904
 20
24.93057639901145
 30
0.0
 10
161.486098870134
 20
24.93057639901147
 30
0.0
  0
LINE
  5
2F3
330
1F
100
AcDbEntity
  8
0
  6
Continuous
 62
     7
370
    15
100
AcDbLine
 10
155.2343269236
 20
26.0023724338
 30
0.0
 11
155.2343269236
 21
38.9305751821
 31
0.0
  0
LINE
  5
2F4
330
1F
100
AcDbEntity
  8
0
  6
Continuous
 62
     7
370
    15
100
AcDbLine
 10
167.7378707922
 20
26.0023724338
 30
0.0
 11
167.7378707922
 21
38.9305751821
 31
0.0
  0
SPLINE
  5
2F5
330
1F
100
AcDbEntity
  8
0
  6
Continuous
 62
     7
370
    15
100
AcDbSpline
210
0.0
220
0.0
230
1.0
 70
     8
 71
     3
 72
    12
 73
     8
 74
     0
 42
0.00000001
 43
0.00000001
 12
1.0
 22
0.0
 32
0.0
 13
1.0
 23
0.0
 33
0.0
 40
0.0
 40
0.0
 40
0.0
 40
0.0
 40
0.2499999999999974
 40
0.2499999999999974
 40
0.4999999999999982
 40
0.4999999999999982
 40
1.0
 40
1.0
 40
1.0
 40
1.0
 10
173.4495855382818
 20
24.93057639901147
 30
0.0
 10
173.9343196674935
 20
24.93057639901139
 30
0.0
 10
174.4212285529338
 20
24.95590965230463
 30
0.0
 10
175.3844357510765
 20
25.05394653938137
 30
0.0
 10
175.8628178150848
 20
25.12655590831026
 30
0.0
 10
177.2894675461673
 20
25.40660260724423
 30
0.0
 10
178.2292718121249
 20
25.67601643615006
 30
0.0
 10
179.1613000558299
 20
26.00237316873583
 30
0.0
  0
SPLINE
  5
2F6
330
1F
100
AcDbEntity
  8
0
  6
Continuous
 62
     7
370
    15
100
AcDbSpline
210
0.0
220
0.0
230
1.0
 70
     8
 71
     3
 72
    10
 73
     6
 74
     0
 42
0.00000001
 43
0.00000001
 12
1.0
 22
0.0
 32
0.0
 13
1.0
 23
0.0
 33
0.0
 40
0.0
 40
0.0
 40
0.0
 40
0.0
 40
0.5
 40
0.5
 40
1.0
 40
1.0
 40
1.0
 40
1.0
 10
167.7378710207336
 20
26.00237316873569
 30
0.0
 10
168.6722325812843
 20
25.67519940762419
 30
0.0
 10
169.613419078041
 20
25.40565686370588
 30
0.0
 10
171.5154685734796
 20
25.03272435544759
 30
0.0
 10
172.4764786560707
 20
24.93057639901145
 30
0.0
 10
173.4495855382818
 20
24.93057639901147
 30
0.0
  0
LINE
  5
2F7
330
1F
100
AcDbEntity
  8
0
  6
Continuous
 62
     7
370
    15
100
AcDbLine
 10
179.1613002665
 20
26.0023724338
 30
0.0
 11
179.1613002665
 21
38.9305751821
 31
0.0
  0
LINE
  5
2F8
330
1F
100
AcDbEntity
  8
0
  6
Continuous
 62
     7
370
    15
100
AcDbLine
 10
161.4860997892
 20
24.9305766126
 30
0.0
 11
173.4495855293
 21
24.9305766126
 31
0.0
  0
SPLINE
  5
2F9
330
1F
100
AcDbEntity
  8
0
  6
Continuous
 62
     7
370
    15
100
AcDbSpline
210
0.0
220
0.0
230
1.0
 70
     8
 71
     3
 72
    12
 73
     8
 74
     0
 42
0.00000001
 43
0.00000001
 12
1.0
 22
0.0
 32
0.0
 13
1.0
 23
0.0
 33
0.0
 40
0.0
 40
0.0
 40
0.0
 40
0.0
 40
0.2500000000000002
 40
0.2500000000000002
 40
0.5000000000000004
 40
0.5000000000000004
 40
1.0
 40
1.0
 40
1.0
 40
1.0
 10
171.2392835641198
 20
256.9305763990114
 30
0.0
 10
170.6958505894939
 20
256.9305763990114
 30
0.0
 10
170.1499795066864
 20
256.9052431457183
 30
0.0
 10
169.0701328003714
 20
256.8072062586415
 30
0.0
 10
168.5338210938397
 20
256.7345968897127
 30
0.0
 10
166.9344113135294
 20
256.4545501907787
 30
0.0
 10
165.8808015158328
 20
256.1851363618729
 30
0.0
 10
164.8359093772587
 20
255.8587796292871
 30
0.0
  0
SPLINE
  5
2FA
330
1F
100
AcDbEntity
  8
0
  6
Continuous
 62
     7
370
    15
100
AcDbSpline
210
0.0
220
0.0
230
1.0
 70
     8
 71
     3
 72
    10
 73
     6
 74
     0
 42
0.00000001
 43
0.00000001
 12
1.0
 22
0.0
 32
0.0
 13
1.0
 23
0.0
 33
0.0
 40
0.0
 40
0.0
 40
0.0
 40
0.0
 40
0.5
 40
0.5
 40
1.0
 40
1.0
 40
1.0
 40
1.0
 10
177.642657750981
 20
255.8587796292872
 30
0.0
 10
176.5951497427211
 20
256.1859533903987
 30
0.0
 10
175.5399903330837
 20
256.4554959343171
 30
0.0
 10
173.4076122872614
 20
256.8284284425753
 30
0.0
 10
172.3302287560518
 20
256.9305763990114
 30
0.0
 10
171.2392835641198
 20
256.9305763990114
 30
0.0
  0
LINE
  5
2FB
330
1F
100
AcDbEntity
  8
0
  6
Continuous
 62
     7
370
    15
100
AcDbLine
 10
177.6426577366
 20
255.8587815663
 30
0.0
 11
177.6426577366
 21
242.930578818
 31
0.0
  0
LINE
  5
2FC
330
1F
100
AcDbEntity
  8
0
  6
Continuous
 62
     7
370
    15
100
AcDbLine
 10
164.8359087653
 20
255.8587815663
 30
0.0
 11
164.8359087653
 21
242.930578818
 31
0.0
  0
SPLINE
  5
2FD
330
1F
100
AcDbEntity
  8
0
  6
Continuous
 62
     7
370
    15
100
AcDbSpline
210
0.0
220
0.0
230
1.0
 70
     8
 71
     3
 72
    10
 73
     6
 74
     0
 42
0.00000001
 43
0.00000001
 12
1.0
 22
0.0
 32
0.0
 13
1.0
 23
0.0
 33
0.0
 40
0.0
 40
0.0
 40
0.0
 40
0.0
 40
0.5
 40
0.5
 40
1.0
 40
1.0
 40
1.0
 40
1.0
 10
164.8359093772587
 20
255.858779629287
 30
0.0
 10
163.942606720218
 20
256.1840634260246
 30
0.0
 10
163.0276895557789
 20
256.4568903832236
 30
0.0
 10
161.1937129867964
 20
256.8299433457664
 30
0.0
 10
160.2715922707156
 20
256.9305763990114
 30
0.0
 10
159.3434583790836
 20
256.9305763990114
 30
0.0
  0
LINE
  5
2FE
330
1F
100
AcDbEntity
  8
0
  6
Continuous
 62
     7
370
    15
100
AcDbLine
 10
171.2392832509
 20
256.9305773875
 30
0.0
 11
159.3434580959
 21
256.9305773875
 31
0.0
  0
SPLINE
  5
2FF
330
1F
100
AcDbEntity
  8
0
  6
Continuous
 62
     7
370
    15
100
AcDbSpline
210
0.0
220
0.0
230
1.0
 70
     8
 71
     3
 72
    12
 73
     8
 74
     0
 42
0.00000001
 43
0.00000001
 12
1.0
 22
0.0
 32
0.0
 13
1.0
 23
0.0
 33
0.0
 40
0.0
 40
0.0
 40
0.0
 40
0.0
 40
0.2500000000000002
 40
0.2500000000000002
 40
0.5000000000000004
 40
0.5000000000000004
 40
1.0
 40
1.0
 40
1.0
 40
1.0
 10
159.3434583790836
 20
256.9305763990114
 30
0.0
 10
158.8791157147292
 20
256.9305763990114
 30
0.0
 10
158.4132857020539
 20
256.9056849915514
 30
0.0
 10
157.478689372007
 20
256.8067618672677
 30
0.0
 10
157.0148086824895
 20
256.7332413500777
 30
0.0
 10
155.6388541329069
 20
256.4514867019242
 30
0.0
 10
154.739106086558
 20
256.1821684791627
 30
0.0
 10
153.8510073809084
 20
255.8587796292869
 30
0.0
  0
LINE
  5
300
330
1F
100
AcDbEntity
  8
0
  6
Continuous
 62
     7
370
    15
100
AcDbLine
 10
153.8510074264
 20
255.8587815663
 30
0.0
 11
153.8510074264
 21
242.930578818
 31
0.0
  0
SPLINE
  5
301
330
1F
100
AcDbEntity
  8
0
  6
Continuous
 62
     7
370
    15
100
AcDbSpline
210
0.0
220
0.0
230
1.0
 70
     8
 71
     3
 72
    12
 73
     8
 74
     0
 42
0.00000001
 43
0.00000001
 12
1.0
 22
0.0
 32
0.0
 13
1.0
 23
0.0
 33
0.0
 40
0.0
 40
0.0
 40
0.0
 40
0.0
 40
0.2500000000000012
 40
0.2500000000000012
 40
0.5000000000000023
 40
0.5000000000000023
 40
1.0
 40
1.0
 40
1.0
 40
1.0
 10
231.8870171586032
 20
24.93057639901147
 30
0.0
 10
232.439244552725
 20
24.9305763990115
 30
0.0
 10
232.9932408010798
 20
24.95546780647151
 30
0.0
 10
234.1047253479829
 20
25.0543909307552
 30
0.0
 10
234.6564033306896
 20
25.12791144794529
 30
0.0
 10
236.2927806306359
 20
25.40966609609871
 30
0.0
 10
237.3628212647274
 20
25.67898431886018
 30
0.0
 10
238.4190077226867
 20
26.00237316873596
 30
0.0
  0
SPLINE
  5
302
330
1F
100
AcDbEntity
  8
0
  6
Continuous
 62
     7
370
    15
100
AcDbSpline
210
0.0
220
0.0
230
1.0
 70
     8
 71
     3
 72
    10
 73
     6
 74
     0
 42
0.00000001
 43
0.00000001
 12
1.0
 22
0.0
 32
0.0
 13
1.0
 23
0.0
 33
0.0
 40
0.0
 40
0.0
 40
0.0
 40
0.0
 40
0.5
 40
0.5
 40
1.0
 40
1.0
 40
1.0
 40
1.0
 10
225.3550265945196
 20
26.00237316873594
 30
0.0
 10
226.4174019399891
 20
25.67708937199833
 30
0.0
 10
227.5054827052103
 20
25.40426241479923
 30
0.0
 10
229.6865704649962
 20
25.03120945225659
 30
0.0
 10
230.7832181762615
 20
24.93057639901145
 30
0.0
 10
231.8870171586032
 20
24.93057639901147
 30
0.0
  0
LINE
  5
303
330
1F
100
AcDbEntity
  8
0
  6
Continuous
 62
     7
370
    15
100
AcDbLine
 10
225.3550266273
 20
26.0023724338
 30
0.0
 11
225.3550266273
 21
38.9305751821
 31
0.0
  0
LINE
  5
304
330
1F
100
AcDbEntity
  8
0
  6
Continuous
 62
     7
370
    15
100
AcDbLine
 10
238.4190087563
 20
26.0023724338
 30
0.0
 11
238.4190087563
 21
38.9305751821
 31
0.0
  0
SPLINE
  5
305
330
1F
100
AcDbEntity
  8
0
  6
Continuous
 62
     7
370
    15
100
AcDbSpline
210
0.0
220
0.0
230
1.0
 70
     8
 71
     3
 72
    12
 73
     8
 74
     0
 42
0.00000001
 43
0.00000001
 12
1.0
 22
0.0
 32
0.0
 13
1.0
 23
0.0
 33
0.0
 40
0.0
 40
0.0
 40
0.0
 40
0.0
 40
0.2500000000000006
 40
0.2500000000000006
 40
0.5000000000000011
 40
0.5000000000000011
 40
1.0
 40
1.0
 40
1.0
 40
1.0
 10
220.0890751996988
 20
24.93057639901147
 30
0.0
 10
220.5359789019054
 20
24.93057639901145
 30
0.0
 10
220.9848876343985
 20
24.95590965230463
 30
0.0
 10
221.8729226146094
 20
25.05394653938137
 30
0.0
 10
222.3139699900485
 20
25.12655590831028
 30
0.0
 10
223.6292787503574
 20
25.4066026072442
 30
0.0
 10
224.4957372489349
 20
25.67601643615003
 30
0.0
 10
225.3550265945196
 20
26.00237316873583
 30
0.0
  0
SPLINE
  5
306
330
1F
100
AcDbEntity
  8
0
  6
Continuous
 62
     7
370
    15
100
AcDbSpline
210
0.0
220
0.0
230
1.0
 70
     8
 71
     3
 72
    10
 73
     6
 74
     0
 42
0.00000001
 43
0.00000001
 12
1.0
 22
0.0
 32
0.0
 13
1.0
 23
0.0
 33
0.0
 40
0.0
 40
0.0
 40
0.0
 40
0.0
 40
0.5
 40
0.5
 40
1.0
 40
1.0
 40
1.0
 40
1.0
 10
214.8231238048779
 20
26.00237316873569
 30
0.0
 10
215.6845643667149
 20
25.67519940762419
 30
0.0
 10
216.5522972217368
 20
25.40565686370588
 30
0.0
 10
218.3059038074215
 20
25.03272435544759
 30
0.0
 10
219.1919131430264
 20
24.93057639901145
 30
0.0
 10
220.0890751996988
 20
24.93057639901147
 30
0.0
  0
LINE
  5
307
330
1F
100
AcDbEntity
  8
0
  6
Continuous
 62
     7
370
    15
100
AcDbLine
 10
214.823124314
 20
26.0023724338
 30
0.0
 11
214.823124314
 21
38.9305751821
 31
0.0
  0
LINE
  5
308
330
1F
100
AcDbEntity
  8
0
  6
Continuous
 62
     7
370
    15
100
AcDbLine
 10
220.0890754706
 20
24.9305766126
 30
0.0
 11
231.8870176918
 21
24.9305766126
 31
0.0
  0
SPLINE
  5
309
330
1F
100
AcDbEntity
  8
0
  6
Continuous
 62
     7
370
    15
100
AcDbSpline
210
0.0
220
0.0
230
1.0
 70
     8
 71
     3
 72
    12
 73
     8
 74
     0
 42
0.00000001
 43
0.00000001
 12
1.0
 22
0.0
 32
0.0
 13
1.0
 23
0.0
 33
0.0
 40
0.0
 40
0.0
 40
0.0
 40
0.0
 40
0.2500000000000006
 40
0.2500000000000006
 40
0.5000000000000012
 40
0.5000000000000012
 40
1.0
 40
1.0
 40
1.0
 40
1.0
 10
229.4419668505655
 20
256.9305763990114
 30
0.0
 10
228.8611804850256
 20
256.9305763990114
 30
0.0
 10
228.2785337872528
 20
256.9056849915514
 30
0.0
 10
227.1095677467758
 20
256.8067618672677
 30
0.0
 10
226.5293592059913
 20
256.7332413500777
 30
0.0
 10
224.8083550783363
 20
256.4514867019242
 30
0.0
 10
223.6829762625276
 20
256.1821684791627
 30
0.0
 10
222.5721681049096
 20
255.8587796292869
 30
0.0
  0
SPLINE
  5
30A
330
1F
100
AcDbEntity
  8
0
  6
Continuous
 62
     7
370
    15
100
AcDbSpline
210
0.0
220
0.0
230
1.0
 70
     8
 71
     3
 72
    10
 73
     6
 74
     0
 42
0.00000001
 43
0.00000001
 12
1.0
 22
0.0
 32
0.0
 13
1.0
 23
0.0
 33
0.0
 40
0.0
 40
0.0
 40
0.0
 40
0.0
 40
0.5
 40
0.5
 40
1.0
 40
1.0
 40
1.0
 40
1.0
 10
222.5721681049097
 20
255.8587796292873
 30
0.0
 10
221.8830861260947
 20
256.1859533903987
 30
0.0
 10
221.1889708274766
 20
256.4554959343171
 30
0.0
 10
219.7862290137528
 20
256.8284284425754
 30
0.0
 10
219.0774940257867
 20
256.9305763990114
 30
0.0
 10
218.3598377733215
 20
256.9305763990114
 30
0.0
  0
LINE
  5
30B
330
1F
100
AcDbEntity
  8
0
  6
Continuous
 62
     7
370
    15
100
AcDbLine
 10
229.4419681079
 20
256.9305773875
 30
0.0
 11
218.3598366923
 21
256.9305773875
 31
0.0
  0
SPLINE
  5
30C
330
1F
100
AcDbEntity
  8
0
  6
Continuous
 62
     7
370
    15
100
AcDbSpline
210
0.0
220
0.0
230
1.0
 70
     8
 71
     3
 72
    10
 73
     6
 74
     0
 42
0.00000001
 43
0.00000001
 12
1.0
 22
0.0
 32
0.0
 13
1.0
 23
0.0
 33
0.0
 40
0.0
 40
0.0
 40
0.0
 40
0.0
 40
0.5
 40
0.5
 40
1.0
 40
1.0
 40
1.0
 40
1.0
 10
236.3117655962214
 20
255.858779629287
 30
0.0
 10
235.1944484868164
 20
256.1840634260246
 30
0.0
 10
234.050096577126
 20
256.4568903832236
 30
0.0
 10
231.7562117637077
 20
256.8299433457664
 30
0.0
 10
230.6028498601095
 20
256.9305763990114
 30
0.0
 10
229.4419668505655
 20
256.9305763990114
 30
0.0
  0
LINE
  5
30D
330
1F
100
AcDbEntity
  8
0
  6
Continuous
 62
     7
370
    15
100
AcDbLine
 10
236.3117647714
 20
255.8587815663
 30
0.0
 11
236.3117647714
 21
242.930578818
 31
0.0
  0
LINE
  5
30E
330
1F
100
AcDbEntity
  8
0
  6
Continuous
 62
     7
370
    15
100
AcDbLine
 10
222.5721677191
 20
255.8587815663
 30
0.0
 11
222.5721677191
 21
242.930578818
 31
0.0
  0
SPLINE
  5
30F
330
1F
100
AcDbEntity
  8
0
  6
Continuous
 62
     7
370
    15
100
AcDbSpline
210
0.0
220
0.0
230
1.0
 70
     8
 71
     3
 72
    12
 73
     8
 74
     0
 42
0.00000001
 43
0.00000001
 12
1.0
 22
0.0
 32
0.0
 13
1.0
 23
0.0
 33
0.0
 40
0.0
 40
0.0
 40
0.0
 40
0.0
 40
0.2499999999999991
 40
0.2499999999999991
 40
0.4999999999999982
 40
0.4999999999999982
 40
1.0
 40
1.0
 40
1.0
 40
1.0
 10
218.3598377733215
 20
256.9305763990114
 30
0.0
 10
218.0023513707779
 20
256.9305763990115
 30
0.0
 10
217.6432611080278
 20
256.9052431457183
 30
0.0
 10
216.9329057700858
 20
256.8072062586415
 30
0.0
 10
216.580103949876
 20
256.7345968897127
 30
0.0
 10
215.52796454124
 20
256.4545501907787
 30
0.0
 10
214.8348686235279
 20
256.1851363618729
 30
0.0
 10
214.1475074417334
 20
255.8587796292871
 30
0.0
  0
LINE
  5
310
330
1F
100
AcDbEntity
  8
0
  6
Continuous
 62
     7
370
    15
100
AcDbLine
 10
214.1475075281
 20
255.8587815663
 30
0.0
 11
214.1475075281
 21
242.930578818
 31
0.0
  0
LINE
  5
311
330
1F
100
AcDbEntity
  8
0
  6
Continuous
 62
     7
370
    15
100
AcDbLine
 10
238.9692341334
 20
256.9305773875
 30
0.0
 11
229.4419681079
 21
256.9305773875
 31
0.0
  0
SPLINE
  5
312
330
1F
100
AcDbEntity
  8
0
  6
Continuous
 62
     7
370
    15
100
AcDbSpline
210
0.0
220
0.0
230
1.0
 70
     8
 71
     3
 72
    12
 73
     8
 74
     0
 42
0.00000001
 43
0.00000001
 12
1.0
 22
0.0
 32
0.0
 13
1.0
 23
0.0
 33
0.0
 40
0.0
 40
0.0
 40
0.0
 40
0.0
 40
0.2500000000000002
 40
0.2500000000000002
 40
0.5000000000000004
 40
0.5000000000000004
 40
1.0
 40
1.0
 40
1.0
 40
1.0
 10
238.9692340102891
 20
256.9305763990114
 30
0.0
 10
238.7437035441492
 20
256.9305763990114
 30
0.0
 10
238.5171612371744
 20
256.9052431457183
 30
0.0
 10
238.0690133653922
 20
256.8072062586415
 30
0.0
 10
237.8464383012756
 20
256.7345968897127
 30
0.0
 10
237.1826662260709
 20
256.4545501907787
 30
0.0
 10
236.7454069505039
 20
256.1851363618729
 30
0.0
 10
236.3117655962214
 20
255.8587796292871
 30
0.0
  0
SPLINE
  5
313
330
1F
100
AcDbEntity
  8
0
  6
Continuous
 62
     7
370
    15
100
AcDbSpline
210
0.0
220
0.0
230
1.0
 70
     8
 71
     3
 72
    10
 73
     6
 74
     0
 42
0.00000001
 43
0.00000001
 12
1.0
 22
0.0
 32
0.0
 13
1.0
 23
0.0
 33
0.0
 40
0.0
 40
0.0
 40
0.0
 40
0.0
 40
0.5
 40
0.5
 40
1.0
 40
1.0
 40
1.0
 40
1.0
 10
238.4190077226868
 20
26.00237316873569
 30
0.0
 10
238.6261151210479
 20
25.67519940762419
 30
0.0
 10
238.8347353115028
 20
25.40565686370585
 30
0.0
 10
239.2563371187541
 20
25.03272435544762
 30
0.0
 10
239.4693513376684
 20
24.93057639901145
 30
0.0
 10
239.6850468919495
 20
24.93057639901147
 30
0.0
  0
LINE
  5
314
330
1F
100
AcDbEntity
  8
0
  6
Continuous
 62
     7
370
    15
100
AcDbLine
 10
231.8870176918
 20
24.9305766126
 30
0.0
 11
239.6850486643
 21
24.9305766126
 31
0.0
  0
SPLINE
  5
315
330
1F
100
AcDbEntity
  8
0
  6
Continuous
 62
     7
370
    15
100
AcDbSpline
210
0.0
220
0.0
230
1.0
 70
     8
 71
     3
 72
    12
 73
     8
 74
     0
 42
0.00000001
 43
0.00000001
 12
1.0
 22
0.0
 32
0.0
 13
1.0
 23
0.0
 33
0.0
 40
0.0
 40
0.0
 40
0.0
 40
0.0
 40
0.2499999999999988
 40
0.2499999999999988
 40
0.4999999999999976
 40
0.4999999999999976
 40
1.0
 40
1.0
 40
1.0
 40
1.0
 10
178.5535809396669
 20
256.9305763990114
 30
0.0
 10
178.4762739318867
 20
256.9305763990114
 30
0.0
 10
178.398620086765
 20
256.9052431457183
 30
0.0
 10
178.2450046058789
 20
256.8072062586415
 30
0.0
 10
178.1687106465401
 20
256.7345968897127
 30
0.0
 10
177.9411838123149
 20
256.4545501907787
 30
0.0
 10
177.791300708729
 20
256.1851363618729
 30
0.0
 10
177.6426577509809
 20
255.8587796292871
 30
0.0
  0
LINE
  5
316
330
1F
100
AcDbEntity
  8
0
  6
Continuous
 62
     7
370
    15
100
AcDbLine
 10
178.5535810872
 20
256.9305773875
 30
0.0
 11
171.2392832509
 21
256.9305773875
 31
0.0
  0
SPLINE
  5
317
330
1F
100
AcDbEntity
  8
0
  6
Continuous
 62
     7
370
    15
100
AcDbSpline
210
0.0
220
0.0
230
1.0
 70
     8
 71
     3
 72
    10
 73
     6
 74
     0
 42
0.00000001
 43
0.00000001
 12
1.0
 22
0.0
 32
0.0
 13
1.0
 23
0.0
 33
0.0
 40
0.0
 40
0.0
 40
0.0
 40
0.0
 40
0.5
 40
0.5
 40
1.0
 40
1.0
 40
1.0
 40
1.0
 10
241.6267024243569
 20
255.8587796292872
 30
0.0
 10
241.191975456324
 20
256.1859533903987
 30
0.0
 10
240.7540730753151
 20
256.4554959343171
 30
0.0
 10
239.8691134995883
 20
256.8284284425753
 30
0.0
 10
239.421987871681
 20
256.9305763990114
 30
0.0
 10
238.9692340102891
 20
256.9305763990114
 30
0.0
  0
LINE
  5
318
330
1F
100
AcDbEntity
  8
0
  6
Continuous
 62
     7
370
    15
100
AcDbLine
 10
241.6267034955
 20
255.8587815663
 30
0.0
 11
241.6267034955
 21
242.930578818
 31
0.0
  0
SPLINE
  5
319
330
1F
100
AcDbEntity
  8
0
  6
Continuous
 62
     7
370
    15
100
AcDbSpline
210
0.0
220
0.0
230
1.0
 70
     8
 71
     3
 72
    12
 73
     8
 74
     0
 42
0.00000001
 43
0.00000001
 12
1.0
 22
0.0
 32
0.0
 13
1.0
 23
0.0
 33
0.0
 40
0.0
 40
0.0
 40
0.0
 40
0.0
 40
0.2500000000000014
 40
0.2500000000000014
 40
0.5000000000000029
 40
0.5000000000000029
 40
1.0
 40
1.0
 40
1.0
 40
1.0
 10
154.6942690864829
 20
24.93057639901147
 30
0.0
 10
154.7401019735568
 20
24.93057639901145
 30
0.0
 10
154.7861404895532
 20
24.95590965230465
 30
0.0
 10
154.8772142639809
 20
25.05394653938134
 30
0.0
 10
154.92244654658
 20
25.12655590831026
 30
0.0
 10
155.0573400316438
 20
25.40660260724423
 30
0.0
 10
155.146200997269
 20
25.67601643615003
 30
0.0
 10
155.2343267195344
 20
26.00237316873583
 30
0.0
  0
LINE
  5
31A
330
1F
100
AcDbEntity
  8
0
  6
Continuous
 62
     7
370
    15
100
AcDbLine
 10
154.6942697263
 20
24.9305766126
 30
0.0
 11
161.4860997892
 21
24.9305766126
 31
0.0
  0
SPLINE
  5
31B
330
1F
100
AcDbEntity
  8
0
  6
Continuous
 62
     7
370
    15
100
AcDbSpline
210
0.0
220
0.0
230
1.0
 70
     8
 71
     3
 72
    13
 73
     9
 74
     0
 42
0.00000001
 43
0.00000001
 12
1.0
 22
0.0
 32
0.0
 13
1.0
 23
0.0
 33
0.0
 40
0.0
 40
0.0
 40
0.0
 40
0.0
 40
0.1905442103842208
 40
0.3811420581390882
 40
0.5716408986573233
 40
0.7657369567641293
 40
0.9599566932531057
 40
0.9999999999999999
 40
0.9999999999999999
 40
0.9999999999999999
 40
0.9999999999999999
 10
179.1613002664525
 20
26.00237243383346
 30
0.0
 10
179.1322285162846
 20
25.89843656757923
 30
0.0
 10
179.074076832377
 20
25.69053557757417
 30
0.0
 10
178.9858161206245
 20
25.43059236426054
 30
0.0
 10
178.8962740908903
 20
25.21314028000068
 30
0.0
 10
178.8054107225599
 20
25.05722599162966
 30
0.0
 10
178.7378171906228
 20
24.97121414096878
 30
0.0
 10
178.7007259970852
 20
24.9595427426314
 30
0.0
 10
178.6943858846206
 20
24.95754771440442
 30
0.0
  0
LINE
  5
31C
330
1F
100
AcDbEntity
  8
0
  6
Continuous
 62
     7
370
    15
100
AcDbLine
 10
173.4495855293
 20
24.9305766126
 30
0.0
 11
178.6577555708
 21
24.9305766126
 31
0.0
  0
SPLINE
  5
31D
330
1F
100
AcDbEntity
  8
0
  6
Continuous
 62
     7
370
    15
100
AcDbSpline
210
0.0
220
0.0
230
1.0
 70
     8
 71
     3
 72
    12
 73
     8
 74
     0
 42
0.00000001
 43
0.00000001
 12
1.0
 22
0.0
 32
0.0
 13
1.0
 23
0.0
 33
0.0
 40
0.0
 40
0.0
 40
0.0
 40
0.0
 40
0.213476444112887
 40
0.4270142251581084
 40
0.6404405035723078
 40
0.8578981867238054
 40
1.0
 40
1.0
 40
1.0
 40
1.0
 10
153.8510074264485
 20
255.8587815663141
 30
0.0
 10
153.900043547019
 20
255.9626636560103
 30
0.0
 10
153.9981298774203
 20
256.1704576832333
 30
0.0
 10
154.1469934605535
 20
256.4312083216338
 30
0.0
 10
154.2980501691292
 20
256.645524292953
 30
0.0
 10
154.4333824101794
 20
256.7938876841075
 30
0.0
 10
154.5188840083299
 20
256.8427933882158
 30
0.0
 10
154.5526751673895
 20
256.8621214529794
 30
0.0
  0
LINE
  5
31E
330
1F
100
AcDbEntity
  8
0
  6
Continuous
 62
     7
370
    15
100
AcDbLine
 10
159.3434580959
 20
256.9305773875
 30
0.0
 11
154.6577562935
 21
256.9305773875
 31
0.0
  0
SPLINE
  5
31F
330
1F
100
AcDbEntity
  8
0
  6
Continuous
 62
     7
370
    15
100
AcDbSpline
210
0.0
220
0.0
230
1.0
 70
     8
 71
     3
 72
    12
 73
     8
 74
     0
 42
0.00000001
 43
0.00000001
 12
1.0
 22
0.0
 32
0.0
 13
1.0
 23
0.0
 33
0.0
 40
0.0
 40
0.0
 40
0.0
 40
0.0
 40
0.0872184219330597
 40
0.3123254597332856
 40
0.5415004920927646
 40
0.7707782682905888
 40
1.0
 40
1.0
 40
1.0
 40
1.0
 10
215.6815802103955
 20
25.05580597131668
 30
0.0
 10
215.6561954636502
 20
25.06886096819316
 30
0.0
 10
215.565293765113
 20
25.11561035680734
 30
0.0
 10
215.4088090922029
 20
25.25022685610756
 30
0.0
 10
215.2125699261315
 20
25.45609201353746
 30
0.0
 10
215.0167611366622
 20
25.7066973138135
 30
0.0
 10
214.8876646615488
 20
25.90382209231404
 30
0.0
 10
214.8231243140179
 20
26.00237243383344
 30
0.0
  0
LINE
  5
320
330
1F
100
AcDbEntity
  8
0
  6
Continuous
 62
     7
370
    15
100
AcDbLine
 10
215.8871044762
 20
24.9305766126
 30
0.0
 11
220.0890754706
 21
24.9305766126
 31
0.0
  0
SPLINE
  5
321
330
1F
100
AcDbEntity
  8
0
  6
Continuous
 62
     7
370
    15
100
AcDbSpline
210
0.0
220
0.0
230
1.0
 70
     8
 71
     3
 72
    12
 73
     8
 74
     0
 42
0.00000001
 43
0.00000001
 12
1.0
 22
0.0
 32
0.0
 13
1.0
 23
0.0
 33
0.0
 40
0.0
 40
0.0
 40
0.0
 40
0.0
 40
0.25
 40
0.25
 40
0.5
 40
0.5
 40
1.0
 40
1.0
 40
1.0
 40
1.0
 10
239.6850468919495
 20
24.93057639901147
 30
0.0
 10
239.7924914066176
 20
24.93057639901145
 30
0.0
 10
239.9004179703378
 20
24.95590965230465
 30
0.0
 10
240.1139191943955
 20
25.05394653938137
 30
0.0
 10
240.2199557319441
 20
25.12655590831026
 30
0.0
 10
240.5361820480213
 20
25.4066026072442
 30
0.0
 10
240.7444958579092
 20
25.67601643615
 30
0.0
 10
240.9510860612123
 20
26.00237316873583
 30
0.0
  0
LINE
  5
322
330
1F
100
AcDbEntity
  8
0
  6
Continuous
 62
     7
370
    15
100
AcDbLine
 10
240.9510848469
 20
26.0023724338
 30
0.0
 11
240.9510848469
 21
38.9305751821
 31
0.0
  0
SPLINE
  5
323
330
1F
100
AcDbEntity
  8
0
  6
Continuous
 62
     7
370
    15
100
AcDbSpline
210
0.0
220
0.0
230
1.0
 70
     8
 71
     3
 72
    10
 73
     6
 74
     0
 42
0.00000001
 43
0.00000001
 12
1.0
 22
0.0
 32
0.0
 13
1.0
 23
0.0
 33
0.0
 40
0.0
 40
0.0
 40
0.0
 40
0.0
 40
0.5
 40
0.5
 40
1.0
 40
1.0
 40
1.0
 40
1.0
 10
179.4645041283528
 20
255.8587796292873
 30
0.0
 10
179.3154890454898
 20
256.1859533903987
 30
0.0
 10
179.1653854991484
 20
256.4554959343171
 30
0.0
 10
178.8620403326314
 20
256.8284284425753
 30
0.0
 10
178.7087752550257
 20
256.9305763990114
 30
0.0
 10
178.5535809396669
 20
256.9305763990114
 30
0.0
  0
LINE
  5
324
330
1F
100
AcDbEntity
  8
0
  6
Continuous
 62
     7
370
    15
100
AcDbLine
 10
179.4645039722
 20
255.8587815663
 30
0.0
 11
179.4645039722
 21
242.930578818
 31
0.0
  0
LINE
  5
325
330
1F
100
AcDbEntity
  8
0
  6
Continuous
 62
     7
370
    15
100
AcDbLine
 10
235.3599083967
 20
305.9305798313
 30
0.0
 11
219.8871051318
 21
305.9305798313
 31
0.0
  0
LINE
  5
326
330
1F
100
AcDbEntity
  8
0
  6
Continuous
 62
     7
370
    15
100
AcDbLine
 10
235.8871040291
 20
305.9305798313
 30
0.0
 11
235.3599083967
 21
305.9305798313
 31
0.0
  0
LINE
  5
327
330
1F
100
AcDbEntity
  8
0
  6
Continuous
 62
     7
370
    15
100
AcDbLine
 10
169.9222674019
 20
305.9305798313
 30
0.0
 11
158.6577550865
 21
305.9305798313
 31
0.0
  0
LINE
  5
328
330
1F
100
AcDbEntity
  8
0
  6
Continuous
 62
     7
370
    15
100
AcDbLine
 10
174.6577558464
 20
305.9305798313
 30
0.0
 11
169.9222674019
 21
305.9305798313
 31
0.0
  0
LINE
  5
329
330
1F
100
AcDbEntity
  8
0
  6
Continuous
 62
     7
370
    15
100
AcDbLine
 10
235.3599083967
 20
-24.0694183806
 30
0.0
 11
219.8871051318
 21
-24.0694183806
 31
0.0
  0
LINE
  5
32A
330
1F
100
AcDbEntity
  8
0
  6
Continuous
 62
     7
370
    15
100
AcDbLine
 10
235.8871040291
 20
-24.0694183806
 30
0.0
 11
235.3599083967
 21
-24.0694183806
 31
0.0
  0
LINE
  5
32B
330
1F
100
AcDbEntity
  8
0
  6
Continuous
 62
     7
370
    15
100
AcDbLine
 10
169.9222674019
 20
-24.0694183806
 30
0.0
 11
158.6577550865
 21
-24.0694183806
 31
0.0
  0
LINE
  5
32C
330
1F
100
AcDbEntity
  8
0
  6
Continuous
 62
     7
370
    15
100
AcDbLine
 10
174.6577558464
 20
-24.0694183806
 30
0.0
 11
169.9222674019
 21
-24.0694183806
 31
0.0
  0
SPLINE
  5
32D
330
1F
100
AcDbEntity
  8
0
  6
Continuous
 62
     7
370
    15
100
AcDbSpline
210
0.0
220
0.0
230
1.0
 70
     8
 71
     3
 72
    10
 73
     6
 74
     0
 42
0.00000001
 43
0.00000001
 12
1.0
 22
0.0
 32
0.0
 13
1.0
 23
0.0
 33
0.0
 40
0.0
 40
0.0
 40
0.0
 40
0.0
 40
0.5
 40
0.5
 40
1.0
 40
1.0
 40
1.0
 40
1.0
 10
154.1542114534314
 20
26.00237316873569
 30
0.0
 10
154.2425577969426
 20
25.67519940762419
 30
0.0
 10
154.331549456126
 20
25.40565686370585
 30
0.0
 10
154.5113932395114
 20
25.03272435544762
 30
0.0
 10
154.602259270884
 20
24.93057639901145
 30
0.0
 10
154.6942690864829
 20
24.93057639901147
 30
0.0
  0
LINE
  5
32E
330
1F
100
AcDbEntity
  8
0
  6
Continuous
 62
     7
370
    15
100
AcDbLine
 10
154.1542106665
 20
26.0023724338
 30
0.0
 11
154.1542106665
 21
38.9305751821
 31
0.0
  0
SPLINE
  5
32F
330
1F
100
AcDbEntity
  8
0
  6
Continuous
 62
     7
370
    15
100
AcDbSpline
210
0.0
220
0.0
230
1.0
 70
     8
 71
     3
 72
     9
 73
     5
 74
     0
 42
0.00000001
 43
0.00000001
 12
1.0
 22
0.0
 32
0.0
 13
1.0
 23
0.0
 33
0.0
 40
0.0
 40
0.0
 40
0.0
 40
0.0
 40
0.5789186368434189
 40
1.0
 40
1.0
 40
1.0
 40
1.0
 10
214.147507528134
 20
255.8587815663141
 30
0.0
 10
214.2904577629259
 20
255.9638778239025
 30
0.0
 10
214.5373840591173
 20
256.1454167326539
 30
0.0
 10
214.7877868699364
 20
256.2907785133305
 30
0.0
 10
214.8932268268544
 20
256.3519876500886
 30
0.0
  0
LINE
  5
330
330
1F
100
AcDbEntity
  8
0
  6
Continuous
 62
     7
370
    15
100
AcDbLine
 10
218.3598366923
 20
256.9305773875
 30
0.0
 11
215.8871044762
 21
256.9305773875
 31
0.0
  0
LINE
  5
331
330
1F
100
AcDbEntity
  8
0
  6
Continuous
 62
     7
370
    15
100
AcDbLine
 10
239.8871046848
 20
256.9305773875
 30
0.0
 11
238.9692341334
 21
256.9305773875
 31
0.0
  0
LINE
  5
332
330
1F
100
AcDbEntity
  8
0
  6
Continuous
 62
     7
370
    15
100
AcDbLine
 10
239.6850486643
 20
24.9305766126
 30
0.0
 11
239.8871046848
 21
24.9305766126
 31
0.0
  0
LINE
  5
333
330
1F
100
AcDbEntity
  8
0
  6
Continuous
 62
     7
370
    15
100
AcDbLine
 10
178.6577555708
 20
256.9305773875
 30
0.0
 11
178.5535810872
 21
256.9305773875
 31
0.0
  0
LINE
  5
334
330
1F
100
AcDbEntity
  8
0
  6
Continuous
 62
     7
370
    15
100
AcDbLine
 10
154.6577562935
 20
24.9305766126
 30
0.0
 11
154.6942697263
 21
24.9305766126
 31
0.0
  0
LINE
  5
335
330
1F
100
AcDbEntity
  8
0
  6
Continuous
 62
     7
370
    15
100
AcDbLine
 10
143.6903675444
 20
163.4340751268
 30
0.0
 11
158.6577550865
 21
163.4340751268
 31
0.0
  0
LINE
  5
336
330
1F
100
AcDbEntity
  8
0
  6
Continuous
 62
     7
370
    15
100
AcDbLine
 10
174.6577558464
 20
163.4340751268
 30
0.0
 11
219.8871051318
 21
163.4340751268
 31
0.0
  0
LINE
  5
337
330
1F
100
AcDbEntity
  8
0
  6
Continuous
 62
     7
370
    15
100
AcDbLine
 10
235.8871040291
 20
163.4340751268
 30
0.0
 11
250.8544934339
 21
163.4340751268
 31
0.0
  0
LINE
  5
338
330
1F
100
AcDbEntity
  8
0
  6
Continuous
 62
     7
370
    15
100
AcDbLine
 10
253.9327902145
 20
242.930578818
 30
0.0
 11
288.4327930755
 21
242.930578818
 31
0.0
  0
LINE
  5
339
330
1F
100
AcDbEntity
  8
0
  6
Continuous
 62
     7
370
    15
100
AcDbLine
 10
288.4327930755
 20
38.9305751821
 30
0.0
 11
253.9327902145
 21
38.9305751821
 31
0.0
  0
LINE
  5
33A
330
1F
100
AcDbEntity
  8
0
  6
Continuous
 62
     7
370
    15
100
AcDbLine
 10
106.1120641775
 20
242.930578818
 30
0.0
 11
140.6120670385
 21
242.930578818
 31
0.0
  0
LINE
  5
33B
330
1F
100
AcDbEntity
  8
0
  6
Continuous
 62
     7
370
    15
100
AcDbLine
 10
140.6120670385
 20
38.9305751821
 30
0.0
 11
106.1120641775
 21
38.9305751821
 31
0.0
  0
SPLINE
  5
33C
330
1F
100
AcDbEntity
  8
0
  6
Continuous
 62
     7
370
    15
100
AcDbSpline
210
0.0
220
0.0
230
1.0
 70
     8
 71
     3
 72
    12
 73
     8
 74
     0
 42
0.00000001
 43
0.00000001
 12
1.0
 22
0.0
 32
0.0
 13
1.0
 23
0.0
 33
0.0
 40
0.0
 40
0.0
 40
0.0
 40
0.0
 40
0.2500000000000007
 40
0.2500000000000007
 40
0.5000000000000014
 40
0.5000000000000014
 40
1.0
 40
1.0
 40
1.0
 40
1.0
 10
121.1692235773999
 20
24.93057639901147
 30
0.0
 10
121.7472966424082
 20
24.93057639901145
 30
0.0
 10
122.3279632281177
 20
24.95590965230463
 30
0.0
 10
123.4766426870488
 20
25.05394653938137
 30
0.0
 10
124.0471405524168
 20
25.12655590831028
 30
0.0
 10
125.7485016347924
 20
25.4066026072442
 30
0.0
 10
126.8692717637978
 20
25.67601643615
 30
0.0
 10
127.980768543257
 20
26.00237316873583
 30
0.0
  0
SPLINE
  5
33D
330
1F
100
AcDbEntity
  8
0
  6
Continuous
 62
     7
370
    15
100
AcDbSpline
210
0.0
220
0.0
230
1.0
 70
     8
 71
     3
 72
    10
 73
     6
 74
     0
 42
0.00000001
 43
0.00000001
 12
1.0
 22
0.0
 32
0.0
 13
1.0
 23
0.0
 33
0.0
 40
0.0
 40
0.0
 40
0.0
 40
0.0
 40
0.5
 40
0.5
 40
1.0
 40
1.0
 40
1.0
 40
1.0
 10
114.3576786115429
 20
26.00237316873569
 30
0.0
 10
115.4719580042727
 20
25.67519940762419
 30
0.0
 10
116.5943765222534
 20
25.40565686370588
 30
0.0
 10
118.8626789077563
 20
25.03272435544759
 30
0.0
 10
120.0087381812197
 20
24.93057639901145
 30
0.0
 10
121.1692235773999
 20
24.93057639901147
 30
0.0
  0
LINE
  5
33E
330
1F
100
AcDbEntity
  8
0
  6
Continuous
 62
     7
370
    15
100
AcDbLine
 10
114.3576813287
 20
26.0023724338
 30
0.0
 11
114.3576813287
 21
38.9305751821
 31
0.0
  0
LINE
  5
33F
330
1F
100
AcDbEntity
  8
0
  6
Continuous
 62
     7
370
    15
100
AcDbLine
 10
127.980769927
 20
26.0023724338
 30
0.0
 11
127.980769927
 21
38.9305751821
 31
0.0
  0
SPLINE
  5
340
330
1F
100
AcDbEntity
  8
0
  6
Continuous
 62
     7
370
    15
100
AcDbSpline
210
0.0
220
0.0
230
1.0
 70
     8
 71
     3
 72
    10
 73
     6
 74
     0
 42
0.00000001
 43
0.00000001
 12
1.0
 22
0.0
 32
0.0
 13
1.0
 23
0.0
 33
0.0
 40
0.0
 40
0.0
 40
0.0
 40
0.0
 40
0.5
 40
0.5
 40
1.0
 40
1.0
 40
1.0
 40
1.0
 10
127.980768543257
 20
26.00237316873569
 30
0.0
 10
128.7172685079143
 20
25.67519940762419
 30
0.0
 10
129.459148151581
 20
25.40565686370588
 30
0.0
 10
130.9584172196935
 20
25.03272435544759
 30
0.0
 10
131.7159225813722
 20
24.93057639901145
 30
0.0
 10
132.4829631089532
 20
24.93057639901147
 30
0.0
  0
LINE
  5
341
330
1F
100
AcDbEntity
  8
0
  6
Continuous
 62
     7
370
    15
100
AcDbLine
 10
121.1692256278
 20
24.9305766126
 30
0.0
 11
132.4829620666
 21
24.9305766126
 31
0.0
  0
SPLINE
  5
342
330
1F
100
AcDbEntity
  8
0
  6
Continuous
 62
     7
370
    15
100
AcDbSpline
210
0.0
220
0.0
230
1.0
 70
     8
 71
     3
 72
    12
 73
     8
 74
     0
 42
0.00000001
 43
0.00000001
 12
1.0
 22
0.0
 32
0.0
 13
1.0
 23
0.0
 33
0.0
 40
0.0
 40
0.0
 40
0.0
 40
0.0
 40
0.2500000000000005
 40
0.2500000000000005
 40
0.500000000000001
 40
0.500000000000001
 40
1.0
 40
1.0
 40
1.0
 40
1.0
 10
280.6959971316627
 20
256.9305763990114
 30
0.0
 10
280.3389838410292
 20
256.9305763990114
 30
0.0
 10
279.9808269916423
 20
256.9056849915514
 30
0.0
 10
279.262255693293
 20
256.8067618672677
 30
0.0
 10
278.9055975954284
 20
256.7332413500777
 30
0.0
 10
277.8476847667814
 20
256.4514867019242
 30
0.0
 10
277.1559068290061
 20
256.1821684791627
 30
0.0
 10
276.4730855729576
 20
255.8587796292869
 30
0.0
  0
SPLINE
  5
343
330
1F
100
AcDbEntity
  8
0
  6
Continuous
 62
     7
370
    15
100
AcDbSpline
210
0.0
220
0.0
230
1.0
 70
     8
 71
     3
 72
    10
 73
     6
 74
     0
 42
0.00000001
 43
0.00000001
 12
1.0
 22
0.0
 32
0.0
 13
1.0
 23
0.0
 33
0.0
 40
0.0
 40
0.0
 40
0.0
 40
0.0
 40
0.5
 40
0.5
 40
1.0
 40
1.0
 40
1.0
 40
1.0
 10
276.4730855729576
 20
255.8587796292873
 30
0.0
 10
275.3495614100677
 20
256.1859533903987
 30
0.0
 10
274.2178305945699
 20
256.4554959343171
 30
0.0
 10
271.9307089305768
 20
256.8284284425753
 30
0.0
 10
270.7751412208611
 20
256.9305763990114
 30
0.0
 10
269.6050277001442
 20
256.9305763990114
 30
0.0
  0
LINE
  5
344
330
1F
100
AcDbEntity
  8
0
  6
Continuous
 62
     7
370
    15
100
AcDbLine
 10
280.695998425
 20
256.9305773875
 30
0.0
 11
269.6050268955
 21
256.9305773875
 31
0.0
  0
SPLINE
  5
345
330
1F
100
AcDbEntity
  8
0
  6
Continuous
 62
     7
370
    15
100
AcDbSpline
210
0.0
220
0.0
230
1.0
 70
     8
 71
     3
 72
    12
 73
     8
 74
     0
 42
0.00000001
 43
0.00000001
 12
1.0
 22
0.0
 32
0.0
 13
1.0
 23
0.0
 33
0.0
 40
0.0
 40
0.0
 40
0.0
 40
0.0
 40
0.2500000000000019
 40
0.2500000000000019
 40
0.5000000000000038
 40
0.5000000000000038
 40
1.0
 40
1.0
 40
1.0
 40
1.0
 10
269.6050277001442
 20
256.9305763990114
 30
0.0
 10
269.0221585735228
 20
256.9305763990114
 30
0.0
 10
268.4366744087038
 20
256.9052431457183
 30
0.0
 10
267.2784647747962
 20
256.8072062586415
 30
0.0
 10
266.7032336964867
 20
256.7345968897127
 30
0.0
 10
264.9877570410612
 20
256.4545501907787
 30
0.0
 10
263.8576882906216
 20
256.1851363618729
 30
0.0
 10
262.7369698273308
 20
255.8587796292871
 30
0.0
  0
LINE
  5
346
330
1F
100
AcDbEntity
  8
0
  6
Continuous
 62
     7
370
    15
100
AcDbLine
 10
276.4730838484
 20
255.8587815663
 30
0.0
 11
276.4730838484
 21
242.930578818
 31
0.0
  0
LINE
  5
347
330
1F
100
AcDbEntity
  8
0
  6
Continuous
 62
     7
370
    15
100
AcDbLine
 10
262.7369699425
 20
255.8587815663
 30
0.0
 11
262.7369699425
 21
242.930578818
 31
0.0
  0
SPLINE
  5
348
330
1F
100
AcDbEntity
  8
0
  6
Continuous
 62
     7
370
    15
100
AcDbSpline
210
0.0
220
0.0
230
1.0
 70
     8
 71
     3
 72
    10
 73
     6
 74
     0
 42
0.00000001
 43
0.00000001
 12
1.0
 22
0.0
 32
0.0
 13
1.0
 23
0.0
 33
0.0
 40
0.0
 40
0.0
 40
0.0
 40
0.0
 40
0.5
 40
0.5
 40
1.0
 40
1.0
 40
1.0
 40
1.0
 10
125.1574676362016
 20
255.8587796292872
 30
0.0
 10
124.1107945722589
 20
256.1859533903987
 30
0.0
 10
123.056476205693
 20
256.4554959343171
 30
0.0
 10
120.9257978289112
 20
256.8284284425753
 30
0.0
 10
119.8492730551046
 20
256.9305763990114
 30
0.0
 10
118.7591974302606
 20
256.9305763990114
 30
0.0
  0
LINE
  5
349
330
1F
100
AcDbEntity
  8
0
  6
Continuous
 62
     7
370
    15
100
AcDbLine
 10
130.6580392069
 20
256.9305773875
 30
0.0
 11
118.7591937727
 21
256.9305773875
 31
0.0
  0
SPLINE
  5
34A
330
1F
100
AcDbEntity
  8
0
  6
Continuous
 62
     7
370
    15
100
AcDbSpline
210
0.0
220
0.0
230
1.0
 70
     8
 71
     3
 72
    12
 73
     8
 74
     0
 42
0.00000001
 43
0.00000001
 12
1.0
 22
0.0
 32
0.0
 13
1.0
 23
0.0
 33
0.0
 40
0.0
 40
0.0
 40
0.0
 40
0.0
 40
0.2499999999999997
 40
0.2499999999999997
 40
0.4999999999999993
 40
0.4999999999999993
 40
1.0
 40
1.0
 40
1.0
 40
1.0
 10
130.6580378955095
 20
256.9305763990114
 30
0.0
 10
130.1912228740966
 20
256.9305763990114
 30
0.0
 10
129.722313490405
 20
256.9052431457183
 30
0.0
 10
128.7947130560035
 20
256.8072062586415
 30
0.0
 10
128.3340152837695
 20
256.7345968897127
 30
0.0
 10
126.9601043403685
 20
256.4545501907787
 30
0.0
 10
126.0550417047947
 20
256.1851363618729
 30
0.0
 10
125.1574676362015
 20
255.8587796292871
 30
0.0
  0
SPLINE
  5
34B
330
1F
100
AcDbEntity
  8
0
  6
Continuous
 62
     7
370
    15
100
AcDbSpline
210
0.0
220
0.0
230
1.0
 70
     8
 71
     3
 72
    12
 73
     8
 74
     0
 42
0.00000001
 43
0.00000001
 12
1.0
 22
0.0
 32
0.0
 13
1.0
 23
0.0
 33
0.0
 40
0.0
 40
0.0
 40
0.0
 40
0.0
 40
0.2500000000000002
 40
0.2500000000000002
 40
0.5000000000000004
 40
0.5000000000000004
 40
1.0
 40
1.0
 40
1.0
 40
1.0
 10
118.7591974302606
 20
256.9305763990114
 30
0.0
 10
118.2161976134438
 20
256.9305763990115
 30
0.0
 10
117.6707616318048
 20
256.9052431457183
 30
0.0
 10
116.5917756462325
 20
256.8072062586415
 30
0.0
 10
116.0558914213124
 20
256.7345968897127
 30
0.0
 10
114.4577564934103
 20
256.4545501907787
 30
0.0
 10
113.4049865036255
 20
256.1851363618729
 30
0.0
 10
112.3609272243196
 20
255.8587796292871
 30
0.0
  0
LINE
  5
34C
330
1F
100
AcDbEntity
  8
0
  6
Continuous
 62
     7
370
    15
100
AcDbLine
 10
125.1574692673
 20
255.8587815663
 30
0.0
 11
125.1574692673
 21
242.930578818
 31
0.0
  0
LINE
  5
34D
330
1F
100
AcDbEntity
  8
0
  6
Continuous
 62
     7
370
    15
100
AcDbLine
 10
112.3609257287
 20
255.8587815663
 30
0.0
 11
112.3609257287
 21
242.930578818
 31
0.0
  0
SPLINE
  5
34E
330
1F
100
AcDbEntity
  8
0
  6
Continuous
 62
     7
370
    15
100
AcDbSpline
210
0.0
220
0.0
230
1.0
 70
     8
 71
     3
 72
    10
 73
     6
 74
     0
 42
0.00000001
 43
0.00000001
 12
1.0
 22
0.0
 32
0.0
 13
1.0
 23
0.0
 33
0.0
 40
0.0
 40
0.0
 40
0.0
 40
0.0
 40
0.5
 40
0.5
 40
1.0
 40
1.0
 40
1.0
 40
1.0
 10
136.1586081548174
 20
255.8587796292873
 30
0.0
 10
135.2587870248195
 20
256.1859533903987
 30
0.0
 10
134.352393255205
 20
256.4554959343171
 30
0.0
 10
132.5206565929125
 20
256.8284284425753
 30
0.0
 10
131.5951720535583
 20
256.9305763990114
 30
0.0
 10
130.6580378955095
 20
256.9305763990114
 30
0.0
  0
LINE
  5
34F
330
1F
100
AcDbEntity
  8
0
  6
Continuous
 62
     7
370
    15
100
AcDbLine
 10
136.1586091465
 20
255.8587815663
 30
0.0
 11
136.1586091465
 21
242.930578818
 31
0.0
  0
SPLINE
  5
350
330
1F
100
AcDbEntity
  8
0
  6
Continuous
 62
     7
370
    15
100
AcDbSpline
210
0.0
220
0.0
230
1.0
 70
     8
 71
     3
 72
    12
 73
     8
 74
     0
 42
0.00000001
 43
0.00000001
 12
1.0
 22
0.0
 32
0.0
 13
1.0
 23
0.0
 33
0.0
 40
0.0
 40
0.0
 40
0.0
 40
0.0
 40
0.2500000000000009
 40
0.2500000000000009
 40
0.5000000000000018
 40
0.5000000000000018
 40
1.0
 40
1.0
 40
1.0
 40
1.0
 10
272.1182002042015
 20
24.93057639901147
 30
0.0
 10
272.704384593863
 20
24.93057639901142
 30
0.0
 10
273.2931988956261
 20
24.95590965230463
 30
0.0
 10
274.4579962340743
 20
25.05394653938142
 30
0.0
 10
275.0364991314703
 20
25.12655590831028
 30
0.0
 10
276.7617331339435
 20
25.4066026072442
 30
0.0
 10
277.89822952824
 20
25.67601643614997
 30
0.0
 10
279.0253224525032
 20
26.00237316873583
 30
0.0
  0
SPLINE
  5
351
330
1F
100
AcDbEntity
  8
0
  6
Continuous
 62
     7
370
    15
100
AcDbSpline
210
0.0
220
0.0
230
1.0
 70
     8
 71
     3
 72
    10
 73
     6
 74
     0
 42
0.00000001
 43
0.00000001
 12
1.0
 22
0.0
 32
0.0
 13
1.0
 23
0.0
 33
0.0
 40
0.0
 40
0.0
 40
0.0
 40
0.0
 40
0.5
 40
0.5
 40
1.0
 40
1.0
 40
1.0
 40
1.0
 10
265.2110779558999
 20
26.00237316873569
 30
0.0
 10
266.3409925381169
 20
25.67519940762419
 30
0.0
 10
267.4791604510222
 20
25.40565686370588
 30
0.0
 10
269.7792908841789
 20
25.03272435544759
 30
0.0
 10
270.9414312716078
 20
24.93057639901145
 30
0.0
 10
272.1182002042015
 20
24.93057639901147
 30
0.0
  0
LINE
  5
352
330
1F
100
AcDbEntity
  8
0
  6
Continuous
 62
     7
370
    15
100
AcDbLine
 10
265.2110767908
 20
26.0023724338
 30
0.0
 11
265.2110767908
 21
38.9305751821
 31
0.0
  0
LINE
  5
353
330
1F
100
AcDbEntity
  8
0
  6
Continuous
 62
     7
370
    15
100
AcDbLine
 10
279.0253249354
 20
26.0023724338
 30
0.0
 11
279.0253249354
 21
38.9305751821
 31
0.0
  0
LINE
  5
354
330
1F
100
AcDbEntity
  8
0
  6
Continuous
 62
     7
370
    15
100
AcDbLine
 10
261.2898138709
 20
24.9305766126
 30
0.0
 11
272.1181971378
 21
24.9305766126
 31
0.0
  0
SPLINE
  5
355
330
1F
100
AcDbEntity
  8
0
  6
Continuous
 62
     7
370
    15
100
AcDbSpline
210
0.0
220
0.0
230
1.0
 70
     8
 71
     3
 72
    12
 73
     8
 74
     0
 42
0.00000001
 43
0.00000001
 12
1.0
 22
0.0
 32
0.0
 13
1.0
 23
0.0
 33
0.0
 40
0.0
 40
0.0
 40
0.0
 40
0.0
 40
0.2500000000000008
 40
0.2500000000000008
 40
0.5000000000000017
 40
0.5000000000000017
 40
1.0
 40
1.0
 40
1.0
 40
1.0
 10
261.2898132020189
 20
24.93057639901147
 30
0.0
 10
261.6225978413844
 20
24.93057639901145
 30
0.0
 10
261.9568755166713
 20
24.95590965230465
 30
0.0
 10
262.6181463881685
 20
25.05394653938134
 30
0.0
 10
262.9465701426683
 20
25.12655590831026
 30
0.0
 10
263.9260083287753
 20
25.4066026072442
 30
0.0
 10
264.5712123795597
 20
25.67601643615
 30
0.0
 10
265.2110779559
 20
26.00237316873583
 30
0.0
  0
SPLINE
  5
356
330
1F
100
AcDbEntity
  8
0
  6
Continuous
 62
     7
370
    15
100
AcDbSpline
210
0.0
220
0.0
230
1.0
 70
     8
 71
     3
 72
    12
 73
     8
 74
     0
 42
0.00000001
 43
0.00000001
 12
1.0
 22
0.0
 32
0.0
 13
1.0
 23
0.0
 33
0.0
 40
0.0
 40
0.0
 40
0.0
 40
0.0
 40
0.25
 40
0.25
 40
0.5
 40
0.5
 40
1.0
 40
1.0
 40
1.0
 40
1.0
 10
132.4829631089532
 20
24.93057639901147
 30
0.0
 10
132.8650493206572
 20
24.93057639901145
 30
0.0
 10
133.2488497594368
 20
24.95590965230465
 30
0.0
 10
134.0080869726754
 20
25.05394653938137
 30
0.0
 10
134.3851662406058
 20
25.12655590831026
 30
0.0
 10
135.5097068048617
 20
25.4066026072442
 30
0.0
 10
136.2504969206864
 20
25.67601643615
 30
0.0
 10
136.9851576746495
 20
26.00237316873583
 30
0.0
  0
LINE
  5
357
330
1F
100
AcDbEntity
  8
0
  6
Continuous
 62
     7
370
    15
100
AcDbLine
 10
136.9851579315
 20
26.0023724338
 30
0.0
 11
136.9851579315
 21
38.9305751821
 31
0.0
  0
SPLINE
  5
358
330
1F
100
AcDbEntity
  8
0
  6
Continuous
 62
     7
370
    15
100
AcDbSpline
210
0.0
220
0.0
230
1.0
 70
     8
 71
     3
 72
    10
 73
     6
 74
     0
 42
0.00000001
 43
0.00000001
 12
1.0
 22
0.0
 32
0.0
 13
1.0
 23
0.0
 33
0.0
 40
0.0
 40
0.0
 40
0.0
 40
0.0
 40
0.5
 40
0.5
 40
1.0
 40
1.0
 40
1.0
 40
1.0
 10
279.0253224525031
 20
26.00237316873591
 30
0.0
 10
279.5109479836544
 20
25.67708937199831
 30
0.0
 10
280.0083237951312
 20
25.40426241479926
 30
0.0
 10
281.0053272613264
 20
25.03120945225654
 30
0.0
 10
281.5066191348061
 20
24.93057639901147
 30
0.0
 10
282.0111799469237
 20
24.93057639901147
 30
0.0
  0
LINE
  5
359
330
1F
100
AcDbEntity
  8
0
  6
Continuous
 62
     7
370
    15
100
AcDbLine
 10
272.1181971378
 20
24.9305766126
 30
0.0
 11
282.0111823625
 21
24.9305766126
 31
0.0
  0
SPLINE
  5
35A
330
1F
100
AcDbEntity
  8
0
  6
Continuous
 62
     7
370
    15
100
AcDbSpline
210
0.0
220
0.0
230
1.0
 70
     8
 71
     3
 72
    12
 73
     8
 74
     0
 42
0.00000001
 43
0.00000001
 12
1.0
 22
0.0
 32
0.0
 13
1.0
 23
0.0
 33
0.0
 40
0.0
 40
0.0
 40
0.0
 40
0.0
 40
0.2499999999999996
 40
0.2499999999999996
 40
0.4999999999999991
 40
0.4999999999999991
 40
1.0
 40
1.0
 40
1.0
 40
1.0
 10
112.0483282113821
 20
24.93057639901147
 30
0.0
 10
112.2435652591218
 20
24.93057639901147
 30
0.0
 10
112.4394276758345
 20
24.95546780647148
 30
0.0
 10
112.8323871049672
 20
25.05439093075518
 30
0.0
 10
113.0274299112335
 20
25.12791144794532
 30
0.0
 10
113.6059623716483
 20
25.40966609609871
 30
0.0
 10
113.9842695266087
 20
25.67898431886015
 30
0.0
 10
114.3576786115429
 20
26.00237316873596
 30
0.0
  0
LINE
  5
35B
330
1F
100
AcDbEntity
  8
0
  6
Continuous
 62
     7
370
    15
100
AcDbLine
 10
112.0483291692
 20
24.9305766126
 30
0.0
 11
121.1692256278
 21
24.9305766126
 31
0.0
  0
SPLINE
  5
35C
330
1F
100
AcDbEntity
  8
0
  6
Continuous
 62
     7
370
    15
100
AcDbSpline
210
0.0
220
0.0
230
1.0
 70
     8
 71
     3
 72
    10
 73
     6
 74
     0
 42
0.00000001
 43
0.00000001
 12
1.0
 22
0.0
 32
0.0
 13
1.0
 23
0.0
 33
0.0
 40
0.0
 40
0.0
 40
0.0
 40
0.0
 40
0.5
 40
0.5
 40
1.0
 40
1.0
 40
1.0
 40
1.0
 10
262.7369698273309
 20
255.8587796292873
 30
0.0
 10
262.3042585931923
 20
256.1859533903987
 30
0.0
 10
261.8683866697733
 20
256.4554959343171
 30
0.0
 10
260.9875304580956
 20
256.8284284425753
 30
0.0
 10
260.5424780539574
 20
256.9305763990114
 30
0.0
 10
260.0918235132225
 20
256.9305763990114
 30
0.0
  0
LINE
  5
35D
330
1F
100
AcDbEntity
  8
0
  6
Continuous
 62
     7
370
    15
100
AcDbLine
 10
269.6050268955
 20
256.9305773875
 30
0.0
 11
260.0918201155
 21
256.9305773875
 31
0.0
  0
SPLINE
  5
35E
330
1F
100
AcDbEntity
  8
0
  6
Continuous
 62
     7
370
    15
100
AcDbSpline
210
0.0
220
0.0
230
1.0
 70
     8
 71
     3
 72
    10
 73
     6
 74
     0
 42
0.00000001
 43
0.00000001
 12
1.0
 22
0.0
 32
0.0
 13
1.0
 23
0.0
 33
0.0
 40
0.0
 40
0.0
 40
0.0
 40
0.0
 40
0.5
 40
0.5
 40
1.0
 40
1.0
 40
1.0
 40
1.0
 10
284.9189086903679
 20
255.858779629287
 30
0.0
 10
284.2320863378166
 20
256.1840634260246
 30
0.0
 10
283.528645511444
 20
256.4568903832236
 30
0.0
 10
282.1185790667685
 20
256.8299433457664
 30
0.0
 10
281.4095997364564
 20
256.9305763990114
 30
0.0
 10
280.6959971316627
 20
256.9305763990114
 30
0.0
  0
LINE
  5
35F
330
1F
100
AcDbEntity
  8
0
  6
Continuous
 62
     7
370
    15
100
AcDbLine
 10
284.9189055509
 20
255.8587815663
 30
0.0
 11
284.9189055509
 21
242.930578818
 31
0.0
  0
SPLINE
  5
360
330
1F
100
AcDbEntity
  8
0
  6
Continuous
 62
     7
370
    15
100
AcDbSpline
210
0.0
220
0.0
230
1.0
 70
     8
 71
     3
 72
    10
 73
     6
 74
     0
 42
0.00000001
 43
0.00000001
 12
1.0
 22
0.0
 32
0.0
 13
1.0
 23
0.0
 33
0.0
 40
0.0
 40
0.0
 40
0.0
 40
0.0
 40
0.5
 40
0.5
 40
1.0
 40
1.0
 40
1.0
 40
1.0
 10
257.3685484481379
 20
26.00237316873569
 30
0.0
 10
258.0100159170585
 20
25.67519940762419
 30
0.0
 10
258.6561689110889
 20
25.40565686370585
 30
0.0
 10
259.9619834127917
 20
25.03272435544762
 30
0.0
 10
260.6217458980159
 20
24.93057639901145
 30
0.0
 10
261.2898132020189
 20
24.93057639901147
 30
0.0
  0
LINE
  5
361
330
1F
100
AcDbEntity
  8
0
  6
Continuous
 62
     7
370
    15
100
AcDbLine
 10
257.368550951
 20
26.0023724338
 30
0.0
 11
257.368550951
 21
38.9305751821
 31
0.0
  0
SPLINE
  5
362
330
1F
100
AcDbEntity
  8
0
  6
Continuous
 62
     7
370
    15
100
AcDbSpline
210
0.0
220
0.0
230
1.0
 70
     8
 71
     3
 72
    12
 73
     8
 74
     0
 42
0.00000001
 43
0.00000001
 12
1.0
 22
0.0
 32
0.0
 13
1.0
 23
0.0
 33
0.0
 40
0.0
 40
0.0
 40
0.0
 40
0.0
 40
0.2500000000000004
 40
0.2500000000000004
 40
0.5000000000000009
 40
0.5000000000000009
 40
1.0
 40
1.0
 40
1.0
 40
1.0
 10
282.0111799469237
 20
24.93057639901147
 30
0.0
 10
282.2636102416687
 20
24.93057639901147
 30
0.0
 10
282.5168491025952
 20
24.95546780647151
 30
0.0
 10
283.0249230858234
 20
25.05439093075523
 30
0.0
 10
283.2771022374941
 20
25.12791144794529
 30
0.0
 10
284.0251114969701
 20
25.40966609609874
 30
0.0
 10
284.5142409308374
 20
25.67898431886021
 30
0.0
 10
284.9970374413443
 20
26.00237316873596
 30
0.0
  0
LINE
  5
363
330
1F
100
AcDbEntity
  8
0
  6
Continuous
 62
     7
370
    15
100
AcDbLine
 10
284.9970397896
 20
26.0023724338
 30
0.0
 11
284.9970397896
 21
38.9305751821
 31
0.0
  0
SPLINE
  5
364
330
1F
100
AcDbEntity
  8
0
  6
Continuous
 62
     7
370
    15
100
AcDbSpline
210
0.0
220
0.0
230
1.0
 70
     8
 71
     3
 72
    10
 73
     6
 74
     0
 42
0.00000001
 43
0.00000001
 12
1.0
 22
0.0
 32
0.0
 13
1.0
 23
0.0
 33
0.0
 40
0.0
 40
0.0
 40
0.0
 40
0.0
 40
0.5
 40
0.5
 40
1.0
 40
1.0
 40
1.0
 40
1.0
 10
112.3609272243196
 20
255.858779629287
 30
0.0
 10
112.2149236008336
 20
256.1840634260246
 30
0.0
 10
112.0653872481263
 20
256.4568903832236
 30
0.0
 10
111.7656375246151
 20
256.8299433457664
 30
0.0
 10
111.6149238053867
 20
256.9305763990114
 30
0.0
 10
111.4632272776865
 20
256.9305763990114
 30
0.0
  0
LINE
  5
365
330
1F
100
AcDbEntity
  8
0
  6
Continuous
 62
     7
370
    15
100
AcDbLine
 10
118.7591937727
 20
256.9305773875
 30
0.0
 11
111.4632276244
 21
256.9305773875
 31
0.0
  0
SPLINE
  5
366
330
1F
100
AcDbEntity
  8
0
  6
Continuous
 62
     7
370
    15
100
AcDbSpline
210
0.0
220
0.0
230
1.0
 70
     8
 71
     3
 72
    12
 73
     8
 74
     0
 42
0.00000001
 43
0.00000001
 12
1.0
 22
0.0
 32
0.0
 13
1.0
 23
0.0
 33
0.0
 40
0.0
 40
0.0
 40
0.0
 40
0.0
 40
0.2500000000000006
 40
0.2500000000000006
 40
0.5000000000000011
 40
0.5000000000000011
 40
1.0
 40
1.0
 40
1.0
 40
1.0
 10
260.0918235132225
 20
256.9305763990114
 30
0.0
 10
259.8673387825401
 20
256.9305763990114
 30
0.0
 10
259.6418469027075
 20
256.9052431457183
 30
0.0
 10
259.1957769946156
 20
256.8072062586415
 30
0.0
 10
258.9742339624036
 20
256.7345968897127
 30
0.0
 10
258.3135396531725
 20
256.4545501907787
 30
0.0
 10
257.8783078532561
 20
256.1851363618729
 30
0.0
 10
257.4466771991143
 20
255.8587796292871
 30
0.0
  0
LINE
  5
367
330
1F
100
AcDbEntity
  8
0
  6
Continuous
 62
     7
370
    15
100
AcDbLine
 10
257.4466777391
 20
255.8587815663
 30
0.0
 11
257.4466777391
 21
242.930578818
 31
0.0
  0
SPLINE
  5
368
330
1F
100
AcDbEntity
  8
0
  6
Continuous
 62
     7
370
    15
100
AcDbSpline
210
0.0
220
0.0
230
1.0
 70
     8
 71
     3
 72
    10
 73
     6
 74
     0
 42
0.00000001
 43
0.00000001
 12
1.0
 22
0.0
 32
0.0
 13
1.0
 23
0.0
 33
0.0
 40
0.0
 40
0.0
 40
0.0
 40
0.0
 40
0.5
 40
0.5
 40
1.0
 40
1.0
 40
1.0
 40
1.0
 10
109.7389778112213
 20
26.00237316873594
 30
0.0
 10
110.1145749443022
 20
25.67708937199831
 30
0.0
 10
110.4992600913364
 20
25.40426241479926
 30
0.0
 10
111.2703720274961
 20
25.03120945225654
 30
0.0
 10
111.6580859725792
 20
24.93057639901145
 30
0.0
 10
112.0483282113821
 20
24.93057639901147
 30
0.0
  0
LINE
  5
369
330
1F
100
AcDbEntity
  8
0
  6
Continuous
 62
     7
370
    15
100
AcDbLine
 10
109.7389770097
 20
26.0023724338
 30
0.0
 11
109.7389770097
 21
38.9305751821
 31
0.0
  0
SPLINE
  5
36A
330
1F
100
AcDbEntity
  8
0
  6
Continuous
 62
     7
370
    15
100
AcDbSpline
210
0.0
220
0.0
230
1.0
 70
     8
 71
     3
 72
    12
 73
     8
 74
     0
 42
0.00000001
 43
0.00000001
 12
1.0
 22
0.0
 32
0.0
 13
1.0
 23
0.0
 33
0.0
 40
0.0
 40
0.0
 40
0.0
 40
0.0
 40
0.1876072487111563
 40
0.4282524789559744
 40
0.6689236557948244
 40
0.8343948627497184
 40
1.0
 40
1.0
 40
1.0
 40
1.0
 10
135.4640771991688
 20
256.8651091357988
 30
0.0
 10
135.5082163673434
 20
256.8375161571332
 30
0.0
 10
135.608973178819
 20
256.774529457011
 30
0.0
 10
135.765063500689
 20
256.5855110208208
 30
0.0
 10
135.9146513323489
 20
256.3503206570427
 30
0.0
 10
136.0457530090995
 20
256.1033152443949
 30
0.0
 10
136.120980290166
 20
255.9403147718651
 30
0.0
 10
136.1586091465432
 20
255.8587815663141
 30
0.0
  0
LINE
  5
36B
330
1F
100
AcDbEntity
  8
0
  6
Continuous
 62
     7
370
    15
100
AcDbLine
 10
135.3620675749
 20
256.9305773875
 30
0.0
 11
130.6580392069
 21
256.9305773875
 31
0.0
  0
SPLINE
  5
36C
330
1F
100
AcDbEntity
  8
0
  6
Continuous
 62
     7
370
    15
100
AcDbSpline
210
0.0
220
0.0
230
1.0
 70
     8
 71
     3
 72
    12
 73
     8
 74
     0
 42
0.00000001
 43
0.00000001
 12
1.0
 22
0.0
 32
0.0
 13
1.0
 23
0.0
 33
0.0
 40
0.0
 40
0.0
 40
0.0
 40
0.0
 40
0.2499999999999985
 40
0.2499999999999985
 40
0.499999999999997
 40
0.499999999999997
 40
1.0
 40
1.0
 40
1.0
 40
1.0
 10
111.4632272776865
 20
256.9305763990114
 30
0.0
 10
111.387333949708
 20
256.9305763990114
 30
0.0
 10
111.311197525795
 20
256.9056849915514
 30
0.0
 10
111.1584447609756
 20
256.8067618672677
 30
0.0
 10
111.0826269393213
 20
256.7332413500777
 30
0.0
 10
110.8577374817476
 20
256.4514867019242
 30
0.0
 10
110.7106804076911
 20
256.1821684791627
 30
0.0
 10
110.5655273310535
 20
255.8587796292869
 30
0.0
  0
LINE
  5
36D
330
1F
100
AcDbEntity
  8
0
  6
Continuous
 62
     7
370
    15
100
AcDbLine
 10
110.56552952
 20
255.8587815663
 30
0.0
 11
110.56552952
 21
242.930578818
 31
0.0
  0
LINE
  5
36E
330
1F
100
AcDbEntity
  8
0
  6
Continuous
 62
     7
370
    15
100
AcDbLine
 10
120.5059823937
 20
305.9305798313
 30
0.0
 11
115.3620642967
 21
305.9305798313
 31
0.0
  0
LINE
  5
36F
330
1F
100
AcDbEntity
  8
0
  6
Continuous
 62
     7
370
    15
100
AcDbLine
 10
131.3620669193
 20
305.9305798313
 30
0.0
 11
120.5059823937
 21
305.9305798313
 31
0.0
  0
LINE
  5
370
330
1F
100
AcDbEntity
  8
0
  6
Continuous
 62
     7
370
    15
100
AcDbLine
 10
120.5059823937
 20
-24.0694183806
 30
0.0
 11
115.3620642967
 21
-24.0694183806
 31
0.0
  0
LINE
  5
371
330
1F
100
AcDbEntity
  8
0
  6
Continuous
 62
     7
370
    15
100
AcDbLine
 10
131.3620669193
 20
-24.0694183806
 30
0.0
 11
120.5059823937
 21
-24.0694183806
 31
0.0
  0
LINE
  5
372
330
1F
100
AcDbEntity
  8
0
  6
Continuous
 62
     7
370
    15
100
AcDbLine
 10
279.1827929563
 20
305.9305798313
 30
0.0
 11
263.1827903337
 21
305.9305798313
 31
0.0
  0
LINE
  5
373
330
1F
100
AcDbEntity
  8
0
  6
Continuous
 62
     7
370
    15
100
AcDbLine
 10
279.1827929563
 20
-24.0694183806
 30
0.0
 11
263.1827903337
 21
-24.0694183806
 31
0.0
  0
SPLINE
  5
374
330
1F
100
AcDbEntity
  8
0
  6
Continuous
 62
     7
370
    15
100
AcDbSpline
210
0.0
220
0.0
230
1.0
 70
     8
 71
     3
 72
    10
 73
     6
 74
     0
 42
0.00000001
 43
0.00000001
 12
1.0
 22
0.0
 32
0.0
 13
1.0
 23
0.0
 33
0.0
 40
0.0
 40
0.0
 40
0.0
 40
0.0
 40
0.4635442848062639
 40
0.9270492560610586
 40
1.0
 40
1.0
 40
1.0
 40
1.0
 10
136.9851579315144
 20
26.00237243383344
 30
0.0
 10
136.847932882601
 20
25.8892663070194
 30
0.0
 10
136.5734944229375
 20
25.66306364600995
 30
0.0
 10
136.2744095869657
 20
25.45000149982662
 30
0.0
 10
136.1120560194538
 20
25.36658792673629
 30
0.0
 10
136.0899781233746
 20
25.35524480550705
 30
0.0
  0
LINE
  5
375
330
1F
100
AcDbEntity
  8
0
  6
Continuous
 62
     7
370
    15
100
AcDbLine
 10
132.4829620666
 20
24.9305766126
 30
0.0
 11
135.3620675749
 21
24.9305766126
 31
0.0
  0
SPLINE
  5
376
330
1F
100
AcDbEntity
  8
0
  6
Continuous
 62
     7
370
    15
100
AcDbSpline
210
0.0
220
0.0
230
1.0
 70
     8
 71
     3
 72
     9
 73
     5
 74
     0
 42
0.00000001
 43
0.00000001
 12
1.0
 22
0.0
 32
0.0
 13
1.0
 23
0.0
 33
0.0
 40
0.0
 40
0.0
 40
0.0
 40
0.0
 40
0.4592734012995811
 40
1.0
 40
1.0
 40
1.0
 40
1.0
 10
284.1663149542291
 20
256.3599895736497
 30
0.0
 10
284.2823165735802
 20
256.2913926996072
 30
0.0
 10
284.5348929671247
 20
256.1420331376372
 30
0.0
 10
284.7841341914303
 20
255.9581902861138
 30
0.0
 10
284.9189055509049
 20
255.8587815663141
 30
0.0
  0
LINE
  5
377
330
1F
100
AcDbEntity
  8
0
  6
Continuous
 62
     7
370
    15
100
AcDbLine
 10
283.182793612
 20
256.9305773875
 30
0.0
 11
280.695998425
 21
256.9305773875
 31
0.0
  0
SPLINE
  5
378
330
1F
100
AcDbEntity
  8
0
  6
Continuous
 62
     7
370
    15
100
AcDbSpline
210
0.0
220
0.0
230
1.0
 70
     8
 71
     3
 72
     9
 73
     5
 74
     0
 42
0.00000001
 43
0.00000001
 12
1.0
 22
0.0
 32
0.0
 13
1.0
 23
0.0
 33
0.0
 40
0.0
 40
0.0
 40
0.0
 40
0.0
 40
0.2696049175997681
 40
0.9999999999999999
 40
0.9999999999999999
 40
0.9999999999999999
 40
0.9999999999999999
 10
257.8844067997414
 20
25.68339817731796
 30
0.0
 10
257.8377553897282
 20
25.70944461379143
 30
0.0
 10
257.6647191913214
 20
25.80605426284896
 30
0.0
 10
257.493562763878
 20
25.9195070650334
 30
0.0
 10
257.3685509509522
 20
26.00237243383346
 30
0.0
  0
LINE
  5
379
330
1F
100
AcDbEntity
  8
0
  6
Continuous
 62
     7
370
    15
100
AcDbLine
 10
259.182789678
 20
24.9305766126
 30
0.0
 11
261.2898138709
 21
24.9305766126
 31
0.0
  0
LINE
  5
37A
330
1F
100
AcDbEntity
  8
0
  6
Continuous
 62
     7
370
    15
100
AcDbLine
 10
104.3692541666
 20
56.1520036361
 30
0.0
 11
102.8692585773
 21
56.1520036361
 31
0.0
  0
LINE
  5
37B
330
1F
100
AcDbEntity
  8
0
  6
Continuous
 62
     7
370
    15
100
AcDbLine
 10
102.8692585773
 20
57.9305764338
 30
0.0
 11
102.8692585773
 21
56.1520036361
 31
0.0
  0
LINE
  5
37C
330
1F
100
AcDbEntity
  8
0
  6
Continuous
 62
     7
370
    15
100
AcDbLine
 10
104.3692541666
 20
57.9305764338
 30
0.0
 11
102.8692585773
 21
57.9305764338
 31
0.0
  0
LINE
  5
37D
330
1F
100
AcDbEntity
  8
0
  6
Continuous
 62
     7
370
    15
100
AcDbLine
 10
100.9172511644
 20
56.1520036361
 30
0.0
 11
102.8692585773
 21
56.1520036361
 31
0.0
  0
SPLINE
  5
37E
330
1F
100
AcDbEntity
  8
0
  6
Continuous
 62
     7
370
    15
100
AcDbSpline
210
0.0
220
0.0
230
1.0
 70
     8
 71
     3
 72
    10
 73
     6
 74
     0
 42
0.00000001
 43
0.00000001
 12
1.0
 22
0.0
 32
0.0
 13
1.0
 23
0.0
 33
0.0
 40
0.0
 40
0.0
 40
0.0
 40
0.0
 40
0.3375817073229633
 40
0.6709149037431927
 40
0.9999999999999999
 40
0.9999999999999999
 40
0.9999999999999999
 40
0.9999999999999999
 10
100.0384738579215
 20
49.35914782758265
 30
0.0
 10
100.1334579841248
 20
50.1239581876065
 30
0.0
 10
100.322230848609
 20
51.6439536670603
 30
0.0
 10
100.6152403327821
 20
53.90825401845422
 30
0.0
 10
100.817010946667
 20
55.4072924396995
 30
0.0
 10
100.9172492743614
 20
56.15200497043975
 30
0.0
  0
LINE
  5
37F
330
1F
100
AcDbEntity
  8
0
  6
Continuous
 62
     7
370
    15
100
AcDbLine
 10
99.5154691286
 20
49.3591453931
 30
0.0
 11
100.0384775347
 21
49.3591453931
 31
0.0
  0
SPLINE
  5
380
330
1F
100
AcDbEntity
  8
0
  6
Continuous
 62
     7
370
    15
100
AcDbSpline
210
0.0
220
0.0
230
1.0
 70
     8
 71
     3
 72
    10
 73
     6
 74
     0
 42
0.00000001
 43
0.00000001
 12
1.0
 22
0.0
 32
0.0
 13
1.0
 23
0.0
 33
0.0
 40
0.0
 40
0.0
 40
0.0
 40
0.0
 40
0.3380335873036442
 40
0.6713668289975253
 40
1.0
 40
1.0
 40
1.0
 40
1.0
 10
98.77927969687563
 20
56.15200497043986
 30
0.0
 10
98.85846812035908
 20
55.38625421092523
 30
0.0
 10
99.01574385497308
 20
53.8654004303334
 30
0.0
 10
99.26124370136687
 20
51.60110206320445
 30
0.0
 10
99.43113129024296
 20
50.10292012652084
 30
0.0
 10
99.5154719697329
 20
49.35914782758276
 30
0.0
  0
LINE
  5
381
330
1F
100
AcDbEntity
  8
0
  6
Continuous
 62
     7
370
    15
100
AcDbLine
 10
97.5940239973
 20
56.1520036361
 30
0.0
 11
98.7792772598
 21
56.1520036361
 31
0.0
  0
LINE
  5
382
330
1F
100
AcDbEntity
  8
0
  6
Continuous
 62
     7
370
    15
100
AcDbLine
 10
97.5940239973
 20
57.9305764338
 30
0.0
 11
97.5940239973
 21
56.1520036361
 31
0.0
  0
LINE
  5
383
330
1F
100
AcDbEntity
  8
0
  6
Continuous
 62
     7
370
    15
100
AcDbLine
 10
99.0934160895
 20
57.9305764338
 30
0.0
 11
97.5940239973
 21
57.9305764338
 31
0.0
  0
SPLINE
  5
384
330
1F
100
AcDbEntity
  8
0
  6
Continuous
 62
     7
370
    15
100
AcDbSpline
210
0.0
220
0.0
230
1.0
 70
     8
 71
     3
 72
    10
 73
     6
 74
     0
 42
0.00000001
 43
0.00000001
 12
1.0
 22
0.0
 32
0.0
 13
1.0
 23
0.0
 33
0.0
 40
0.0
 40
0.0
 40
0.0
 40
0.0
 40
0.3292912460770234
 40
0.6626245006380309
 40
1.0
 40
1.0
 40
1.0
 40
1.0
 10
99.77243034383883
 20
51.93057639901124
 30
0.0
 10
99.69498866988447
 20
52.58887386139003
 30
0.0
 10
99.5391547352023
 20
53.91354930441108
 30
0.0
 10
99.31274815533273
 20
55.91355830660426
 30
0.0
 10
99.16681769666616
 20
57.25554106944379
 30
0.0
 10
99.09341271860853
 20
57.93057639901121
 30
0.0
  0
SPLINE
  5
385
330
1F
100
AcDbEntity
  8
0
  6
Continuous
 62
     7
370
    15
100
AcDbSpline
210
0.0
220
0.0
230
1.0
 70
     8
 71
     3
 72
    10
 73
     6
 74
     0
 42
0.00000001
 43
0.00000001
 12
1.0
 22
0.0
 32
0.0
 13
1.0
 23
0.0
 33
0.0
 40
0.0
 40
0.0
 40
0.0
 40
0.0
 40
0.3295038435101977
 40
0.6628370791968891
 40
1.0
 40
1.0
 40
1.0
 40
1.0
 10
100.5189136162157
 20
57.93057639901124
 30
0.0
 10
100.4339529640559
 20
57.27188841460744
 30
0.0
 10
100.2630442732065
 20
55.94685737693222
 30
0.0
 10
100.0141557895248
 20
53.94684764382782
 30
0.0
 10
99.8533117243935
 20
52.60522114479168
 30
0.0
 10
99.77243034383883
 20
51.93057639901119
 30
0.0
  0
LINE
  5
386
330
1F
100
AcDbEntity
  8
0
  6
Continuous
 62
     7
370
    15
100
AcDbLine
 10
102.8692585773
 20
57.9305764338
 30
0.0
 11
100.5189133234
 21
57.9305764338
 31
0.0
  0
SPLINE
  5
387
330
1F
100
AcDbEntity
  8
0
  6
Continuous
 62
     7
370
    15
100
AcDbSpline
210
0.0
220
0.0
230
1.0
 70
     8
 71
     3
 72
    19
 73
    15
 74
     0
 42
0.00000001
 43
0.00000001
 12
1.0
 22
0.0
 32
0.0
 13
1.0
 23
0.0
 33
0.0
 40
0.0
 40
0.0
 40
0.0
 40
0.0
 40
0.0628854700655804
 40
0.1259097847834389
 40
0.1886136654296095
 40
0.2513880826035954
 40
0.3764243779294074
 40
0.5010962547911536
 40
0.6254786651114281
 40
0.7497674760165846
 40
0.8122549222892118
 40
0.8744149470671956
 40
0.9373053669466085
 40
1.0
 40
1.0
 40
1.0
 40
1.0
 10
101.9212564215331
 20
52.07520526581297
 30
0.0
 10
101.9410489409972
 20
52.08764541610925
 30
0.0
 10
101.9806776797735
 20
52.11255318327466
 30
0.0
 10
102.0392819326454
 20
52.16269526036081
 30
0.0
 10
102.0970327994692
 20
52.22186676382289
 30
0.0
 10
102.1723464849811
 20
52.31347676156368
 30
0.0
 10
102.2632065077793
 20
52.45085969927811
 30
0.0
 10
102.3652114056105
 20
52.65028942237131
 30
0.0
 10
102.458520959971
 20
52.882035567742
 30
0.0
 10
102.5276364396214
 20
53.10054680837477
 30
0.0
 10
102.5767386909203
 20
53.28879854013081
 30
0.0
 10
102.610307041145
 20
53.43710050461369
 30
0.0
 10
102.6406097943387
 20
53.59108035612202
 30
0.0
 10
102.6575981198889
 20
53.69841921268227
 30
0.0
 10
102.6660790402826
 20
53.75200497043971
 30
0.0
  0
SPLINE
  5
388
330
1F
100
AcDbEntity
  8
0
  6
Continuous
 62
     7
370
    15
100
AcDbSpline
210
0.0
220
0.0
230
1.0
 70
     8
 71
     3
 72
     9
 73
     5
 74
     0
 42
0.00000001
 43
0.00000001
 12
1.0
 22
0.0
 32
0.0
 13
1.0
 23
0.0
 33
0.0
 40
0.0
 40
0.0
 40
0.0
 40
0.0
 40
0.4969708259056639
 40
0.9999999999999999
 40
0.9999999999999999
 40
0.9999999999999999
 40
0.9999999999999999
 10
102.6997135453865
 20
49.35914782758256
 30
0.0
 10
102.5677223320305
 20
49.80852695638833
 30
0.0
 10
102.302130859703
 20
50.7127633931788
 30
0.0
 10
102.0487263052642
 20
51.61922741670988
 30
0.0
 10
101.9212564215331
 20
52.07520526581297
 30
0.0
  0
LINE
  5
389
330
1F
100
AcDbEntity
  8
0
  6
Continuous
 62
     7
370
    15
100
AcDbLine
 10
101.8551227993
 20
49.3591453931
 30
0.0
 11
102.6997131652
 21
49.3591453931
 31
0.0
  0
SPLINE
  5
38A
330
1F
100
AcDbEntity
  8
0
  6
Continuous
 62
     7
370
    15
100
AcDbSpline
210
0.0
220
0.0
230
1.0
 70
     8
 71
     3
 72
     9
 73
     5
 74
     0
 42
0.00000001
 43
0.00000001
 12
1.0
 22
0.0
 32
0.0
 13
1.0
 23
0.0
 33
0.0
 40
0.0
 40
0.0
 40
0.0
 40
0.0
 40
0.5027734389685551
 40
1.0
 40
1.0
 40
1.0
 40
1.0
 10
101.2130322738646
 20
51.76044590893783
 30
0.0
 10
101.3182936633929
 20
51.35760940703651
 30
0.0
 10
101.5276551398945
 20
50.55638072095525
 30
0.0
 10
101.7463697368085
 20
49.75674696843362
 30
0.0
 10
101.8551204436795
 20
49.35914782758259
 30
0.0
  0
SPLINE
  5
38B
330
1F
100
AcDbEntity
  8
0
  6
Continuous
 62
     7
370
    15
100
AcDbSpline
210
0.0
220
0.0
230
1.0
 70
     8
 71
     3
 72
     9
 73
     5
 74
     0
 42
0.00000001
 43
0.00000001
 12
1.0
 22
0.0
 32
0.0
 13
1.0
 23
0.0
 33
0.0
 40
0.0
 40
0.0
 40
0.0
 40
0.0
 40
0.5016388968445682
 40
0.9999999999999999
 40
0.9999999999999999
 40
0.9999999999999999
 40
0.9999999999999999
 10
100.8822790233753
 20
49.3591478275826
 30
0.0
 10
100.9368921684756
 20
49.76075787437163
 30
0.0
 10
101.0457616071172
 20
50.56135377974348
 30
0.0
 10
101.1573973579354
 20
51.36162290490237
 30
0.0
 10
101.2130322738647
 20
51.76044590893779
 30
0.0
  0
LINE
  5
38C
330
1F
100
AcDbEntity
  8
0
  6
Continuous
 62
     7
370
    15
100
AcDbLine
 10
100.265079493
 20
49.3591453931
 30
0.0
 11
100.8822781391
 21
49.3591453931
 31
0.0
  0
SPLINE
  5
38D
330
1F
100
AcDbEntity
  8
0
  6
Continuous
 62
     7
370
    15
100
AcDbSpline
210
0.0
220
0.0
230
1.0
 70
     8
 71
     3
 72
    10
 73
     6
 74
     0
 42
0.00000001
 43
0.00000001
 12
1.0
 22
0.0
 32
0.0
 13
1.0
 23
0.0
 33
0.0
 40
0.0
 40
0.0
 40
0.0
 40
0.0
 40
0.3295549275670746
 40
0.6628881445310784
 40
1.0
 40
1.0
 40
1.0
 40
1.0
 10
101.0724390801618
 20
55.46629068472537
 30
0.0
 10
100.980624732417
 20
54.79576821357274
 30
0.0
 10
100.7959434015469
 20
53.4470358488342
 30
0.0
 10
100.5267638013699
 20
51.4113107042204
 30
0.0
 10
100.3526348515548
 20
50.04576752708541
 30
0.0
 10
100.2650796799581
 20
49.35914782758279
 30
0.0
  0
LINE
  5
38E
330
1F
100
AcDbEntity
  8
0
  6
Continuous
 62
     7
370
    15
100
AcDbLine
 10
101.7457035727
 20
55.4662894508
 30
0.0
 11
101.0724393076
 21
55.4662894508
 31
0.0
  0
SPLINE
  5
38F
330
1F
100
AcDbEntity
  8
0
  6
Continuous
 62
     7
370
    15
100
AcDbSpline
210
0.0
220
0.0
230
1.0
 70
     8
 71
     3
 72
     9
 73
     5
 74
     0
 42
0.00000001
 43
0.00000001
 12
1.0
 22
0.0
 32
0.0
 13
1.0
 23
0.0
 33
0.0
 40
0.0
 40
0.0
 40
0.0
 40
0.0
 40
0.5014857218124665
 40
1.0
 40
1.0
 40
1.0
 40
1.0
 10
101.4223245636829
 20
53.23914874269376
 30
0.0
 10
101.4757759388216
 20
53.61151740484821
 30
0.0
 10
101.5823619747023
 20
54.35404834034252
 30
0.0
 10
101.6913641963553
 20
55.09627840152563
 30
0.0
 10
101.7457033602035
 20
55.46629068472543
 30
0.0
  0
SPLINE
  5
390
330
1F
100
AcDbEntity
  8
0
  6
Continuous
 62
     7
370
    15
100
AcDbSpline
210
0.0
220
0.0
230
1.0
 70
     8
 71
     3
 72
    26
 73
    22
 74
     0
 42
0.00000001
 43
0.00000001
 12
1.0
 22
0.0
 32
0.0
 13
1.0
 23
0.0
 33
0.0
 40
0.0
 40
0.0
 40
0.0
 40
0.0
 40
0.0180129982443826
 40
0.0359905064303128
 40
0.0718562838797781
 40
0.1254983075946004
 40
0.1879534122553136
 40
0.2503549549249855
 40
0.3127340455378733
 40
0.3750897363124585
 40
0.4374071743862988
 40
0.4996757887303027
 40
0.5619050481543522
 40
0.6241614936406139
 40
0.6865068640292119
 40
0.7489684418952363
 40
0.8115509957677223
 40
0.874248696495046
 40
0.9370569317512802
 40
0.968549133797423
 40
1.0
 40
1.0
 40
1.0
 40
1.0
 10
102.2047095885114
 20
55.46629068472544
 30
0.0
 10
102.2046406832082
 20
55.44512265871374
 30
0.0
 10
102.2045030083622
 20
55.40282831293325
 30
0.0
 10
102.2030394347932
 20
55.31847305523073
 30
0.0
 10
102.1988650149369
 20
55.19264766318329
 30
0.0
 10
102.1881206450989
 20
55.01643446824428
 30
0.0
 10
102.1685285250748
 20
54.81380341552438
 30
0.0
 10
102.1405499907525
 20
54.60828335035375
 30
0.0
 10
102.1056532244497
 20
54.4117746124553
 30
0.0
 10
102.0643148302126
 20
54.22604372179354
 30
0.0
 10
102.0170261409737
 20
54.05282831043593
 30
0.0
 10
101.9642345965518
 20
53.89398943805837
 30
0.0
 10
101.9065437499871
 20
53.75096591266492
 30
0.0
 10
101.8447617530275
 20
53.62412316327636
 30
0.0
 10
101.7794969623086
 20
53.5141270953316
 30
0.0
 10
101.7113751217836
 20
53.42149058446289
 30
0.0
 10
101.6409988608745
 20
53.34679386344096
 30
0.0
 10
101.5689653353477
 20
53.29050555176023
 30
0.0
 10
101.5080430345345
 20
53.25968539583735
 30
0.0
 10
101.4590806321601
 20
53.24435496006178
 30
0.0
 10
101.4345712212518
 20
53.24088338853534
 30
0.0
 10
101.4223245636829
 20
53.23914874269381
 30
0.0
  0
LINE
  5
391
330
1F
100
AcDbEntity
  8
0
  6
Continuous
 62
     7
370
    15
100
AcDbLine
 10
102.8692585773
 20
55.4662894508
 30
0.0
 11
102.2047114915
 21
55.4662894508
 31
0.0
  0
LINE
  5
392
330
1F
100
AcDbEntity
  8
0
  6
Continuous
 62
     7
370
    15
100
AcDbLine
 10
102.8692585773
 20
55.4662894508
 30
0.0
 11
102.8692585773
 21
53.752007713
 31
0.0
  0
LINE
  5
393
330
1F
100
AcDbEntity
  8
0
  6
Continuous
 62
     7
370
    15
100
AcDbLine
 10
102.6660812444
 20
53.752007713
 30
0.0
 11
102.8692585773
 21
53.752007713
 31
0.0
  0
LINE
  5
394
330
1F
100
AcDbEntity
  8
0
  6
Continuous
 62
     7
370
    15
100
AcDbLine
 10
104.3692541666
 20
55.4662894508
 30
0.0
 11
102.8692585773
 21
55.4662894508
 31
0.0
  0
LINE
  5
395
330
1F
100
AcDbEntity
  8
0
  6
Continuous
 62
     7
370
    15
100
AcDbLine
 10
104.3692541666
 20
53.752007713
 30
0.0
 11
102.8692585773
 21
53.752007713
 31
0.0
  0
LINE
  5
396
330
1F
100
AcDbEntity
  8
0
  6
Continuous
 62
     7
370
    15
100
AcDbLine
 10
103.4212571926
 20
52.0752023956
 30
0.0
 11
101.9212541527
 21
52.0752023956
 31
0.0
  0
LINE
  5
397
330
1F
100
AcDbEntity
  8
0
  6
Continuous
 62
     7
370
    15
100
AcDbLine
 10
104.1997162051
 20
49.3591453931
 30
0.0
 11
102.6997131652
 21
49.3591453931
 31
0.0
  0
LINE
  5
398
330
1F
100
AcDbEntity
  8
0
  6
Continuous
 62
     7
370
    15
100
AcDbLine
 10
282.0111823625
 20
24.9305766126
 30
0.0
 11
283.182793612
 21
24.9305766126
 31
0.0
  0
LINE
  5
399
330
1F
100
AcDbEntity
  8
0
  6
Continuous
 62
     7
370
    15
100
AcDbLine
 10
260.0918201155
 20
256.9305773875
 30
0.0
 11
259.182789678
 21
256.9305773875
 31
0.0
  0
LINE
  5
39A
330
1F
100
AcDbEntity
  8
0
  6
Continuous
 62
     7
370
    15
100
AcDbLine
 10
111.3620710916
 20
24.9305766126
 30
0.0
 11
112.0483291692
 21
24.9305766126
 31
0.0
  0
LINE
  5
39B
330
1F
100
AcDbEntity
  8
0
  6
Continuous
 62
     7
370
    15
100
AcDbLine
 10
102.2047114915
 20
55.4662894508
 30
0.0
 11
101.7457035727
 21
55.4662894508
 31
0.0
  0
LINE
  5
39C
330
1F
100
AcDbEntity
  8
0
  6
Continuous
 62
     7
370
    15
100
AcDbLine
 10
101.8551227993
 20
49.3591453931
 30
0.0
 11
100.8822781391
 21
49.3591453931
 31
0.0
  0
LINE
  5
39D
330
1F
100
AcDbEntity
  8
0
  6
Continuous
 62
     7
370
    15
100
AcDbLine
 10
111.4632276244
 20
256.9305773875
 30
0.0
 11
111.3620710916
 21
256.9305773875
 31
0.0
  0
LINE
  5
39E
330
1F
100
AcDbEntity
  8
0
  6
Continuous
 62
     7
370
    15
100
AcDbLine
 10
100.265079493
 20
49.3591453931
 30
0.0
 11
100.0384775347
 21
49.3591453931
 31
0.0
  0
LINE
  5
39F
330
1F
100
AcDbEntity
  8
0
  6
Continuous
 62
     7
370
    15
100
AcDbLine
 10
100.5189133234
 20
57.9305764338
 30
0.0
 11
99.0934160895
 21
57.9305764338
 31
0.0
  0
LINE
  5
3A0
330
1F
100
AcDbEntity
  8
0
  6
Continuous
 62
     7
370
    15
100
AcDbLine
 10
98.8514808363
 20
55.4662894508
 30
0.0
 11
98.6647245831
 21
55.4662894508
 31
0.0
  0
LINE
  5
3A1
330
1F
100
AcDbEntity
  8
0
  6
Continuous
 62
     7
370
    15
100
AcDbLine
 10
99.5154691286
 20
49.3591453931
 30
0.0
 11
99.3100715227
 21
49.3591453931
 31
0.0
  0
SPLINE
  5
3A2
330
1F
100
AcDbEntity
  8
0
  6
Continuous
 62
     7
370
    15
100
AcDbSpline
210
0.0
220
0.0
230
1.0
 70
     8
 71
     3
 72
    10
 73
     6
 74
     0
 42
0.00000001
 43
0.00000001
 12
1.0
 22
0.0
 32
0.0
 13
1.0
 23
0.0
 33
0.0
 40
0.0
 40
0.0
 40
0.0
 40
0.0
 40
0.3290388732291639
 40
0.6623721365282661
 40
1.0
 40
1.0
 40
1.0
 40
1.0
 10
99.31006943630062
 20
49.35914782758263
 30
0.0
 10
99.2363122471269
 20
50.02870464848184
 30
0.0
 10
99.08783524045026
 20
51.37655688743953
 30
0.0
 10
98.87264282864825
 20
53.41228020678314
 30
0.0
 10
98.7343237768276
 20
54.77870518069436
 30
0.0
 10
98.66472158367459
 20
55.46629068472553
 30
0.0
  0
LINE
  5
3A3
330
1F
100
AcDbEntity
  8
0
  6
Continuous
 62
     7
370
    15
100
AcDbLine
 10
97.5940239973
 20
49.3591453931
 30
0.0
 11
97.9819608278
 21
49.3591453931
 31
0.0
  0
SPLINE
  5
3A4
330
1F
100
AcDbEntity
  8
0
  6
Continuous
 62
     7
370
    15
100
AcDbSpline
210
0.0
220
0.0
230
1.0
 70
     8
 71
     3
 72
     9
 73
     5
 74
     0
 42
0.00000001
 43
0.00000001
 12
1.0
 22
0.0
 32
0.0
 13
1.0
 23
0.0
 33
0.0
 40
0.0
 40
0.0
 40
0.0
 40
0.0
 40
0.4960827660427825
 40
1.0
 40
1.0
 40
1.0
 40
1.0
 10
97.93542991626207
 20
53.75200497043991
 30
0.0
 10
97.87710641852637
 20
53.02572456245193
 30
0.0
 10
97.75953833971373
 20
51.56169384479267
 30
0.0
 10
97.6494810680374
 20
50.09715446225334
 30
0.0
 10
97.5940213121174
 20
49.3591478275827
 30
0.0
  0
LINE
  5
3A5
330
1F
100
AcDbEntity
  8
0
  6
Continuous
 62
     7
370
    15
100
AcDbLine
 10
97.5940239973
 20
53.752007713
 30
0.0
 11
97.9354319519
 21
53.752007713
 31
0.0
  0
LINE
  5
3A6
330
1F
100
AcDbEntity
  8
0
  6
Continuous
 62
     7
370
    15
100
AcDbLine
 10
97.5940239973
 20
55.4662894508
 30
0.0
 11
97.5940239973
 21
53.752007713
 31
0.0
  0
LINE
  5
3A7
330
1F
100
AcDbEntity
  8
0
  6
Continuous
 62
     7
370
    15
100
AcDbLine
 10
98.6647245831
 20
55.4662894508
 30
0.0
 11
97.5940239973
 21
55.4662894508
 31
0.0
  0
LINE
  5
3A8
330
1F
100
AcDbEntity
  8
0
  6
Continuous
 62
     7
370
    15
100
AcDbLine
 10
98.8056746668
 20
49.3591453931
 30
0.0
 11
99.3100715227
 21
49.3591453931
 31
0.0
  0
LINE
  5
3A9
330
1F
100
AcDbEntity
  8
0
  6
Continuous
 62
     7
370
    15
100
AcDbLine
 10
98.7097186393
 20
50.3020014664
 30
0.0
 11
98.8056746668
 21
49.3591453931
 31
0.0
  0
LINE
  5
3AA
330
1F
100
AcDbEntity
  8
0
  6
Continuous
 62
     7
370
    15
100
AcDbLine
 10
98.0600280113
 20
50.3020014664
 30
0.0
 11
98.7097186393
 21
50.3020014664
 31
0.0
  0
LINE
  5
3AB
330
1F
100
AcDbEntity
  8
0
  6
Continuous
 62
     7
370
    15
100
AcDbLine
 10
97.9819608278
 20
49.3591453931
 30
0.0
 11
98.0600280113
 21
50.3020014664
 31
0.0
  0
SPLINE
  5
3AC
330
1F
100
AcDbEntity
  8
0
  6
Continuous
 62
     7
370
    15
100
AcDbSpline
210
0.0
220
0.0
230
1.0
 70
     8
 71
     3
 72
     9
 73
     5
 74
     0
 42
0.00000001
 43
0.00000001
 12
1.0
 22
0.0
 32
0.0
 13
1.0
 23
0.0
 33
0.0
 40
0.0
 40
0.0
 40
0.0
 40
0.0
 40
0.5002058985207641
 40
1.0
 40
1.0
 40
1.0
 40
1.0
 10
98.15717366192213
 20
51.93057639901143
 30
0.0
 10
98.18768852686306
 20
52.28626629795826
 30
0.0
 10
98.24869313522767
 20
52.99735327233962
 30
0.0
 10
98.31149124913665
 20
53.70830415675552
 30
0.0
 10
98.34287737605236
 20
54.063633215228
 30
0.0
  0
LINE
  5
3AD
330
1F
100
AcDbEntity
  8
0
  6
Continuous
 62
     7
370
    15
100
AcDbLine
 10
98.1571761317
 20
51.9305791756
 30
0.0
 11
98.5477653689
 21
51.9305791756
 31
0.0
  0
SPLINE
  5
3AE
330
1F
100
AcDbEntity
  8
0
  6
Continuous
 62
     7
370
    15
100
AcDbSpline
210
0.0
220
0.0
230
1.0
 70
     8
 71
     3
 72
     9
 73
     5
 74
     0
 42
0.00000001
 43
0.00000001
 12
1.0
 22
0.0
 32
0.0
 13
1.0
 23
0.0
 33
0.0
 40
0.0
 40
0.0
 40
0.0
 40
0.0
 40
0.5002237409545685
 40
1.0
 40
1.0
 40
1.0
 40
1.0
 10
98.34287737605234
 20
54.0636332152279
 30
0.0
 10
98.37653378625171
 20
53.70792289154735
 30
0.0
 10
98.44381649885378
 20
52.99682044966458
 30
0.0
 10
98.5131263887893
 20
52.28588503898408
 30
0.0
 10
98.54776582629611
 20
51.93057639901124
 30
0.0
  0
LINE
  5
3AF
330
1F
100
AcDbEntity
  8
0
  6
Continuous
 62
     7
370
    15
100
AcDbLine
 10
98.8056746668
 20
49.3591453931
 30
0.0
 11
97.9819608278
 21
49.3591453931
 31
0.0
  0
SPLINE
  5
3B0
330
1F
100
AcDbEntity
  8
0
  6
Continuous
 62
     7
370
    15
100
AcDbSpline
210
0.0
220
0.0
230
1.0
 70
     8
 71
     3
 72
     9
 73
     5
 74
     0
 42
0.00000001
 43
0.00000001
 12
1.0
 22
0.0
 32
0.0
 13
1.0
 23
0.0
 33
0.0
 40
0.0
 40
0.0
 40
0.0
 40
0.0
 40
0.6355963092518602
 40
1.0
 40
1.0
 40
1.0
 40
1.0
 10
137.0981832391697
 20
255.8587815663141
 30
0.0
 10
136.8476438291831
 20
255.974978760962
 30
0.0
 10
136.4534637398092
 20
256.1577947920755
 30
0.0
 10
136.0531696915713
 20
256.2999043715967
 30
0.0
 10
135.9073010630089
 20
256.3516896268648
 30
0.0
  0
LINE
  5
3B1
330
1F
100
AcDbEntity
  8
0
  6
Continuous
 62
     7
370
    15
100
AcDbLine
 10
137.0981832392
 20
255.8587815663
 30
0.0
 11
137.0981832392
 21
242.930578818
 31
0.0
  0
LINE
  5
3B2
330
1F
100
AcDbEntity
  8
0
  6
Continuous
 62
     7
370
    15
100
AcDbLine
 10
109.5478249139
 20
26.0023724338
 30
0.0
 11
110.0028765745
 21
25.7849495909
 31
0.0
  0
LINE
  5
3B3
330
1F
100
AcDbEntity
  8
0
  6
Continuous
 62
     7
370
    15
100
AcDbLine
 10
109.5478249139
 20
26.0023724338
 30
0.0
 11
109.5478249139
 21
38.9305751821
 31
0.0
  0
SPLINE
  5
3B4
330
1F
100
AcDbEntity
  8
0
  6
Continuous
 62
     7
370
    15
100
AcDbSpline
210
0.0
220
0.0
230
1.0
 70
     8
 71
     3
 72
    10
 73
     6
 74
     0
 42
0.00000001
 43
0.00000001
 12
1.0
 22
0.0
 32
0.0
 13
1.0
 23
0.0
 33
0.0
 40
0.0
 40
0.0
 40
0.0
 40
0.0
 40
0.1191159403005361
 40
0.5593774151255371
 40
1.0
 40
1.0
 40
1.0
 40
1.0
 10
136.3184986061532
 20
25.49908571451126
 30
0.0
 10
136.3529580794601
 20
25.51506795353478
 30
0.0
 10
136.5147823580274
 20
25.59012175011588
 30
0.0
 10
136.8007811903399
 20
25.7597495033306
 30
0.0
 10
137.0511020262969
 20
25.92147602424907
 30
0.0
 10
137.1763137525994
 20
26.00237243383346
 30
0.0
  0
LINE
  5
3B5
330
1F
100
AcDbEntity
  8
0
  6
Continuous
 62
     7
370
    15
100
AcDbLine
 10
137.1763137526
 20
26.0023724338
 30
0.0
 11
137.1763137526
 21
38.9305751821
 31
0.0
  0
SPLINE
  5
3B6
330
1F
100
AcDbEntity
  8
0
  6
Continuous
 62
     7
370
    15
100
AcDbSpline
210
0.0
220
0.0
230
1.0
 70
     8
 71
     3
 72
    11
 73
     7
 74
     0
 42
0.00000001
 43
0.00000001
 12
1.0
 22
0.0
 32
0.0
 13
1.0
 23
0.0
 33
0.0
 40
0.0
 40
0.0
 40
0.0
 40
0.0
 40
0.1325128046262863
 40
0.4216128318135058
 40
0.7108425253114621
 40
0.9999999999999999
 40
0.9999999999999999
 40
0.9999999999999999
 40
0.9999999999999999
 10
111.0429180211503
 20
256.6796641847413
 30
0.0
 10
110.979390519439
 20
256.6561603944488
 30
0.0
 10
110.7772665815294
 20
256.5813789451275
 30
0.0
 10
110.4397331720481
 20
256.4027626437036
 30
0.0
 10
110.0304953443244
 20
256.1550322953531
 30
0.0
 10
109.7607883573984
 20
255.9575235888568
 30
0.0
 10
109.6259517020661
 20
255.8587815663141
 30
0.0
  0
LINE
  5
3B7
330
1F
100
AcDbEntity
  8
0
  6
Continuous
 62
     7
370
    15
100
AcDbLine
 10
109.6259517021
 20
255.8587815663
 30
0.0
 11
109.6259517021
 21
242.930578818
 31
0.0
  0
SPLINE
  5
3B8
330
1F
100
AcDbEntity
  8
0
  6
Continuous
 62
     7
370
    15
100
AcDbSpline
210
0.0
220
0.0
230
1.0
 70
     8
 71
     3
 72
     9
 73
     5
 74
     0
 42
0.00000001
 43
0.00000001
 12
1.0
 22
0.0
 32
0.0
 13
1.0
 23
0.0
 33
0.0
 40
0.0
 40
0.0
 40
0.0
 40
0.0
 40
0.45927253574349
 40
1.0
 40
1.0
 40
1.0
 40
1.0
 10
136.3455926424939
 20
256.3599895736497
 30
0.0
 10
136.4615925841255
 20
256.2913926297447
 30
0.0
 10
136.7141658006881
 20
256.1420326341726
 30
0.0
 10
136.963410035889
 20
255.9581902126998
 30
0.0
 10
137.0981832391697
 20
255.8587815663141
 30
0.0
  0
LINE
  5
3B9
330
1F
100
AcDbEntity
  8
0
  6
Continuous
 62
     7
370
    15
100
AcDbLine
 10
110.0636956639
 20
25.6812375089
 30
0.0
 11
109.5478249139
 21
26.0023724338
 31
0.0
  0
LINE
  5
3BA
330
1F
100
AcDbEntity
  8
0
  6
Continuous
 62
     7
370
    15
100
AcDbLine
 10
153.5937742687
 20
26.0023724338
 30
0.0
 11
154.2182558573
 21
25.7801961204
 31
0.0
  0
LINE
  5
3BB
330
1F
100
AcDbEntity
  8
0
  6
Continuous
 62
     7
370
    15
100
AcDbLine
 10
153.5937742687
 20
26.0023724338
 30
0.0
 11
153.5937742687
 21
38.9305751821
 31
0.0
  0
SPLINE
  5
3BC
330
1F
100
AcDbEntity
  8
0
  6
Continuous
 62
     7
370
    15
100
AcDbSpline
210
0.0
220
0.0
230
1.0
 70
     8
 71
     3
 72
     9
 73
     5
 74
     0
 42
0.00000001
 43
0.00000001
 12
1.0
 22
0.0
 32
0.0
 13
1.0
 23
0.0
 33
0.0
 40
0.0
 40
0.0
 40
0.0
 40
0.0
 40
0.4561117965418156
 40
1.0
 40
1.0
 40
1.0
 40
1.0
 10
154.1096468812901
 20
256.3572924634736
 30
0.0
 10
153.9272595344264
 20
256.2895474888734
 30
0.0
 10
153.5273853188361
 20
256.1410203621603
 30
0.0
 10
153.1327791325456
 20
255.9582099778241
 30
0.0
 10
152.9181574828106
 20
255.8587815663141
 30
0.0
  0
LINE
  5
3BD
330
1F
100
AcDbEntity
  8
0
  6
Continuous
 62
     7
370
    15
100
AcDbLine
 10
152.9181574828
 20
255.8587815663
 30
0.0
 11
152.9181574828
 21
242.930578818
 31
0.0
  0
SPLINE
  5
3BE
330
1F
100
AcDbEntity
  8
0
  6
Continuous
 62
     7
370
    15
100
AcDbSpline
210
0.0
220
0.0
230
1.0
 70
     8
 71
     3
 72
    11
 73
     7
 74
     0
 42
0.00000001
 43
0.00000001
 12
1.0
 22
0.0
 32
0.0
 13
1.0
 23
0.0
 33
0.0
 40
0.0
 40
0.0
 40
0.0
 40
0.0
 40
0.3061761099947332
 40
0.6124382425072373
 40
0.9185418577398579
 40
1.0
 40
1.0
 40
1.0
 40
1.0
 10
180.3973532172966
 20
255.8587815663141
 30
0.0
 10
180.254313315551
 20
255.9629341888733
 30
0.0
 10
179.9681933239062
 20
256.1712686964669
 30
0.0
 10
179.5336924075168
 20
256.4279600519699
 30
0.0
 10
179.2034803786042
 20
256.6004966643225
 30
0.0
 10
179.0171359528369
 20
256.6648741154863
 30
0.0
 10
178.9779698833007
 20
256.6784050366205
 30
0.0
  0
LINE
  5
3BF
330
1F
100
AcDbEntity
  8
0
  6
Continuous
 62
     7
370
    15
100
AcDbLine
 10
180.3973532173
 20
255.8587815663
 30
0.0
 11
180.3973532173
 21
242.930578818
 31
0.0
  0
SPLINE
  5
3C0
330
1F
100
AcDbEntity
  8
0
  6
Continuous
 62
     7
370
    15
100
AcDbSpline
210
0.0
220
0.0
230
1.0
 70
     8
 71
     3
 72
    12
 73
     8
 74
     0
 42
0.00000001
 43
0.00000001
 12
1.0
 22
0.0
 32
0.0
 13
1.0
 23
0.0
 33
0.0
 40
0.0
 40
0.0
 40
0.0
 40
0.0
 40
0.0872184476396518
 40
0.3123256219572381
 40
0.541500347147355
 40
0.770779305608639
 40
1.0
 40
1.0
 40
1.0
 40
1.0
 10
154.4522320277173
 20
25.05580597131668
 30
0.0
 10
154.4268473223609
 20
25.06886097471817
 30
0.0
 10
154.3359457516133
 20
25.11561039720112
 30
0.0
 10
154.1794586633781
 20
25.25022643813463
 30
0.0
 10
153.9832191257194
 20
25.4560931760161
 30
0.0
 10
153.7874122739597
 20
25.70669561607267
 30
0.0
 10
153.6583148020746
 20
25.90382184455081
 30
0.0
 10
153.5937742686945
 20
26.00237243383346
 30
0.0
  0
SPLINE
  5
3C1
330
1F
100
AcDbEntity
  8
0
  6
Continuous
 62
     7
370
    15
100
AcDbSpline
210
0.0
220
0.0
230
1.0
 70
     8
 71
     3
 72
    13
 73
     9
 74
     0
 42
0.00000001
 43
0.00000001
 12
1.0
 22
0.0
 32
0.0
 13
1.0
 23
0.0
 33
0.0
 40
0.0
 40
0.0
 40
0.0
 40
0.0
 40
0.0078553862627626
 40
0.2042105133838008
 40
0.4004661120219108
 40
0.6002668873827984
 40
0.800159141770313
 40
1.0
 40
1.0
 40
1.0
 40
1.0
 10
178.7349701284546
 20
24.98787157743393
 30
0.0
 10
178.7376008003167
 20
24.98857419272699
 30
0.0
 10
178.805988379683
 20
25.00683954912158
 30
0.0
 10
178.9394981880531
 20
25.09291525961124
 30
0.0
 10
179.1361040214156
 20
25.24705348886558
 30
0.0
 10
179.3322804397353
 20
25.45694650590136
 30
0.0
 10
179.5281012090071
 20
25.70648189190544
 30
0.0
 10
179.6571970453813
 20
25.90375070788123
 30
0.0
 10
179.7217366642434
 20
26.00237243383346
 30
0.0
  0
LINE
  5
3C2
330
1F
100
AcDbEntity
  8
0
  6
Continuous
 62
     7
370
    15
100
AcDbLine
 10
179.7217366642
 20
26.0023724338
 30
0.0
 11
179.7217366642
 21
38.9305751821
 31
0.0
  0
SPLINE
  5
3C3
330
1F
100
AcDbEntity
  8
0
  6
Continuous
 62
     7
370
    15
100
AcDbSpline
210
0.0
220
0.0
230
1.0
 70
     8
 71
     3
 72
     9
 73
     5
 74
     0
 42
0.00000001
 43
0.00000001
 12
1.0
 22
0.0
 32
0.0
 13
1.0
 23
0.0
 33
0.0
 40
0.0
 40
0.0
 40
0.0
 40
0.0
 40
0.5789182225320996
 40
1.0
 40
1.0
 40
1.0
 40
1.0
 10
152.9181574828106
 20
255.8587815663141
 30
0.0
 10
153.0611075419722
 20
255.9638778638561
 30
0.0
 10
153.3080337115032
 20
256.1454169715427
 30
0.0
 10
153.5584379727604
 20
256.2907785417361
 30
0.0
 10
153.6638786441762
 20
256.3519876500886
 30
0.0
  0
LINE
  5
3C4
330
1F
100
AcDbEntity
  8
0
  6
Continuous
 62
     8
370
    15
100
AcDbLine
 10
137.4868539519
 20
158.2287096469
 30
0.0
 11
158.6577550865
 21
158.2287096469
 31
0.0
  0
LINE
  5
3C5
330
1F
100
AcDbEntity
  8
0
  6
Continuous
 62
     8
370
    15
100
AcDbLine
 10
174.6577558464
 20
158.2287096469
 30
0.0
 11
219.8871051318
 21
158.2287096469
 31
0.0
  0
LINE
  5
3C6
330
1F
100
AcDbEntity
  8
0
  6
Continuous
 62
     8
370
    15
100
AcDbLine
 10
235.8871040291
 20
158.2287096469
 30
0.0
 11
257.0580033011
 21
158.2287096469
 31
0.0
  0
LINE
  5
3C7
330
1F
100
AcDbEntity
  8
0
  6
Continuous
 62
     8
370
    15
100
AcDbLine
 10
137.240340317
 20
155.4110458171
 30
0.0
 11
158.6577550865
 21
155.4110458171
 31
0.0
  0
LINE
  5
3C8
330
1F
100
AcDbEntity
  8
0
  6
Continuous
 62
     8
370
    15
100
AcDbLine
 10
174.6577558464
 20
155.4110458171
 30
0.0
 11
219.8871051318
 21
155.4110458171
 31
0.0
  0
LINE
  5
3C9
330
1F
100
AcDbEntity
  8
0
  6
Continuous
 62
     8
370
    15
100
AcDbLine
 10
235.8871040291
 20
155.4110458171
 30
0.0
 11
257.3045206613
 21
155.4110458171
 31
0.0
  0
LINE
  5
3CA
330
1F
100
AcDbEntity
  8
0
  6
Continuous
 62
     8
370
    15
100
AcDbLine
 10
137.8831279821
 20
154.6450013345
 30
0.0
 11
158.6577550865
 21
154.6450013345
 31
0.0
  0
LINE
  5
3CB
330
1F
100
AcDbEntity
  8
0
  6
Continuous
 62
     8
370
    15
100
AcDbLine
 10
174.6577558464
 20
154.6450013345
 30
0.0
 11
219.8871051318
 21
154.6450013345
 31
0.0
  0
LINE
  5
3CC
330
1F
100
AcDbEntity
  8
0
  6
Continuous
 62
     8
370
    15
100
AcDbLine
 10
235.8871040291
 20
154.6450013345
 30
0.0
 11
256.6617292709
 21
154.6450013345
 31
0.0
  0
LINE
  5
3CD
330
1F
100
AcDbEntity
  8
FORMAT
  6
CENTERX2
370
     0
100
AcDbLine
 10
197.2724303438
 20
251.7019196087
 30
0.0
 11
197.2724303438
 21
25.1556459326
 31
0.0
  0
ENDSEC
  0
SECTION
  2
OBJECTS
  0
DICTIONARY
  5
C
330
0
100
AcDbDictionary
281
     1
  3
ACAD_GROUP
350
D
  3
ACAD_LAYOUT
350
1A
  3
ACAD_MLINESTYLE
350
17
  3
ACAD_PLOTSETTINGS
350
19
  3
ACAD_PLOTSTYLENAME
350
E
  0
DICTIONARY
  5
D
102
{ACAD_REACTORS
330
C
102
}
330
C
100
AcDbDictionary
281
     1
  0
DICTIONARY
  5
1A
102
{ACAD_REACTORS
330
C
102
}
330
C
100
AcDbDictionary
281
     1
  3
Layout1
350
1E
  3
Layout2
350
26
  3
Model
350
22
  0
DICTIONARY
  5
17
102
{ACAD_REACTORS
330
C
102
}
330
C
100
AcDbDictionary
281
     1
  3
Standard
350
18
  0
DICTIONARY
  5
19
102
{ACAD_REACTORS
330
C
102
}
330
C
100
AcDbDictionary
281
     1
  0
ACDBDICTIONARYWDFLT
  5
E
102
{ACAD_REACTORS
330
C
102
}
330
C
100
AcDbDictionary
281
     1
  3
Normal
350
F
100
AcDbDictionaryWithDefault
340
F
  0
LAYOUT
  5
1E
102
{ACAD_REACTORS
330
1A
102
}
330
1A
100
AcDbPlotSettings
  1

  2
none_device
  4

  6

 40
0.0
 41
0.0
 42
0.0
 43
0.0
 44
0.0
 45
0.0
 46
0.0
 47
0.0
 48
0.0
 49
0.0
140
0.0
141
0.0
142
1.0
143
1.0
 70
   688
 72
     0
 73
     0
 74
     5
  7

 75
    16
147
1.0
148
0.0
149
0.0
100
AcDbLayout
  1
Layout1
 70
     1
 71
     1
 10
0.0
 20
0.0
 11
420.0
 21
297.0
 12
0.0
 22
0.0
 32
0.0
 14
1.0000000000E+20
 24
1.0000000000E+20
 34
1.0000000000E+20
 15
-1.0000000000E+20
 25
-1.0000000000E+20
 35
-1.0000000000E+20
146
0.0
 13
0.0
 23
0.0
 33
0.0
 16
1.0
 26
0.0
 36
0.0
 17
0.0
 27
1.0
 37
0.0
 76
     0
330
1B
  0
LAYOUT
  5
26
102
{ACAD_REACTORS
330
1A
102
}
330
1A
100
AcDbPlotSettings
  1

  2
none_device
  4

  6

 40
0.0
 41
0.0
 42
0.0
 43
0.0
 44
0.0
 45
0.0
 46
0.0
 47
0.0
 48
0.0
 49
0.0
140
0.0
141
0.0
142
1.0
143
1.0
 70
   688
 72
     0
 73
     0
 74
     5
  7

 75
    16
147
1.0
148
0.0
149
0.0
100
AcDbLayout
  1
Layout2
 70
     1
 71
     2
 10
0.0
 20
0.0
 11
0.0
 21
0.0
 12
0.0
 22
0.0
 32
0.0
 14
0.0
 24
0.0
 34
0.0
 15
0.0
 25
0.0
 35
0.0
146
0.0
 13
0.0
 23
0.0
 33
0.0
 16
1.0
 26
0.0
 36
0.0
 17
0.0
 27
1.0
 37
0.0
 76
     0
330
23
  0
LAYOUT
  5
22
102
{ACAD_REACTORS
330
1A
102
}
330
1A
100
AcDbPlotSettings
  1

  2
none_device
  4

  6

 40
0.0
 41
0.0
 42
0.0
 43
0.0
 44
0.0
 45
0.0
 46
0.0
 47
0.0
 48
0.0
 49
0.0
140
0.0
141
0.0
142
1.0
143
1.0
 70
  1712
 72
     0
 73
     0
 74
     0
  7

 75
     0
147
1.0
148
0.0
149
0.0
100
AcDbLayout
  1
Model
 70
     1
 71
     0
 10
0.0
 20
0.0
 11
841.0
 21
594.0
 12
0.0
 22
0.0
 32
0.0
 14
0.0
 24
0.0
 34
0.0
 15
841.0
 25
594.0
 35
0.0
146
0.0
 13
0.0
 23
0.0
 33
0.0
 16
1.0
 26
0.0
 36
0.0
 17
0.0
 27
1.0
 37
0.0
 76
     0
330
1F
331
29
  0
MLINESTYLE
  5
18
102
{ACAD_REACTORS
330
17
102
}
330
17
100
AcDbMlineStyle
  2
Standard
 70
     0
  3

 62
   256
 51
90.0
 52
90.0
 71
     2
 49
0.5
 62
   256
  6
BYLAYER
 49
-0.5
 62
   256
  6
BYLAYER
  0
ACDBPLACEHOLDER
  5
F
102
{ACAD_REACTORS
330
E
102
}
330
E
  0
ENDSEC
  0
EOF
