  0
SECTION
  2
HEADER
  9
$ACADVER
  1
AC1015
  9
$ACADMAINTVER
 70
     6
  9
$DWGCODEPAGE
  3
ANSI_1252
  9
$INSBASE
 10
0.0
 20
0.0
 30
0.0
  9
$EXTMIN
 10
0.0
 20
0.0
 30
0.0
  9
$EXTMAX
 10
431.8
 20
279.4
 30
0.0
  9
$LIMMIN
 10
0.0
 20
0.0
  9
$LIMMAX
 10
431.8
 20
279.4
  9
$ORTHOMODE
 70
     0
  9
$REGENMODE
 70
     1
  9
$FILLMODE
 70
     1
  9
$QTEXTMODE
 70
     0
  9
$MIRRTEXT
 70
     1
  9
$LTSCALE
 40
1.0
  9
$ATTMODE
 70
     1
  9
$TEXTSIZE
 40
2.5
  9
$TRACEWID
 40
1.0
  9
$TEXTSTYLE
  7
Standard
  9
$CLAYER
  8
0
  9
$CELTYPE
  6
ByLayer
  9
$CECOLOR
 62
   256
  9
$CELTSCALE
 40
1.0
  9
$DISPSILH
 70
     0
  9
$DIMSCALE
 40
1.0
  9
$DIMASZ
 40
2.5
  9
$DIMEXO
 40
1.0
  9
$DIMDLI
 40
3.75
  9
$DIMRND
 40
0.0
  9
$DIMDLE
 40
0.0
  9
$DIMEXE
 40
1.0
  9
$DIMTP
 40
0.0
  9
$DIMTM
 40
0.0
  9
$DIMTXT
 40
2.5
  9
$DIMCEN
 40
2.5
  9
$DIMTSZ
 40
0.0
  9
$DIMTOL
 70
     0
  9
$DIMLIM
 70
     0
  9
$DIMTIH
 70
     1
  9
$DIMTOH
 70
     1
  9
$DIMSE1
 70
     0
  9
$DIMSE2
 70
     0
  9
$DIMTAD
 70
     1
  9
$DIMZIN
 70
     0
  9
$DIMBLK
  1

  9
$DIMASO
 70
     1
  9
$DIMSHO
 70
     1
  9
$DIMPOST
  1

  9
$DIMAPOST
  1

  9
$DIMALT
 70
     0
  9
$DIMALTD
 70
     3
  9
$DIMALTF
 40
0.0393700787
  9
$DIMLFAC
 40
1.0
  9
$DIMTOFL
 70
     1
  9
$DIMTVP
 40
0.0
  9
$DIMTIX
 70
     0
  9
$DIMSOXD
 70
     0
  9
$DIMSAH
 70
     0
  9
$DIMBLK1
  1

  9
$DIMBLK2
  1

  9
$DIMSTYLE
  2
ISO-25
  9
$DIMCLRD
 70
     0
  9
$DIMCLRE
 70
     0
  9
$DIMCLRT
 70
     0
  9
$DIMTFAC
 40
1.0
  9
$DIMGAP
 40
1.524
  9
$DIMJUST
 70
     0
  9
$DIMSD1
 70
     0
  9
$DIMSD2
 70
     0
  9
$DIMTOLJ
 70
     0
  9
$DIMTZIN
 70
     0
  9
$DIMALTZ
 70
     0
  9
$DIMALTTZ
 70
     0
  9
$DIMUPT
 70
     0
  9
$DIMDEC
 70
     2
  9
$DIMTDEC
 70
     2
  9
$DIMALTU
 70
     2
  9
$DIMALTTD
 70
     3
  9
$DIMTXSTY
  7
Standard
  9
$DIMAUNIT
 70
     0
  9
$DIMADEC
 70
     2
  9
$DIMALTRND
 40
0.0
  9
$DIMAZIN
 70
     0
  9
$DIMDSEP
 70
    44
  9
$DIMATFIT
 70
     3
  9
$DIMFRAC
 70
     0
  9
$DIMLDRBLK
  1

  9
$DIMLUNIT
 70
     2
  9
$DIMLWD
 70
    -2
  9
$DIMLWE
 70
    -2
  9
$DIMTMOVE
 70
     0
  9
$LUNITS
 70
     2
  9
$LUPREC
 70
     2
  9
$SKETCHINC
 40
1.0
  9
$FILLETRAD
 40
10.0
  9
$AUNITS
 70
     0
  9
$AUPREC
 70
     2
  9
$MENU
  1
.
  9
$ELEVATION
 40
0.0
  9
$PELEVATION
 40
0.0
  9
$THICKNESS
 40
0.0
  9
$LIMCHECK
 70
     0
  9
$CHAMFERA
 40
10.0
  9
$CHAMFERB
 40
10.0
  9
$CHAMFERC
 40
20.0
  9
$CHAMFERD
 40
0.0
  9
$SKPOLY
 70
     0
  9
$TDCREATE
 40
2457130.391609248
  9
$TDUCREATE
 40
2457130.058275914
  9
$TDUPDATE
 40
2457130.391609827
  9
$TDUUPDATE
 40
2457130.058276493
  9
$TDINDWG
 40
0.0000000116
  9
$TDUSRTIMER
 40
0.0000000116
  9
$USRTIMER
 70
     1
  9
$ANGBASE
 50
0.0
  9
$ANGDIR
 70
     0
  9
$PDMODE
 70
     0
  9
$PDSIZE
 40
-1.0
  9
$PLINEWID
 40
0.0
  9
$SPLFRAME
 70
     0
  9
$SPLINETYPE
 70
     6
  9
$SPLINESEGS
 70
     8
  9
$HANDSEED
  5
26E
  9
$SURFTAB1
 70
     6
  9
$SURFTAB2
 70
     6
  9
$SURFTYPE
 70
     6
  9
$SURFU
 70
     6
  9
$SURFV
 70
     6
  9
$UCSBASE
  2

  9
$UCSNAME
  2

  9
$UCSORG
 10
0.0
 20
0.0
 30
0.0
  9
$UCSXDIR
 10
1.0
 20
0.0
 30
0.0
  9
$UCSYDIR
 10
0.0
 20
1.0
 30
0.0
  9
$UCSORTHOREF
  2

  9
$UCSORTHOVIEW
 70
     0
  9
$UCSORGTOP
 10
0.0
 20
0.0
 30
0.0
  9
$UCSORGBOTTOM
 10
0.0
 20
0.0
 30
0.0
  9
$UCSORGLEFT
 10
0.0
 20
0.0
 30
0.0
  9
$UCSORGRIGHT
 10
0.0
 20
0.0
 30
0.0
  9
$UCSORGFRONT
 10
0.0
 20
0.0
 30
0.0
  9
$UCSORGBACK
 10
0.0
 20
0.0
 30
0.0
  9
$PUCSBASE
  2

  9
$PUCSNAME
  2

  9
$PUCSORG
 10
0.0
 20
0.0
 30
0.0
  9
$PUCSXDIR
 10
1.0
 20
0.0
 30
0.0
  9
$PUCSYDIR
 10
0.0
 20
1.0
 30
0.0
  9
$PUCSORTHOREF
  2

  9
$PUCSORTHOVIEW
 70
     0
  9
$PUCSORGTOP
 10
0.0
 20
0.0
 30
0.0
  9
$PUCSORGBOTTOM
 10
0.0
 20
0.0
 30
0.0
  9
$PUCSORGLEFT
 10
0.0
 20
0.0
 30
0.0
  9
$PUCSORGRIGHT
 10
0.0
 20
0.0
 30
0.0
  9
$PUCSORGFRONT
 10
0.0
 20
0.0
 30
0.0
  9
$PUCSORGBACK
 10
0.0
 20
0.0
 30
0.0
  9
$USERI1
 70
     0
  9
$USERI2
 70
     0
  9
$USERI3
 70
     0
  9
$USERI4
 70
     0
  9
$USERI5
 70
     0
  9
$USERR1
 40
0.0
  9
$USERR2
 40
0.0
  9
$USERR3
 40
0.0
  9
$USERR4
 40
0.0
  9
$USERR5
 40
0.0
  9
$WORLDVIEW
 70
     1
  9
$SHADEDGE
 70
     3
  9
$SHADEDIF
 70
    70
  9
$TILEMODE
 70
     1
  9
$MAXACTVP
 70
    64
  9
$PINSBASE
 10
0.0
 20
0.0
 30
0.0
  9
$PLIMCHECK
 70
     0
  9
$PEXTMIN
 10
1.0000000000E+20
 20
1.0000000000E+20
 30
1.0000000000E+20
  9
$PEXTMAX
 10
-1.0000000000E+20
 20
-1.0000000000E+20
 30
-1.0000000000E+20
  9
$PLIMMIN
 10
0.0
 20
0.0
  9
$PLIMMAX
 10
420.0
 20
297.0
  9
$UNITMODE
 70
     0
  9
$VISRETAIN
 70
     1
  9
$PLINEGEN
 70
     0
  9
$PSLTSCALE
 70
     1
  9
$TREEDEPTH
 70
  3020
  9
$CMLSTYLE
  2
Standard
  9
$CMLJUST
 70
     0
  9
$CMLSCALE
 40
20.0
  9
$PROXYGRAPHICS
 70
     1
  9
$MEASUREMENT
 70
     1
  9
$CELWEIGHT
370
    -1
  9
$ENDCAPS
280
     0
  9
$JOINSTYLE
280
     0
  9
$LWDISPLAY
290
     1
  9
$INSUNITS
 70
     4
  9
$HYPERLINKBASE
  1

  9
$STYLESHEET
  1

  9
$XEDIT
290
     1
  9
$CEPSNTYPE
380
     0
  9
$PSTYLEMODE
290
     1
  9
$FINGERPRINTGUID
  2
{60C080E8-7087-4CF5-A51C-BE2B1E60B6D4}
  9
$VERSIONGUID
  2
{FAEB1C32-E019-11D5-929B-00C0DF256EC4}
  9
$EXTNAMES
290
     1
  9
$PSVPSCALE
 40
0.0
  9
$OLESTARTUP
290
     0
  0
ENDSEC
  0
SECTION
  2
CLASSES
  0
CLASS
  1
ACDBDICTIONARYWDFLT
  2
AcDbDictionaryWithDefault
  3
ObjectDBX Classes
 90
        0
280
     0
281
     0
  0
CLASS
  1
VISUALSTYLE
  2
AcDbVisualStyle
  3
ObjectDBX Classes
 90
     4095
280
     0
281
     0
  0
CLASS
  1
MATERIAL
  2
AcDbMaterial
  3
ObjectDBX Classes
 90
     1153
280
     0
281
     0
  0
CLASS
  1
ACDBPLACEHOLDER
  2
AcDbPlaceHolder
  3
ObjectDBX Classes
 90
        0
280
     0
281
     0
  0
CLASS
  1
LAYOUT
  2
AcDbLayout
  3
ObjectDBX Classes
 90
        0
280
     0
281
     0
  0
ENDSEC
  0
SECTION
  2
TABLES
  0
TABLE
  2
VPORT
  5
8
330
0
100
AcDbSymbolTable
 70
     1
  0
VPORT
  5
29
330
8
100
AcDbSymbolTableRecord
100
AcDbViewportTableRecord
  2
*Active
 70
     0
 10
0.0
 20
0.0
 11
1.0
 21
1.0
 12
215.9
 22
139.7
 13
0.0
 23
0.0
 14
10.0
 24
10.0
 15
10.0
 25
10.0
 16
0.0
 26
0.0
 36
1.0
 17
0.0
 27
0.0
 37
0.0
 40
279.4
 41
1.5454545455
 42
50.0
 43
0.0
 44
0.0
 50
0.0
 51
0.0
 71
     0
 72
  2000
 73
     1
 74
     3
 75
     0
 76
     0
 77
     0
 78
     0
281
     0
 65
     1
110
0.0
120
0.0
130
0.0
111
1.0
121
0.0
131
0.0
112
0.0
122
1.0
132
0.0
 79
     0
146
0.0
  0
ENDTAB
  0
TABLE
  2
LTYPE
  5
5
330
0
100
AcDbSymbolTable
 70
     6
  0
LTYPE
  5
14
330
5
100
AcDbSymbolTableRecord
100
AcDbLinetypeTableRecord
  2
ByBlock
 70
     0
  3

 72
    65
 73
     0
 40
0.0
  0
LTYPE
  5
15
330
5
100
AcDbSymbolTableRecord
100
AcDbLinetypeTableRecord
  2
ByLayer
 70
     0
  3

 72
    65
 73
     0
 40
0.0
  0
LTYPE
  5
16
330
5
100
AcDbSymbolTableRecord
100
AcDbLinetypeTableRecord
  2
Continuous
 70
     0
  3
Solid line
 72
    65
 73
     0
 40
0.0
  0
LTYPE
  5
3F
330
5
100
AcDbSymbolTableRecord
100
AcDbLinetypeTableRecord
  2
HIDDEN
 70
     0
  3
Hidden __ __ __ __ __ __ __ __ __ __ __ __ __ __
 72
    65
 73
     2
 40
1.905
 49
1.27
 74
     0
 49
-0.635
 74
     0
  0
LTYPE
  5
40
330
5
100
AcDbSymbolTableRecord
100
AcDbLinetypeTableRecord
  2
PHANTOM
 70
     0
  3
Phantom ______  __  __  ______  __  __  ______
 72
    65
 73
     6
 40
12.7
 49
6.35
 74
     0
 49
-1.27
 74
     0
 49
1.27
 74
     0
 49
-1.27
 74
     0
 49
1.27
 74
     0
 49
-1.27
 74
     0
  0
LTYPE
  5
41
330
5
100
AcDbSymbolTableRecord
100
AcDbLinetypeTableRecord
  2
CENTER
 70
     0
  3
Center ____ _ ____ _ ____ _ ____ _ ____ _ ____
 72
    65
 73
     4
 40
10.16
 49
6.35
 74
     0
 49
-1.27
 74
     0
 49
1.27
 74
     0
 49
-1.27
 74
     0
  0
LTYPE
  5
42
330
5
100
AcDbSymbolTableRecord
100
AcDbLinetypeTableRecord
  2
CENTERX2
 70
     0
  3
Center (2x) ________  __  ________  __  _____
 72
    65
 73
     4
 40
20.32
 49
12.7
 74
     0
 49
-2.54
 74
     0
 49
2.54
 74
     0
 49
-2.54
 74
     0
  0
LTYPE
  5
43
330
5
100
AcDbSymbolTableRecord
100
AcDbLinetypeTableRecord
  2
DOT2
 70
     0
  3
Dot (.5x) ........................................
 72
    65
 73
     2
 40
0.635
 49
0.0
 74
     0
 49
-0.635
 74
     0
  0
ENDTAB
  0
TABLE
  2
LAYER
  5
2
330
0
100
AcDbSymbolTable
 70
     3
  0
LAYER
  5
10
330
2
100
AcDbSymbolTableRecord
100
AcDbLayerTableRecord
  2
0
 70
     0
 62
     7
  6
Continuous
370
    -3
390
F
  0
LAYER
  5
44
330
2
100
AcDbSymbolTableRecord
100
AcDbLayerTableRecord
  2
FORMAT
 70
     0
 62
     7
  6
Continuous
370
    -3
390
F
  0
LAYER
  5
45
330
2
100
AcDbSymbolTableRecord
100
AcDbLayerTableRecord
  2
PROTOTYPE
 70
     0
 62
     7
  6
Continuous
370
    -3
390
F
  0
ENDTAB
  0
TABLE
  2
STYLE
  5
3
330
0
100
AcDbSymbolTable
 70
     1
  0
STYLE
  5
11
330
3
100
AcDbSymbolTableRecord
100
AcDbTextStyleTableRecord
  2
Standard
 70
     0
 40
0.0
 41
1.0
 50
0.0
 71
     0
 42
2.5
  3
txt
  4

  0
ENDTAB
  0
TABLE
  2
VIEW
  5
6
330
0
100
AcDbSymbolTable
 70
     0
  0
ENDTAB
  0
TABLE
  2
UCS
  5
7
330
0
100
AcDbSymbolTable
 70
     0
  0
ENDTAB
  0
TABLE
  2
APPID
  5
9
330
0
100
AcDbSymbolTable
 70
     1
  0
APPID
  5
12
330
9
100
AcDbSymbolTableRecord
100
AcDbRegAppTableRecord
  2
ACAD
 70
     0
  0
ENDTAB
  0
TABLE
  2
DIMSTYLE
  5
A
330
0
100
AcDbSymbolTable
 70
     1
100
AcDbDimStyleTable
  0
DIMSTYLE
105
27
330
A
100
AcDbSymbolTableRecord
100
AcDbDimStyleTableRecord
  2
ISO-25
 70
     0
 41
2.5
 42
0.625
 43
3.75
 44
1.25
 73
     0
 74
     0
 77
     1
 78
     8
140
2.5
141
2.5
143
0.0393700787
147
0.625
171
     3
172
     1
178
     0
271
     2
272
     2
274
     3
278
    44
283
     0
284
     8
340
11
  0
ENDTAB
  0
TABLE
  2
BLOCK_RECORD
  5
1
330
0
100
AcDbSymbolTable
 70
     2
  0
BLOCK_RECORD
  5
1F
330
1
100
AcDbSymbolTableRecord
100
AcDbBlockTableRecord
  2
*Model_Space
340
22
  0
BLOCK_RECORD
  5
1B
330
1
100
AcDbSymbolTableRecord
100
AcDbBlockTableRecord
  2
*Paper_Space
340
1E
  0
BLOCK_RECORD
  5
23
330
1
100
AcDbSymbolTableRecord
100
AcDbBlockTableRecord
  2
*Paper_Space0
340
26
  0
BLOCK_RECORD
  5
196
330
1
100
AcDbSymbolTableRecord
100
AcDbBlockTableRecord
  2
SW_CENTERMARKSYMBOL_0
340
0
102
{BLKREFS
331
1A1
102
}
  0
ENDTAB
  0
ENDSEC
  0
SECTION
  2
BLOCKS
  0
BLOCK
  5
20
330
1F
100
AcDbEntity
  8
0
100
AcDbBlockBegin
  2
*Model_Space
 70
     0
 10
0.0
 20
0.0
 30
0.0
  3
*Model_Space
  1

  0
ENDBLK
  5
21
330
1F
100
AcDbEntity
  8
0
100
AcDbBlockEnd
  0
BLOCK
  5
1C
330
1B
100
AcDbEntity
 67
     1
  8
0
100
AcDbBlockBegin
  2
*Paper_Space
 70
     0
 10
0.0
 20
0.0
 30
0.0
  3
*Paper_Space
  1

  0
ENDBLK
  5
1D
330
1B
100
AcDbEntity
 67
     1
  8
0
100
AcDbBlockEnd
  0
BLOCK
  5
24
330
23
100
AcDbEntity
  8
0
100
AcDbBlockBegin
  2
*Paper_Space0
 70
     0
 10
0.0
 20
0.0
 30
0.0
  3
*Paper_Space0
  1

  0
ENDBLK
  5
25
330
23
100
AcDbEntity
  8
0
100
AcDbBlockEnd
  0
BLOCK
  5
197
330
196
100
AcDbEntity
  8
0
100
AcDbBlockBegin
  2
SW_CENTERMARKSYMBOL_0
 70
     0
 10
0.0
 20
0.0
 30
0.0
  3
SW_CENTERMARKSYMBOL_0
  1

  0
LINE
  5
199
330
196
100
AcDbEntity
  8
0
  6
Continuous
 62
     0
370
     0
100
AcDbLine
 10
0.0
 20
0.0
 30
0.0
 11
0.0
 21
2.5
 31
0.0
  0
LINE
  5
19A
330
196
100
AcDbEntity
  8
0
  6
Continuous
 62
     0
370
     0
100
AcDbLine
 10
0.0
 20
0.0
 30
0.0
 11
-2.5
 21
0.0
 31
0.0
  0
LINE
  5
19B
330
196
100
AcDbEntity
  8
0
  6
Continuous
 62
     0
370
     0
100
AcDbLine
 10
0.0
 20
0.0
 30
0.0
 11
0.0
 21
-2.5
 31
0.0
  0
LINE
  5
19C
330
196
100
AcDbEntity
  8
0
  6
Continuous
 62
     0
370
     0
100
AcDbLine
 10
0.0
 20
0.0
 30
0.0
 11
2.5
 21
0.0
 31
0.0
  0
LINE
  5
19D
330
196
100
AcDbEntity
  8
0
  6
Continuous
 62
     0
370
     0
100
AcDbLine
 10
0.0
 20
5.0
 30
0.0
 11
0.0
 21
422.5
 31
0.0
  0
LINE
  5
19E
330
196
100
AcDbEntity
  8
0
  6
Continuous
 62
     0
370
     0
100
AcDbLine
 10
-5.0
 20
0.0
 30
0.0
 11
-422.5
 21
0.0
 31
0.0
  0
LINE
  5
19F
330
196
100
AcDbEntity
  8
0
  6
Continuous
 62
     0
370
     0
100
AcDbLine
 10
0.0
 20
-5.0
 30
0.0
 11
0.0
 21
-422.5
 31
0.0
  0
LINE
  5
1A0
330
196
100
AcDbEntity
  8
0
  6
Continuous
 62
     0
370
     0
100
AcDbLine
 10
5.0
 20
0.0
 30
0.0
 11
422.5
 21
0.0
 31
0.0
  0
ENDBLK
  5
198
330
196
100
AcDbEntity
  8
0
100
AcDbBlockEnd
  0
ENDSEC
  0
SECTION
  2
ENTITIES
  0
LINE
  5
46
330
1F
100
AcDbEntity
  8
0
  6
Continuous
 62
     7
370
    15
100
AcDbLine
 10
-1111.613642598
 20
392.7150420043
 30
0.0
 11
-1111.613642598
 21
367.7150434944
 31
0.0
  0
LINE
  5
47
330
1F
100
AcDbEntity
  8
0
  6
Continuous
 62
     7
370
    15
100
AcDbLine
 10
-271.613668824
 20
367.7150434944
 30
0.0
 11
-271.613668824
 21
392.7150420043
 31
0.0
  0
LINE
  5
48
330
1F
100
AcDbEntity
  8
0
  6
Continuous
 62
     7
370
    15
100
AcDbLine
 10
-1050.1136595257
 20
515.7150454018
 30
0.0
 11
-1050.1136595257
 21
512.4640367124
 31
0.0
  0
LINE
  5
49
330
1F
100
AcDbEntity
  8
0
  6
Continuous
 62
     7
370
    15
100
AcDbLine
 10
-333.1136518963
 20
512.4640367124
 30
0.0
 11
-333.1136518963
 21
515.7150454018
 31
0.0
  0
ARC
  5
4A
330
1F
100
AcDbEntity
  8
0
  6
Continuous
 62
     7
370
    15
100
AcDbCircle
 10
-1047.113655711
 20
512.4640385066
 30
0.0
 40
3.00000000000003
100
AcDbArc
 50
180.0
 51
265.0
  0
ARC
  5
4B
330
1F
100
AcDbEntity
  8
0
  6
Continuous
 62
     7
370
    15
100
AcDbCircle
 10
-336.113655711
 20
512.4640385066
 30
0.0
 40
3.00000000000003
100
AcDbArc
 50
275.0
 51
0.0
  0
LINE
  5
4C
330
1F
100
AcDbEntity
  8
0
  6
Continuous
 62
     7
370
    15
100
AcDbLine
 10
-679.6136556067
 20
515.7150454018
 30
0.0
 11
-679.6136556067
 21
518.2150467429
 31
0.0
  0
LINE
  5
4D
330
1F
100
AcDbEntity
  8
0
  6
Continuous
 62
     7
370
    15
100
AcDbLine
 10
-703.6136558153
 20
518.2150467429
 30
0.0
 11
-703.6136558153
 21
515.7150454018
 31
0.0
  0
LINE
  5
4E
330
1F
100
AcDbEntity
  8
0
  6
Continuous
 62
     7
370
    15
100
AcDbLine
 10
-1047.3751241215
 20
509.4754560981
 30
0.0
 11
-1031.1184638985
 21
508.0531812403
 31
0.0
  0
LINE
  5
4F
330
1F
100
AcDbEntity
  8
0
  6
Continuous
 62
     7
370
    15
100
AcDbLine
 10
-352.1088475235
 20
508.0531812403
 30
0.0
 11
-335.8521873005
 21
509.4754560981
 31
0.0
  0
LINE
  5
50
330
1F
100
AcDbEntity
  8
0
  6
Continuous
 62
     7
370
    15
100
AcDbLine
 10
-683.613655331
 20
533.7150446269
 30
0.0
 11
-683.613655331
 21
534.2150456402
 31
0.0
  0
LINE
  5
51
330
1F
100
AcDbEntity
  8
0
  6
Continuous
 62
     7
370
    15
100
AcDbLine
 10
-699.613656091
 20
534.2150456402
 30
0.0
 11
-699.613656091
 21
533.7150446269
 31
0.0
  0
LINE
  5
52
330
1F
100
AcDbEntity
  8
0
  6
Continuous
 62
     7
370
    15
100
AcDbLine
 10
-685.1136555769
 20
534.2150456402
 30
0.0
 11
-685.1136555769
 21
545.7150465939
 31
0.0
  0
LINE
  5
53
330
1F
100
AcDbEntity
  8
0
  6
Continuous
 62
     7
370
    15
100
AcDbLine
 10
-698.1136558451
 20
545.7150465939
 30
0.0
 11
-698.1136558451
 21
534.2150456402
 31
0.0
  0
LINE
  5
54
330
1F
100
AcDbEntity
  8
0
  6
Continuous
 62
     7
370
    15
100
AcDbLine
 10
-685.6136556588
 20
392.7150420043
 30
0.0
 11
-685.6136556588
 21
508.5821650121
 31
0.0
  0
LINE
  5
55
330
1F
100
AcDbEntity
  8
0
  6
Continuous
 62
     7
370
    15
100
AcDbLine
 10
-697.6136557631
 20
508.5821724627
 30
0.0
 11
-697.6136557631
 21
392.7150420043
 31
0.0
  0
LINE
  5
56
330
1F
100
AcDbEntity
  8
0
  6
Continuous
 62
     7
370
    15
100
AcDbLine
 10
-685.6136556588
 20
528.2150446567
 30
0.0
 11
-685.6136556588
 21
533.7150446269
 31
0.0
  0
LINE
  5
57
330
1F
100
AcDbEntity
  8
0
  6
Continuous
 62
     7
370
    15
100
AcDbLine
 10
-697.6136557631
 20
533.7150446269
 30
0.0
 11
-697.6136557631
 21
528.2150446567
 31
0.0
  0
ARC
  5
58
330
1F
100
AcDbEntity
  8
0
  6
Continuous
 62
     7
370
    15
100
AcDbCircle
 10
-1031.5542455921
 20
503.0722078097
 30
0.0
 40
4.999999999999937
100
AcDbArc
 50
3.0
 51
85.0
  0
ARC
  5
59
330
1F
100
AcDbEntity
  8
0
  6
Continuous
 62
     7
370
    15
100
AcDbCircle
 10
-351.6730658298
 20
503.0722078097
 30
0.0
 40
5.000000000000039
100
AcDbArc
 50
95.0
 51
177.0
  0
LINE
  5
5A
330
1F
100
AcDbEntity
  8
0
  6
Continuous
 62
     7
370
    15
100
AcDbLine
 10
-1026.5610927589
 20
503.3338866327
 30
0.0
 11
-1026.2036735065
 21
496.5139865074
 31
0.0
  0
LINE
  5
5B
330
1F
100
AcDbEntity
  8
0
  6
Continuous
 62
     7
370
    15
100
AcDbLine
 10
-357.0236379154
 20
496.5139865074
 30
0.0
 11
-356.666218663
 21
503.3338866327
 31
0.0
  0
LINE
  5
5C
330
1F
100
AcDbEntity
  8
0
  6
Continuous
 62
     7
370
    15
100
AcDbLine
 10
-1014.2036789902
 20
475.2358421813
 30
0.0
 11
-900.6934577473
 21
475.2358421813
 31
0.0
  0
LINE
  5
5D
330
1F
100
AcDbEntity
  8
0
  6
Continuous
 62
     7
370
    15
100
AcDbLine
 10
-888.6934632309
 20
475.2358421813
 30
0.0
 11
-697.6136557631
 21
475.2358421813
 31
0.0
  0
LINE
  5
5E
330
1F
100
AcDbEntity
  8
0
  6
Continuous
 62
     7
370
    15
100
AcDbLine
 10
-685.6136556588
 20
475.2358421813
 30
0.0
 11
-494.5338481911
 21
475.2358421813
 31
0.0
  0
LINE
  5
5F
330
1F
100
AcDbEntity
  8
0
  6
Continuous
 62
     7
370
    15
100
AcDbLine
 10
-482.5338536747
 20
475.2358421813
 30
0.0
 11
-369.0236324318
 21
475.2358421813
 31
0.0
  0
LINE
  5
60
330
1F
100
AcDbEntity
  8
0
  6
Continuous
 62
     7
370
    15
100
AcDbLine
 10
-1011.6136485584
 20
467.7150449846
 30
0.0
 11
-1011.6136485584
 21
392.7150420043
 31
0.0
  0
LINE
  5
61
330
1F
100
AcDbEntity
  8
0
  6
Continuous
 62
     7
370
    15
100
AcDbLine
 10
-371.6136628635
 20
392.7150420043
 30
0.0
 11
-371.6136628635
 21
467.7150449846
 31
0.0
  0
ARC
  5
62
330
1F
100
AcDbEntity
  8
0
  6
Continuous
 62
     7
370
    15
100
AcDbCircle
 10
-1011.113655711
 20
471.7150449846
 30
0.0
 40
6.000000000000184
100
AcDbArc
 50
25.0
 51
35.9302218348
  0
ARC
  5
63
330
1F
100
AcDbEntity
  8
0
  6
Continuous
 62
     7
370
    15
100
AcDbCircle
 10
-372.113655711
 20
471.7150449846
 30
0.0
 40
6.000000000000081
100
AcDbArc
 50
144.0697781652
 51
155.0
  0
LINE
  5
64
330
1F
100
AcDbEntity
  8
0
  6
Continuous
 62
     7
370
    15
100
AcDbLine
 10
-1005.6758040436
 20
474.2507543545
 30
0.0
 11
-1002.6281589516
 21
467.7150449846
 31
0.0
  0
LINE
  5
65
330
1F
100
AcDbEntity
  8
0
  6
Continuous
 62
     7
370
    15
100
AcDbLine
 10
-380.5991524704
 20
467.7150449846
 30
0.0
 11
-377.5515073784
 21
474.2507543545
 31
0.0
  0
LINE
  5
66
330
1F
100
AcDbEntity
  8
0
  6
Continuous
 62
     7
370
    15
100
AcDbLine
 10
-882.6934659727
 20
515.7150454018
 30
0.0
 11
-882.6934659727
 21
518.2150467429
 31
0.0
  0
LINE
  5
67
330
1F
100
AcDbEntity
  8
0
  6
Continuous
 62
     7
370
    15
100
AcDbLine
 10
-906.6934550055
 20
518.2150467429
 30
0.0
 11
-906.6934550055
 21
515.7150454018
 31
0.0
  0
LINE
  5
68
330
1F
100
AcDbEntity
  8
0
  6
Continuous
 62
     7
370
    15
100
AcDbLine
 10
-476.5338564165
 20
515.7150454018
 30
0.0
 11
-476.5338564165
 21
518.2150467429
 31
0.0
  0
LINE
  5
69
330
1F
100
AcDbEntity
  8
0
  6
Continuous
 62
     7
370
    15
100
AcDbLine
 10
-500.5338454493
 20
518.2150467429
 30
0.0
 11
-500.5338454493
 21
515.7150454018
 31
0.0
  0
LINE
  5
6A
330
1F
100
AcDbEntity
  8
0
  6
Continuous
 62
     7
370
    15
100
AcDbLine
 10
-886.6934591778
 20
533.7150446269
 30
0.0
 11
-886.6934591778
 21
534.2150456402
 31
0.0
  0
LINE
  5
6B
330
1F
100
AcDbEntity
  8
0
  6
Continuous
 62
     7
370
    15
100
AcDbLine
 10
-902.6934618004
 20
534.2150456402
 30
0.0
 11
-902.6934618004
 21
533.7150446269
 31
0.0
  0
LINE
  5
6C
330
1F
100
AcDbEntity
  8
0
  6
Continuous
 62
     7
370
    15
100
AcDbLine
 10
-480.5338496216
 20
533.7150446269
 30
0.0
 11
-480.5338496216
 21
534.2150456402
 31
0.0
  0
LINE
  5
6D
330
1F
100
AcDbEntity
  8
0
  6
Continuous
 62
     7
370
    15
100
AcDbLine
 10
-496.5338522442
 20
534.2150456402
 30
0.0
 11
-496.5338522442
 21
533.7150446269
 31
0.0
  0
LINE
  5
6E
330
1F
100
AcDbEntity
  8
0
  6
Continuous
 62
     7
370
    15
100
AcDbLine
 10
-888.193454767
 20
534.2150456402
 30
0.0
 11
-888.193454767
 21
545.7150465939
 31
0.0
  0
LINE
  5
6F
330
1F
100
AcDbEntity
  8
0
  6
Continuous
 62
     7
370
    15
100
AcDbLine
 10
-901.1934662111
 20
545.7150465939
 30
0.0
 11
-901.1934662111
 21
534.2150456402
 31
0.0
  0
LINE
  5
70
330
1F
100
AcDbEntity
  8
0
  6
Continuous
 62
     7
370
    15
100
AcDbLine
 10
-482.0338452108
 20
534.2150456402
 30
0.0
 11
-482.0338452108
 21
545.7150465939
 31
0.0
  0
LINE
  5
71
330
1F
100
AcDbEntity
  8
0
  6
Continuous
 62
     7
370
    15
100
AcDbLine
 10
-495.0338566549
 20
545.7150465939
 30
0.0
 11
-495.0338566549
 21
534.2150456402
 31
0.0
  0
LINE
  5
72
330
1F
100
AcDbEntity
  8
0
  6
Continuous
 62
     7
370
    15
100
AcDbLine
 10
-888.6934632309
 20
528.2150446567
 30
0.0
 11
-888.6934632309
 21
533.7150446269
 31
0.0
  0
LINE
  5
73
330
1F
100
AcDbEntity
  8
0
  6
Continuous
 62
     7
370
    15
100
AcDbLine
 10
-900.6934577473
 20
533.7150446269
 30
0.0
 11
-900.6934577473
 21
528.2150446567
 31
0.0
  0
LINE
  5
74
330
1F
100
AcDbEntity
  8
0
  6
Continuous
 62
     7
370
    15
100
AcDbLine
 10
-888.6934632309
 20
392.7150420043
 30
0.0
 11
-888.6934632309
 21
508.2732713911
 31
0.0
  0
LINE
  5
75
330
1F
100
AcDbEntity
  8
0
  6
Continuous
 62
     7
370
    15
100
AcDbLine
 10
-900.6934577473
 20
508.8887079749
 30
0.0
 11
-900.6934577473
 21
392.7150420043
 31
0.0
  0
LINE
  5
76
330
1F
100
AcDbEntity
  8
0
  6
Continuous
 62
     7
370
    15
100
AcDbLine
 10
-482.5338536747
 20
528.2150446567
 30
0.0
 11
-482.5338536747
 21
533.7150446269
 31
0.0
  0
LINE
  5
77
330
1F
100
AcDbEntity
  8
0
  6
Continuous
 62
     7
370
    15
100
AcDbLine
 10
-494.5338481911
 20
533.7150446269
 30
0.0
 11
-494.5338481911
 21
528.2150446567
 31
0.0
  0
LINE
  5
78
330
1F
100
AcDbEntity
  8
0
  6
Continuous
 62
     7
370
    15
100
AcDbLine
 10
-482.5338536747
 20
392.7150420043
 30
0.0
 11
-482.5338536747
 21
508.8889724705
 31
0.0
  0
LINE
  5
79
330
1F
100
AcDbEntity
  8
0
  6
Continuous
 62
     7
370
    15
100
AcDbLine
 10
-494.5338481911
 20
508.2732192371
 30
0.0
 11
-494.5338481911
 21
392.7150420043
 31
0.0
  0
LINE
  5
7A
330
1F
100
AcDbEntity
  8
0
  6
Continuous
 62
     7
370
    15
100
AcDbLine
 10
-1008.2036966331
 20
515.7150454018
 30
0.0
 11
-1008.2036966331
 21
518.2150467429
 31
0.0
  0
LINE
  5
7B
330
1F
100
AcDbEntity
  8
0
  6
Continuous
 62
     7
370
    15
100
AcDbLine
 10
-1032.2036856659
 20
518.2150467429
 30
0.0
 11
-1032.2036856659
 21
515.7150454018
 31
0.0
  0
LINE
  5
7C
330
1F
100
AcDbEntity
  8
0
  6
Continuous
 62
     7
370
    15
100
AcDbLine
 10
-351.0236257561
 20
515.7150454018
 30
0.0
 11
-351.0236257561
 21
518.2150467429
 31
0.0
  0
LINE
  5
7D
330
1F
100
AcDbEntity
  8
0
  6
Continuous
 62
     7
370
    15
100
AcDbLine
 10
-375.0236147888
 20
518.2150467429
 30
0.0
 11
-375.0236147888
 21
515.7150454018
 31
0.0
  0
LINE
  5
7E
330
1F
100
AcDbEntity
  8
0
  6
Continuous
 62
     7
370
    15
100
AcDbLine
 10
-1012.2036749371
 20
533.7150446269
 30
0.0
 11
-1012.2036749371
 21
534.2150456402
 31
0.0
  0
LINE
  5
7F
330
1F
100
AcDbEntity
  8
0
  6
Continuous
 62
     7
370
    15
100
AcDbLine
 10
-1028.2036775597
 20
534.2150456402
 30
0.0
 11
-1028.2036775597
 21
533.7150446269
 31
0.0
  0
LINE
  5
80
330
1F
100
AcDbEntity
  8
0
  6
Continuous
 62
     7
370
    15
100
AcDbLine
 10
-355.0236338623
 20
533.7150446269
 30
0.0
 11
-355.0236338623
 21
534.2150456402
 31
0.0
  0
LINE
  5
81
330
1F
100
AcDbEntity
  8
0
  6
Continuous
 62
     7
370
    15
100
AcDbLine
 10
-371.0236364849
 20
534.2150456402
 30
0.0
 11
-371.0236364849
 21
533.7150446269
 31
0.0
  0
LINE
  5
82
330
1F
100
AcDbEntity
  8
0
  6
Continuous
 62
     7
370
    15
100
AcDbLine
 10
-1013.7036854275
 20
534.2150456402
 30
0.0
 11
-1013.7036854275
 21
545.7150465939
 31
0.0
  0
LINE
  5
83
330
1F
100
AcDbEntity
  8
0
  6
Continuous
 62
     7
370
    15
100
AcDbLine
 10
-1026.7036968716
 20
545.7150465939
 30
0.0
 11
-1026.7036968716
 21
534.2150456402
 31
0.0
  0
LINE
  5
84
330
1F
100
AcDbEntity
  8
0
  6
Continuous
 62
     7
370
    15
100
AcDbLine
 10
-356.5236145504
 20
534.2150456402
 30
0.0
 11
-356.5236145504
 21
545.7150465939
 31
0.0
  0
LINE
  5
85
330
1F
100
AcDbEntity
  8
0
  6
Continuous
 62
     7
370
    15
100
AcDbLine
 10
-369.5236259945
 20
545.7150465939
 30
0.0
 11
-369.5236259945
 21
534.2150456402
 31
0.0
  0
LINE
  5
86
330
1F
100
AcDbEntity
  8
0
  6
Continuous
 62
     7
370
    15
100
AcDbLine
 10
-1014.2036789902
 20
528.2150446567
 30
0.0
 11
-1014.2036789902
 21
533.7150446269
 31
0.0
  0
LINE
  5
87
330
1F
100
AcDbEntity
  8
0
  6
Continuous
 62
     7
370
    15
100
AcDbLine
 10
-1026.2036735065
 20
533.7150446269
 30
0.0
 11
-1026.2036735065
 21
528.2150446567
 31
0.0
  0
LINE
  5
88
330
1F
100
AcDbEntity
  8
0
  6
Continuous
 62
     7
370
    15
100
AcDbLine
 10
-1014.2036789902
 20
392.7150420043
 30
0.0
 11
-1014.2036789902
 21
508.0801523421
 31
0.0
  0
LINE
  5
89
330
1F
100
AcDbEntity
  8
0
  6
Continuous
 62
     7
370
    15
100
AcDbLine
 10
-1026.2036735065
 20
509.0756467674
 30
0.0
 11
-1026.2036735065
 21
392.7150420043
 31
0.0
  0
LINE
  5
8A
330
1F
100
AcDbEntity
  8
0
  6
Continuous
 62
     7
370
    15
100
AcDbLine
 10
-357.0236379154
 20
528.2150446567
 30
0.0
 11
-357.0236379154
 21
533.7150446269
 31
0.0
  0
LINE
  5
8B
330
1F
100
AcDbEntity
  8
0
  6
Continuous
 62
     7
370
    15
100
AcDbLine
 10
-369.0236324318
 20
533.7150446269
 30
0.0
 11
-369.0236324318
 21
528.2150446567
 31
0.0
  0
LINE
  5
8C
330
1F
100
AcDbEntity
  8
0
  6
Continuous
 62
     7
370
    15
100
AcDbLine
 10
-357.0236379154
 20
392.7150420043
 30
0.0
 11
-357.0236379154
 21
509.0758516583
 31
0.0
  0
LINE
  5
8D
330
1F
100
AcDbEntity
  8
0
  6
Continuous
 62
     7
370
    15
100
AcDbLine
 10
-369.0236324318
 20
508.0803646836
 30
0.0
 11
-369.0236324318
 21
392.7150420043
 31
0.0
  0
LINE
  5
8E
330
1F
100
AcDbEntity
  8
0
  6
Continuous
 62
     7
370
    15
100
AcDbLine
 10
-691.613655711
 20
367.7150434944
 30
0.0
 11
-271.613668824
 21
367.7150434944
 31
0.0
  0
LINE
  5
8F
330
1F
100
AcDbEntity
  8
0
  6
Continuous
 62
     7
370
    15
100
AcDbLine
 10
-1111.613642598
 20
367.7150434944
 30
0.0
 11
-691.613655711
 21
367.7150434944
 31
0.0
  0
LINE
  5
90
330
1F
100
AcDbEntity
  8
0
  6
Continuous
 62
     7
370
    15
100
AcDbLine
 10
-691.613655711
 20
392.7150420043
 30
0.0
 11
-271.613668824
 21
392.7150420043
 31
0.0
  0
LINE
  5
91
330
1F
100
AcDbEntity
  8
0
  6
Continuous
 62
     7
370
    15
100
AcDbLine
 10
-1111.613642598
 20
392.7150420043
 30
0.0
 11
-691.613655711
 21
392.7150420043
 31
0.0
  0
LINE
  5
92
330
1F
100
AcDbEntity
  8
0
  6
Continuous
 62
     7
370
    15
100
AcDbLine
 10
-691.613655711
 20
515.7150454018
 30
0.0
 11
-333.1136518963
 21
515.7150454018
 31
0.0
  0
LINE
  5
93
330
1F
100
AcDbEntity
  8
0
  6
Continuous
 62
     7
370
    15
100
AcDbLine
 10
-1050.1136595257
 20
515.7150454018
 30
0.0
 11
-691.613655711
 21
515.7150454018
 31
0.0
  0
LINE
  5
94
330
1F
100
AcDbEntity
  8
0
  6
Continuous
 62
     7
370
    15
100
AcDbLine
 10
-679.6136556067
 20
518.2150467429
 30
0.0
 11
-703.6136558153
 21
518.2150467429
 31
0.0
  0
LINE
  5
95
330
1F
100
AcDbEntity
  8
0
  6
Continuous
 62
     7
370
    15
100
AcDbLine
 10
-692.464453109
 20
528.2150446567
 30
0.0
 11
-692.464453109
 21
518.2150467429
 31
0.0
  0
LINE
  5
96
330
1F
100
AcDbEntity
  8
0
  6
Continuous
 62
     7
370
    15
100
AcDbLine
 10
-682.567671115
 20
528.2150446567
 30
0.0
 11
-682.567671115
 21
518.2150467429
 31
0.0
  0
LINE
  5
97
330
1F
100
AcDbEntity
  8
0
  6
Continuous
 62
     7
370
    15
100
AcDbLine
 10
-692.464453109
 20
528.2150446567
 30
0.0
 11
-682.567671115
 21
528.2150446567
 31
0.0
  0
LINE
  5
98
330
1F
100
AcDbEntity
  8
0
  6
Continuous
 62
     7
370
    15
100
AcDbLine
 10
-701.5104379378
 20
528.2150446567
 30
0.0
 11
-701.5104379378
 21
518.2150467429
 31
0.0
  0
LINE
  5
99
330
1F
100
AcDbEntity
  8
0
  6
Continuous
 62
     7
370
    15
100
AcDbLine
 10
-701.5104379378
 20
528.2150446567
 30
0.0
 11
-692.464453109
 21
528.2150446567
 31
0.0
  0
SPLINE
  5
9A
330
1F
100
AcDbEntity
  8
0
  6
Continuous
 62
     7
370
    15
100
AcDbSpline
210
0.0
220
0.0
230
1.0
 70
     8
 71
     3
 72
    27
 73
    23
 74
     0
 42
0.00000001
 43
0.00000001
 12
1.0
 22
0.0
 32
0.0
 13
1.0
 23
0.0
 33
0.0
 40
0.0
 40
0.0
 40
0.0
 40
0.0
 40
0.0161953382201715
 40
0.069636157837237
 40
0.1230776220553157
 40
0.1766197389158977
 40
0.2301629639224895
 40
0.2839073504992697
 40
0.3376521071835604
 40
0.3915754332619066
 40
0.4454981770865713
 40
0.4994967877896449
 40
0.5534959000309173
 40
0.6074362779808711
 40
0.6613765080225101
 40
0.7151538678074434
 40
0.7689306327240913
 40
0.8225110273325398
 40
0.8760918130287605
 40
0.9295280694298911
 40
0.9829641564016249
 40
1.0
 40
1.0
 40
1.0
 40
1.0
 10
-369.0064066894529
 20
508.0803646836095
 30
0.0
 10
-369.0112802431899
 20
508.0827497997796
 30
0.0
 10
-369.0322353818012
 20
508.0930052401923
 30
0.0
 10
-368.8992529662889
 20
508.1254039149088
 30
0.0
 10
-368.6082652787911
 20
508.1764664637274
 30
0.0
 10
-368.1447441532604
 20
508.2401840277018
 30
0.0
 10
-367.5422154273173
 20
508.3130621081763
 30
0.0
 10
-366.8079673189692
 20
508.3936701246181
 30
0.0
 10
-365.9673219135753
 20
508.4794530548808
 30
0.0
 10
-365.0404023791265
 20
508.5680459497088
 30
0.0
 10
-364.0556985623525
 20
508.6569115501395
 30
0.0
 10
-363.0402125559424
 20
508.7434133675547
 30
0.0
 10
-362.0237489803222
 20
508.8252166628494
 30
0.0
 10
-361.0363121436635
 20
508.8997656187606
 30
0.0
 10
-360.1052516391984
 20
508.9652521585433
 30
0.0
 10
-359.2597133218124
 20
509.019493972311
 30
0.0
 10
-358.5203336550633
 20
509.0614782939261
 30
0.0
 10
-357.9131630916548
 20
509.0895140210419
 30
0.0
 10
-357.4456342165974
 20
509.103791094687
 30
0.0
 10
-357.1516560761903
 20
509.1021378327275
 30
0.0
 10
-357.0152229657278
 20
509.0926869474662
 30
0.0
 10
-357.0369519984966
 20
509.0791291197336
 30
0.0
 10
-357.0422047622678
 20
509.0758516583257
 30
0.0
  0
SPLINE
  5
9B
330
1F
100
AcDbEntity
  8
0
  6
Continuous
 62
     7
370
    15
100
AcDbSpline
210
0.0
220
0.0
230
1.0
 70
     8
 71
     3
 72
    27
 73
    23
 74
     0
 42
0.00000001
 43
0.00000001
 12
1.0
 22
0.0
 32
0.0
 13
1.0
 23
0.0
 33
0.0
 40
0.0
 40
0.0
 40
0.0
 40
0.0
 40
0.0302710282959691
 40
0.0840159154946155
 40
0.1377619668285997
 40
0.1916850997443593
 40
0.2456068792156997
 40
0.2996063342214763
 40
0.3536045009192894
 40
0.4075452018980457
 40
0.4614855642165189
 40
0.5152626599964503
 40
0.5690393075090538
 40
0.6226200023772507
 40
0.676201379407446
 40
0.7296364923894897
 40
0.7830731925657023
 40
0.8364756573472384
 40
0.8898791958773871
 40
0.943372478721099
 40
0.9968668728606547
 40
1.0
 40
1.0
 40
1.0
 40
1.0
 10
-494.5127034433363
 20
508.2732192370706
 30
0.0
 10
-494.5157497864652
 20
508.2866606430969
 30
0.0
 10
-494.5242047786245
 20
508.323966677824
 30
0.0
 10
-494.3479119983066
 20
508.393915790591
 30
0.0
 10
-494.0094059558467
 20
508.4793858130053
 30
0.0
 10
-493.5037551853119
 20
508.5680627413734
 30
0.0
 10
-492.8605157736849
 20
508.6569089217363
 30
0.0
 10
-492.0901409631701
 20
508.7434125393455
 30
0.0
 10
-491.219831321753
 20
508.825217700409
 30
0.0
 10
-490.270869020779
 20
508.8997655910921
 30
0.0
 10
-489.2739736537964
 20
508.9652510788721
 30
0.0
 10
-488.255885833714
 20
509.0194972512945
 30
0.0
 10
-487.2472191952272
 20
509.0614665532667
 30
0.0
 10
-486.2766985032035
 20
509.0895582548604
 30
0.0
 10
-485.3705571688571
 20
509.103626206818
 30
0.0
 10
-484.5566183862525
 20
509.1027508711827
 30
0.0
 10
-483.8531820974679
 20
509.0876252488878
 30
0.0
 10
-483.2861694070586
 20
509.0580164087896
 30
0.0
 10
-482.8588429538009
 20
509.0155946167538
 30
0.0
 10
-482.6136877400197
 20
508.9597950604274
 30
0.0
 10
-482.5088265486175
 20
508.9166928919773
 30
0.0
 10
-482.5370034502938
 20
508.8904257948419
 30
0.0
 10
-482.538562441635
 20
508.8889724705033
 30
0.0
  0
SPLINE
  5
9C
330
1F
100
AcDbEntity
  8
0
  6
Continuous
 62
     7
370
    15
100
AcDbSpline
210
0.0
220
0.0
230
1.0
 70
     8
 71
     3
 72
    26
 73
    22
 74
     0
 42
0.00000001
 43
0.00000001
 12
1.0
 22
0.0
 32
0.0
 13
1.0
 23
0.0
 33
0.0
 40
0.0
 40
0.0
 40
0.0
 40
0.0
 40
0.0453204378220085
 40
0.0993180263327549
 40
0.1533153943951341
 40
0.2072545883279213
 40
0.261194305702257
 40
0.3149706418053967
 40
0.3687461006970548
 40
0.4223260228449275
 40
0.4759055804840021
 40
0.5293406999161455
 40
0.5827760489118378
 40
0.6361776347535113
 40
0.6895800869621679
 40
0.7430726554079381
 40
0.796565553862274
 40
0.8502355435344953
 40
0.9039065699562001
 40
0.9577672032488599
 40
1.0
 40
1.0
 40
1.0
 40
1.0
 10
-697.6016668476342
 20
508.5821724626832
 30
0.0
 10
-697.594905094455
 20
508.6070395075396
 30
0.0
 10
-697.5800869679636
 20
508.6615346963454
 30
0.0
 10
-697.3483657440922
 20
508.7434046007028
 30
0.0
 10
-696.9603193168707
 20
508.8252192752051
 30
0.0
 10
-696.4113115513204
 20
508.8997657581551
 30
0.0
 10
-695.7296231539957
 20
508.9652510739524
 30
0.0
 10
-694.9278313429544
 20
509.0194970057393
 30
0.0
 10
-694.0349804821941
 20
509.0614667128497
 30
0.0
 10
-693.0725233241894
 20
509.0895581940891
 30
0.0
 10
-692.0713335706216
 20
509.1036255623059
 30
0.0
 10
-691.0577646850509
 20
509.102753939437
 30
0.0
 10
-690.060798313363
 20
509.0876140398801
 30
0.0
 10
-689.1090273832431
 20
509.058057854137
 30
0.0
 10
-688.2264816224656
 20
509.0154400606
 30
0.0
 10
-687.4412230059143
 20
508.9603724188998
 30
0.0
 10
-686.7707932157795
 20
508.8947561686301
 30
0.0
 10
-686.2381919910135
 20
508.8199802983906
 30
0.0
 10
-685.859140573356
 20
508.7382933875699
 30
0.0
 10
-685.6432812609421
 20
508.6580663123464
 30
0.0
 10
-685.6328411451987
 20
508.6053386665904
 30
0.0
 10
-685.6282527432023
 20
508.5821650121026
 30
0.0
  0
SPLINE
  5
9D
330
1F
100
AcDbEntity
  8
0
  6
Continuous
 62
     7
370
    15
100
AcDbSpline
210
0.0
220
0.0
230
1.0
 70
     8
 71
     3
 72
    27
 73
    23
 74
     0
 42
0.00000001
 43
0.00000001
 12
1.0
 22
0.0
 32
0.0
 13
1.0
 23
0.0
 33
0.0
 40
0.0
 40
0.0
 40
0.0
 40
0.0
 40
0.0069477909207494
 40
0.0608879063499694
 40
0.1146669710122831
 40
0.1684437255730043
 40
0.2220263272496981
 40
0.2756073618546209
 40
0.3290433660256367
 40
0.3824802732424248
 40
0.4358835687458736
 40
0.4892878398624836
 40
0.5427821083281246
 40
0.5962764234309168
 40
0.6499484312064031
 40
0.7036207283808035
 40
0.7574832851644873
 40
0.8113452072668237
 40
0.865330061727583
 40
0.919312801713938
 40
0.9732955454755918
 40
1.0
 40
1.0
 40
1.0
 40
1.0
 10
-900.6832951553343
 20
508.8887079748922
 30
0.0
 10
-900.686374759584
 20
508.8919144691889
 30
0.0
 10
-900.7133632883539
 20
508.9200150160644
 30
0.0
 10
-900.6025327932982
 20
508.964739832609
 30
0.0
 10
-900.336703881642
 20
509.0196332084993
 30
0.0
 10
-899.8971242594774
 20
509.0614308371963
 30
0.0
 10
-899.3113261343206
 20
509.089567564543
 30
0.0
 10
-898.5972196682808
 20
509.1036229991084
 30
0.0
 10
-897.7713234472097
 20
509.1027545717392
 30
0.0
 10
-896.8613144655668
 20
509.0876138245494
 30
0.0
 10
-895.8894456770365
 20
509.0580578510324
 30
0.0
 10
-894.8847012754038
 20
509.0154401204697
 30
0.0
 10
-893.8744765909383
 20
508.9603725105015
 30
0.0
 10
-892.8858424671448
 20
508.8947562864467
 30
0.0
 10
-891.9487815531173
 20
508.8199783691685
 30
0.0
 10
-891.0863034412995
 20
508.7383029347557
 30
0.0
 10
-890.327390253068
 20
508.651799365729
 30
0.0
 10
-889.6896055613364
 20
508.5629979469946
 30
0.0
 10
-889.1945515956597
 20
508.4742873739515
 30
0.0
 10
-888.8621061873692
 20
508.3887401177628
 30
0.0
 10
-888.6989338434986
 20
508.3206533131572
 30
0.0
 10
-888.7112253887944
 20
508.2850535767033
 30
0.0
 10
-888.7152934320449
 20
508.2732713911348
 30
0.0
  0
SPLINE
  5
9E
330
1F
100
AcDbEntity
  8
0
  6
Continuous
 62
     7
370
    15
100
AcDbSpline
210
0.0
220
0.0
230
1.0
 70
     8
 71
     3
 72
    27
 73
    23
 74
     0
 42
0.00000001
 43
0.00000001
 12
1.0
 22
0.0
 32
0.0
 13
1.0
 23
0.0
 33
0.0
 40
0.0
 40
0.0
 40
0.0
 40
0.0
 40
0.0221453335091373
 40
0.0757259507545605
 40
0.1291622898265731
 40
0.1825989453188027
 40
0.236001026738472
 40
0.2894048438571222
 40
0.3428974576906025
 40
0.3963917401744435
 40
0.4500629241986173
 40
0.5037351955958299
 40
0.5575960265146809
 40
0.6114595347784954
 40
0.6654419114003498
 40
0.7194255604905887
 40
0.7734061672507767
 40
0.8273860817581857
 40
0.8812358011075039
 40
0.9350841941051257
 40
0.9887320041360744
 40
1.0
 40
1.0
 40
1.0
 40
1.0
 10
-1026.182662869262
 20
509.0756467673593
 30
0.0
 10
-1026.18756519821
 20
509.07975197105
 30
0.0
 10
-1026.204328708244
 20
509.0937897118859
 30
0.0
 10
-1026.056101779609
 20
509.1031005333058
 30
0.0
 10
-1025.741348430944
 20
509.1028943987857
 30
0.0
 10
-1025.263728431561
 20
509.087576720088
 30
0.0
 10
-1024.643578708705
 20
509.0580673954118
 30
0.0
 10
-1023.900271137633
 20
509.0154383307125
 30
0.0
 10
-1023.050927068097
 20
508.9603719029448
 30
0.0
 10
-1022.121993685518
 20
508.8947569746388
 30
0.0
 10
-1021.137295028465
 20
508.8199776023873
 30
0.0
 10
-1020.124971285625
 20
508.7383038276625
 30
0.0
 10
-1019.11407348562
 20
508.6518005875249
 30
0.0
 10
-1018.131823916821
 20
508.562982717219
 30
0.0
 10
-1017.209083094545
 20
508.4743591821024
 30
0.0
 10
-1016.369383283208
 20
508.388459254983
 30
0.0
 10
-1015.641009393169
 20
508.3079230317155
 30
0.0
 10
-1015.041753267643
 20
508.2350325657576
 30
0.0
 10
-1014.589391964452
 20
508.171861582523
 30
0.0
 10
-1014.309178999176
 20
508.1214582165197
 30
0.0
 10
-1014.189086967466
 20
508.0908335175255
 30
0.0
 10
-1014.214014794947
 20
508.0817321456186
 30
0.0
 10
-1014.218341732788
 20
508.0801523420625
 30
0.0
  0
LINE
  5
9F
330
1F
100
AcDbEntity
  8
0
  6
Continuous
 62
     7
370
    15
100
AcDbLine
 10
-683.613655331
 20
534.2150456402
 30
0.0
 11
-699.613656091
 21
534.2150456402
 31
0.0
  0
LINE
  5
A0
330
1F
100
AcDbEntity
  8
0
  6
Continuous
 62
     7
370
    15
100
AcDbLine
 10
-683.613655331
 20
533.7150446269
 30
0.0
 11
-699.613656091
 21
533.7150446269
 31
0.0
  0
LINE
  5
A1
330
1F
100
AcDbEntity
  8
0
  6
Continuous
 62
     7
370
    15
100
AcDbLine
 10
-685.1136555769
 20
545.7150465939
 30
0.0
 11
-698.1136558451
 21
545.7150465939
 31
0.0
  0
LINE
  5
A2
330
1F
100
AcDbEntity
  8
0
  6
Continuous
 62
     7
370
    15
100
AcDbLine
 10
-681.7168734841
 20
528.2150446567
 30
0.0
 11
-681.7168734841
 21
518.2150467429
 31
0.0
  0
LINE
  5
A3
330
1F
100
AcDbEntity
  8
0
  6
Continuous
 62
     7
370
    15
100
AcDbLine
 10
-682.567671115
 20
528.2150446567
 30
0.0
 11
-681.7168734841
 21
528.2150446567
 31
0.0
  0
LINE
  5
A4
330
1F
100
AcDbEntity
  8
0
  6
Continuous
 62
     7
370
    15
100
AcDbLine
 10
-685.6136556588
 20
475.7150453645
 30
0.0
 11
-494.5338481911
 21
475.7150453645
 31
0.0
  0
LINE
  5
A5
330
1F
100
AcDbEntity
  8
0
  6
Continuous
 62
     7
370
    15
100
AcDbLine
 10
-482.5338536747
 20
475.7150453645
 30
0.0
 11
-369.0236324318
 21
475.7150453645
 31
0.0
  0
LINE
  5
A6
330
1F
100
AcDbEntity
  8
0
  6
Continuous
 62
     7
370
    15
100
AcDbLine
 10
-1014.2036789902
 20
475.7150453645
 30
0.0
 11
-900.6934577473
 21
475.7150453645
 31
0.0
  0
LINE
  5
A7
330
1F
100
AcDbEntity
  8
0
  6
Continuous
 62
     7
370
    15
100
AcDbLine
 10
-888.6934632309
 20
475.7150453645
 30
0.0
 11
-697.6136557631
 21
475.7150453645
 31
0.0
  0
LINE
  5
A8
330
1F
100
AcDbEntity
  8
0
  6
Continuous
 62
     7
370
    15
100
AcDbLine
 10
-685.6136556588
 20
467.7150449846
 30
0.0
 11
-494.5338481911
 21
467.7150449846
 31
0.0
  0
LINE
  5
A9
330
1F
100
AcDbEntity
  8
0
  6
Continuous
 62
     7
370
    15
100
AcDbLine
 10
-482.5338536747
 20
467.7150449846
 30
0.0
 11
-371.6136628635
 21
467.7150449846
 31
0.0
  0
LINE
  5
AA
330
1F
100
AcDbEntity
  8
0
  6
Continuous
 62
     7
370
    15
100
AcDbLine
 10
-1011.6136485584
 20
467.7150449846
 30
0.0
 11
-900.6934577473
 21
467.7150449846
 31
0.0
  0
LINE
  5
AB
330
1F
100
AcDbEntity
  8
0
  6
Continuous
 62
     7
370
    15
100
AcDbLine
 10
-888.6934632309
 20
467.7150449846
 30
0.0
 11
-697.6136557631
 21
467.7150449846
 31
0.0
  0
SPLINE
  5
AC
330
1F
100
AcDbEntity
  8
0
  6
Continuous
 62
     7
370
    15
100
AcDbSpline
210
0.0
220
0.0
230
1.0
 70
     8
 71
     3
 72
    12
 73
     8
 74
     0
 42
0.00000001
 43
0.00000001
 12
1.0
 22
0.0
 32
0.0
 13
1.0
 23
0.0
 33
0.0
 40
0.0
 40
0.0
 40
0.0
 40
0.0
 40
0.1944684309699982
 40
0.3917026342270512
 40
0.5917026222586047
 40
0.7944684070274949
 40
1.0
 40
1.0
 40
1.0
 40
1.0
 10
-644.610447747309
 20
444.7381786737404
 30
0.0
 10
-645.1791193857354
 20
444.9564715687609
 30
0.0
 10
-646.3245504342135
 20
445.3961619677943
 30
0.0
 10
-648.0563216054036
 20
446.0609282433859
 30
0.0
 10
-649.8134693457747
 20
446.7354340590406
 30
0.0
 10
-651.5960096492423
 20
447.4196855402528
 30
0.0
 10
-652.7934075123273
 20
447.8793229249553
 30
0.0
 10
-653.396162033023
 20
448.110698410123
 30
0.0
  0
LINE
  5
AD
330
1F
100
AcDbEntity
  8
0
  6
Continuous
 62
     7
370
    15
100
AcDbLine
 10
-644.6104461201
 20
444.7381789926
 30
0.0
 11
-644.6104461201
 21
448.110699201
 31
0.0
  0
LINE
  5
AE
330
1F
100
AcDbEntity
  8
0
  6
Continuous
 62
     7
370
    15
100
AcDbLine
 10
-641.1818751939
 20
448.110699201
 30
0.0
 11
-644.6104461201
 21
448.110699201
 31
0.0
  0
LINE
  5
AF
330
1F
100
AcDbEntity
  8
0
  6
Continuous
 62
     7
370
    15
100
AcDbLine
 10
-641.1818751939
 20
438.3574626539
 30
0.0
 11
-641.1818751939
 21
448.110699201
 31
0.0
  0
LINE
  5
B0
330
1F
100
AcDbEntity
  8
0
  6
Continuous
 62
     7
370
    15
100
AcDbLine
 10
-653.3961633094
 20
433.3845018539
 30
0.0
 11
-653.3961633094
 21
437.2251718435
 31
0.0
  0
SPLINE
  5
B1
330
1F
100
AcDbEntity
  8
0
  6
Continuous
 62
     7
370
    15
100
AcDbSpline
210
0.0
220
0.0
230
1.0
 70
     8
 71
     3
 72
     9
 73
     5
 74
     0
 42
0.00000001
 43
0.00000001
 12
1.0
 22
0.0
 32
0.0
 13
1.0
 23
0.0
 33
0.0
 40
0.0
 40
0.0
 40
0.0
 40
0.0
 40
0.4979815478911101
 40
1.0
 40
1.0
 40
1.0
 40
1.0
 10
-651.5104477473088
 20
437.992926729629
 30
0.0
 10
-651.8233907397671
 20
437.8655142158773
 30
0.0
 10
-652.4518136076096
 20
437.6096563145328
 30
0.0
 10
-653.0805331976304
 20
437.3536776436951
 30
0.0
 10
-653.3961620330231
 20
437.2251716275882
 30
0.0
  0
LINE
  5
B2
330
1F
100
AcDbEntity
  8
0
  6
Continuous
 62
     7
370
    15
100
AcDbLine
 10
-651.5104474373
 20
437.9929262343
 30
0.0
 11
-651.5104474373
 21
443.5766241643
 31
0.0
  0
SPLINE
  5
B3
330
1F
100
AcDbEntity
  8
0
  6
Continuous
 62
     7
370
    15
100
AcDbSpline
210
0.0
220
0.0
230
1.0
 70
     8
 71
     3
 72
     9
 73
     5
 74
     0
 42
0.00000001
 43
0.00000001
 12
1.0
 22
0.0
 32
0.0
 13
1.0
 23
0.0
 33
0.0
 40
0.0
 40
0.0
 40
0.0
 40
0.0
 40
0.5020172206432666
 40
1.0
 40
1.0
 40
1.0
 40
1.0
 10
-653.3961620330231
 20
444.3004826470428
 30
0.0
 10
-653.0805327940826
 20
444.1793239430348
 30
0.0
 10
-652.4518108579388
 20
443.9379802220909
 30
0.0
 10
-651.8233903422943
 20
443.6967521688275
 30
0.0
 10
-651.5104477473088
 20
443.5766247524045
 30
0.0
  0
LINE
  5
B4
330
1F
100
AcDbEntity
  8
0
  6
Continuous
 62
     7
370
    15
100
AcDbLine
 10
-653.3961633094
 20
444.3004834596
 30
0.0
 11
-653.3961633094
 21
448.110699201
 31
0.0
  0
LINE
  5
B5
330
1F
100
AcDbEntity
  8
0
  6
Continuous
 62
     7
370
    15
100
AcDbLine
 10
-648.2533031948
 20
439.3190494869
 30
0.0
 11
-648.2533031948
 21
442.6935739014
 31
0.0
  0
SPLINE
  5
B6
330
1F
100
AcDbEntity
  8
0
  6
Continuous
 62
     7
370
    15
100
AcDbSpline
210
0.0
220
0.0
230
1.0
 70
    24
 71
     3
 72
     9
 73
     5
 74
     0
 42
0.00000001
 43
0.00000001
 12
1.0
 22
0.0
 32
0.0
 13
1.0
 23
0.0
 33
0.0
 40
0.0
 40
0.0
 40
0.0
 40
0.0
 40
0.4999662298295567
 40
1.0
 40
1.0
 40
1.0
 40
1.0
 10
-643.9871912577327
 20
441.0559668718135
 30
0.0
 10
-644.6977186721323
 20
440.7666807102365
 30
0.0
 10
-646.1188694859422
 20
440.188069307471
 30
0.0
 10
-647.5417943871471
 20
439.6087355976949
 30
0.0
 10
-648.2533048901659
 20
439.3190491786086
 30
0.0
  0
SPLINE
  5
B7
330
1F
100
AcDbEntity
  8
0
  6
Continuous
 62
     7
370
    15
100
AcDbSpline
210
0.0
220
0.0
230
1.0
 70
    24
 71
     3
 72
     9
 73
     5
 74
     0
 42
0.00000001
 43
0.00000001
 12
1.0
 22
0.0
 32
0.0
 13
1.0
 23
0.0
 33
0.0
 40
0.0
 40
0.0
 40
0.0
 40
0.0
 40
0.5000304920193239
 40
1.0
 40
1.0
 40
1.0
 40
1.0
 10
-648.2533048901657
 20
442.6935744646788
 30
0.0
 10
-647.5417920598965
 20
442.4204502786722
 30
0.0
 10
-646.1188531759177
 20
441.8742352170593
 30
0.0
 10
-644.697716341573
 20
441.3287118974904
 30
0.0
 10
-643.9871912577325
 20
441.0559668718135
 30
0.0
  0
SPLINE
  5
B8
330
1F
100
AcDbEntity
  8
0
  6
Continuous
 62
     7
370
    15
100
AcDbSpline
210
0.0
220
0.0
230
1.0
 70
     8
 71
     3
 72
    13
 73
     9
 74
     0
 42
0.00000001
 43
0.00000001
 12
1.0
 22
0.0
 32
0.0
 13
1.0
 23
0.0
 33
0.0
 40
0.0
 40
0.0
 40
0.0
 40
0.0
 40
0.1273552970399747
 40
0.253156204056791
 40
0.377402726757106
 40
0.5000948710692528
 40
0.7527421704602663
 40
1.0
 40
1.0
 40
1.0
 40
1.0
 10
-653.3961620330233
 20
433.3845027140991
 30
0.0
 10
-652.8765739131632
 20
433.5960491839935
 30
0.0
 10
-651.8437393224233
 20
434.0165601681834
 30
0.0
 10
-650.3050195285558
 20
434.6430385255987
 30
0.0
 10
-648.786069757056
 20
435.2614684533222
 30
0.0
 10
-646.7513883202295
 20
436.08987520382
 30
0.0
 10
-644.217661858076
 20
437.1214625250771
 30
0.0
 10
-642.1865055430522
 20
437.9484339625137
 30
0.0
 10
-641.1818763187374
 20
438.3574618977726
 30
0.0
  0
SPLINE
  5
B9
330
1F
100
AcDbEntity
  8
0
  6
Continuous
 62
     7
370
    15
100
AcDbSpline
210
0.0
220
0.0
230
1.0
 70
     8
 71
     3
 72
    25
 73
    21
 74
     0
 42
0.00000001
 43
0.00000001
 12
1.0
 22
0.0
 32
0.0
 13
1.0
 23
0.0
 33
0.0
 40
0.0
 40
0.0
 40
0.0
 40
0.0
 40
0.0315325645174241
 40
0.0629924263607606
 40
0.1257248538141449
 40
0.1882744216028805
 40
0.250696082347513
 40
0.3130329981994497
 40
0.3753185636829809
 40
0.4375785038874802
 40
0.4998330189578529
 40
0.5620989542751612
 40
0.6243919821215365
 40
0.6867287846266389
 40
0.7491292292316402
 40
0.81161852674644
 40
0.8742293583883373
 40
0.9459844093362114
 40
0.9729868607807363
 40
1.0
 40
1.0
 40
1.0
 40
1.0
 10
-647.9640471565623
 20
417.0612334330465
 30
0.0
 10
-647.9517347443623
 20
417.005854911079
 30
0.0
 10
-647.9271383079258
 20
416.8952255499601
 30
0.0
 10
-647.8690109979808
 20
416.676638841631
 30
0.0
 10
-647.7840465149992
 20
416.4076924323973
 30
0.0
 10
-647.6617846935976
 20
416.0929796190273
 30
0.0
 10
-647.5204361779054
 20
415.7873252068006
 30
0.0
 10
-647.3606862995933
 20
415.4916031434139
 30
0.0
 10
-647.1833352642992
 20
415.2066497587216
 30
0.0
 10
-646.9891507978759
 20
414.9333115975561
 30
0.0
 10
-646.7789076622281
 20
414.6724329480686
 30
0.0
 10
-646.5533771024085
 20
414.4248596131621
 30
0.0
 10
-646.3133301936626
 20
414.1914376372798
 30
0.0
 10
-646.0595356513566
 20
413.973015817388
 30
0.0
 10
-645.7927659702548
 20
413.7704380012445
 30
0.0
 10
-645.513775840941
 20
413.5845724482771
 30
0.0
 10
-645.2095026866227
 20
413.4081546990012
 30
0.0
 10
-644.9508578007103
 20
413.281031092924
 30
0.0
 10
-644.7449666939247
 20
413.1919581277499
 30
0.0
 10
-644.6552933105777
 20
413.1568349182599
 30
0.0
 10
-644.6104477473089
 20
413.1392698386944
 30
0.0
  0
SPLINE
  5
BA
330
1F
100
AcDbEntity
  8
0
  6
Continuous
 62
     7
370
    15
100
AcDbSpline
210
0.0
220
0.0
230
1.0
 70
     8
 71
     3
 72
    11
 73
     7
 74
     0
 42
0.00000001
 43
0.00000001
 12
1.0
 22
0.0
 32
0.0
 13
1.0
 23
0.0
 33
0.0
 40
0.0
 40
0.0
 40
0.0
 40
0.0
 40
0.254220133177382
 40
0.505626832730748
 40
0.7542201157708334
 40
0.9999999999999999
 40
0.9999999999999999
 40
0.9999999999999999
 40
0.9999999999999999
 10
-653.3961620330231
 20
412.9678412672659
 30
0.0
 10
-652.9355696969141
 20
413.3149223257776
 30
0.0
 10
-652.0194823627752
 20
414.0052433248374
 30
0.0
 10
-650.6536020381905
 20
415.0345074583527
 30
0.0
 10
-649.303417657449
 20
416.0519448776791
 30
0.0
 10
-648.4088069612831
 20
416.7260827182182
 30
0.0
 10
-647.9640471565624
 20
417.0612334330465
 30
0.0
  0
LINE
  5
BB
330
1F
100
AcDbEntity
  8
0
  6
Continuous
 62
     7
370
    15
100
AcDbLine
 10
-653.3961633094
 20
412.9678397569
 30
0.0
 11
-653.3961633094
 21
417.4218676183
 31
0.0
  0
SPLINE
  5
BC
330
1F
100
AcDbEntity
  8
0
  6
Continuous
 62
     7
370
    15
100
AcDbSpline
210
0.0
220
0.0
230
1.0
 70
     8
 71
     3
 72
    10
 73
     6
 74
     0
 42
0.00000001
 43
0.00000001
 12
1.0
 22
0.0
 32
0.0
 13
1.0
 23
0.0
 33
0.0
 40
0.0
 40
0.0
 40
0.0
 40
0.0
 40
0.337741845581437
 40
0.6710751734428839
 40
1.0
 40
1.0
 40
1.0
 40
1.0
 10
-653.3961620330231
 20
422.9962251926579
 30
0.0
 10
-652.8551276797002
 20
422.775947006554
 30
0.0
 10
-651.7801210518727
 20
422.3382659081669
 30
0.0
 10
-650.1792446445065
 20
421.6864805151748
 30
0.0
 10
-649.1197745782787
 20
421.2551246721223
 30
0.0
 10
-648.5935658703127
 20
421.0408824692686
 30
0.0
  0
LINE
  5
BD
330
1F
100
AcDbEntity
  8
0
  6
Continuous
 62
     7
370
    15
100
AcDbLine
 10
-653.3961633094
 20
422.9962243829
 30
0.0
 11
-653.3961633094
 21
426.8368943724
 31
0.0
  0
SPLINE
  5
BE
330
1F
100
AcDbEntity
  8
0
  6
Continuous
 62
     7
370
    15
100
AcDbSpline
210
0.0
220
0.0
230
1.0
 70
     8
 71
     3
 72
    13
 73
     9
 74
     0
 42
0.00000001
 43
0.00000001
 12
1.0
 22
0.0
 32
0.0
 13
1.0
 23
0.0
 33
0.0
 40
0.0
 40
0.0
 40
0.0
 40
0.0
 40
0.1229501457679824
 40
0.2472512526191893
 40
0.3729033284103839
 40
0.4999063807445906
 40
0.7468365663642286
 40
1.0
 40
1.0
 40
1.0
 40
1.0
 10
-641.1818763187374
 20
421.8639349224734
 30
0.0
 10
-641.6813375001393
 20
422.0672870974586
 30
0.0
 10
-642.6857478809884
 20
422.4762258561228
 30
0.0
 10
-644.2018230835463
 20
423.093485396072
 30
0.0
 10
-645.7352514238797
 20
423.7178094459719
 30
0.0
 10
-647.7688093383806
 20
424.5457573309653
 30
0.0
 10
-650.3234335834171
 20
425.5858557153279
 30
0.0
 10
-652.3634435447635
 20
426.4164305028997
 30
0.0
 10
-653.396162033023
 20
426.8368941061468
 30
0.0
  0
LINE
  5
BF
330
1F
100
AcDbEntity
  8
0
  6
Continuous
 62
     7
370
    15
100
AcDbLine
 10
-641.1818751939
 20
418.0232673082
 30
0.0
 11
-641.1818751939
 21
421.8639335725
 31
0.0
  0
SPLINE
  5
C0
330
1F
100
AcDbEntity
  8
0
  6
Continuous
 62
     7
370
    15
100
AcDbSpline
210
0.0
220
0.0
230
1.0
 70
     8
 71
     3
 72
    10
 73
     6
 74
     0
 42
0.00000001
 43
0.00000001
 12
1.0
 22
0.0
 32
0.0
 13
1.0
 23
0.0
 33
0.0
 40
0.0
 40
0.0
 40
0.0
 40
0.0
 40
0.3367877390853962
 40
0.6701210656595902
 40
1.0
 40
1.0
 40
1.0
 40
1.0
 10
-645.6361602028006
 20
419.8367958760673
 30
0.0
 10
-645.1357454459222
 20
419.6330556565574
 30
0.0
 10
-644.1400486576073
 20
419.227664969276
 30
0.0
 10
-642.655278457611
 20
418.6231513911302
 30
0.0
 10
-641.6713019925817
 20
418.2225322511323
 30
0.0
 10
-641.1818763187374
 20
418.0232660089844
 30
0.0
  0
SPLINE
  5
C1
330
1F
100
AcDbEntity
  8
0
  6
Continuous
 62
     7
370
    15
100
AcDbSpline
210
0.0
220
0.0
230
1.0
 70
     8
 71
     3
 72
    27
 73
    23
 74
     0
 42
0.00000001
 43
0.00000001
 12
1.0
 22
0.0
 32
0.0
 13
1.0
 23
0.0
 33
0.0
 40
0.0
 40
0.0
 40
0.0
 40
0.0
 40
0.0314337308671636
 40
0.0629349070213444
 40
0.0942420758113308
 40
0.1256411565939895
 40
0.1881712979070338
 40
0.2505874923145078
 40
0.3129214711070027
 40
0.375204726924633
 40
0.4374811159242875
 40
0.4998194217744442
 40
0.5621854969379807
 40
0.6245285569524455
 40
0.6868932242966915
 40
0.7493037314751277
 40
0.811778258565692
 40
0.8743432466535683
 40
0.9370476001717001
 40
0.9621946997192281
 40
0.981059987973816
 40
1.0
 40
1.0
 40
1.0
 40
1.0
 10
-641.1818763187374
 20
415.5392698386945
 30
0.0
 10
-641.2530530217233
 20
415.5402838164535
 30
0.0
 10
-641.3955591468609
 20
415.5423139475968
 30
0.0
 10
-641.6084831583554
 20
415.5585853710581
 30
0.0
 10
-641.8203688295337
 20
415.5843852494158
 30
0.0
 10
-642.1001135542024
 20
415.6324369155449
 30
0.0
 10
-642.4447982639368
 20
415.7172368792332
 30
0.0
 10
-642.8465346626831
 20
415.8573326841635
 30
0.0
 10
-643.2332505770848
 20
416.0343632515401
 30
0.0
 10
-643.6017343432804
 20
416.2470031735957
 30
0.0
 10
-643.94877690122
 20
416.4939408769374
 30
0.0
 10
-644.2709707454679
 20
416.7736152449463
 30
0.0
 10
-644.5644165808058
 20
417.0842307217741
 30
0.0
 10
-644.8266204595694
 20
417.4222684652868
 30
0.0
 10
-645.0557216402862
 20
417.7841760408167
 30
0.0
 10
-645.2499748890846
 20
418.1666821114832
 30
0.0
 10
-645.4076530184242
 20
418.5665221536617
 30
0.0
 10
-645.5269581437934
 20
418.9804008685748
 30
0.0
 10
-645.590339433454
 20
419.31989887942
 30
0.0
 10
-645.618461241819
 20
419.562954446126
 30
0.0
 10
-645.6303587225923
 20
419.706817998767
 30
0.0
 10
-645.6342238295489
 20
419.7934128641651
 30
0.0
 10
-645.6361602028006
 20
419.8367958760673
 30
0.0
  0
LINE
  5
C2
330
1F
100
AcDbEntity
  8
0
  6
Continuous
 62
     7
370
    15
100
AcDbLine
 10
-641.1818751939
 20
412.110698888
 30
0.0
 11
-641.1818751939
 21
415.5392698142
 31
0.0
  0
LINE
  5
C3
330
1F
100
AcDbEntity
  8
0
  6
Continuous
 62
     7
370
    15
100
AcDbLine
 10
-644.6104461201
 20
412.110698888
 30
0.0
 11
-641.1818751939
 21
412.110698888
 31
0.0
  0
LINE
  5
C4
330
1F
100
AcDbEntity
  8
0
  6
Continuous
 62
     7
370
    15
100
AcDbLine
 10
-644.6104461201
 20
412.110698888
 30
0.0
 11
-644.6104461201
 21
413.1392701659
 31
0.0
  0
SPLINE
  5
C5
330
1F
100
AcDbEntity
  8
0
  6
Continuous
 62
     7
370
    15
100
AcDbSpline
210
0.0
220
0.0
230
1.0
 70
     8
 71
     3
 72
    10
 73
     6
 74
     0
 42
0.00000001
 43
0.00000001
 12
1.0
 22
0.0
 32
0.0
 13
1.0
 23
0.0
 33
0.0
 40
0.0
 40
0.0
 40
0.0
 40
0.0
 40
0.3288783908583293
 40
0.6622117136338881
 40
1.0
 40
1.0
 40
1.0
 40
1.0
 10
-648.5935658703128
 20
421.0408824692686
 30
0.0
 10
-649.1197904328913
 20
420.6443436419343
 30
0.0
 10
-650.1793677083452
 20
419.8458945383427
 30
0.0
 10
-651.7802414715459
 20
418.6395496358933
 30
0.0
 10
-652.8551434150122
 20
417.8295532739558
 30
0.0
 10
-653.3961620330231
 20
417.4218666798502
 30
0.0
  0
SPLINE
  5
C6
330
1F
100
AcDbEntity
  8
0
  6
Continuous
 62
     7
370
    15
100
AcDbSpline
210
0.0
220
0.0
230
1.0
 70
     8
 71
     3
 72
    13
 73
     9
 74
     0
 42
0.00000001
 43
0.00000001
 12
1.0
 22
0.0
 32
0.0
 13
1.0
 23
0.0
 33
0.0
 40
0.0
 40
0.0
 40
0.0
 40
0.0
 40
0.1227665140142522
 40
0.2470043975237342
 40
0.3727136606861387
 40
0.4998943133017945
 40
0.7465097129700814
 40
1.0
 40
1.0
 40
1.0
 40
1.0
 10
-639.8104477473089
 20
437.4350894226434
 30
0.0
 10
-640.3649913303417
 20
437.2093107905828
 30
0.0
 10
-641.4807247591806
 20
436.7550475459706
 30
0.0
 10
-643.1658501585191
 20
436.0689602508442
 30
0.0
 10
-644.8720411499996
 20
435.3742972824014
 30
0.0
 10
-647.1335096441587
 20
434.4535575511114
 30
0.0
 10
-649.9760554570214
 20
433.2962332645748
 30
0.0
 10
-652.2457262188101
 20
432.3721540813717
 30
0.0
 10
-653.3961620330231
 20
431.9037628920312
 30
0.0
  0
LINE
  5
C7
330
1F
100
AcDbEntity
  8
0
  6
Continuous
 62
     7
370
    15
100
AcDbLine
 10
-639.8104468234
 20
437.4350900892
 30
0.0
 11
-639.8104468234
 21
448.110699201
 31
0.0
  0
LINE
  5
C8
330
1F
100
AcDbEntity
  8
0
  6
Continuous
 62
     7
370
    15
100
AcDbLine
 10
-636.2533049531
 20
448.110699201
 30
0.0
 11
-639.8104468234
 21
448.110699201
 31
0.0
  0
LINE
  5
C9
330
1F
100
AcDbEntity
  8
0
  6
Continuous
 62
     7
370
    15
100
AcDbLine
 10
-636.2533049531
 20
434.9964126143
 30
0.0
 11
-636.2533049531
 21
448.110699201
 31
0.0
  0
SPLINE
  5
CA
330
1F
100
AcDbEntity
  8
0
  6
Continuous
 62
     7
370
    15
100
AcDbSpline
210
0.0
220
0.0
230
1.0
 70
     8
 71
     3
 72
    14
 73
    10
 74
     0
 42
0.00000001
 43
0.00000001
 12
1.0
 22
0.0
 32
0.0
 13
1.0
 23
0.0
 33
0.0
 40
0.0
 40
0.0
 40
0.0
 40
0.0
 40
0.1478679579392362
 40
0.2940656246728028
 40
0.4385930114942509
 40
0.581450130098968
 40
0.7226369926031191
 40
0.8621536115637362
 40
1.0
 40
1.0
 40
1.0
 40
1.0
 10
-648.2533048901661
 20
430.110698410123
 30
0.0
 10
-647.6604989120472
 20
430.3520546230789
 30
0.0
 10
-646.4815831909214
 20
430.8320407304187
 30
0.0
 10
-644.7247654448
 20
431.5473125423684
 30
0.0
 10
-642.9891604884062
 20
432.2539493409352
 30
0.0
 10
-641.2748664477951
 20
432.9519119551684
 30
0.0
 10
-639.5818889529743
 20
433.6411980430566
 30
0.0
 10
-637.9101104573739
 20
434.3218546432699
 30
0.0
 10
-636.803351844962
 20
434.7724645090425
 30
0.0
 10
-636.253304890166
 20
434.9964126958373
 30
0.0
  0
SPLINE
  5
CB
330
1F
100
AcDbEntity
  8
0
  6
Continuous
 62
     7
370
    15
100
AcDbSpline
210
0.0
220
0.0
230
1.0
 70
     8
 71
     3
 72
    14
 73
    10
 74
     0
 42
0.00000001
 43
0.00000001
 12
1.0
 22
0.0
 32
0.0
 13
1.0
 23
0.0
 33
0.0
 40
0.0
 40
0.0
 40
0.0
 40
0.0
 40
0.1378463884357569
 40
0.2773630073960345
 40
0.4185498699000176
 40
0.561406988504733
 40
0.7059343753263505
 40
0.8521320420602554
 40
1.0
 40
1.0
 40
1.0
 40
1.0
 10
-636.2533048901659
 20
425.2249841244087
 30
0.0
 10
-636.8033518449598
 20
425.4489323112027
 30
0.0
 10
-637.9101104573684
 20
425.8995421769739
 30
0.0
 10
-639.5818889529646
 20
426.5801987771854
 30
0.0
 10
-641.2748664477836
 20
427.2694848650729
 30
0.0
 10
-642.9891604883945
 20
427.9674474793061
 30
0.0
 10
-644.7247654447903
 20
428.6740842778736
 30
0.0
 10
-646.4815831909156
 20
429.3893560898251
 30
0.0
 10
-647.6604989120447
 20
429.8693421971662
 30
0.0
 10
-648.2533048901657
 20
430.110698410123
 30
0.0
  0
LINE
  5
CC
330
1F
100
AcDbEntity
  8
0
  6
Continuous
 62
     7
370
    15
100
AcDbLine
 10
-636.2533049531
 20
412.110698888
 30
0.0
 11
-636.2533049531
 21
425.224983612
 31
0.0
  0
LINE
  5
CD
330
1F
100
AcDbEntity
  8
0
  6
Continuous
 62
     7
370
    15
100
AcDbLine
 10
-639.8104468234
 20
412.110698888
 30
0.0
 11
-636.2533049531
 21
412.110698888
 31
0.0
  0
LINE
  5
CE
330
1F
100
AcDbEntity
  8
0
  6
Continuous
 62
     7
370
    15
100
AcDbLine
 10
-639.8104468234
 20
412.110698888
 30
0.0
 11
-639.8104468234
 21
422.7863079998
 31
0.0
  0
LINE
  5
CF
330
1F
100
AcDbEntity
  8
0
  6
Continuous
 62
     7
370
    15
100
AcDbLine
 10
-653.3961633094
 20
428.3176339361
 30
0.0
 11
-653.3961633094
 21
431.9037622902
 31
0.0
  0
SPLINE
  5
D0
330
1F
100
AcDbEntity
  8
0
  6
Continuous
 62
     7
370
    15
100
AcDbSpline
210
0.0
220
0.0
230
1.0
 70
     8
 71
     3
 72
    13
 73
     9
 74
     0
 42
0.00000001
 43
0.00000001
 12
1.0
 22
0.0
 32
0.0
 13
1.0
 23
0.0
 33
0.0
 40
0.0
 40
0.0
 40
0.0
 40
0.0
 40
0.1275995877027228
 40
0.253483984920612
 40
0.3776531987980939
 40
0.500107236787773
 40
0.7529899266544637
 40
0.9999999999999999
 40
0.9999999999999999
 40
0.9999999999999999
 40
0.9999999999999999
 10
-653.3961620330231
 20
428.3176339282149
 30
0.0
 10
-652.816975641498
 20
428.0818225058711
 30
0.0
 10
-651.6663882675197
 20
427.6133694324587
 30
0.0
 10
-649.9534547016103
 20
426.9159613942189
 30
0.0
 10
-648.264805857537
 20
426.2284395060884
 30
0.0
 10
-646.0019260058898
 20
425.307123050362
 30
0.0
 10
-643.1849905081401
 20
424.1602298215602
 30
0.0
 10
-640.9264510800879
 20
423.2406806602306
 30
0.0
 10
-639.8104477473088
 20
422.7863073976026
 30
0.0
  0
LINE
  5
D1
330
1F
100
AcDbEntity
  8
0
  6
Continuous
 62
     7
370
    15
100
AcDbLine
 10
-882.6934659727
 20
518.2150467429
 30
0.0
 11
-906.6934550055
 21
518.2150467429
 31
0.0
  0
LINE
  5
D2
330
1F
100
AcDbEntity
  8
0
  6
Continuous
 62
     7
370
    15
100
AcDbLine
 10
-476.5338564165
 20
518.2150467429
 30
0.0
 11
-500.5338454493
 21
518.2150467429
 31
0.0
  0
LINE
  5
D3
330
1F
100
AcDbEntity
  8
0
  6
Continuous
 62
     7
370
    15
100
AcDbLine
 10
-891.022380615
 20
528.2150446567
 30
0.0
 11
-891.022380615
 21
518.2150467429
 31
0.0
  0
LINE
  5
D4
330
1F
100
AcDbEntity
  8
0
  6
Continuous
 62
     7
370
    15
100
AcDbLine
 10
-891.022380615
 20
528.2150446567
 30
0.0
 11
-883.905690337
 21
528.2150446567
 31
0.0
  0
LINE
  5
D5
330
1F
100
AcDbEntity
  8
0
  6
Continuous
 62
     7
370
    15
100
AcDbLine
 10
-883.905690337
 20
528.2150446567
 30
0.0
 11
-883.905690337
 21
518.2150467429
 31
0.0
  0
LINE
  5
D6
330
1F
100
AcDbEntity
  8
0
  6
Continuous
 62
     7
370
    15
100
AcDbLine
 10
-901.8101507671
 20
528.2150446567
 30
0.0
 11
-901.8101507671
 21
518.2150467429
 31
0.0
  0
LINE
  5
D7
330
1F
100
AcDbEntity
  8
0
  6
Continuous
 62
     7
370
    15
100
AcDbLine
 10
-901.8101507671
 20
528.2150446567
 30
0.0
 11
-891.022380615
 21
528.2150446567
 31
0.0
  0
LINE
  5
D8
330
1F
100
AcDbEntity
  8
0
  6
Continuous
 62
     7
370
    15
100
AcDbLine
 10
-493.7594199427
 20
528.2150446567
 30
0.0
 11
-493.7594199427
 21
518.2150467429
 31
0.0
  0
LINE
  5
D9
330
1F
100
AcDbEntity
  8
0
  6
Continuous
 62
     7
370
    15
100
AcDbLine
 10
-482.7937746294
 20
528.2150446567
 30
0.0
 11
-482.7937746294
 21
518.2150467429
 31
0.0
  0
LINE
  5
DA
330
1F
100
AcDbEntity
  8
0
  6
Continuous
 62
     7
370
    15
100
AcDbLine
 10
-493.7594199427
 20
528.2150446567
 30
0.0
 11
-482.7937746294
 21
528.2150446567
 31
0.0
  0
LINE
  5
DB
330
1F
100
AcDbEntity
  8
0
  6
Continuous
 62
     7
370
    15
100
AcDbLine
 10
-499.499481345
 20
528.2150446567
 30
0.0
 11
-499.499481345
 21
518.2150467429
 31
0.0
  0
LINE
  5
DC
330
1F
100
AcDbEntity
  8
0
  6
Continuous
 62
     7
370
    15
100
AcDbLine
 10
-499.499481345
 20
528.2150446567
 30
0.0
 11
-493.7594199427
 21
528.2150446567
 31
0.0
  0
LINE
  5
DD
330
1F
100
AcDbEntity
  8
0
  6
Continuous
 62
     7
370
    15
100
AcDbLine
 10
-477.5682205208
 20
528.2150446567
 30
0.0
 11
-477.5682205208
 21
518.2150467429
 31
0.0
  0
LINE
  5
DE
330
1F
100
AcDbEntity
  8
0
  6
Continuous
 62
     7
370
    15
100
AcDbLine
 10
-482.7937746294
 20
528.2150446567
 30
0.0
 11
-477.5682205208
 21
528.2150446567
 31
0.0
  0
LINE
  5
DF
330
1F
100
AcDbEntity
  8
0
  6
Continuous
 62
     7
370
    15
100
AcDbLine
 10
-905.4812306412
 20
528.2150446567
 30
0.0
 11
-905.4812306412
 21
518.2150467429
 31
0.0
  0
LINE
  5
E0
330
1F
100
AcDbEntity
  8
0
  6
Continuous
 62
     7
370
    15
100
AcDbLine
 10
-905.4812306412
 20
528.2150446567
 30
0.0
 11
-901.8101507671
 21
528.2150446567
 31
0.0
  0
LINE
  5
E1
330
1F
100
AcDbEntity
  8
0
  6
Continuous
 62
     7
370
    15
100
AcDbLine
 10
-886.6934591778
 20
534.2150456402
 30
0.0
 11
-902.6934618004
 21
534.2150456402
 31
0.0
  0
LINE
  5
E2
330
1F
100
AcDbEntity
  8
0
  6
Continuous
 62
     7
370
    15
100
AcDbLine
 10
-886.6934591778
 20
533.7150446269
 30
0.0
 11
-902.6934618004
 21
533.7150446269
 31
0.0
  0
LINE
  5
E3
330
1F
100
AcDbEntity
  8
0
  6
Continuous
 62
     7
370
    15
100
AcDbLine
 10
-496.5338522442
 20
534.2150456402
 30
0.0
 11
-480.5338496216
 21
534.2150456402
 31
0.0
  0
LINE
  5
E4
330
1F
100
AcDbEntity
  8
0
  6
Continuous
 62
     7
370
    15
100
AcDbLine
 10
-496.5338522442
 20
533.7150446269
 30
0.0
 11
-480.5338496216
 21
533.7150446269
 31
0.0
  0
LINE
  5
E5
330
1F
100
AcDbEntity
  8
0
  6
Continuous
 62
     7
370
    15
100
AcDbLine
 10
-888.193454767
 20
545.7150465939
 30
0.0
 11
-901.1934662111
 21
545.7150465939
 31
0.0
  0
LINE
  5
E6
330
1F
100
AcDbEntity
  8
0
  6
Continuous
 62
     7
370
    15
100
AcDbLine
 10
-482.0338452108
 20
545.7150465939
 30
0.0
 11
-495.0338566549
 21
545.7150465939
 31
0.0
  0
LINE
  5
E7
330
1F
100
AcDbEntity
  8
0
  6
Continuous
 62
     7
370
    15
100
AcDbLine
 10
-1008.2036966331
 20
518.2150467429
 30
0.0
 11
-1032.2036856659
 21
518.2150467429
 31
0.0
  0
LINE
  5
E8
330
1F
100
AcDbEntity
  8
0
  6
Continuous
 62
     7
370
    15
100
AcDbLine
 10
-351.0236257561
 20
518.2150467429
 30
0.0
 11
-375.0236147888
 21
518.2150467429
 31
0.0
  0
LINE
  5
E9
330
1F
100
AcDbEntity
  8
0
  6
Continuous
 62
     7
370
    15
100
AcDbLine
 10
-361.5819925316
 20
528.2150446567
 30
0.0
 11
-361.5819925316
 21
518.2150467429
 31
0.0
  0
LINE
  5
EA
330
1F
100
AcDbEntity
  8
0
  6
Continuous
 62
     7
370
    15
100
AcDbLine
 10
-352.8851980217
 20
528.2150446567
 30
0.0
 11
-352.8851980217
 21
518.2150467429
 31
0.0
  0
LINE
  5
EB
330
1F
100
AcDbEntity
  8
0
  6
Continuous
 62
     7
370
    15
100
AcDbLine
 10
-361.5819925316
 20
528.2150446567
 30
0.0
 11
-352.8851980217
 21
528.2150446567
 31
0.0
  0
LINE
  5
EC
330
1F
100
AcDbEntity
  8
0
  6
Continuous
 62
     7
370
    15
100
AcDbLine
 10
-371.7204147823
 20
528.2150446567
 30
0.0
 11
-371.7204147823
 21
518.2150467429
 31
0.0
  0
LINE
  5
ED
330
1F
100
AcDbEntity
  8
0
  6
Continuous
 62
     7
370
    15
100
AcDbLine
 10
-371.7204147823
 20
528.2150446567
 30
0.0
 11
-361.5819925316
 21
528.2150446567
 31
0.0
  0
LINE
  5
EE
330
1F
100
AcDbEntity
  8
0
  6
Continuous
 62
     7
370
    15
100
AcDbLine
 10
-1023.3097487934
 20
528.2150446567
 30
0.0
 11
-1023.3097487934
 21
518.2150467429
 31
0.0
  0
LINE
  5
EF
330
1F
100
AcDbEntity
  8
0
  6
Continuous
 62
     7
370
    15
100
AcDbLine
 10
-1012.6454943665
 20
528.2150446567
 30
0.0
 11
-1012.6454943665
 21
518.2150467429
 31
0.0
  0
LINE
  5
F0
330
1F
100
AcDbEntity
  8
0
  6
Continuous
 62
     7
370
    15
100
AcDbLine
 10
-1023.3097487934
 20
528.2150446567
 30
0.0
 11
-1012.6454943665
 21
528.2150446567
 31
0.0
  0
LINE
  5
F1
330
1F
100
AcDbEntity
  8
0
  6
Continuous
 62
     7
370
    15
100
AcDbLine
 10
-1030.8679157742
 20
528.2150446567
 30
0.0
 11
-1030.8679157742
 21
518.2150467429
 31
0.0
  0
LINE
  5
F2
330
1F
100
AcDbEntity
  8
0
  6
Continuous
 62
     7
370
    15
100
AcDbLine
 10
-1030.8679157742
 20
528.2150446567
 30
0.0
 11
-1023.3097487934
 21
528.2150446567
 31
0.0
  0
LINE
  5
F3
330
1F
100
AcDbEntity
  8
0
  6
Continuous
 62
     7
370
    15
100
AcDbLine
 10
-1012.2036749371
 20
534.2150456402
 30
0.0
 11
-1028.2036775597
 21
534.2150456402
 31
0.0
  0
LINE
  5
F4
330
1F
100
AcDbEntity
  8
0
  6
Continuous
 62
     7
370
    15
100
AcDbLine
 10
-1012.2036749371
 20
533.7150446269
 30
0.0
 11
-1028.2036775597
 21
533.7150446269
 31
0.0
  0
LINE
  5
F5
330
1F
100
AcDbEntity
  8
0
  6
Continuous
 62
     7
370
    15
100
AcDbLine
 10
-355.0236338623
 20
533.7150446269
 30
0.0
 11
-371.0236364849
 21
533.7150446269
 31
0.0
  0
LINE
  5
F6
330
1F
100
AcDbEntity
  8
0
  6
Continuous
 62
     7
370
    15
100
AcDbLine
 10
-355.0236338623
 20
534.2150456402
 30
0.0
 11
-371.0236364849
 21
534.2150456402
 31
0.0
  0
LINE
  5
F7
330
1F
100
AcDbEntity
  8
0
  6
Continuous
 62
     7
370
    15
100
AcDbLine
 10
-1009.5394367226
 20
528.2150446567
 30
0.0
 11
-1009.5394367226
 21
518.2150467429
 31
0.0
  0
LINE
  5
F8
330
1F
100
AcDbEntity
  8
0
  6
Continuous
 62
     7
370
    15
100
AcDbLine
 10
-1012.6454943665
 20
528.2150446567
 30
0.0
 11
-1009.5394367226
 21
528.2150446567
 31
0.0
  0
LINE
  5
F9
330
1F
100
AcDbEntity
  8
0
  6
Continuous
 62
     7
370
    15
100
AcDbLine
 10
-373.1620425232
 20
528.2150446567
 30
0.0
 11
-373.1620425232
 21
518.2150467429
 31
0.0
  0
LINE
  5
FA
330
1F
100
AcDbEntity
  8
0
  6
Continuous
 62
     7
370
    15
100
AcDbLine
 10
-373.1620425232
 20
528.2150446567
 30
0.0
 11
-371.7204147823
 21
528.2150446567
 31
0.0
  0
LINE
  5
FB
330
1F
100
AcDbEntity
  8
0
  6
Continuous
 62
     7
370
    15
100
AcDbLine
 10
-1013.7036854275
 20
545.7150465939
 30
0.0
 11
-1026.7036968716
 21
545.7150465939
 31
0.0
  0
LINE
  5
FC
330
1F
100
AcDbEntity
  8
0
  6
Continuous
 62
     7
370
    15
100
AcDbLine
 10
-356.5236145504
 20
545.7150465939
 30
0.0
 11
-369.5236259945
 21
545.7150465939
 31
0.0
  0
LINE
  5
FD
330
1F
100
AcDbEntity
  8
0
  6
Continuous
 62
     7
370
    15
100
AcDbLine
 10
-373.6878746994
 20
528.2150446567
 30
0.0
 11
-373.6878746994
 21
518.2150467429
 31
0.0
  0
LINE
  5
FE
330
1F
100
AcDbEntity
  8
0
  6
Continuous
 62
     7
370
    15
100
AcDbLine
 10
-373.6878746994
 20
528.2150446567
 30
0.0
 11
-373.1620425232
 21
528.2150446567
 31
0.0
  0
LINE
  5
FF
330
1F
100
AcDbEntity
  8
0
  6
Continuous
 62
     7
370
    15
100
AcDbLine
 10
-352.3593956478
 20
528.2150446567
 30
0.0
 11
-352.3593956478
 21
518.2150467429
 31
0.0
  0
LINE
  5
100
330
1F
100
AcDbEntity
  8
0
  6
Continuous
 62
     7
370
    15
100
AcDbLine
 10
-352.8851980217
 20
528.2150446567
 30
0.0
 11
-352.3593956478
 21
528.2150446567
 31
0.0
  0
LINE
  5
101
330
1F
100
AcDbEntity
  8
0
  6
Continuous
 62
     7
370
    15
100
AcDbLine
 10
-905.6590909012
 20
528.2150446567
 30
0.0
 11
-905.6590909012
 21
518.2150467429
 31
0.0
  0
LINE
  5
102
330
1F
100
AcDbEntity
  8
0
  6
Continuous
 62
     7
370
    15
100
AcDbLine
 10
-905.6590909012
 20
528.2150446567
 30
0.0
 11
-905.4812306412
 21
528.2150446567
 31
0.0
  0
LINE
  5
103
330
1F
100
AcDbEntity
  8
0
  6
Continuous
 62
     7
370
    15
100
AcDbLine
 10
-883.727830077
 20
528.2150446567
 30
0.0
 11
-883.727830077
 21
518.2150467429
 31
0.0
  0
LINE
  5
104
330
1F
100
AcDbEntity
  8
0
  6
Continuous
 62
     7
370
    15
100
AcDbLine
 10
-883.905690337
 20
528.2150446567
 30
0.0
 11
-883.727830077
 21
528.2150446567
 31
0.0
  0
LINE
  5
105
330
1F
100
AcDbEntity
  8
0
  6
Continuous
 62
     7
370
     0
100
AcDbLine
 10
-691.613655711
 20
512.4640367124
 30
0.0
 11
-333.1136518963
 21
512.4640367124
 31
0.0
  0
LINE
  5
106
330
1F
100
AcDbEntity
  8
0
  6
Continuous
 62
     7
370
     0
100
AcDbLine
 10
-1050.1136595257
 20
512.4640367124
 30
0.0
 11
-691.613655711
 21
512.4640367124
 31
0.0
  0
LINE
  5
107
330
1F
100
AcDbEntity
  8
0
  6
Continuous
 62
     7
370
     0
100
AcDbLine
 10
-691.613655711
 20
509.4754560981
 30
0.0
 11
-335.8521873005
 21
509.4754560981
 31
0.0
  0
LINE
  5
108
330
1F
100
AcDbEntity
  8
0
  6
Continuous
 62
     7
370
     0
100
AcDbLine
 10
-1047.3751241215
 20
509.4754560981
 30
0.0
 11
-691.613655711
 21
509.4754560981
 31
0.0
  0
LINE
  5
109
330
1F
100
AcDbEntity
  8
0
  6
Continuous
 62
     7
370
     0
100
AcDbLine
 10
-357.0236379154
 20
508.0531812403
 30
0.0
 11
-352.1088475235
 21
508.0531812403
 31
0.0
  0
LINE
  5
10A
330
1F
100
AcDbEntity
  8
0
  6
Continuous
 62
     7
370
     0
100
AcDbLine
 10
-482.5338536747
 20
508.0531812403
 30
0.0
 11
-369.0236324318
 21
508.0531812403
 31
0.0
  0
LINE
  5
10B
330
1F
100
AcDbEntity
  8
0
  6
Continuous
 62
     7
370
     0
100
AcDbLine
 10
-685.6136556588
 20
508.0531812403
 30
0.0
 11
-494.5338481911
 21
508.0531812403
 31
0.0
  0
LINE
  5
10C
330
1F
100
AcDbEntity
  8
0
  6
Continuous
 62
     7
370
     0
100
AcDbLine
 10
-888.6934632309
 20
508.0531812403
 30
0.0
 11
-697.6136557631
 21
508.0531812403
 31
0.0
  0
LINE
  5
10D
330
1F
100
AcDbEntity
  8
0
  6
Continuous
 62
     7
370
     0
100
AcDbLine
 10
-1014.2036789902
 20
508.0531812403
 30
0.0
 11
-900.6934577473
 21
508.0531812403
 31
0.0
  0
LINE
  5
10E
330
1F
100
AcDbEntity
  8
0
  6
Continuous
 62
     7
370
     0
100
AcDbLine
 10
-1031.1184638985
 20
508.0531812403
 30
0.0
 11
-1026.2036735065
 21
508.0531812403
 31
0.0
  0
LINE
  5
10F
330
1F
100
AcDbEntity
  8
0
  6
Continuous
 62
     7
370
     0
100
AcDbLine
 10
-685.6136556588
 20
503.3338866327
 30
0.0
 11
-494.5338481911
 21
503.3338866327
 31
0.0
  0
LINE
  5
110
330
1F
100
AcDbEntity
  8
0
  6
Continuous
 62
     7
370
     0
100
AcDbLine
 10
-482.5338536747
 20
503.3338866327
 30
0.0
 11
-369.0236324318
 21
503.3338866327
 31
0.0
  0
LINE
  5
111
330
1F
100
AcDbEntity
  8
0
  6
Continuous
 62
     7
370
     0
100
AcDbLine
 10
-357.0236379154
 20
503.3338866327
 30
0.0
 11
-356.666218663
 21
503.3338866327
 31
0.0
  0
LINE
  5
112
330
1F
100
AcDbEntity
  8
0
  6
Continuous
 62
     7
370
     0
100
AcDbLine
 10
-1026.5610927589
 20
503.3338866327
 30
0.0
 11
-1026.2036735065
 21
503.3338866327
 31
0.0
  0
LINE
  5
113
330
1F
100
AcDbEntity
  8
0
  6
Continuous
 62
     7
370
     0
100
AcDbLine
 10
-1014.2036789902
 20
503.3338866327
 30
0.0
 11
-900.6934577473
 21
503.3338866327
 31
0.0
  0
LINE
  5
114
330
1F
100
AcDbEntity
  8
0
  6
Continuous
 62
     7
370
     0
100
AcDbLine
 10
-888.6934632309
 20
503.3338866327
 30
0.0
 11
-697.6136557631
 21
503.3338866327
 31
0.0
  0
LINE
  5
115
330
1F
100
AcDbEntity
  8
0
  6
Continuous
 62
     7
370
     0
100
AcDbLine
 10
-685.6136556588
 20
478.0842051971
 30
0.0
 11
-494.5338481911
 21
478.0842051971
 31
0.0
  0
LINE
  5
116
330
1F
100
AcDbEntity
  8
0
  6
Continuous
 62
     7
370
     0
100
AcDbLine
 10
-482.5338536747
 20
478.0842051971
 30
0.0
 11
-369.0236324318
 21
478.0842051971
 31
0.0
  0
LINE
  5
117
330
1F
100
AcDbEntity
  8
0
  6
Continuous
 62
     7
370
     0
100
AcDbLine
 10
-1014.2036789902
 20
478.0842051971
 30
0.0
 11
-900.6934577473
 21
478.0842051971
 31
0.0
  0
LINE
  5
118
330
1F
100
AcDbEntity
  8
0
  6
Continuous
 62
     7
370
     0
100
AcDbLine
 10
-888.6934632309
 20
478.0842051971
 30
0.0
 11
-697.6136557631
 21
478.0842051971
 31
0.0
  0
LINE
  5
119
330
1F
100
AcDbEntity
  8
0
  6
Continuous
 62
     7
370
     0
100
AcDbLine
 10
-660.5547202625
 20
474.2507543545
 30
0.0
 11
-494.5338481911
 21
474.2507543545
 31
0.0
  0
LINE
  5
11A
330
1F
100
AcDbEntity
  8
0
  6
Continuous
 62
     7
370
     0
100
AcDbLine
 10
-482.5338536747
 20
474.2507543545
 30
0.0
 11
-377.5515073784
 21
474.2507543545
 31
0.0
  0
LINE
  5
11B
330
1F
100
AcDbEntity
  8
0
  6
Continuous
 62
     7
370
     0
100
AcDbLine
 10
-1005.6758040436
 20
474.2507543545
 30
0.0
 11
-900.6934577473
 21
474.2507543545
 31
0.0
  0
LINE
  5
11C
330
1F
100
AcDbEntity
  8
0
  6
Continuous
 62
     7
370
     0
100
AcDbLine
 10
-888.6934632309
 20
474.2507543545
 30
0.0
 11
-697.6136557631
 21
474.2507543545
 31
0.0
  0
LINE
  5
11D
330
1F
100
AcDbEntity
  8
0
  6
Continuous
 62
     7
370
     0
100
AcDbLine
 10
-685.6136556588
 20
474.2507543545
 30
0.0
 11
-660.5547202625
 21
474.2507543545
 31
0.0
  0
LINE
  5
11E
330
1F
100
AcDbEntity
  8
0
  6
CENTERX2
 62
     7
370
     0
100
AcDbLine
 10
-691.613655711
 20
553.3055376257
 30
0.0
 11
-691.613655711
 21
354.8728159726
 31
0.0
  0
CIRCLE
  5
11F
330
1F
100
AcDbEntity
  8
0
  6
Continuous
 62
     7
370
    15
100
AcDbCircle
 10
-894.693460378
 20
-112.2600240368
 30
0.0
 40
6.500000000000017
  0
CIRCLE
  5
120
330
1F
100
AcDbEntity
  8
0
  6
Continuous
 62
     7
370
    15
100
AcDbCircle
 10
-1020.203682091
 20
-285.0100240368
 30
0.0
 40
6.499999999999935
  0
CIRCLE
  5
121
330
1F
100
AcDbEntity
  8
0
  6
Continuous
 62
     7
370
    15
100
AcDbCircle
 10
-691.613655711
 20
-46.2753955933
 30
0.0
 40
6.500000000000024
  0
CIRCLE
  5
122
330
1F
100
AcDbEntity
  8
0
  6
Continuous
 62
     7
370
    15
100
AcDbCircle
 10
-1020.203682091
 20
-498.5407671499
 30
0.0
 40
6.500000000000036
  0
CIRCLE
  5
123
330
1F
100
AcDbEntity
  8
0
  6
Continuous
 62
     7
370
    15
100
AcDbCircle
 10
-488.5338510439
 20
-112.2600240368
 30
0.0
 40
6.500000000000004
  0
CIRCLE
  5
124
330
1F
100
AcDbEntity
  8
0
  6
Continuous
 62
     7
370
    15
100
AcDbCircle
 10
-894.693460378
 20
-671.2907671499
 30
0.0
 40
6.499999999999994
  0
CIRCLE
  5
125
330
1F
100
AcDbEntity
  8
0
  6
Continuous
 62
     7
370
    15
100
AcDbCircle
 10
-363.023629331
 20
-285.0100240368
 30
0.0
 40
6.500000000000009
  0
CIRCLE
  5
126
330
1F
100
AcDbEntity
  8
0
  6
Continuous
 62
     7
370
    15
100
AcDbCircle
 10
-691.613655711
 20
-737.2753955933
 30
0.0
 40
6.500000000000137
  0
CIRCLE
  5
127
330
1F
100
AcDbEntity
  8
0
  6
Continuous
 62
     7
370
    15
100
AcDbCircle
 10
-363.023629331
 20
-498.5407671499
 30
0.0
 40
6.500000000000011
  0
CIRCLE
  5
128
330
1F
100
AcDbEntity
  8
0
  6
Continuous
 62
     7
370
    15
100
AcDbCircle
 10
-488.5338510439
 20
-671.2907671499
 30
0.0
 40
6.499999999999999
  0
CIRCLE
  5
129
330
1F
100
AcDbEntity
  8
0
  6
Continuous
 62
     7
370
    15
100
AcDbCircle
 10
-894.693460378
 20
-112.2600240368
 30
0.0
 40
8.000000000000014
  0
CIRCLE
  5
12A
330
1F
100
AcDbEntity
  8
0
  6
Continuous
 62
     7
370
    15
100
AcDbCircle
 10
-1020.203682091
 20
-285.0100240368
 30
0.0
 40
7.999999999999909
  0
CIRCLE
  5
12B
330
1F
100
AcDbEntity
  8
0
  6
Continuous
 62
     7
370
    15
100
AcDbCircle
 10
-691.613655711
 20
-46.2753955933
 30
0.0
 40
8.000000000000005
  0
CIRCLE
  5
12C
330
1F
100
AcDbEntity
  8
0
  6
Continuous
 62
     7
370
    15
100
AcDbCircle
 10
-1020.203682091
 20
-498.5407671499
 30
0.0
 40
7.999999999999984
  0
CIRCLE
  5
12D
330
1F
100
AcDbEntity
  8
0
  6
Continuous
 62
     7
370
    15
100
AcDbCircle
 10
-488.5338510439
 20
-112.2600240368
 30
0.0
 40
8.00000000000001
  0
CIRCLE
  5
12E
330
1F
100
AcDbEntity
  8
0
  6
Continuous
 62
     7
370
    15
100
AcDbCircle
 10
-894.693460378
 20
-671.2907671499
 30
0.0
 40
7.999999999999995
  0
CIRCLE
  5
12F
330
1F
100
AcDbEntity
  8
0
  6
Continuous
 62
     7
370
    15
100
AcDbCircle
 10
-363.023629331
 20
-285.0100240368
 30
0.0
 40
8.000000000000012
  0
CIRCLE
  5
130
330
1F
100
AcDbEntity
  8
0
  6
Continuous
 62
     7
370
    15
100
AcDbCircle
 10
-691.613655711
 20
-737.2753955933
 30
0.0
 40
8.000000000000174
  0
CIRCLE
  5
131
330
1F
100
AcDbEntity
  8
0
  6
Continuous
 62
     7
370
    15
100
AcDbCircle
 10
-363.023629331
 20
-498.5407671499
 30
0.0
 40
8.000000000000059
  0
CIRCLE
  5
132
330
1F
100
AcDbEntity
  8
0
  6
Continuous
 62
     7
370
    15
100
AcDbCircle
 10
-488.5338510439
 20
-671.2907671499
 30
0.0
 40
7.999999999999917
  0
LINE
  5
133
330
1F
100
AcDbEntity
  8
0
  6
Continuous
 62
     7
370
    15
100
AcDbLine
 10
-889.4678914793
 20
-102.6149949643
 30
0.0
 11
-900.4335367926
 21
-102.9120347115
 31
0.0
  0
LINE
  5
134
330
1F
100
AcDbEntity
  8
0
  6
Continuous
 62
     7
370
    15
100
AcDbLine
 10
-883.727830077
 20
-111.9629702183
 30
0.0
 11
-889.4678914793
 21
-102.6149949643
 31
0.0
  0
LINE
  5
135
330
1F
100
AcDbEntity
  8
0
  6
Continuous
 62
     7
370
    15
100
AcDbLine
 10
-888.9533841856
 20
-121.608015022
 30
0.0
 11
-883.727830077
 21
-111.9629702183
 31
0.0
  0
LINE
  5
136
330
1F
100
AcDbEntity
  8
0
  6
Continuous
 62
     7
370
    15
100
AcDbLine
 10
-899.9190294989
 20
-121.9050547692
 30
0.0
 11
-888.9533841856
 21
-121.608015022
 31
0.0
  0
LINE
  5
137
330
1F
100
AcDbEntity
  8
0
  6
Continuous
 62
     7
370
    15
100
AcDbLine
 10
-905.6590909012
 20
-112.5570795151
 30
0.0
 11
-899.9190294989
 21
-121.9050547692
 31
0.0
  0
LINE
  5
138
330
1F
100
AcDbEntity
  8
0
  6
Continuous
 62
     7
370
    15
100
AcDbLine
 10
-900.4335367926
 20
-102.9120347115
 30
0.0
 11
-905.6590909012
 21
-112.5570795151
 31
0.0
  0
LINE
  5
139
330
1F
100
AcDbEntity
  8
0
  6
Continuous
 62
     7
370
    15
100
AcDbLine
 10
-1021.6453188904
 20
-274.1355112406
 30
0.0
 11
-1030.3421134003
 21
-280.8212673875
 31
0.0
  0
LINE
  5
13A
330
1F
100
AcDbEntity
  8
0
  6
Continuous
 62
     7
370
    15
100
AcDbLine
 10
-1011.5068966396
 20
-278.3242649051
 30
0.0
 11
-1021.6453188904
 21
-274.1355112406
 31
0.0
  0
LINE
  5
13B
330
1F
100
AcDbEntity
  8
0
  6
Continuous
 62
     7
370
    15
100
AcDbLine
 10
-1010.0652688988
 20
-289.1987821671
 30
0.0
 11
-1011.5068966396
 21
-278.3242649051
 31
0.0
  0
LINE
  5
13C
330
1F
100
AcDbEntity
  8
0
  6
Continuous
 62
     7
370
    15
100
AcDbLine
 10
-1018.7620336063
 20
-295.884538314
 30
0.0
 11
-1010.0652688988
 21
-289.1987821671
 31
0.0
  0
LINE
  5
13D
330
1F
100
AcDbEntity
  8
0
  6
Continuous
 62
     7
370
    15
100
AcDbLine
 10
-1028.9004558571
 20
-291.6957771989
 30
0.0
 11
-1018.7620336063
 21
-295.884538314
 31
0.0
  0
LINE
  5
13E
330
1F
100
AcDbEntity
  8
0
  6
Continuous
 62
     7
370
    15
100
AcDbLine
 10
-1030.3421134003
 20
-280.8212673875
 30
0.0
 11
-1028.9004558571
 21
-291.6957771989
 31
0.0
  0
LINE
  5
13F
330
1F
100
AcDbEntity
  8
0
  6
Continuous
 62
     7
370
    15
100
AcDbLine
 10
-681.7168734841
 20
-41.5438971135
 30
0.0
 11
-690.762858313
 21
-35.3387853715
 31
0.0
  0
LINE
  5
140
330
1F
100
AcDbEntity
  8
0
  6
Continuous
 62
     7
370
    15
100
AcDbLine
 10
-682.567671115
 20
-52.4805149647
 30
0.0
 11
-681.7168734841
 21
-41.5438971135
 31
0.0
  0
LINE
  5
141
330
1F
100
AcDbEntity
  8
0
  6
Continuous
 62
     7
370
    15
100
AcDbLine
 10
-692.464453109
 20
-57.212021074
 30
0.0
 11
-682.567671115
 21
-52.4805149647
 31
0.0
  0
LINE
  5
142
330
1F
100
AcDbEntity
  8
0
  6
Continuous
 62
     7
370
    15
100
AcDbLine
 10
-701.5104379378
 20
-51.0068795296
 30
0.0
 11
-692.464453109
 21
-57.212021074
 31
0.0
  0
LINE
  5
143
330
1F
100
AcDbEntity
  8
0
  6
Continuous
 62
     7
370
    15
100
AcDbLine
 10
-700.659640307
 20
-40.0702914807
 30
0.0
 11
-701.5104379378
 21
-51.0068795296
 31
0.0
  0
LINE
  5
144
330
1F
100
AcDbEntity
  8
0
  6
Continuous
 62
     7
370
    15
100
AcDbLine
 10
-690.762858313
 20
-35.3387853715
 30
0.0
 11
-700.659640307
 21
-40.0702914807
 31
0.0
  0
LINE
  5
145
330
1F
100
AcDbEntity
  8
0
  6
Continuous
 62
     7
370
    15
100
AcDbLine
 10
-1027.7618879326
 20
-490.590479097
 30
0.0
 11
-1030.8679157742
 21
-501.11121299
 31
0.0
  0
LINE
  5
146
330
1F
100
AcDbEntity
  8
0
  6
Continuous
 62
     7
370
    15
100
AcDbLine
 10
-1017.0976335056
 20
-488.0200362417
 30
0.0
 11
-1027.7618879326
 21
-490.590479097
 31
0.0
  0
LINE
  5
147
330
1F
100
AcDbEntity
  8
0
  6
Continuous
 62
     7
370
    15
100
AcDbLine
 10
-1009.5394367226
 20
-495.9703272792
 30
0.0
 11
-1017.0976335056
 21
-488.0200362417
 31
0.0
  0
LINE
  5
148
330
1F
100
AcDbEntity
  8
0
  6
Continuous
 62
     7
370
    15
100
AcDbLine
 10
-1012.6454943665
 20
-506.4910537216
 30
0.0
 11
-1009.5394367226
 21
-495.9703272792
 31
0.0
  0
LINE
  5
149
330
1F
100
AcDbEntity
  8
0
  6
Continuous
 62
     7
370
    15
100
AcDbLine
 10
-1023.3097487934
 20
-509.0614965769
 30
0.0
 11
-1012.6454943665
 21
-506.4910537216
 31
0.0
  0
LINE
  5
14A
330
1F
100
AcDbEntity
  8
0
  6
Continuous
 62
     7
370
    15
100
AcDbLine
 10
-1030.8679157742
 20
-501.11121299
 30
0.0
 11
-1023.3097487934
 21
-509.0614965769
 31
0.0
  0
LINE
  5
14B
330
1F
100
AcDbEntity
  8
0
  6
Continuous
 62
     7
370
    15
100
AcDbLine
 10
-477.7460807808
 20
-114.2493447873
 30
0.0
 11
-481.4171606548
 21
-103.9122006508
 31
0.0
  0
LINE
  5
14C
330
1F
100
AcDbEntity
  8
0
  6
Continuous
 62
     7
370
    15
100
AcDbLine
 10
-484.8627710588
 20
-122.597154102
 30
0.0
 11
-477.7460807808
 21
-114.2493447873
 31
0.0
  0
LINE
  5
14D
330
1F
100
AcDbEntity
  8
0
  6
Continuous
 62
     7
370
    15
100
AcDbLine
 10
-495.6505412109
 20
-120.6078490826
 30
0.0
 11
-484.8627710588
 21
-122.597154102
 31
0.0
  0
LINE
  5
14E
330
1F
100
AcDbEntity
  8
0
  6
Continuous
 62
     7
370
    15
100
AcDbLine
 10
-499.321621085
 20
-110.2707049462
 30
0.0
 11
-495.6505412109
 21
-120.6078490826
 31
0.0
  0
LINE
  5
14F
330
1F
100
AcDbEntity
  8
0
  6
Continuous
 62
     7
370
    15
100
AcDbLine
 10
-492.2049308069
 20
-101.9228956315
 30
0.0
 11
-499.321621085
 21
-110.2707049462
 31
0.0
  0
LINE
  5
150
330
1F
100
AcDbEntity
  8
0
  6
Continuous
 62
     7
370
    15
100
AcDbLine
 10
-481.4171606548
 20
-103.9122006508
 30
0.0
 11
-492.2049308069
 21
-101.9228956315
 31
0.0
  0
LINE
  5
151
330
1F
100
AcDbEntity
  8
0
  6
Continuous
 62
     7
370
    15
100
AcDbLine
 10
-905.4812306412
 20
-669.3014463994
 30
0.0
 11
-901.8101507671
 21
-679.6385905358
 31
0.0
  0
LINE
  5
152
330
1F
100
AcDbEntity
  8
0
  6
Continuous
 62
     7
370
    15
100
AcDbLine
 10
-887.576770211
 20
-662.942942104
 30
0.0
 11
-898.3645403631
 21
-660.9536370846
 31
0.0
  0
LINE
  5
153
330
1F
100
AcDbEntity
  8
0
  6
Continuous
 62
     7
370
    15
100
AcDbLine
 10
-883.905690337
 20
-673.2800862404
 30
0.0
 11
-887.576770211
 21
-662.942942104
 31
0.0
  0
LINE
  5
154
330
1F
100
AcDbEntity
  8
0
  6
Continuous
 62
     7
370
    15
100
AcDbLine
 10
-891.022380615
 20
-681.6278955552
 30
0.0
 11
-883.905690337
 21
-673.2800862404
 31
0.0
  0
LINE
  5
155
330
1F
100
AcDbEntity
  8
0
  6
Continuous
 62
     7
370
    15
100
AcDbLine
 10
-901.8101507671
 20
-679.6385905358
 30
0.0
 11
-891.022380615
 21
-681.6278955552
 31
0.0
  0
LINE
  5
156
330
1F
100
AcDbEntity
  8
0
  6
Continuous
 62
     7
370
    15
100
AcDbLine
 10
-898.3645403631
 20
-660.9536370846
 30
0.0
 11
-905.4812306412
 21
-669.3014463994
 31
0.0
  0
LINE
  5
157
330
1F
100
AcDbEntity
  8
0
  6
Continuous
 62
     7
370
    15
100
AcDbLine
 10
-355.4654234894
 20
-292.9603120896
 30
0.0
 11
-352.3593956478
 21
-282.4395781967
 31
0.0
  0
LINE
  5
158
330
1F
100
AcDbEntity
  8
0
  6
Continuous
 62
     7
370
    15
100
AcDbLine
 10
-366.1296779163
 20
-295.530754945
 30
0.0
 11
-355.4654234894
 21
-292.9603120896
 31
0.0
  0
LINE
  5
159
330
1F
100
AcDbEntity
  8
0
  6
Continuous
 62
     7
370
    15
100
AcDbLine
 10
-373.6878746994
 20
-287.5804639074
 30
0.0
 11
-366.1296779163
 21
-295.530754945
 31
0.0
  0
LINE
  5
15A
330
1F
100
AcDbEntity
  8
0
  6
Continuous
 62
     7
370
    15
100
AcDbLine
 10
-370.5818170555
 20
-277.0597374651
 30
0.0
 11
-373.6878746994
 21
-287.5804639074
 31
0.0
  0
LINE
  5
15B
330
1F
100
AcDbEntity
  8
0
  6
Continuous
 62
     7
370
    15
100
AcDbLine
 10
-359.9175626286
 20
-274.4892946097
 30
0.0
 11
-370.5818170555
 21
-277.0597374651
 31
0.0
  0
LINE
  5
15C
330
1F
100
AcDbEntity
  8
0
  6
Continuous
 62
     7
370
    15
100
AcDbLine
 10
-352.3593956478
 20
-282.4395781967
 30
0.0
 11
-359.9175626286
 21
-274.4892946097
 31
0.0
  0
LINE
  5
15D
330
1F
100
AcDbEntity
  8
0
  6
Continuous
 62
     7
370
    15
100
AcDbLine
 10
-701.5104379378
 20
-742.0068940732
 30
0.0
 11
-692.464453109
 21
-748.2120058152
 31
0.0
  0
LINE
  5
15E
330
1F
100
AcDbEntity
  8
0
  6
Continuous
 62
     7
370
    15
100
AcDbLine
 10
-700.659640307
 20
-731.0702762219
 30
0.0
 11
-701.5104379378
 21
-742.0068940732
 31
0.0
  0
LINE
  5
15F
330
1F
100
AcDbEntity
  8
0
  6
Continuous
 62
     7
370
    15
100
AcDbLine
 10
-690.762858313
 20
-726.3387701127
 30
0.0
 11
-700.659640307
 21
-731.0702762219
 31
0.0
  0
LINE
  5
160
330
1F
100
AcDbEntity
  8
0
  6
Continuous
 62
     7
370
    15
100
AcDbLine
 10
-681.7168734841
 20
-732.543911657
 30
0.0
 11
-690.762858313
 21
-726.3387701127
 31
0.0
  0
LINE
  5
161
330
1F
100
AcDbEntity
  8
0
  6
Continuous
 62
     7
370
    15
100
AcDbLine
 10
-682.567671115
 20
-743.4804997059
 30
0.0
 11
-681.7168734841
 21
-732.543911657
 31
0.0
  0
LINE
  5
162
330
1F
100
AcDbEntity
  8
0
  6
Continuous
 62
     7
370
    15
100
AcDbLine
 10
-692.464453109
 20
-748.2120058152
 30
0.0
 11
-682.567671115
 21
-743.4804997059
 31
0.0
  0
LINE
  5
163
330
1F
100
AcDbEntity
  8
0
  6
Continuous
 62
     7
370
    15
100
AcDbLine
 10
-361.5819925316
 20
-509.415279946
 30
0.0
 11
-352.8851980217
 21
-502.7295237991
 31
0.0
  0
LINE
  5
164
330
1F
100
AcDbEntity
  8
0
  6
Continuous
 62
     7
370
    15
100
AcDbLine
 10
-371.7204147823
 20
-505.2265262815
 30
0.0
 11
-361.5819925316
 21
-509.415279946
 31
0.0
  0
LINE
  5
165
330
1F
100
AcDbEntity
  8
0
  6
Continuous
 62
     7
370
    15
100
AcDbLine
 10
-373.1620425232
 20
-494.3520090195
 30
0.0
 11
-371.7204147823
 21
-505.2265262815
 31
0.0
  0
LINE
  5
166
330
1F
100
AcDbEntity
  8
0
  6
Continuous
 62
     7
370
    15
100
AcDbLine
 10
-364.4652778156
 20
-487.6662528726
 30
0.0
 11
-373.1620425232
 21
-494.3520090195
 31
0.0
  0
LINE
  5
167
330
1F
100
AcDbEntity
  8
0
  6
Continuous
 62
     7
370
    15
100
AcDbLine
 10
-354.3268555649
 20
-491.8550139877
 30
0.0
 11
-364.4652778156
 21
-487.6662528726
 31
0.0
  0
LINE
  5
168
330
1F
100
AcDbEntity
  8
0
  6
Continuous
 62
     7
370
    15
100
AcDbLine
 10
-352.8851980217
 20
-502.7295237991
 30
0.0
 11
-354.3268555649
 21
-491.8550139877
 31
0.0
  0
LINE
  5
169
330
1F
100
AcDbEntity
  8
0
  6
Continuous
 62
     7
370
    15
100
AcDbLine
 10
-493.7594199427
 20
-680.9357962224
 30
0.0
 11
-482.7937746294
 21
-680.6387564751
 31
0.0
  0
LINE
  5
16A
330
1F
100
AcDbEntity
  8
0
  6
Continuous
 62
     7
370
    15
100
AcDbLine
 10
-499.499481345
 20
-671.5878209683
 30
0.0
 11
-493.7594199427
 21
-680.9357962224
 31
0.0
  0
LINE
  5
16B
330
1F
100
AcDbEntity
  8
0
  6
Continuous
 62
     7
370
    15
100
AcDbLine
 10
-483.3082819231
 20
-661.6457364174
 30
0.0
 11
-494.2739272364
 21
-661.9427761647
 31
0.0
  0
LINE
  5
16C
330
1F
100
AcDbEntity
  8
0
  6
Continuous
 62
     7
370
    15
100
AcDbLine
 10
-477.5682205208
 20
-670.9937116715
 30
0.0
 11
-483.3082819231
 21
-661.6457364174
 31
0.0
  0
LINE
  5
16D
330
1F
100
AcDbEntity
  8
0
  6
Continuous
 62
     7
370
    15
100
AcDbLine
 10
-482.7937746294
 20
-680.6387564751
 30
0.0
 11
-477.5682205208
 21
-670.9937116715
 31
0.0
  0
LINE
  5
16E
330
1F
100
AcDbEntity
  8
0
  6
Continuous
 62
     7
370
    15
100
AcDbLine
 10
-494.2739272364
 20
-661.9427761647
 30
0.0
 11
-499.499481345
 21
-671.5878209683
 31
0.0
  0
CIRCLE
  5
16F
330
1F
100
AcDbEntity
  8
0
  6
Continuous
 62
     7
370
    15
100
AcDbCircle
 10
-894.693460378
 20
-112.2600240368
 30
0.0
 40
11.99999999999999
  0
CIRCLE
  5
170
330
1F
100
AcDbEntity
  8
0
  6
Continuous
 62
     7
370
    15
100
AcDbCircle
 10
-1020.203682091
 20
-285.0100240368
 30
0.0
 40
11.99999999999985
  0
CIRCLE
  5
171
330
1F
100
AcDbEntity
  8
0
  6
Continuous
 62
     7
370
    15
100
AcDbCircle
 10
-691.613655711
 20
-46.2753955933
 30
0.0
 40
12.00000000000001
  0
CIRCLE
  5
172
330
1F
100
AcDbEntity
  8
0
  6
Continuous
 62
     7
370
    15
100
AcDbCircle
 10
-1020.203682091
 20
-498.5407671499
 30
0.0
 40
12.00000000000002
  0
CIRCLE
  5
173
330
1F
100
AcDbEntity
  8
0
  6
Continuous
 62
     7
370
    15
100
AcDbCircle
 10
-488.5338510439
 20
-112.2600240368
 30
0.0
 40
11.99999999999999
  0
CIRCLE
  5
174
330
1F
100
AcDbEntity
  8
0
  6
Continuous
 62
     7
370
    15
100
AcDbCircle
 10
-894.693460378
 20
-671.2907671499
 30
0.0
 40
11.99999999999994
  0
CIRCLE
  5
175
330
1F
100
AcDbEntity
  8
0
  6
Continuous
 62
     7
370
    15
100
AcDbCircle
 10
-363.023629331
 20
-285.0100240368
 30
0.0
 40
11.99999999999999
  0
CIRCLE
  5
176
330
1F
100
AcDbEntity
  8
0
  6
Continuous
 62
     7
370
    15
100
AcDbCircle
 10
-691.613655711
 20
-737.2753955933
 30
0.0
 40
12.00000000000009
  0
CIRCLE
  5
177
330
1F
100
AcDbEntity
  8
0
  6
Continuous
 62
     7
370
    15
100
AcDbCircle
 10
-363.023629331
 20
-498.5407671499
 30
0.0
 40
12.00000000000002
  0
CIRCLE
  5
178
330
1F
100
AcDbEntity
  8
0
  6
Continuous
 62
     7
370
    15
100
AcDbCircle
 10
-488.5338510439
 20
-671.2907671499
 30
0.0
 40
11.99999999999997
  0
CIRCLE
  5
179
330
1F
100
AcDbEntity
  8
0
  6
Continuous
 62
     7
370
    15
100
AcDbCircle
 10
-691.613655711
 20
-391.7753955933
 30
0.0
 40
358.4999999999999
  0
CIRCLE
  5
17A
330
1F
100
AcDbEntity
  8
0
  6
Continuous
 62
     7
370
    15
100
AcDbCircle
 10
-691.613655711
 20
-391.7753955933
 30
0.0
 40
300.0000000000001
  0
CIRCLE
  5
17B
330
1F
100
AcDbEntity
  8
0
  6
Continuous
 62
     7
370
    15
100
AcDbCircle
 10
-311.3536445819
 20
-331.5481265528
 30
0.0
 40
18.5
  0
CIRCLE
  5
17C
330
1F
100
AcDbEntity
  8
0
  6
Continuous
 62
     7
370
    15
100
AcDbCircle
 10
-348.5761438985
 20
-216.9890531936
 30
0.0
 40
18.49999999999999
  0
CIRCLE
  5
17D
330
1F
100
AcDbEntity
  8
0
  6
Continuous
 62
     7
370
    15
100
AcDbCircle
 10
-419.3775449542
 20
-119.5392848365
 30
0.0
 40
18.50000000000002
  0
CIRCLE
  5
17E
330
1F
100
AcDbEntity
  8
0
  6
Continuous
 62
     7
370
    15
100
AcDbCircle
 10
-516.8273133113
 20
-48.7378837808
 30
0.0
 40
18.50000000000001
  0
CIRCLE
  5
17F
330
1F
100
AcDbEntity
  8
0
  6
Continuous
 62
     7
370
    15
100
AcDbCircle
 10
-631.3863866705
 20
-11.5153844642
 30
0.0
 40
18.49999999999997
  0
CIRCLE
  5
180
330
1F
100
AcDbEntity
  8
0
  6
Continuous
 62
     7
370
    15
100
AcDbCircle
 10
-751.8409247515
 20
-11.5153844642
 30
0.0
 40
18.49999999999989
  0
CIRCLE
  5
181
330
1F
100
AcDbEntity
  8
0
  6
Continuous
 62
     7
370
    15
100
AcDbCircle
 10
-866.3999981107
 20
-48.7378837808
 30
0.0
 40
18.50000000000002
  0
CIRCLE
  5
182
330
1F
100
AcDbEntity
  8
0
  6
Continuous
 62
     7
370
    15
100
AcDbCircle
 10
-963.8497664678
 20
-119.5392848365
 30
0.0
 40
18.50000000000008
  0
CIRCLE
  5
183
330
1F
100
AcDbEntity
  8
0
  6
Continuous
 62
     7
370
    15
100
AcDbCircle
 10
-1034.6511675235
 20
-216.9890531936
 30
0.0
 40
18.49999999999991
  0
CIRCLE
  5
184
330
1F
100
AcDbEntity
  8
0
  6
Continuous
 62
     7
370
    15
100
AcDbCircle
 10
-1071.8736668401
 20
-331.5481265528
 30
0.0
 40
18.50000000000006
  0
CIRCLE
  5
185
330
1F
100
AcDbEntity
  8
0
  6
Continuous
 62
     7
370
    15
100
AcDbCircle
 10
-1071.8736668401
 20
-452.0026646338
 30
0.0
 40
18.49999999999994
  0
CIRCLE
  5
186
330
1F
100
AcDbEntity
  8
0
  6
Continuous
 62
     7
370
    15
100
AcDbCircle
 10
-1034.6511675235
 20
-566.561737993
 30
0.0
 40
18.50000000000007
  0
CIRCLE
  5
187
330
1F
100
AcDbEntity
  8
0
  6
Continuous
 62
     7
370
    15
100
AcDbCircle
 10
-963.8497664678
 20
-664.0115063501
 30
0.0
 40
18.50000000000011
  0
CIRCLE
  5
188
330
1F
100
AcDbEntity
  8
0
  6
Continuous
 62
     7
370
    15
100
AcDbCircle
 10
-866.3999981107
 20
-734.8129074058
 30
0.0
 40
18.50000000000007
  0
CIRCLE
  5
189
330
1F
100
AcDbEntity
  8
0
  6
Continuous
 62
     7
370
    15
100
AcDbCircle
 10
-751.8409247515
 20
-772.0354067224
 30
0.0
 40
18.4999999999999
  0
CIRCLE
  5
18A
330
1F
100
AcDbEntity
  8
0
  6
Continuous
 62
     7
370
    15
100
AcDbCircle
 10
-631.3863866705
 20
-772.0354067224
 30
0.0
 40
18.50000000000011
  0
CIRCLE
  5
18B
330
1F
100
AcDbEntity
  8
0
  6
Continuous
 62
     7
370
    15
100
AcDbCircle
 10
-516.8273133113
 20
-734.8129074058
 30
0.0
 40
18.50000000000002
  0
CIRCLE
  5
18C
330
1F
100
AcDbEntity
  8
0
  6
Continuous
 62
     7
370
    15
100
AcDbCircle
 10
-419.3775449542
 20
-664.0115063501
 30
0.0
 40
18.49999999999998
  0
CIRCLE
  5
18D
330
1F
100
AcDbEntity
  8
0
  6
Continuous
 62
     7
370
    15
100
AcDbCircle
 10
-348.5761438985
 20
-566.561737993
 30
0.0
 40
18.49999999999991
  0
CIRCLE
  5
18E
330
1F
100
AcDbEntity
  8
0
  6
Continuous
 62
     7
370
    15
100
AcDbCircle
 10
-311.3536445819
 20
-452.0026646338
 30
0.0
 40
18.49999999999997
  0
CIRCLE
  5
18F
330
1F
100
AcDbEntity
  8
0
  6
Continuous
 62
     7
370
    15
100
AcDbCircle
 10
-691.613655711
 20
-391.7753955933
 30
0.0
 40
420.0000000000001
  0
CIRCLE
  5
190
330
1F
100
AcDbEntity
  8
0
  6
Continuous
 62
     7
370
     0
100
AcDbCircle
 10
-691.613655711
 20
-391.7753955933
 30
0.0
 40
332.3867513459481
  0
CIRCLE
  5
191
330
1F
100
AcDbEntity
  8
0
  6
Continuous
 62
     7
370
     0
100
AcDbCircle
 10
-691.613655711
 20
-391.7753955933
 30
0.0
 40
328.0566243270259
  0
CIRCLE
  5
192
330
1F
100
AcDbEntity
  8
0
  6
Continuous
 62
     7
370
     0
100
AcDbCircle
 10
-691.613655711
 20
-391.7753955933
 30
0.0
 40
314.6602540378444
  0
CIRCLE
  5
193
330
1F
100
AcDbEntity
  8
0
  6
Continuous
 62
     7
370
     0
100
AcDbCircle
 10
-691.613655711
 20
-391.7753955933
 30
0.0
 40
312.1602540378445
  0
CIRCLE
  5
194
330
1F
100
AcDbEntity
  8
0
  6
Continuous
 62
     7
370
     0
100
AcDbCircle
 10
-691.613655711
 20
-391.7753955933
 30
0.0
 40
321.1698729810778
  0
CIRCLE
  5
195
330
1F
100
AcDbEntity
  8
0
  6
Continuous
 62
     7
370
     0
100
AcDbCircle
 10
-691.613655711
 20
-391.7753955933
 30
0.0
 40
327.9999999999999
  0
INSERT
  5
1A1
330
1F
100
AcDbEntity
  8
0
  6
Continuous
 62
     7
370
     0
100
AcDbBlockReference
  2
SW_CENTERMARKSYMBOL_0
 10
-691.613655711
 20
-391.7753955933
 30
0.0
  0
LINE
  5
1A2
330
1F
100
AcDbEntity
  8
0
  6
Continuous
 62
     7
370
    15
100
AcDbLine
 10
18.400486074
 20
392.7150420043
 30
0.0
 11
18.400486074
 21
367.7150434944
 31
0.0
  0
LINE
  5
1A3
330
1F
100
AcDbEntity
  8
0
  6
Continuous
 62
     7
370
    15
100
AcDbLine
 10
858.400459848
 20
367.7150434944
 30
0.0
 11
858.400459848
 21
392.7150420043
 31
0.0
  0
LINE
  5
1A4
330
1F
100
AcDbEntity
  8
0
  6
Continuous
 62
     7
370
    15
100
AcDbLine
 10
79.9004691463
 20
515.7150454018
 30
0.0
 11
79.9004691463
 21
512.4640367124
 31
0.0
  0
LINE
  5
1A5
330
1F
100
AcDbEntity
  8
0
  6
Continuous
 62
     7
370
    15
100
AcDbLine
 10
796.9004767757
 20
512.4640367124
 30
0.0
 11
796.9004767757
 21
515.7150454018
 31
0.0
  0
ARC
  5
1A6
330
1F
100
AcDbEntity
  8
0
  6
Continuous
 62
     7
370
    15
100
AcDbCircle
 10
82.900472961
 20
512.4640385066
 30
0.0
 40
3.000000000000033
100
AcDbArc
 50
180.0
 51
265.0
  0
ARC
  5
1A7
330
1F
100
AcDbEntity
  8
0
  6
Continuous
 62
     7
370
    15
100
AcDbCircle
 10
793.900472961
 20
512.4640385066
 30
0.0
 40
3.00000000000004
100
AcDbArc
 50
275.0
 51
0.0
  0
LINE
  5
1A8
330
1F
100
AcDbEntity
  8
0
  6
Continuous
 62
     7
370
    15
100
AcDbLine
 10
82.6390045505
 20
509.4754560981
 30
0.0
 11
86.9209128242
 21
509.1008371804
 31
0.0
  0
LINE
  5
1A9
330
1F
100
AcDbEntity
  8
0
  6
Continuous
 62
     7
370
    15
100
AcDbLine
 10
789.8800330978
 20
509.1008371804
 30
0.0
 11
794.1619413715
 21
509.4754560981
 31
0.0
  0
LINE
  5
1AA
330
1F
100
AcDbEntity
  8
0
  6
Continuous
 62
     7
370
    15
100
AcDbLine
 10
343.6351003866
 20
515.7150454018
 30
0.0
 11
343.6351003866
 21
518.2150467429
 31
0.0
  0
LINE
  5
1AB
330
1F
100
AcDbEntity
  8
0
  6
Continuous
 62
     7
370
    15
100
AcDbLine
 10
319.6351039033
 20
518.2150467429
 30
0.0
 11
319.6351039033
 21
515.7150454018
 31
0.0
  0
LINE
  5
1AC
330
1F
100
AcDbEntity
  8
0
  6
Continuous
 62
     7
370
    15
100
AcDbLine
 10
557.1658420186
 20
515.7150454018
 30
0.0
 11
557.1658420186
 21
518.2150467429
 31
0.0
  0
LINE
  5
1AD
330
1F
100
AcDbEntity
  8
0
  6
Continuous
 62
     7
370
    15
100
AcDbLine
 10
533.1658455353
 20
518.2150467429
 30
0.0
 11
533.1658455353
 21
515.7150454018
 31
0.0
  0
ARC
  5
1AE
330
1F
100
AcDbEntity
  8
0
  6
Continuous
 62
     7
370
    15
100
AcDbCircle
 10
98.4598830798
 20
503.0722078097
 30
0.0
 40
5.000000000000025
100
AcDbArc
 50
3.0
 51
85.0011161258
  0
ARC
  5
1AF
330
1F
100
AcDbEntity
  8
0
  6
Continuous
 62
     7
370
    15
100
AcDbCircle
 10
778.3410628421
 20
503.0722078097
 30
0.0
 40
5.000000000000039
100
AcDbArc
 50
95.0016110808
 51
177.0
  0
LINE
  5
1B0
330
1F
100
AcDbEntity
  8
0
  6
Continuous
 62
     7
370
    15
100
AcDbLine
 10
339.635099731
 20
533.7150446269
 30
0.0
 11
339.635099731
 21
534.2150456402
 31
0.0
  0
LINE
  5
1B1
330
1F
100
AcDbEntity
  8
0
  6
Continuous
 62
     7
370
    15
100
AcDbLine
 10
323.635104559
 20
534.2150456402
 30
0.0
 11
323.635104559
 21
533.7150446269
 31
0.0
  0
LINE
  5
1B2
330
1F
100
AcDbEntity
  8
0
  6
Continuous
 62
     7
370
    15
100
AcDbLine
 10
553.165841363
 20
533.7150446269
 30
0.0
 11
553.165841363
 21
534.2150456402
 31
0.0
  0
LINE
  5
1B3
330
1F
100
AcDbEntity
  8
0
  6
Continuous
 62
     7
370
    15
100
AcDbLine
 10
537.165846191
 20
534.2150456402
 30
0.0
 11
537.165846191
 21
533.7150446269
 31
0.0
  0
LINE
  5
1B4
330
1F
100
AcDbEntity
  8
0
  6
Continuous
 62
     7
370
    15
100
AcDbLine
 10
338.1351041417
 20
534.2150456402
 30
0.0
 11
338.1351041417
 21
545.7150465939
 31
0.0
  0
LINE
  5
1B5
330
1F
100
AcDbEntity
  8
0
  6
Continuous
 62
     7
370
    15
100
AcDbLine
 10
325.1351001482
 20
545.7150465939
 30
0.0
 11
325.1351001482
 21
534.2150456402
 31
0.0
  0
LINE
  5
1B6
330
1F
100
AcDbEntity
  8
0
  6
Continuous
 62
     7
370
    15
100
AcDbLine
 10
551.6658457737
 20
534.2150456402
 30
0.0
 11
551.6658457737
 21
545.7150465939
 31
0.0
  0
LINE
  5
1B7
330
1F
100
AcDbEntity
  8
0
  6
Continuous
 62
     7
370
    15
100
AcDbLine
 10
538.6658417802
 20
545.7150465939
 30
0.0
 11
538.6658417802
 21
534.2150456402
 31
0.0
  0
LINE
  5
1B8
330
1F
100
AcDbEntity
  8
0
  6
Continuous
 62
     7
370
    15
100
AcDbLine
 10
103.453035913
 20
503.3338866327
 30
0.0
 11
104.7763186317
 21
478.0842051971
 31
0.0
  0
LINE
  5
1B9
330
1F
100
AcDbEntity
  8
0
  6
Continuous
 62
     7
370
    15
100
AcDbLine
 10
772.0246272903
 20
478.0842051971
 30
0.0
 11
773.3479100089
 21
503.3338866327
 31
0.0
  0
LINE
  5
1BA
330
1F
100
AcDbEntity
  8
0
  6
Continuous
 62
     7
370
    15
100
AcDbLine
 10
337.6351031285
 20
392.7150420043
 30
0.0
 11
337.6351031285
 21
508.4200441036
 31
0.0
  0
LINE
  5
1BB
330
1F
100
AcDbEntity
  8
0
  6
Continuous
 62
     7
370
    15
100
AcDbLine
 10
325.6351011615
 20
508.7438016329
 30
0.0
 11
325.6351011615
 21
392.7150420043
 31
0.0
  0
LINE
  5
1BC
330
1F
100
AcDbEntity
  8
0
  6
Continuous
 62
     7
370
    15
100
AcDbLine
 10
337.6351031285
 20
528.2150446567
 30
0.0
 11
337.6351031285
 21
533.7150446269
 31
0.0
  0
LINE
  5
1BD
330
1F
100
AcDbEntity
  8
0
  6
Continuous
 62
     7
370
    15
100
AcDbLine
 10
325.6351011615
 20
533.7150446269
 30
0.0
 11
325.6351011615
 21
528.2150446567
 31
0.0
  0
LINE
  5
1BE
330
1F
100
AcDbEntity
  8
0
  6
Continuous
 62
     7
370
    15
100
AcDbLine
 10
551.1658447604
 20
392.7150420043
 30
0.0
 11
551.1658447604
 21
508.7438016329
 31
0.0
  0
LINE
  5
1BF
330
1F
100
AcDbEntity
  8
0
  6
Continuous
 62
     7
370
    15
100
AcDbLine
 10
539.1658427935
 20
508.4200441036
 30
0.0
 11
539.1658427935
 21
392.7150420043
 31
0.0
  0
LINE
  5
1C0
330
1F
100
AcDbEntity
  8
0
  6
Continuous
 62
     7
370
    15
100
AcDbLine
 10
551.1658447604
 20
528.2150446567
 30
0.0
 11
551.1658447604
 21
533.7150446269
 31
0.0
  0
LINE
  5
1C1
330
1F
100
AcDbEntity
  8
0
  6
Continuous
 62
     7
370
    15
100
AcDbLine
 10
539.1658427935
 20
533.7150446269
 30
0.0
 11
539.1658427935
 21
528.2150446567
 31
0.0
  0
ARC
  5
1C2
330
1F
100
AcDbEntity
  8
0
  6
Continuous
 62
     7
370
    15
100
AcDbCircle
 10
107.2728843778
 20
478.2150449846
 30
0.0
 40
2.500000000000018
100
AcDbArc
 50
183.0
 51
270.0
  0
ARC
  5
1C3
330
1F
100
AcDbEntity
  8
0
  6
Continuous
 62
     7
370
    15
100
AcDbCircle
 10
769.5280615442
 20
478.2150449846
 30
0.0
 40
2.500000000000132
100
AcDbArc
 50
270.0
 51
357.0
  0
ARC
  5
1C4
330
1F
100
AcDbEntity
  8
0
  6
Continuous
 62
     7
370
    15
100
AcDbCircle
 10
112.900472961
 20
477.735842274
 30
0.0
 40
2.500000000000057
100
AcDbArc
 50
233.9320086196
 51
270.0
  0
ARC
  5
1C5
330
1F
100
AcDbEntity
  8
0
  6
Continuous
 62
     7
370
    15
100
AcDbCircle
 10
763.900472961
 20
477.735842274
 30
0.0
 40
2.500000000000075
100
AcDbArc
 50
270.0
 51
306.0679913804
  0
LINE
  5
1C6
330
1F
100
AcDbEntity
  8
0
  6
Continuous
 62
     7
370
    15
100
AcDbLine
 10
112.9004615169
 20
475.2358421813
 30
0.0
 11
152.8851049762
 21
475.2358421813
 31
0.0
  0
LINE
  5
1C7
330
1F
100
AcDbEntity
  8
0
  6
Continuous
 62
     7
370
    15
100
AcDbLine
 10
164.8850994926
 20
475.2358421813
 30
0.0
 11
325.6351011615
 21
475.2358421813
 31
0.0
  0
LINE
  5
1C8
330
1F
100
AcDbEntity
  8
0
  6
Continuous
 62
     7
370
    15
100
AcDbLine
 10
337.6351031285
 20
475.2358421813
 30
0.0
 11
539.1658427935
 21
475.2358421813
 31
0.0
  0
LINE
  5
1C9
330
1F
100
AcDbEntity
  8
0
  6
Continuous
 62
     7
370
    15
100
AcDbLine
 10
551.1658447604
 20
475.2358421813
 30
0.0
 11
711.9158464294
 21
475.2358421813
 31
0.0
  0
LINE
  5
1CA
330
1F
100
AcDbEntity
  8
0
  6
Continuous
 62
     7
370
    15
100
AcDbLine
 10
723.9158409457
 20
475.2358421813
 30
0.0
 11
763.9004844051
 21
475.2358421813
 31
0.0
  0
LINE
  5
1CB
330
1F
100
AcDbEntity
  8
0
  6
Continuous
 62
     7
370
    15
100
AcDbLine
 10
118.4004801135
 20
467.7150449846
 30
0.0
 11
118.4004801135
 21
392.7150420043
 31
0.0
  0
LINE
  5
1CC
330
1F
100
AcDbEntity
  8
0
  6
Continuous
 62
     7
370
    15
100
AcDbLine
 10
758.4004658084
 20
392.7150420043
 30
0.0
 11
758.4004658084
 21
467.7150449846
 31
0.0
  0
ARC
  5
1CD
330
1F
100
AcDbEntity
  8
0
  6
Continuous
 62
     7
370
    15
100
AcDbCircle
 10
118.900472961
 20
471.7150449846
 30
0.0
 40
6.000000000000107
100
AcDbArc
 50
25.0
 51
35.9302218348
  0
ARC
  5
1CE
330
1F
100
AcDbEntity
  8
0
  6
Continuous
 62
     7
370
    15
100
AcDbCircle
 10
757.900472961
 20
471.7150449846
 30
0.0
 40
6.000000000000081
100
AcDbArc
 50
144.0697781652
 51
155.0
  0
LINE
  5
1CF
330
1F
100
AcDbEntity
  8
0
  6
Continuous
 62
     7
370
    15
100
AcDbLine
 10
124.3383246284
 20
474.2507543545
 30
0.0
 11
127.3859697204
 21
467.7150449846
 31
0.0
  0
LINE
  5
1D0
330
1F
100
AcDbEntity
  8
0
  6
Continuous
 62
     7
370
    15
100
AcDbLine
 10
749.4149762016
 20
467.7150449846
 30
0.0
 11
752.4626212936
 21
474.2507543545
 31
0.0
  0
LINE
  5
1D1
330
1F
100
AcDbEntity
  8
0
  6
Continuous
 62
     7
370
    15
100
AcDbLine
 10
170.8851116519
 20
515.7150454018
 30
0.0
 11
170.8851116519
 21
518.2150467429
 31
0.0
  0
LINE
  5
1D2
330
1F
100
AcDbEntity
  8
0
  6
Continuous
 62
     7
370
    15
100
AcDbLine
 10
146.8850928169
 20
518.2150467429
 30
0.0
 11
146.8850928169
 21
515.7150454018
 31
0.0
  0
LINE
  5
1D3
330
1F
100
AcDbEntity
  8
0
  6
Continuous
 62
     7
370
    15
100
AcDbLine
 10
729.9158531051
 20
515.7150454018
 30
0.0
 11
729.9158531051
 21
518.2150467429
 31
0.0
  0
LINE
  5
1D4
330
1F
100
AcDbEntity
  8
0
  6
Continuous
 62
     7
370
    15
100
AcDbLine
 10
705.91583427
 20
518.2150467429
 30
0.0
 11
705.91583427
 21
515.7150454018
 31
0.0
  0
LINE
  5
1D5
330
1F
100
AcDbEntity
  8
0
  6
Continuous
 62
     7
370
    15
100
AcDbLine
 10
166.8851035457
 20
533.7150446269
 30
0.0
 11
166.8851035457
 21
534.2150456402
 31
0.0
  0
LINE
  5
1D6
330
1F
100
AcDbEntity
  8
0
  6
Continuous
 62
     7
370
    15
100
AcDbLine
 10
150.8851009231
 20
534.2150456402
 30
0.0
 11
150.8851009231
 21
533.7150446269
 31
0.0
  0
LINE
  5
1D7
330
1F
100
AcDbEntity
  8
0
  6
Continuous
 62
     7
370
    15
100
AcDbLine
 10
725.9158449989
 20
533.7150446269
 30
0.0
 11
725.9158449989
 21
534.2150456402
 31
0.0
  0
LINE
  5
1D8
330
1F
100
AcDbEntity
  8
0
  6
Continuous
 62
     7
370
    15
100
AcDbLine
 10
709.9158423763
 20
534.2150456402
 30
0.0
 11
709.9158423763
 21
533.7150446269
 31
0.0
  0
LINE
  5
1D9
330
1F
100
AcDbEntity
  8
0
  6
Continuous
 62
     7
370
    15
100
AcDbLine
 10
165.3850930553
 20
534.2150456402
 30
0.0
 11
165.3850930553
 21
545.7150465939
 31
0.0
  0
LINE
  5
1DA
330
1F
100
AcDbEntity
  8
0
  6
Continuous
 62
     7
370
    15
100
AcDbLine
 10
152.3851114135
 20
545.7150465939
 30
0.0
 11
152.3851114135
 21
534.2150456402
 31
0.0
  0
LINE
  5
1DB
330
1F
100
AcDbEntity
  8
0
  6
Continuous
 62
     7
370
    15
100
AcDbLine
 10
724.4158345084
 20
534.2150456402
 30
0.0
 11
724.4158345084
 21
545.7150465939
 31
0.0
  0
LINE
  5
1DC
330
1F
100
AcDbEntity
  8
0
  6
Continuous
 62
     7
370
    15
100
AcDbLine
 10
711.4158528667
 20
545.7150465939
 30
0.0
 11
711.4158528667
 21
534.2150456402
 31
0.0
  0
LINE
  5
1DD
330
1F
100
AcDbEntity
  8
0
  6
Continuous
 62
     7
370
    15
100
AcDbLine
 10
164.8850994926
 20
392.7150420043
 30
0.0
 11
164.8850994926
 21
508.1560588572
 31
0.0
  0
LINE
  5
1DE
330
1F
100
AcDbEntity
  8
0
  6
Continuous
 62
     7
370
    15
100
AcDbLine
 10
152.8851049762
 20
509.0027316603
 30
0.0
 11
152.8851049762
 21
392.7150420043
 31
0.0
  0
LINE
  5
1DF
330
1F
100
AcDbEntity
  8
0
  6
Continuous
 62
     7
370
    15
100
AcDbLine
 10
164.8850994926
 20
528.2150446567
 30
0.0
 11
164.8850994926
 21
533.7150446269
 31
0.0
  0
LINE
  5
1E0
330
1F
100
AcDbEntity
  8
0
  6
Continuous
 62
     7
370
    15
100
AcDbLine
 10
152.8851049762
 20
533.7150446269
 30
0.0
 11
152.8851049762
 21
528.2150446567
 31
0.0
  0
LINE
  5
1E1
330
1F
100
AcDbEntity
  8
0
  6
Continuous
 62
     7
370
    15
100
AcDbLine
 10
723.9158409457
 20
392.7150420043
 30
0.0
 11
723.9158409457
 21
509.0030371342
 31
0.0
  0
LINE
  5
1E2
330
1F
100
AcDbEntity
  8
0
  6
Continuous
 62
     7
370
    15
100
AcDbLine
 10
711.9158464294
 20
508.1561221871
 30
0.0
 11
711.9158464294
 21
392.7150420043
 31
0.0
  0
LINE
  5
1E3
330
1F
100
AcDbEntity
  8
0
  6
Continuous
 62
     7
370
    15
100
AcDbLine
 10
723.9158409457
 20
528.2150446567
 30
0.0
 11
723.9158409457
 21
533.7150446269
 31
0.0
  0
LINE
  5
1E4
330
1F
100
AcDbEntity
  8
0
  6
Continuous
 62
     7
370
    15
100
AcDbLine
 10
711.9158464294
 20
533.7150446269
 30
0.0
 11
711.9158464294
 21
528.2150446567
 31
0.0
  0
LINE
  5
1E5
330
1F
100
AcDbEntity
  8
0
  6
Continuous
 62
     7
370
    15
100
AcDbLine
 10
104.9004751067
 20
515.7150454018
 30
0.0
 11
104.9004751067
 21
518.2150467429
 31
0.0
  0
LINE
  5
1E6
330
1F
100
AcDbEntity
  8
0
  6
Continuous
 62
     7
370
    15
100
AcDbLine
 10
80.900486074
 20
518.2150467429
 30
0.0
 11
80.900486074
 21
515.7150454018
 31
0.0
  0
LINE
  5
1E7
330
1F
100
AcDbEntity
  8
0
  6
Continuous
 62
     7
370
    15
100
AcDbLine
 10
795.900459848
 20
515.7150454018
 30
0.0
 11
795.900459848
 21
518.2150467429
 31
0.0
  0
LINE
  5
1E8
330
1F
100
AcDbEntity
  8
0
  6
Continuous
 62
     7
370
    15
100
AcDbLine
 10
771.9004708152
 20
518.2150467429
 30
0.0
 11
771.9004708152
 21
515.7150454018
 31
0.0
  0
LINE
  5
1E9
330
1F
100
AcDbEntity
  8
0
  6
Continuous
 62
     7
370
    15
100
AcDbLine
 10
100.9004670005
 20
533.7150446269
 30
0.0
 11
100.9004670005
 21
534.2150456402
 31
0.0
  0
LINE
  5
1EA
330
1F
100
AcDbEntity
  8
0
  6
Continuous
 62
     7
370
    15
100
AcDbLine
 10
84.9004643779
 20
534.2150456402
 30
0.0
 11
84.9004643779
 21
533.7150446269
 31
0.0
  0
LINE
  5
1EB
330
1F
100
AcDbEntity
  8
0
  6
Continuous
 62
     7
370
    15
100
AcDbLine
 10
791.900481544
 20
533.7150446269
 30
0.0
 11
791.900481544
 21
534.2150456402
 31
0.0
  0
LINE
  5
1EC
330
1F
100
AcDbEntity
  8
0
  6
Continuous
 62
     7
370
    15
100
AcDbLine
 10
775.9004789214
 20
534.2150456402
 30
0.0
 11
775.9004789214
 21
533.7150446269
 31
0.0
  0
LINE
  5
1ED
330
1F
100
AcDbEntity
  8
0
  6
Continuous
 62
     7
370
    15
100
AcDbLine
 10
99.4004863124
 20
534.2150456402
 30
0.0
 11
99.4004863124
 21
545.7150465939
 31
0.0
  0
LINE
  5
1EE
330
1F
100
AcDbEntity
  8
0
  6
Continuous
 62
     7
370
    15
100
AcDbLine
 10
86.4004748683
 20
545.7150465939
 30
0.0
 11
86.4004748683
 21
534.2150456402
 31
0.0
  0
LINE
  5
1EF
330
1F
100
AcDbEntity
  8
0
  6
Continuous
 62
     7
370
    15
100
AcDbLine
 10
790.4004710536
 20
534.2150456402
 30
0.0
 11
790.4004710536
 21
545.7150465939
 31
0.0
  0
LINE
  5
1F0
330
1F
100
AcDbEntity
  8
0
  6
Continuous
 62
     7
370
    15
100
AcDbLine
 10
777.4004596095
 20
545.7150465939
 30
0.0
 11
777.4004596095
 21
534.2150456402
 31
0.0
  0
LINE
  5
1F1
330
1F
100
AcDbEntity
  8
0
  6
Continuous
 62
     7
370
    15
100
AcDbLine
 10
98.9004629474
 20
392.7150420043
 30
0.0
 11
98.9004629474
 21
508.0527565572
 31
0.0
  0
LINE
  5
1F2
330
1F
100
AcDbEntity
  8
0
  6
Continuous
 62
     7
370
    15
100
AcDbLine
 10
86.900468431
 20
509.1026253197
 30
0.0
 11
86.900468431
 21
392.7150420043
 31
0.0
  0
LINE
  5
1F3
330
1F
100
AcDbEntity
  8
0
  6
Continuous
 62
     7
370
    15
100
AcDbLine
 10
98.9004629474
 20
528.2150446567
 30
0.0
 11
98.9004629474
 21
533.7150446269
 31
0.0
  0
LINE
  5
1F4
330
1F
100
AcDbEntity
  8
0
  6
Continuous
 62
     7
370
    15
100
AcDbLine
 10
86.900468431
 20
533.7150446269
 30
0.0
 11
86.900468431
 21
528.2150446567
 31
0.0
  0
LINE
  5
1F5
330
1F
100
AcDbEntity
  8
0
  6
Continuous
 62
     7
370
    15
100
AcDbLine
 10
789.9004774909
 20
392.7150420043
 30
0.0
 11
789.9004774909
 21
509.1026253197
 31
0.0
  0
LINE
  5
1F6
330
1F
100
AcDbEntity
  8
0
  6
Continuous
 62
     7
370
    15
100
AcDbLine
 10
777.9004829746
 20
508.0527565572
 30
0.0
 11
777.9004829746
 21
392.7150420043
 31
0.0
  0
LINE
  5
1F7
330
1F
100
AcDbEntity
  8
0
  6
Continuous
 62
     7
370
    15
100
AcDbLine
 10
789.9004774909
 20
528.2150446567
 30
0.0
 11
789.9004774909
 21
533.7150446269
 31
0.0
  0
LINE
  5
1F8
330
1F
100
AcDbEntity
  8
0
  6
Continuous
 62
     7
370
    15
100
AcDbLine
 10
777.9004829746
 20
533.7150446269
 30
0.0
 11
777.9004829746
 21
528.2150446567
 31
0.0
  0
LINE
  5
1F9
330
1F
100
AcDbEntity
  8
0
  6
Continuous
 62
     7
370
    15
100
AcDbLine
 10
18.400486074
 20
367.7150434944
 30
0.0
 11
858.400459848
 21
367.7150434944
 31
0.0
  0
LINE
  5
1FA
330
1F
100
AcDbEntity
  8
0
  6
Continuous
 62
     7
370
    15
100
AcDbLine
 10
18.400486074
 20
392.7150420043
 30
0.0
 11
858.400459848
 21
392.7150420043
 31
0.0
  0
LINE
  5
1FB
330
1F
100
AcDbEntity
  8
0
  6
Continuous
 62
     7
370
    15
100
AcDbLine
 10
79.9004691463
 20
515.7150454018
 30
0.0
 11
796.9004767757
 21
515.7150454018
 31
0.0
  0
SPLINE
  5
1FC
330
1F
100
AcDbEntity
  8
0
  6
Continuous
 62
     7
370
    15
100
AcDbSpline
210
0.0
220
0.0
230
1.0
 70
     8
 71
     3
 72
    27
 73
    23
 74
     0
 42
0.00000001
 43
0.00000001
 12
1.0
 22
0.0
 32
0.0
 13
1.0
 23
0.0
 33
0.0
 40
0.0
 40
0.0
 40
0.0
 40
0.0
 40
0.0146703721736189
 40
0.0684475585683191
 40
0.1220287903550212
 40
0.1756107043105572
 40
0.229046352752267
 40
0.2824835884040505
 40
0.3358865883180933
 40
0.3892906619915085
 40
0.442784480877792
 40
0.4962794110710551
 40
0.5499506379393536
 40
0.6036231623689714
 40
0.6574852056336706
 40
0.7113469738298668
 40
0.7653317989553624
 40
0.8193152832580753
 40
0.8732959853837321
 40
0.9272762526881737
 40
0.9811267636235835
 40
1.0
 40
1.0
 40
1.0
 40
1.0
 10
152.9025393347996
 20
509.0027316603475
 30
0.0
 10
152.897607325877
 20
509.0077467935031
 30
0.0
 10
152.8745960507986
 20
509.0311459013332
 30
0.0
 10
153.0029831407334
 20
509.0609028090142
 30
0.0
 10
153.2942321722318
 20
509.0897092908837
 30
0.0
 10
153.7531570080098
 20
509.1035851194131
 30
0.0
 10
154.3564035405346
 20
509.1027646215034
 30
0.0
 10
155.0849494362537
 20
509.0876112918786
 30
0.0
 10
155.9222129534218
 20
509.0580584654276
 30
0.0
 10
156.8411361309015
 20
509.0154402219674
 30
0.0
 10
157.8187944679013
 20
508.9603716325882
 30
0.0
 10
158.8269166727117
 20
508.8947575536017
 30
0.0
 10
159.8372377481448
 20
508.8199775410091
 30
0.0
 10
160.8229043171482
 20
508.7383025739059
 30
0.0
 10
161.7532732456979
 20
508.6518036546691
 30
0.0
 10
162.605201255331
 20
508.5629801030963
 30
0.0
 10
163.3497371040943
 20
508.4743535241989
 30
0.0
 10
163.9691207910771
 20
508.3884919255469
 30
0.0
 10
164.4434401506483
 20
508.3077983368693
 30
0.0
 10
164.750240512083
 20
508.2354970193313
 30
0.0
 10
164.8902646528814
 20
508.1842719750899
 30
0.0
 10
164.8703341060467
 20
508.1618720709134
 30
0.0
 10
164.8651617388981
 20
508.156058857184
 30
0.0
  0
LWPOLYLINE
  5
1FD
330
1F
100
AcDbEntity
  8
0
  6
Continuous
 62
     7
370
    15
100
AcDbPolyline
 90
       21
 70
   128
 43
0.0
 10
86.9209128242
 20
509.1008669827
 10
86.9247275214
 20
509.1005391571
 10
87.1029454093
 20
509.0852058623
 10
87.4370890479
 20
509.0564428959
 10
87.9365759712
 20
509.0133971665
 10
88.5606067996
 20
508.9595257435
 10
89.3261092525
 20
508.8933198843
 10
90.1719587665
 20
508.8199949953
 10
91.1198514323
 20
508.7376139257
 10
92.0941191535
 20
508.6527033839
 10
93.119438253
 20
508.5630915258
 10
94.112183414
 20
508.4760687444
 10
95.098640285
 20
508.3893514368
 10
95.9957497936
 20
508.3102672491
 10
96.8293803554
 20
508.2365884576
 10
97.527469955
 20
508.1747523639
 10
98.1121617179
 20
508.1228665206
 10
98.5323744636
 20
508.0855167601
 10
98.802621923
 20
508.0614700112
 10
98.8957541805
 20
508.0531812403
 10
98.8957541805
 20
508.0531812403
  0
SPLINE
  5
1FE
330
1F
100
AcDbEntity
  8
0
  6
Continuous
 62
     7
370
    15
100
AcDbSpline
210
0.0
220
0.0
230
1.0
 70
     8
 71
     3
 72
    26
 73
    22
 74
     0
 42
0.00000001
 43
0.00000001
 12
1.0
 22
0.0
 32
0.0
 13
1.0
 23
0.0
 33
0.0
 40
0.0
 40
0.0
 40
0.0
 40
0.0
 40
0.0516691969916256
 40
0.1047416473672974
 40
0.1580922358808005
 40
0.2129852296532226
 40
0.2664411228746305
 40
0.3214346644222402
 40
0.3750912533390818
 40
0.4302943948939806
 40
0.4841254817180743
 40
0.5395149397130312
 40
0.5934182620422009
 40
0.6488878562540928
 40
0.7027300063680444
 40
0.7581433580656867
 40
0.8118210984306392
 40
0.867067444388251
 40
0.9205512126321629
 40
0.9755943311359532
 40
0.9999999999999999
 40
0.9999999999999999
 40
0.9999999999999999
 40
0.9999999999999999
 10
777.9051917414921
 20
508.0531812403016
 30
0.0
 10
777.932871104758
 20
508.0556453485938
 30
0.0
 10
777.9889815588648
 20
508.0606404864486
 30
0.0
 10
778.2730692505003
 20
508.0859170360096
 30
0.0
 10
778.7060595315077
 20
508.1244126172468
 30
0.0
 10
779.288937223353
 20
508.1761439266125
 30
0.0
 10
780.0068096597049
 20
508.2397356128645
 30
0.0
 10
780.8287383810638
 20
508.3123776193782
 30
0.0
 10
781.7459438254625
 20
508.3932295650867
 30
0.0
 10
782.7175503603215
 20
508.4786371405101
 30
0.0
 10
783.732658975423
 20
508.567610654059
 30
0.0
 10
784.7449601169416
 20
508.6560702143401
 30
0.0
 10
785.7429402378111
 20
508.7430325657712
 30
0.0
 10
786.6799383325196
 20
508.8244486821923
 30
0.0
 10
787.5457027585321
 20
508.8994793658259
 30
0.0
 10
788.2994249391043
 20
508.9646509458544
 30
0.0
 10
788.9327983795744
 20
509.0193104286514
 30
0.0
 10
789.4192672582242
 20
509.0612224862742
 30
0.0
 10
789.7426602486617
 20
509.0890528724173
 30
0.0
 10
789.8990063828272
 20
509.1025011713827
 30
0.0
 10
789.8844917963096
 20
509.1012510150053
 30
0.0
 10
789.8800330977696
 20
509.1008669826799
 30
0.0
  0
SPLINE
  5
1FF
330
1F
100
AcDbEntity
  8
0
  6
Continuous
 62
     7
370
    15
100
AcDbSpline
210
0.0
220
0.0
230
1.0
 70
     8
 71
     3
 72
    27
 73
    23
 74
     0
 42
0.00000001
 43
0.00000001
 12
1.0
 22
0.0
 32
0.0
 13
1.0
 23
0.0
 33
0.0
 40
0.0
 40
0.0
 40
0.0
 40
0.0
 40
0.0231850913316943
 40
0.0767274335611118
 40
0.1302709317485276
 40
0.18401515925331
 40
0.2377602841742729
 40
0.2916841731571563
 40
0.3456073262637172
 40
0.3996059409879774
 40
0.4536054486251782
 40
0.507546058264566
 40
0.5614856835030274
 40
0.615264259438161
 40
0.6690405252926956
 40
0.7226226400276032
 40
0.7762031877049805
 40
0.8296387062664419
 40
0.8830751278654688
 40
0.9364779380566092
 40
0.9898817238520448
 40
1.0
 40
1.0
 40
1.0
 40
1.0
 10
711.9368868689793
 20
508.156122187119
 30
0.0
 10
711.9319339949794
 20
508.1633681815787
 30
0.0
 10
711.915543233118
 20
508.1873476669527
 30
0.0
 10
712.0692401006967
 20
508.2405817404023
 30
0.0
 10
712.383426988668
 20
508.3129546769846
 30
0.0
 10
712.8675068714248
 20
508.3936993623671
 30
0.0
 10
713.4901543014678
 20
508.4794454575849
 30
0.0
 10
714.2425816288445
 20
508.5680479222491
 30
0.0
 10
715.0986255305338
 20
508.6569105595253
 30
0.0
 10
716.0374671842096
 20
508.7434139417755
 30
0.0
 10
717.0294155600899
 20
508.8252164820527
 30
0.0
 10
718.0474308519114
 20
508.8997650288135
 30
0.0
 10
719.0610128252713
 20
508.9652528263452
 30
0.0
 10
720.040798642566
 20
509.0194956912117
 30
0.0
 10
720.9597260511915
 20
509.0614683741931
 30
0.0
 10
721.7894922317653
 20
509.0895544083868
 30
0.0
 10
722.5105195321404
 20
509.1036381231143
 30
0.0
 10
723.097189293189
 20
509.1027073392949
 30
0.0
 10
723.544029336893
 20
509.0877876434577
 30
0.0
 10
723.8136664730741
 20
509.0574102449785
 30
0.0
 10
723.9326924871299
 20
509.0285608859689
 30
0.0
 10
723.9068708004539
 20
509.006544130126
 30
0.0
 10
723.902757726218
 20
509.003037134152
 30
0.0
  0
SPLINE
  5
200
330
1F
100
AcDbEntity
  8
0
  6
Continuous
 62
     7
370
    15
100
AcDbSpline
210
0.0
220
0.0
230
1.0
 70
     8
 71
     3
 72
    26
 73
    22
 74
     0
 42
0.00000001
 43
0.00000001
 12
1.0
 22
0.0
 32
0.0
 13
1.0
 23
0.0
 33
0.0
 40
0.0
 40
0.0
 40
0.0
 40
0.0
 40
0.0376525142084299
 40
0.0915752108536793
 40
0.14549671219067
 40
0.1994952943255474
 40
0.2534924389332022
 40
0.3074329580898118
 40
0.3613724342463984
 40
0.4151489508641634
 40
0.4689248615651649
 40
0.5225050266475837
 40
0.5760848206723433
 40
0.6295203387404039
 40
0.6829561732238201
 40
0.7363574341658771
 40
0.7897604307802477
 40
0.8432522227451621
 40
0.8967456833347998
 40
0.9504160427468284
 40
1.0
 40
1.0
 40
1.0
 40
1.0
 10
539.1841265182751
 20
508.4200441036039
 30
0.0
 10
539.1848824952347
 20
508.4398345334307
 30
0.0
 10
539.1867211174603
 20
508.4879671169349
 30
0.0
 10
539.3890366775717
 20
508.568139806488
 30
0.0
 10
539.7523761551075
 20
508.6568877253101
 30
0.0
 10
540.2799952099267
 20
508.7434178964874
 30
0.0
 10
540.9431819348961
 20
508.8252170463848
 30
0.0
 10
541.730269722273
 20
508.8997652947381
 30
0.0
 10
542.6128682724411
 20
508.9652512940529
 30
0.0
 10
543.569612631435
 20
509.0194971391248
 30
0.0
 10
544.569302706118
 20
509.0614666135279
 30
0.0
 10
545.5855283058656
 20
509.0895582117354
 30
0.0
 10
546.5882637466989
 20
509.1036255629279
 30
0.0
 10
547.5490826623391
 20
509.1027539650524
 30
0.0
 10
548.4428570229173
 20
509.0876139820792
 30
0.0
 10
549.2419881241353
 20
509.0580586816134
 30
0.0
 10
549.9282685586102
 20
509.0154359358314
 30
0.0
 10
550.4787213225197
 20
508.9603902489822
 30
0.0
 10
550.8789970663073
 20
508.8946858958908
 30
0.0
 10
551.123248540359
 20
508.8221363911975
 30
0.0
 10
551.1479586170763
 20
508.7692150794367
 30
0.0
 10
551.1598246913212
 20
508.7438016328626
 30
0.0
  0
SPLINE
  5
201
330
1F
100
AcDbEntity
  8
0
  6
Continuous
 62
     7
370
    15
100
AcDbSpline
210
0.0
220
0.0
230
1.0
 70
     8
 71
     3
 72
    26
 73
    22
 74
     0
 42
0.00000001
 43
0.00000001
 12
1.0
 22
0.0
 32
0.0
 13
1.0
 23
0.0
 33
0.0
 40
0.0
 40
0.0
 40
0.0
 40
0.0
 40
0.0376525142084299
 40
0.0915752108536793
 40
0.14549671219067
 40
0.1994952943255474
 40
0.2534924389332022
 40
0.3074329580898118
 40
0.3613724342463984
 40
0.4151489508641634
 40
0.4689248615651649
 40
0.5225050266475837
 40
0.5760848206723433
 40
0.6295203387404039
 40
0.6829561732238201
 40
0.7363574341658771
 40
0.7897604307802477
 40
0.8432522227451621
 40
0.8967456833347998
 40
0.9504160427468284
 40
1.0
 40
1.0
 40
1.0
 40
1.0
 10
337.616819403674
 20
508.4200441036039
 30
0.0
 10
337.6160634267143
 20
508.4398345334307
 30
0.0
 10
337.6142248044888
 20
508.4879671169349
 30
0.0
 10
337.4119092443773
 20
508.568139806488
 30
0.0
 10
337.0485697668415
 20
508.6568877253101
 30
0.0
 10
336.5209507120223
 20
508.7434178964874
 30
0.0
 10
335.8577639870529
 20
508.8252170463848
 30
0.0
 10
335.070676199676
 20
508.8997652947381
 30
0.0
 10
334.1880776495078
 20
508.9652512940529
 30
0.0
 10
333.231333290514
 20
509.0194971391248
 30
0.0
 10
332.231643215831
 20
509.0614666135279
 30
0.0
 10
331.2154176160834
 20
509.0895582117354
 30
0.0
 10
330.2126821752501
 20
509.1036255629279
 30
0.0
 10
329.25186325961
 20
509.1027539650524
 30
0.0
 10
328.3580888990317
 20
509.0876139820792
 30
0.0
 10
327.5589577978136
 20
509.0580586816134
 30
0.0
 10
326.8726773633389
 20
509.0154359358314
 30
0.0
 10
326.3222245994293
 20
508.9603902489822
 30
0.0
 10
325.9219488556418
 20
508.8946858958908
 30
0.0
 10
325.67769738159
 20
508.8221363911975
 30
0.0
 10
325.6529873048728
 20
508.7692150794367
 30
0.0
 10
325.6411212306278
 20
508.7438016328626
 30
0.0
  0
LINE
  5
202
330
1F
100
AcDbEntity
  8
0
  6
Continuous
 62
     7
370
    15
100
AcDbLine
 10
343.6351003866
 20
518.2150467429
 30
0.0
 11
319.6351039033
 21
518.2150467429
 31
0.0
  0
LINE
  5
203
330
1F
100
AcDbEntity
  8
0
  6
Continuous
 62
     7
370
    15
100
AcDbLine
 10
557.1658420186
 20
518.2150467429
 30
0.0
 11
533.1658455353
 21
518.2150467429
 31
0.0
  0
LINE
  5
204
330
1F
100
AcDbEntity
  8
0
  6
Continuous
 62
     7
370
    15
100
AcDbLine
 10
547.7362903576
 20
528.2150446567
 30
0.0
 11
547.7362903576
 21
518.2150467429
 31
0.0
  0
LINE
  5
205
330
1F
100
AcDbEntity
  8
0
  6
Continuous
 62
     7
370
    15
100
AcDbLine
 10
547.7362903576
 20
528.2150446567
 30
0.0
 11
555.6865739446
 21
528.2150446567
 31
0.0
  0
LINE
  5
206
330
1F
100
AcDbEntity
  8
0
  6
Continuous
 62
     7
370
    15
100
AcDbLine
 10
555.6865739446
 20
528.2150446567
 30
0.0
 11
555.6865739446
 21
518.2150467429
 31
0.0
  0
LINE
  5
207
330
1F
100
AcDbEntity
  8
0
  6
Continuous
 62
     7
370
    15
100
AcDbLine
 10
537.2155564647
 20
528.2150446567
 30
0.0
 11
537.2155564647
 21
518.2150467429
 31
0.0
  0
LINE
  5
208
330
1F
100
AcDbEntity
  8
0
  6
Continuous
 62
     7
370
    15
100
AcDbLine
 10
537.2155564647
 20
528.2150446567
 30
0.0
 11
547.7362903576
 21
528.2150446567
 31
0.0
  0
LINE
  5
209
330
1F
100
AcDbEntity
  8
0
  6
Continuous
 62
     7
370
    15
100
AcDbLine
 10
320.7605886083
 20
528.2150446567
 30
0.0
 11
320.7605886083
 21
518.2150467429
 31
0.0
  0
LINE
  5
20A
330
1F
100
AcDbEntity
  8
0
  6
Continuous
 62
     7
370
    15
100
AcDbLine
 10
320.7605886083
 20
528.2150446567
 30
0.0
 11
327.4463447552
 21
528.2150446567
 31
0.0
  0
LINE
  5
20B
330
1F
100
AcDbEntity
  8
0
  6
Continuous
 62
     7
370
    15
100
AcDbLine
 10
327.4463447552
 20
528.2150446567
 30
0.0
 11
327.4463447552
 21
518.2150467429
 31
0.0
  0
LINE
  5
20C
330
1F
100
AcDbEntity
  8
0
  6
Continuous
 62
     7
370
    15
100
AcDbLine
 10
327.4463447552
 20
528.2150446567
 30
0.0
 11
338.3208545666
 21
528.2150446567
 31
0.0
  0
LINE
  5
20D
330
1F
100
AcDbEntity
  8
0
  6
Continuous
 62
     7
370
    15
100
AcDbLine
 10
338.3208545666
 20
528.2150446567
 30
0.0
 11
338.3208545666
 21
518.2150467429
 31
0.0
  0
LINE
  5
20E
330
1F
100
AcDbEntity
  8
0
  6
Continuous
 62
     7
370
    15
100
AcDbLine
 10
342.5096156817
 20
528.2150446567
 30
0.0
 11
342.5096156817
 21
518.2150467429
 31
0.0
  0
LINE
  5
20F
330
1F
100
AcDbEntity
  8
0
  6
Continuous
 62
     7
370
    15
100
AcDbLine
 10
338.3208545666
 20
528.2150446567
 30
0.0
 11
342.5096156817
 21
528.2150446567
 31
0.0
  0
LINE
  5
210
330
1F
100
AcDbEntity
  8
0
  6
Continuous
 62
     7
370
    15
100
AcDbLine
 10
339.635099731
 20
533.7150446269
 30
0.0
 11
323.635104559
 21
533.7150446269
 31
0.0
  0
LINE
  5
211
330
1F
100
AcDbEntity
  8
0
  6
Continuous
 62
     7
370
    15
100
AcDbLine
 10
339.635099731
 20
534.2150456402
 30
0.0
 11
323.635104559
 21
534.2150456402
 31
0.0
  0
LINE
  5
212
330
1F
100
AcDbEntity
  8
0
  6
Continuous
 62
     7
370
    15
100
AcDbLine
 10
553.165841363
 20
534.2150456402
 30
0.0
 11
537.165846191
 21
534.2150456402
 31
0.0
  0
LINE
  5
213
330
1F
100
AcDbEntity
  8
0
  6
Continuous
 62
     7
370
    15
100
AcDbLine
 10
553.165841363
 20
533.7150446269
 30
0.0
 11
537.165846191
 21
533.7150446269
 31
0.0
  0
LINE
  5
214
330
1F
100
AcDbEntity
  8
0
  6
Continuous
 62
     7
370
    15
100
AcDbLine
 10
534.6451136093
 20
528.2150446567
 30
0.0
 11
534.6451136093
 21
518.2150467429
 31
0.0
  0
LINE
  5
215
330
1F
100
AcDbEntity
  8
0
  6
Continuous
 62
     7
370
    15
100
AcDbLine
 10
534.6451136093
 20
528.2150446567
 30
0.0
 11
537.2155564647
 21
528.2150446567
 31
0.0
  0
LINE
  5
216
330
1F
100
AcDbEntity
  8
0
  6
Continuous
 62
     7
370
    15
100
AcDbLine
 10
338.1351041417
 20
545.7150465939
 30
0.0
 11
325.1351001482
 21
545.7150465939
 31
0.0
  0
LINE
  5
217
330
1F
100
AcDbEntity
  8
0
  6
Continuous
 62
     7
370
    15
100
AcDbLine
 10
551.6658457737
 20
545.7150465939
 30
0.0
 11
538.6658417802
 21
545.7150465939
 31
0.0
  0
LINE
  5
218
330
1F
100
AcDbEntity
  8
0
  6
Continuous
 62
     7
370
    15
100
AcDbLine
 10
107.2728889804
 20
475.7150453645
 30
0.0
 11
152.8851049762
 21
475.7150453645
 31
0.0
  0
LINE
  5
219
330
1F
100
AcDbEntity
  8
0
  6
Continuous
 62
     7
370
    15
100
AcDbLine
 10
164.8850994926
 20
475.7150453645
 30
0.0
 11
325.6351011615
 21
475.7150453645
 31
0.0
  0
LINE
  5
21A
330
1F
100
AcDbEntity
  8
0
  6
Continuous
 62
     7
370
    15
100
AcDbLine
 10
337.6351031285
 20
475.7150453645
 30
0.0
 11
539.1658427935
 21
475.7150453645
 31
0.0
  0
LINE
  5
21B
330
1F
100
AcDbEntity
  8
0
  6
Continuous
 62
     7
370
    15
100
AcDbLine
 10
551.1658447604
 20
475.7150453645
 30
0.0
 11
711.9158464294
 21
475.7150453645
 31
0.0
  0
LINE
  5
21C
330
1F
100
AcDbEntity
  8
0
  6
Continuous
 62
     7
370
    15
100
AcDbLine
 10
723.9158409457
 20
475.7150453645
 30
0.0
 11
769.5280569415
 21
475.7150453645
 31
0.0
  0
LINE
  5
21D
330
1F
100
AcDbEntity
  8
0
  6
Continuous
 62
     7
370
    15
100
AcDbLine
 10
118.4004801135
 20
467.7150449846
 30
0.0
 11
152.8851049762
 21
467.7150449846
 31
0.0
  0
LINE
  5
21E
330
1F
100
AcDbEntity
  8
0
  6
Continuous
 62
     7
370
    15
100
AcDbLine
 10
164.8850994926
 20
467.7150449846
 30
0.0
 11
325.6351011615
 21
467.7150449846
 31
0.0
  0
LINE
  5
21F
330
1F
100
AcDbEntity
  8
0
  6
Continuous
 62
     7
370
    15
100
AcDbLine
 10
337.6351031285
 20
467.7150449846
 30
0.0
 11
539.1658427935
 21
467.7150449846
 31
0.0
  0
LINE
  5
220
330
1F
100
AcDbEntity
  8
0
  6
Continuous
 62
     7
370
    15
100
AcDbLine
 10
551.1658447604
 20
467.7150449846
 30
0.0
 11
711.9158464294
 21
467.7150449846
 31
0.0
  0
LINE
  5
221
330
1F
100
AcDbEntity
  8
0
  6
Continuous
 62
     7
370
    15
100
AcDbLine
 10
723.9158409457
 20
467.7150449846
 30
0.0
 11
758.4004658084
 21
467.7150449846
 31
0.0
  0
LINE
  5
222
330
1F
100
AcDbEntity
  8
0
  6
Continuous
 62
     7
370
    15
100
AcDbLine
 10
170.8851116519
 20
518.2150467429
 30
0.0
 11
146.8850928169
 21
518.2150467429
 31
0.0
  0
LINE
  5
223
330
1F
100
AcDbEntity
  8
0
  6
Continuous
 62
     7
370
    15
100
AcDbLine
 10
729.9158531051
 20
518.2150467429
 30
0.0
 11
705.91583427
 21
518.2150467429
 31
0.0
  0
LINE
  5
224
330
1F
100
AcDbEntity
  8
0
  6
Continuous
 62
     7
370
    15
100
AcDbLine
 10
159.1821568828
 20
528.2150446567
 30
0.0
 11
159.1821568828
 21
518.2150467429
 31
0.0
  0
LINE
  5
225
330
1F
100
AcDbEntity
  8
0
  6
Continuous
 62
     7
370
    15
100
AcDbLine
 10
159.1821568828
 20
528.2150446567
 30
0.0
 11
168.5301321368
 21
528.2150446567
 31
0.0
  0
LINE
  5
226
330
1F
100
AcDbEntity
  8
0
  6
Continuous
 62
     7
370
    15
100
AcDbLine
 10
168.5301321368
 20
528.2150446567
 30
0.0
 11
168.5301321368
 21
518.2150467429
 31
0.0
  0
LINE
  5
227
330
1F
100
AcDbEntity
  8
0
  6
Continuous
 62
     7
370
    15
100
AcDbLine
 10
149.5371120792
 20
528.2150446567
 30
0.0
 11
149.5371120792
 21
518.2150467429
 31
0.0
  0
LINE
  5
228
330
1F
100
AcDbEntity
  8
0
  6
Continuous
 62
     7
370
    15
100
AcDbLine
 10
149.5371120792
 20
528.2150446567
 30
0.0
 11
159.1821568828
 21
528.2150446567
 31
0.0
  0
LINE
  5
229
330
1F
100
AcDbEntity
  8
0
  6
Continuous
 62
     7
370
    15
100
AcDbLine
 10
707.5787144523
 20
528.2150446567
 30
0.0
 11
707.5787144523
 21
518.2150467429
 31
0.0
  0
LINE
  5
22A
330
1F
100
AcDbEntity
  8
0
  6
Continuous
 62
     7
370
    15
100
AcDbLine
 10
707.5787144523
 20
528.2150446567
 30
0.0
 11
715.926523767
 21
528.2150446567
 31
0.0
  0
LINE
  5
22B
330
1F
100
AcDbEntity
  8
0
  6
Continuous
 62
     7
370
    15
100
AcDbLine
 10
715.926523767
 20
528.2150446567
 30
0.0
 11
715.926523767
 21
518.2150467429
 31
0.0
  0
LINE
  5
22C
330
1F
100
AcDbEntity
  8
0
  6
Continuous
 62
     7
370
    15
100
AcDbLine
 10
715.926523767
 20
528.2150446567
 30
0.0
 11
726.2636679034
 21
528.2150446567
 31
0.0
  0
LINE
  5
22D
330
1F
100
AcDbEntity
  8
0
  6
Continuous
 62
     7
370
    15
100
AcDbLine
 10
726.2636679034
 20
528.2150446567
 30
0.0
 11
726.2636679034
 21
518.2150467429
 31
0.0
  0
LINE
  5
22E
330
1F
100
AcDbEntity
  8
0
  6
Continuous
 62
     7
370
    15
100
AcDbLine
 10
166.8851035457
 20
533.7150446269
 30
0.0
 11
150.8851009231
 21
533.7150446269
 31
0.0
  0
LINE
  5
22F
330
1F
100
AcDbEntity
  8
0
  6
Continuous
 62
     7
370
    15
100
AcDbLine
 10
166.8851035457
 20
534.2150456402
 30
0.0
 11
150.8851009231
 21
534.2150456402
 31
0.0
  0
LINE
  5
230
330
1F
100
AcDbEntity
  8
0
  6
Continuous
 62
     7
370
    15
100
AcDbLine
 10
725.9158449989
 20
534.2150456402
 30
0.0
 11
709.9158423763
 21
534.2150456402
 31
0.0
  0
LINE
  5
231
330
1F
100
AcDbEntity
  8
0
  6
Continuous
 62
     7
370
    15
100
AcDbLine
 10
725.9158449989
 20
533.7150446269
 30
0.0
 11
709.9158423763
 21
533.7150446269
 31
0.0
  0
LINE
  5
232
330
1F
100
AcDbEntity
  8
0
  6
Continuous
 62
     7
370
    15
100
AcDbLine
 10
728.2529729228
 20
528.2150446567
 30
0.0
 11
728.2529729228
 21
518.2150467429
 31
0.0
  0
LINE
  5
233
330
1F
100
AcDbEntity
  8
0
  6
Continuous
 62
     7
370
    15
100
AcDbLine
 10
726.2636679034
 20
528.2150446567
 30
0.0
 11
728.2529729228
 21
528.2150446567
 31
0.0
  0
LINE
  5
234
330
1F
100
AcDbEntity
  8
0
  6
Continuous
 62
     7
370
    15
100
AcDbLine
 10
165.3850930553
 20
545.7150465939
 30
0.0
 11
152.3851114135
 21
545.7150465939
 31
0.0
  0
LINE
  5
235
330
1F
100
AcDbEntity
  8
0
  6
Continuous
 62
     7
370
    15
100
AcDbLine
 10
711.4158528667
 20
545.7150465939
 30
0.0
 11
724.4158345084
 21
545.7150465939
 31
0.0
  0
LINE
  5
236
330
1F
100
AcDbEntity
  8
0
  6
Continuous
 62
     7
370
    15
100
AcDbLine
 10
149.2400723319
 20
528.2150446567
 30
0.0
 11
149.2400723319
 21
518.2150467429
 31
0.0
  0
LINE
  5
237
330
1F
100
AcDbEntity
  8
0
  6
Continuous
 62
     7
370
    15
100
AcDbLine
 10
149.2400723319
 20
528.2150446567
 30
0.0
 11
149.5371120792
 21
528.2150446567
 31
0.0
  0
LINE
  5
238
330
1F
100
AcDbEntity
  8
0
  6
Continuous
 62
     7
370
    15
100
AcDbLine
 10
104.8643248897
 20
518.2150467429
 30
0.0
 11
80.900486074
 21
518.2150467429
 31
0.0
  0
LINE
  5
239
330
1F
100
AcDbEntity
  8
0
  6
Continuous
 62
     7
370
    15
100
AcDbLine
 10
104.9004751067
 20
518.2150467429
 30
0.0
 11
104.8643248897
 21
518.2150467429
 31
0.0
  0
LINE
  5
23A
330
1F
100
AcDbEntity
  8
0
  6
Continuous
 62
     7
370
    15
100
AcDbLine
 10
795.900459848
 20
518.2150467429
 30
0.0
 11
771.9004708152
 21
518.2150467429
 31
0.0
  0
LINE
  5
23B
330
1F
100
AcDbEntity
  8
0
  6
Continuous
 62
     7
370
    15
100
AcDbLine
 10
97.6319568973
 20
528.2150446567
 30
0.0
 11
97.6319568973
 21
518.2150467429
 31
0.0
  0
LINE
  5
23C
330
1F
100
AcDbEntity
  8
0
  6
Continuous
 62
     7
370
    15
100
AcDbLine
 10
97.6319568973
 20
528.2150446567
 30
0.0
 11
103.8370984416
 21
528.2150446567
 31
0.0
  0
LINE
  5
23D
330
1F
100
AcDbEntity
  8
0
  6
Continuous
 62
     7
370
    15
100
AcDbLine
 10
103.8370984416
 20
528.2150446567
 30
0.0
 11
103.8370984416
 21
518.2150467429
 31
0.0
  0
LINE
  5
23E
330
1F
100
AcDbEntity
  8
0
  6
Continuous
 62
     7
370
    15
100
AcDbLine
 10
86.6953688483
 20
528.2150446567
 30
0.0
 11
86.6953688483
 21
518.2150467429
 31
0.0
  0
LINE
  5
23F
330
1F
100
AcDbEntity
  8
0
  6
Continuous
 62
     7
370
    15
100
AcDbLine
 10
86.6953688483
 20
528.2150446567
 30
0.0
 11
97.6319568973
 21
528.2150446567
 31
0.0
  0
LINE
  5
240
330
1F
100
AcDbEntity
  8
0
  6
Continuous
 62
     7
370
    15
100
AcDbLine
 10
777.6953535896
 20
528.2150446567
 30
0.0
 11
777.6953535896
 21
518.2150467429
 31
0.0
  0
LINE
  5
241
330
1F
100
AcDbEntity
  8
0
  6
Continuous
 62
     7
370
    15
100
AcDbLine
 10
777.6953535896
 20
528.2150446567
 30
0.0
 11
788.6319714408
 21
528.2150446567
 31
0.0
  0
LINE
  5
242
330
1F
100
AcDbEntity
  8
0
  6
Continuous
 62
     7
370
    15
100
AcDbLine
 10
788.6319714408
 20
528.2150446567
 30
0.0
 11
788.6319714408
 21
518.2150467429
 31
0.0
  0
LINE
  5
243
330
1F
100
AcDbEntity
  8
0
  6
Continuous
 62
     7
370
    15
100
AcDbLine
 10
788.6319714408
 20
528.2150446567
 30
0.0
 11
794.8370831828
 21
528.2150446567
 31
0.0
  0
LINE
  5
244
330
1F
100
AcDbEntity
  8
0
  6
Continuous
 62
     7
370
    15
100
AcDbLine
 10
794.8370831828
 20
528.2150446567
 30
0.0
 11
794.8370831828
 21
518.2150467429
 31
0.0
  0
LINE
  5
245
330
1F
100
AcDbEntity
  8
0
  6
Continuous
 62
     7
370
    15
100
AcDbLine
 10
81.9638627391
 20
528.2150446567
 30
0.0
 11
81.9638627391
 21
518.2150467429
 31
0.0
  0
LINE
  5
246
330
1F
100
AcDbEntity
  8
0
  6
Continuous
 62
     7
370
    15
100
AcDbLine
 10
81.9638627391
 20
528.2150446567
 30
0.0
 11
86.6953688483
 21
528.2150446567
 31
0.0
  0
LINE
  5
247
330
1F
100
AcDbEntity
  8
0
  6
Continuous
 62
     7
370
    15
100
AcDbLine
 10
772.9638474803
 20
528.2150446567
 30
0.0
 11
772.9638474803
 21
518.2150467429
 31
0.0
  0
LINE
  5
248
330
1F
100
AcDbEntity
  8
0
  6
Continuous
 62
     7
370
    15
100
AcDbLine
 10
772.9638474803
 20
528.2150446567
 30
0.0
 11
777.6953535896
 21
528.2150446567
 31
0.0
  0
LINE
  5
249
330
1F
100
AcDbEntity
  8
0
  6
Continuous
 62
     7
370
    15
100
AcDbLine
 10
100.9004670005
 20
534.2150456402
 30
0.0
 11
84.9004643779
 21
534.2150456402
 31
0.0
  0
LINE
  5
24A
330
1F
100
AcDbEntity
  8
0
  6
Continuous
 62
     7
370
    15
100
AcDbLine
 10
100.9004670005
 20
533.7150446269
 30
0.0
 11
84.9004643779
 21
533.7150446269
 31
0.0
  0
LINE
  5
24B
330
1F
100
AcDbEntity
  8
0
  6
Continuous
 62
     7
370
    15
100
AcDbLine
 10
791.900481544
 20
534.2150456402
 30
0.0
 11
775.9004789214
 21
534.2150456402
 31
0.0
  0
LINE
  5
24C
330
1F
100
AcDbEntity
  8
0
  6
Continuous
 62
     7
370
    15
100
AcDbLine
 10
791.900481544
 20
533.7150446269
 30
0.0
 11
775.9004789214
 21
533.7150446269
 31
0.0
  0
LINE
  5
24D
330
1F
100
AcDbEntity
  8
0
  6
Continuous
 62
     7
370
    15
100
AcDbLine
 10
99.4004863124
 20
545.7150465939
 30
0.0
 11
86.4004748683
 21
545.7150465939
 31
0.0
  0
LINE
  5
24E
330
1F
100
AcDbEntity
  8
0
  6
Continuous
 62
     7
370
    15
100
AcDbLine
 10
790.4004710536
 20
545.7150465939
 30
0.0
 11
777.4004596095
 21
545.7150465939
 31
0.0
  0
LINE
  5
24F
330
1F
100
AcDbEntity
  8
0
  6
Continuous
 62
     7
370
    15
100
AcDbLine
 10
148.5479729991
 20
528.2150446567
 30
0.0
 11
148.5479729991
 21
518.2150467429
 31
0.0
  0
LINE
  5
250
330
1F
100
AcDbEntity
  8
0
  6
Continuous
 62
     7
370
    15
100
AcDbLine
 10
148.5479729991
 20
528.2150446567
 30
0.0
 11
149.2400723319
 21
528.2150446567
 31
0.0
  0
LINE
  5
251
330
1F
100
AcDbEntity
  8
0
  6
Continuous
 62
     7
370
    15
100
AcDbLine
 10
169.2222314697
 20
528.2150446567
 30
0.0
 11
169.2222314697
 21
518.2150467429
 31
0.0
  0
LINE
  5
252
330
1F
100
AcDbEntity
  8
0
  6
Continuous
 62
     7
370
    15
100
AcDbLine
 10
168.5301321368
 20
528.2150446567
 30
0.0
 11
169.2222314697
 21
528.2150446567
 31
0.0
  0
LINE
  5
253
330
1F
100
AcDbEntity
  8
0
  6
Continuous
 62
     7
370
    15
100
AcDbLine
 10
534.2913302403
 20
528.2150446567
 30
0.0
 11
534.2913302403
 21
518.2150467429
 31
0.0
  0
LINE
  5
254
330
1F
100
AcDbEntity
  8
0
  6
Continuous
 62
     7
370
    15
100
AcDbLine
 10
534.2913302403
 20
528.2150446567
 30
0.0
 11
534.6451136093
 21
528.2150446567
 31
0.0
  0
LINE
  5
255
330
1F
100
AcDbEntity
  8
0
  6
Continuous
 62
     7
370
    15
100
AcDbLine
 10
556.0403573137
 20
528.2150446567
 30
0.0
 11
556.0403573137
 21
518.2150467429
 31
0.0
  0
LINE
  5
256
330
1F
100
AcDbEntity
  8
0
  6
Continuous
 62
     7
370
    15
100
AcDbLine
 10
555.6865739446
 20
528.2150446567
 30
0.0
 11
556.0403573137
 21
528.2150446567
 31
0.0
  0
LINE
  5
257
330
1F
100
AcDbEntity
  8
0
  6
Continuous
 62
     7
370
     0
100
AcDbLine
 10
79.9004691463
 20
512.4640367124
 30
0.0
 11
796.9004767757
 21
512.4640367124
 31
0.0
  0
LINE
  5
258
330
1F
100
AcDbEntity
  8
0
  6
Continuous
 62
     7
370
     0
100
AcDbLine
 10
82.6390045505
 20
509.4754560981
 30
0.0
 11
794.1619413715
 21
509.4754560981
 31
0.0
  0
LINE
  5
259
330
1F
100
AcDbEntity
  8
0
  6
Continuous
 62
     7
370
     0
100
AcDbLine
 10
164.8850994926
 20
508.0531812403
 30
0.0
 11
325.6351011615
 21
508.0531812403
 31
0.0
  0
LINE
  5
25A
330
1F
100
AcDbEntity
  8
0
  6
Continuous
 62
     7
370
     0
100
AcDbLine
 10
98.8957541805
 20
508.0531812403
 30
0.0
 11
152.8851049762
 21
508.0531812403
 31
0.0
  0
LINE
  5
25B
330
1F
100
AcDbEntity
  8
0
  6
Continuous
 62
     7
370
     0
100
AcDbLine
 10
723.9158409457
 20
508.0531812403
 30
0.0
 11
777.9051917415
 21
508.0531812403
 31
0.0
  0
LINE
  5
25C
330
1F
100
AcDbEntity
  8
0
  6
Continuous
 62
     7
370
     0
100
AcDbLine
 10
551.1658447604
 20
508.0531812403
 30
0.0
 11
711.9158464294
 21
508.0531812403
 31
0.0
  0
LINE
  5
25D
330
1F
100
AcDbEntity
  8
0
  6
Continuous
 62
     7
370
     0
100
AcDbLine
 10
337.6351031285
 20
508.0531812403
 30
0.0
 11
539.1658427935
 21
508.0531812403
 31
0.0
  0
LINE
  5
25E
330
1F
100
AcDbEntity
  8
0
  6
Continuous
 62
     7
370
     0
100
AcDbLine
 10
103.453035913
 20
503.3338866327
 30
0.0
 11
152.8851049762
 21
503.3338866327
 31
0.0
  0
LINE
  5
25F
330
1F
100
AcDbEntity
  8
0
  6
Continuous
 62
     7
370
     0
100
AcDbLine
 10
164.8850994926
 20
503.3338866327
 30
0.0
 11
325.6351011615
 21
503.3338866327
 31
0.0
  0
LINE
  5
260
330
1F
100
AcDbEntity
  8
0
  6
Continuous
 62
     7
370
     0
100
AcDbLine
 10
337.6351031285
 20
503.3338866327
 30
0.0
 11
539.1658427935
 21
503.3338866327
 31
0.0
  0
LINE
  5
261
330
1F
100
AcDbEntity
  8
0
  6
Continuous
 62
     7
370
     0
100
AcDbLine
 10
551.1658447604
 20
503.3338866327
 30
0.0
 11
711.9158464294
 21
503.3338866327
 31
0.0
  0
LINE
  5
262
330
1F
100
AcDbEntity
  8
0
  6
Continuous
 62
     7
370
     0
100
AcDbLine
 10
723.9158409457
 20
503.3338866327
 30
0.0
 11
773.3479100089
 21
503.3338866327
 31
0.0
  0
LINE
  5
263
330
1F
100
AcDbEntity
  8
0
  6
Continuous
 62
     7
370
     0
100
AcDbLine
 10
104.7763186317
 20
478.0842051971
 30
0.0
 11
152.8851049762
 21
478.0842051971
 31
0.0
  0
LINE
  5
264
330
1F
100
AcDbEntity
  8
0
  6
Continuous
 62
     7
370
     0
100
AcDbLine
 10
164.8850994926
 20
478.0842051971
 30
0.0
 11
325.6351011615
 21
478.0842051971
 31
0.0
  0
LINE
  5
265
330
1F
100
AcDbEntity
  8
0
  6
Continuous
 62
     7
370
     0
100
AcDbLine
 10
337.6351031285
 20
478.0842051971
 30
0.0
 11
539.1658427935
 21
478.0842051971
 31
0.0
  0
LINE
  5
266
330
1F
100
AcDbEntity
  8
0
  6
Continuous
 62
     7
370
     0
100
AcDbLine
 10
551.1658447604
 20
478.0842051971
 30
0.0
 11
711.9158464294
 21
478.0842051971
 31
0.0
  0
LINE
  5
267
330
1F
100
AcDbEntity
  8
0
  6
Continuous
 62
     7
370
     0
100
AcDbLine
 10
723.9158409457
 20
478.0842051971
 30
0.0
 11
772.0246272903
 21
478.0842051971
 31
0.0
  0
LINE
  5
268
330
1F
100
AcDbEntity
  8
0
  6
Continuous
 62
     7
370
     0
100
AcDbLine
 10
124.3383246284
 20
474.2507543545
 30
0.0
 11
152.8851049762
 21
474.2507543545
 31
0.0
  0
LINE
  5
269
330
1F
100
AcDbEntity
  8
0
  6
Continuous
 62
     7
370
     0
100
AcDbLine
 10
164.8850994926
 20
474.2507543545
 30
0.0
 11
325.6351011615
 21
474.2507543545
 31
0.0
  0
LINE
  5
26A
330
1F
100
AcDbEntity
  8
0
  6
Continuous
 62
     7
370
     0
100
AcDbLine
 10
337.6351031285
 20
474.2507543545
 30
0.0
 11
539.1658427935
 21
474.2507543545
 31
0.0
  0
LINE
  5
26B
330
1F
100
AcDbEntity
  8
0
  6
Continuous
 62
     7
370
     0
100
AcDbLine
 10
551.1658447604
 20
474.2507543545
 30
0.0
 11
711.9158464294
 21
474.2507543545
 31
0.0
  0
LINE
  5
26C
330
1F
100
AcDbEntity
  8
0
  6
Continuous
 62
     7
370
     0
100
AcDbLine
 10
723.9158409457
 20
474.2507543545
 30
0.0
 11
752.4626212936
 21
474.2507543545
 31
0.0
  0
LINE
  5
26D
330
1F
100
AcDbEntity
  8
0
  6
CENTERX2
 62
     7
370
     0
100
AcDbLine
 10
438.400472961
 20
535.8634524307
 30
0.0
 11
438.400472961
 21
354.1833069805
 31
0.0
  0
ENDSEC
  0
SECTION
  2
OBJECTS
  0
DICTIONARY
  5
C
330
0
100
AcDbDictionary
281
     1
  3
ACAD_GROUP
350
D
  3
ACAD_LAYOUT
350
1A
  3
ACAD_MLINESTYLE
350
17
  3
ACAD_PLOTSETTINGS
350
19
  3
ACAD_PLOTSTYLENAME
350
E
  0
DICTIONARY
  5
D
102
{ACAD_REACTORS
330
C
102
}
330
C
100
AcDbDictionary
281
     1
  0
DICTIONARY
  5
1A
102
{ACAD_REACTORS
330
C
102
}
330
C
100
AcDbDictionary
281
     1
  3
Layout1
350
1E
  3
Layout2
350
26
  3
Model
350
22
  0
DICTIONARY
  5
17
102
{ACAD_REACTORS
330
C
102
}
330
C
100
AcDbDictionary
281
     1
  3
Standard
350
18
  0
DICTIONARY
  5
19
102
{ACAD_REACTORS
330
C
102
}
330
C
100
AcDbDictionary
281
     1
  0
ACDBDICTIONARYWDFLT
  5
E
102
{ACAD_REACTORS
330
C
102
}
330
C
100
AcDbDictionary
281
     1
  3
Normal
350
F
100
AcDbDictionaryWithDefault
340
F
  0
LAYOUT
  5
1E
102
{ACAD_REACTORS
330
1A
102
}
330
1A
100
AcDbPlotSettings
  1

  2
none_device
  4

  6

 40
0.0
 41
0.0
 42
0.0
 43
0.0
 44
0.0
 45
0.0
 46
0.0
 47
0.0
 48
0.0
 49
0.0
140
0.0
141
0.0
142
1.0
143
1.0
 70
   688
 72
     0
 73
     0
 74
     5
  7

 75
    16
147
1.0
148
0.0
149
0.0
100
AcDbLayout
  1
Layout1
 70
     1
 71
     1
 10
0.0
 20
0.0
 11
420.0
 21
297.0
 12
0.0
 22
0.0
 32
0.0
 14
1.0000000000E+20
 24
1.0000000000E+20
 34
1.0000000000E+20
 15
-1.0000000000E+20
 25
-1.0000000000E+20
 35
-1.0000000000E+20
146
0.0
 13
0.0
 23
0.0
 33
0.0
 16
1.0
 26
0.0
 36
0.0
 17
0.0
 27
1.0
 37
0.0
 76
     0
330
1B
  0
LAYOUT
  5
26
102
{ACAD_REACTORS
330
1A
102
}
330
1A
100
AcDbPlotSettings
  1

  2
none_device
  4

  6

 40
0.0
 41
0.0
 42
0.0
 43
0.0
 44
0.0
 45
0.0
 46
0.0
 47
0.0
 48
0.0
 49
0.0
140
0.0
141
0.0
142
1.0
143
1.0
 70
   688
 72
     0
 73
     0
 74
     5
  7

 75
    16
147
1.0
148
0.0
149
0.0
100
AcDbLayout
  1
Layout2
 70
     1
 71
     2
 10
0.0
 20
0.0
 11
0.0
 21
0.0
 12
0.0
 22
0.0
 32
0.0
 14
0.0
 24
0.0
 34
0.0
 15
0.0
 25
0.0
 35
0.0
146
0.0
 13
0.0
 23
0.0
 33
0.0
 16
1.0
 26
0.0
 36
0.0
 17
0.0
 27
1.0
 37
0.0
 76
     0
330
23
  0
LAYOUT
  5
22
102
{ACAD_REACTORS
330
1A
102
}
330
1A
100
AcDbPlotSettings
  1

  2
none_device
  4

  6

 40
0.0
 41
0.0
 42
0.0
 43
0.0
 44
0.0
 45
0.0
 46
0.0
 47
0.0
 48
0.0
 49
0.0
140
0.0
141
0.0
142
1.0
143
1.0
 70
  1712
 72
     0
 73
     0
 74
     0
  7

 75
     0
147
1.0
148
0.0
149
0.0
100
AcDbLayout
  1
Model
 70
     1
 71
     0
 10
0.0
 20
0.0
 11
431.8
 21
279.4
 12
0.0
 22
0.0
 32
0.0
 14
0.0
 24
0.0
 34
0.0
 15
431.8
 25
279.4
 35
0.0
146
0.0
 13
0.0
 23
0.0
 33
0.0
 16
1.0
 26
0.0
 36
0.0
 17
0.0
 27
1.0
 37
0.0
 76
     0
330
1F
331
29
  0
MLINESTYLE
  5
18
102
{ACAD_REACTORS
330
17
102
}
330
17
100
AcDbMlineStyle
  2
Standard
 70
     0
  3

 62
   256
 51
90.0
 52
90.0
 71
     2
 49
0.5
 62
   256
  6
BYLAYER
 49
-0.5
 62
   256
  6
BYLAYER
  0
ACDBPLACEHOLDER
  5
F
102
{ACAD_REACTORS
330
E
102
}
330
E
  0
ENDSEC
  0
EOF
