  0
SECTION
  2
HEADER
  9
$ACADVER
  1
AC1015
  9
$ACADMAINTVER
 70
     6
  9
$DWGCODEPAGE
  3
ANSI_1252
  9
$INSBASE
 10
0.0
 20
0.0
 30
0.0
  9
$EXTMIN
 10
0.0
 20
0.0
 30
0.0
  9
$EXTMAX
 10
594.0
 20
420.0
 30
0.0
  9
$LIMMIN
 10
0.0
 20
0.0
  9
$LIMMAX
 10
594.0
 20
420.0
  9
$ORTHOMODE
 70
     0
  9
$REGENMODE
 70
     1
  9
$FILLMODE
 70
     1
  9
$QTEXTMODE
 70
     0
  9
$MIRRTEXT
 70
     1
  9
$LTSCALE
 40
1.0
  9
$ATTMODE
 70
     1
  9
$TEXTSIZE
 40
2.5
  9
$TRACEWID
 40
1.0
  9
$TEXTSTYLE
  7
Standard
  9
$CLAYER
  8
0
  9
$CELTYPE
  6
ByLayer
  9
$CECOLOR
 62
   256
  9
$CELTSCALE
 40
1.0
  9
$DISPSILH
 70
     0
  9
$DIMSCALE
 40
1.0
  9
$DIMASZ
 40
2.5
  9
$DIMEXO
 40
1.0
  9
$DIMDLI
 40
3.75
  9
$DIMRND
 40
0.0
  9
$DIMDLE
 40
0.0
  9
$DIMEXE
 40
1.0
  9
$DIMTP
 40
0.0
  9
$DIMTM
 40
0.0
  9
$DIMTXT
 40
2.5
  9
$DIMCEN
 40
2.5
  9
$DIMTSZ
 40
0.0
  9
$DIMTOL
 70
     0
  9
$DIMLIM
 70
     0
  9
$DIMTIH
 70
     1
  9
$DIMTOH
 70
     1
  9
$DIMSE1
 70
     0
  9
$DIMSE2
 70
     0
  9
$DIMTAD
 70
     1
  9
$DIMZIN
 70
     0
  9
$DIMBLK
  1

  9
$DIMASO
 70
     1
  9
$DIMSHO
 70
     1
  9
$DIMPOST
  1

  9
$DIMAPOST
  1

  9
$DIMALT
 70
     0
  9
$DIMALTD
 70
     3
  9
$DIMALTF
 40
0.0393700787
  9
$DIMLFAC
 40
1.0
  9
$DIMTOFL
 70
     1
  9
$DIMTVP
 40
0.0
  9
$DIMTIX
 70
     0
  9
$DIMSOXD
 70
     0
  9
$DIMSAH
 70
     0
  9
$DIMBLK1
  1

  9
$DIMBLK2
  1

  9
$DIMSTYLE
  2
ISO-25
  9
$DIMCLRD
 70
     0
  9
$DIMCLRE
 70
     0
  9
$DIMCLRT
 70
     0
  9
$DIMTFAC
 40
1.0
  9
$DIMGAP
 40
1.524
  9
$DIMJUST
 70
     0
  9
$DIMSD1
 70
     0
  9
$DIMSD2
 70
     0
  9
$DIMTOLJ
 70
     0
  9
$DIMTZIN
 70
     0
  9
$DIMALTZ
 70
     0
  9
$DIMALTTZ
 70
     0
  9
$DIMUPT
 70
     0
  9
$DIMDEC
 70
     2
  9
$DIMTDEC
 70
     2
  9
$DIMALTU
 70
     2
  9
$DIMALTTD
 70
     3
  9
$DIMTXSTY
  7
Standard
  9
$DIMAUNIT
 70
     0
  9
$DIMADEC
 70
     2
  9
$DIMALTRND
 40
0.0
  9
$DIMAZIN
 70
     0
  9
$DIMDSEP
 70
    44
  9
$DIMATFIT
 70
     3
  9
$DIMFRAC
 70
     0
  9
$DIMLDRBLK
  1

  9
$DIMLUNIT
 70
     2
  9
$DIMLWD
 70
    -2
  9
$DIMLWE
 70
    -2
  9
$DIMTMOVE
 70
     0
  9
$LUNITS
 70
     2
  9
$LUPREC
 70
     2
  9
$SKETCHINC
 40
1.0
  9
$FILLETRAD
 40
10.0
  9
$AUNITS
 70
     0
  9
$AUPREC
 70
     2
  9
$MENU
  1
.
  9
$ELEVATION
 40
0.0
  9
$PELEVATION
 40
0.0
  9
$THICKNESS
 40
0.0
  9
$LIMCHECK
 70
     0
  9
$CHAMFERA
 40
10.0
  9
$CHAMFERB
 40
10.0
  9
$CHAMFERC
 40
20.0
  9
$CHAMFERD
 40
0.0
  9
$SKPOLY
 70
     0
  9
$TDCREATE
 40
2458043.459340104
  9
$TDUCREATE
 40
2458043.376006771
  9
$TDUPDATE
 40
2458043.459340648
  9
$TDUUPDATE
 40
2458043.376007315
  9
$TDINDWG
 40
0.0000000116
  9
$TDUSRTIMER
 40
0.0000000116
  9
$USRTIMER
 70
     1
  9
$ANGBASE
 50
0.0
  9
$ANGDIR
 70
     0
  9
$PDMODE
 70
     0
  9
$PDSIZE
 40
-1.0
  9
$PLINEWID
 40
0.0
  9
$SPLFRAME
 70
     0
  9
$SPLINETYPE
 70
     6
  9
$SPLINESEGS
 70
     8
  9
$HANDSEED
  5
25D
  9
$SURFTAB1
 70
     6
  9
$SURFTAB2
 70
     6
  9
$SURFTYPE
 70
     6
  9
$SURFU
 70
     6
  9
$SURFV
 70
     6
  9
$UCSBASE
  2

  9
$UCSNAME
  2

  9
$UCSORG
 10
0.0
 20
0.0
 30
0.0
  9
$UCSXDIR
 10
1.0
 20
0.0
 30
0.0
  9
$UCSYDIR
 10
0.0
 20
1.0
 30
0.0
  9
$UCSORTHOREF
  2

  9
$UCSORTHOVIEW
 70
     0
  9
$UCSORGTOP
 10
0.0
 20
0.0
 30
0.0
  9
$UCSORGBOTTOM
 10
0.0
 20
0.0
 30
0.0
  9
$UCSORGLEFT
 10
0.0
 20
0.0
 30
0.0
  9
$UCSORGRIGHT
 10
0.0
 20
0.0
 30
0.0
  9
$UCSORGFRONT
 10
0.0
 20
0.0
 30
0.0
  9
$UCSORGBACK
 10
0.0
 20
0.0
 30
0.0
  9
$PUCSBASE
  2

  9
$PUCSNAME
  2

  9
$PUCSORG
 10
0.0
 20
0.0
 30
0.0
  9
$PUCSXDIR
 10
1.0
 20
0.0
 30
0.0
  9
$PUCSYDIR
 10
0.0
 20
1.0
 30
0.0
  9
$PUCSORTHOREF
  2

  9
$PUCSORTHOVIEW
 70
     0
  9
$PUCSORGTOP
 10
0.0
 20
0.0
 30
0.0
  9
$PUCSORGBOTTOM
 10
0.0
 20
0.0
 30
0.0
  9
$PUCSORGLEFT
 10
0.0
 20
0.0
 30
0.0
  9
$PUCSORGRIGHT
 10
0.0
 20
0.0
 30
0.0
  9
$PUCSORGFRONT
 10
0.0
 20
0.0
 30
0.0
  9
$PUCSORGBACK
 10
0.0
 20
0.0
 30
0.0
  9
$USERI1
 70
     0
  9
$USERI2
 70
     0
  9
$USERI3
 70
     0
  9
$USERI4
 70
     0
  9
$USERI5
 70
     0
  9
$USERR1
 40
0.0
  9
$USERR2
 40
0.0
  9
$USERR3
 40
0.0
  9
$USERR4
 40
0.0
  9
$USERR5
 40
0.0
  9
$WORLDVIEW
 70
     1
  9
$SHADEDGE
 70
     3
  9
$SHADEDIF
 70
    70
  9
$TILEMODE
 70
     1
  9
$MAXACTVP
 70
    64
  9
$PINSBASE
 10
0.0
 20
0.0
 30
0.0
  9
$PLIMCHECK
 70
     0
  9
$PEXTMIN
 10
1.0000000000E+20
 20
1.0000000000E+20
 30
1.0000000000E+20
  9
$PEXTMAX
 10
-1.0000000000E+20
 20
-1.0000000000E+20
 30
-1.0000000000E+20
  9
$PLIMMIN
 10
0.0
 20
0.0
  9
$PLIMMAX
 10
420.0
 20
297.0
  9
$UNITMODE
 70
     0
  9
$VISRETAIN
 70
     1
  9
$PLINEGEN
 70
     0
  9
$PSLTSCALE
 70
     1
  9
$TREEDEPTH
 70
  3020
  9
$CMLSTYLE
  2
Standard
  9
$CMLJUST
 70
     0
  9
$CMLSCALE
 40
20.0
  9
$PROXYGRAPHICS
 70
     1
  9
$MEASUREMENT
 70
     1
  9
$CELWEIGHT
370
    -1
  9
$ENDCAPS
280
     0
  9
$JOINSTYLE
280
     0
  9
$LWDISPLAY
290
     1
  9
$INSUNITS
 70
     4
  9
$HYPERLINKBASE
  1

  9
$STYLESHEET
  1

  9
$XEDIT
290
     1
  9
$CEPSNTYPE
380
     0
  9
$PSTYLEMODE
290
     1
  9
$FINGERPRINTGUID
  2
{32291A06-365D-4998-86E8-AFD53CEFDCB8}
  9
$VERSIONGUID
  2
{FAEB1C32-E019-11D5-929B-00C0DF256EC4}
  9
$EXTNAMES
290
     1
  9
$PSVPSCALE
 40
0.0
  9
$OLESTARTUP
290
     0
  0
ENDSEC
  0
SECTION
  2
CLASSES
  0
CLASS
  1
ACDBDICTIONARYWDFLT
  2
AcDbDictionaryWithDefault
  3
ObjectDBX Classes
 90
        0
280
     0
281
     0
  0
CLASS
  1
VISUALSTYLE
  2
AcDbVisualStyle
  3
ObjectDBX Classes
 90
     4095
280
     0
281
     0
  0
CLASS
  1
MATERIAL
  2
AcDbMaterial
  3
ObjectDBX Classes
 90
     1153
280
     0
281
     0
  0
CLASS
  1
ACDBPLACEHOLDER
  2
AcDbPlaceHolder
  3
ObjectDBX Classes
 90
        0
280
     0
281
     0
  0
CLASS
  1
LAYOUT
  2
AcDbLayout
  3
ObjectDBX Classes
 90
        0
280
     0
281
     0
  0
ENDSEC
  0
SECTION
  2
TABLES
  0
TABLE
  2
VPORT
  5
8
330
0
100
AcDbSymbolTable
 70
     1
  0
VPORT
  5
29
330
8
100
AcDbSymbolTableRecord
100
AcDbViewportTableRecord
  2
*Active
 70
     0
 10
0.0
 20
0.0
 11
1.0
 21
1.0
 12
297.0
 22
210.0
 13
0.0
 23
0.0
 14
10.0
 24
10.0
 15
10.0
 25
10.0
 16
0.0
 26
0.0
 36
1.0
 17
0.0
 27
0.0
 37
0.0
 40
420.0
 41
1.4142857143
 42
50.0
 43
0.0
 44
0.0
 50
0.0
 51
0.0
 71
     0
 72
  2000
 73
     1
 74
     3
 75
     0
 76
     0
 77
     0
 78
     0
281
     0
 65
     1
110
0.0
120
0.0
130
0.0
111
1.0
121
0.0
131
0.0
112
0.0
122
1.0
132
0.0
 79
     0
146
0.0
  0
ENDTAB
  0
TABLE
  2
LTYPE
  5
5
330
0
100
AcDbSymbolTable
 70
     6
  0
LTYPE
  5
14
330
5
100
AcDbSymbolTableRecord
100
AcDbLinetypeTableRecord
  2
ByBlock
 70
     0
  3

 72
    65
 73
     0
 40
0.0
  0
LTYPE
  5
15
330
5
100
AcDbSymbolTableRecord
100
AcDbLinetypeTableRecord
  2
ByLayer
 70
     0
  3

 72
    65
 73
     0
 40
0.0
  0
LTYPE
  5
16
330
5
100
AcDbSymbolTableRecord
100
AcDbLinetypeTableRecord
  2
Continuous
 70
     0
  3
Solid line
 72
    65
 73
     0
 40
0.0
  0
LTYPE
  5
3F
330
5
100
AcDbSymbolTableRecord
100
AcDbLinetypeTableRecord
  2
HIDDEN
 70
     0
  3
Hidden __ __ __ __ __ __ __ __ __ __ __ __ __ __
 72
    65
 73
     2
 40
1.905
 49
1.27
 74
     0
 49
-0.635
 74
     0
  0
LTYPE
  5
40
330
5
100
AcDbSymbolTableRecord
100
AcDbLinetypeTableRecord
  2
PHANTOM
 70
     0
  3
Phantom ______  __  __  ______  __  __  ______
 72
    65
 73
     6
 40
12.7
 49
6.35
 74
     0
 49
-1.27
 74
     0
 49
1.27
 74
     0
 49
-1.27
 74
     0
 49
1.27
 74
     0
 49
-1.27
 74
     0
  0
LTYPE
  5
41
330
5
100
AcDbSymbolTableRecord
100
AcDbLinetypeTableRecord
  2
CENTER
 70
     0
  3
Center ____ _ ____ _ ____ _ ____ _ ____ _ ____
 72
    65
 73
     4
 40
10.16
 49
6.35
 74
     0
 49
-1.27
 74
     0
 49
1.27
 74
     0
 49
-1.27
 74
     0
  0
LTYPE
  5
42
330
5
100
AcDbSymbolTableRecord
100
AcDbLinetypeTableRecord
  2
CENTERX2
 70
     0
  3
Center (2x) ________  __  ________  __  _____
 72
    65
 73
     4
 40
20.32
 49
12.7
 74
     0
 49
-2.54
 74
     0
 49
2.54
 74
     0
 49
-2.54
 74
     0
  0
LTYPE
  5
43
330
5
100
AcDbSymbolTableRecord
100
AcDbLinetypeTableRecord
  2
DOT2
 70
     0
  3
Dot (.5x) ........................................
 72
    65
 73
     2
 40
0.635
 49
0.0
 74
     0
 49
-0.635
 74
     0
  0
ENDTAB
  0
TABLE
  2
LAYER
  5
2
330
0
100
AcDbSymbolTable
 70
     3
  0
LAYER
  5
10
330
2
100
AcDbSymbolTableRecord
100
AcDbLayerTableRecord
  2
0
 70
     0
 62
     7
  6
Continuous
370
    -3
390
F
  0
LAYER
  5
44
330
2
100
AcDbSymbolTableRecord
100
AcDbLayerTableRecord
  2
FORMAT
 70
     0
 62
     7
  6
Continuous
370
    -3
390
F
  0
LAYER
  5
45
330
2
100
AcDbSymbolTableRecord
100
AcDbLayerTableRecord
  2
PROTOTYPE
 70
     0
 62
     7
  6
Continuous
370
    -3
390
F
  0
ENDTAB
  0
TABLE
  2
STYLE
  5
3
330
0
100
AcDbSymbolTable
 70
     1
  0
STYLE
  5
11
330
3
100
AcDbSymbolTableRecord
100
AcDbTextStyleTableRecord
  2
Standard
 70
     0
 40
0.0
 41
1.0
 50
0.0
 71
     0
 42
2.5
  3
txt
  4

  0
ENDTAB
  0
TABLE
  2
VIEW
  5
6
330
0
100
AcDbSymbolTable
 70
     0
  0
ENDTAB
  0
TABLE
  2
UCS
  5
7
330
0
100
AcDbSymbolTable
 70
     0
  0
ENDTAB
  0
TABLE
  2
APPID
  5
9
330
0
100
AcDbSymbolTable
 70
     1
  0
APPID
  5
12
330
9
100
AcDbSymbolTableRecord
100
AcDbRegAppTableRecord
  2
ACAD
 70
     0
  0
ENDTAB
  0
TABLE
  2
DIMSTYLE
  5
A
330
0
100
AcDbSymbolTable
 70
     1
100
AcDbDimStyleTable
  0
DIMSTYLE
105
27
330
A
100
AcDbSymbolTableRecord
100
AcDbDimStyleTableRecord
  2
ISO-25
 70
     0
 41
2.5
 42
0.625
 43
3.75
 44
1.25
 73
     0
 74
     0
 77
     1
 78
     8
140
2.5
141
2.5
143
0.0393700787
147
0.625
171
     3
172
     1
178
     0
271
     2
272
     2
274
     3
278
    44
283
     0
284
     8
340
11
  0
ENDTAB
  0
TABLE
  2
BLOCK_RECORD
  5
1
330
0
100
AcDbSymbolTable
 70
     3
  0
BLOCK_RECORD
  5
1F
330
1
100
AcDbSymbolTableRecord
100
AcDbBlockTableRecord
  2
*Model_Space
340
22
  0
BLOCK_RECORD
  5
1B
330
1
100
AcDbSymbolTableRecord
100
AcDbBlockTableRecord
  2
*Paper_Space
340
1E
  0
BLOCK_RECORD
  5
23
330
1
100
AcDbSymbolTableRecord
100
AcDbBlockTableRecord
  2
*Paper_Space0
340
26
  0
BLOCK_RECORD
  5
19A
330
1
100
AcDbSymbolTableRecord
100
AcDbBlockTableRecord
  2
SW_CENTERMARKSYMBOL_0
340
0
102
{BLKREFS
331
1A5
102
}
  0
BLOCK_RECORD
  5
251
330
1
100
AcDbSymbolTableRecord
100
AcDbBlockTableRecord
  2
SW_CENTERMARKSYMBOL_1
340
0
102
{BLKREFS
331
25C
102
}
  0
ENDTAB
  0
ENDSEC
  0
SECTION
  2
BLOCKS
  0
BLOCK
  5
20
330
1F
100
AcDbEntity
  8
0
100
AcDbBlockBegin
  2
*Model_Space
 70
     0
 10
0.0
 20
0.0
 30
0.0
  3
*Model_Space
  1

  0
ENDBLK
  5
21
330
1F
100
AcDbEntity
  8
0
100
AcDbBlockEnd
  0
BLOCK
  5
1C
330
1B
100
AcDbEntity
 67
     1
  8
0
100
AcDbBlockBegin
  2
*Paper_Space
 70
     0
 10
0.0
 20
0.0
 30
0.0
  3
*Paper_Space
  1

  0
ENDBLK
  5
1D
330
1B
100
AcDbEntity
 67
     1
  8
0
100
AcDbBlockEnd
  0
BLOCK
  5
24
330
23
100
AcDbEntity
  8
0
100
AcDbBlockBegin
  2
*Paper_Space0
 70
     0
 10
0.0
 20
0.0
 30
0.0
  3
*Paper_Space0
  1

  0
ENDBLK
  5
25
330
23
100
AcDbEntity
  8
0
100
AcDbBlockEnd
  0
BLOCK
  5
19B
330
19A
100
AcDbEntity
  8
0
100
AcDbBlockBegin
  2
SW_CENTERMARKSYMBOL_0
 70
     0
 10
0.0
 20
0.0
 30
0.0
  3
SW_CENTERMARKSYMBOL_0
  1

  0
LINE
  5
19D
330
19A
100
AcDbEntity
  8
FORMAT
 62
     0
100
AcDbLine
 10
0.0
 20
0.0
 30
0.0
 11
0.0
 21
2.5
 31
0.0
  0
LINE
  5
19E
330
19A
100
AcDbEntity
  8
FORMAT
 62
     0
100
AcDbLine
 10
0.0
 20
0.0
 30
0.0
 11
-2.5
 21
0.0
 31
0.0
  0
LINE
  5
19F
330
19A
100
AcDbEntity
  8
FORMAT
 62
     0
100
AcDbLine
 10
0.0
 20
0.0
 30
0.0
 11
0.0
 21
-2.5
 31
0.0
  0
LINE
  5
1A0
330
19A
100
AcDbEntity
  8
FORMAT
 62
     0
100
AcDbLine
 10
0.0
 20
0.0
 30
0.0
 11
2.5
 21
0.0
 31
0.0
  0
LINE
  5
1A1
330
19A
100
AcDbEntity
  8
FORMAT
 62
     0
100
AcDbLine
 10
0.0
 20
5.0
 30
0.0
 11
0.0
 21
194.487269269
 31
0.0
  0
LINE
  5
1A2
330
19A
100
AcDbEntity
  8
FORMAT
 62
     0
100
AcDbLine
 10
-5.0
 20
0.0
 30
0.0
 11
-38.6784843518
 21
0.0
 31
0.0
  0
LINE
  5
1A3
330
19A
100
AcDbEntity
  8
FORMAT
 62
     0
100
AcDbLine
 10
0.0
 20
-5.0
 30
0.0
 11
0.0
 21
-30.9102621975
 31
0.0
  0
LINE
  5
1A4
330
19A
100
AcDbEntity
  8
FORMAT
 62
     0
100
AcDbLine
 10
5.0
 20
0.0
 30
0.0
 11
35.2097983635
 21
0.0
 31
0.0
  0
ENDBLK
  5
19C
330
19A
100
AcDbEntity
  8
0
100
AcDbBlockEnd
  0
BLOCK
  5
252
330
251
100
AcDbEntity
  8
0
100
AcDbBlockBegin
  2
SW_CENTERMARKSYMBOL_1
 70
     0
 10
0.0
 20
0.0
 30
0.0
  3
SW_CENTERMARKSYMBOL_1
  1

  0
LINE
  5
254
330
251
100
AcDbEntity
  8
FORMAT
 62
     0
100
AcDbLine
 10
0.0
 20
0.0
 30
0.0
 11
0.0
 21
2.5
 31
0.0
  0
LINE
  5
255
330
251
100
AcDbEntity
  8
FORMAT
 62
     0
100
AcDbLine
 10
0.0
 20
0.0
 30
0.0
 11
-2.5
 21
0.0
 31
0.0
  0
LINE
  5
256
330
251
100
AcDbEntity
  8
FORMAT
 62
     0
100
AcDbLine
 10
0.0
 20
0.0
 30
0.0
 11
0.0
 21
-2.5
 31
0.0
  0
LINE
  5
257
330
251
100
AcDbEntity
  8
FORMAT
 62
     0
100
AcDbLine
 10
0.0
 20
0.0
 30
0.0
 11
2.5
 21
0.0
 31
0.0
  0
LINE
  5
258
330
251
100
AcDbEntity
  8
FORMAT
 62
     0
100
AcDbLine
 10
0.0
 20
5.0
 30
0.0
 11
0.0
 21
39.2381407843
 31
0.0
  0
LINE
  5
259
330
251
100
AcDbEntity
  8
FORMAT
 62
     0
100
AcDbLine
 10
-5.0
 20
0.0
 30
0.0
 11
-69.6467447468
 21
0.0
 31
0.0
  0
LINE
  5
25A
330
251
100
AcDbEntity
  8
FORMAT
 62
     0
100
AcDbLine
 10
0.0
 20
-5.0
 30
0.0
 11
0.0
 21
-39.2381407843
 31
0.0
  0
LINE
  5
25B
330
251
100
AcDbEntity
  8
FORMAT
 62
     0
100
AcDbLine
 10
5.0
 20
0.0
 30
0.0
 11
70.322664802
 21
0.0
 31
0.0
  0
ENDBLK
  5
253
330
251
100
AcDbEntity
  8
0
100
AcDbBlockEnd
  0
ENDSEC
  0
SECTION
  2
ENTITIES
  0
LINE
  5
46
330
1F
100
AcDbEntity
  8
0
  6
Continuous
 62
     7
370
    15
100
AcDbLine
 10
228.5223453909
 20
305.0016820763
 30
0.0
 11
228.5223453909
 21
320.0016820763
 31
0.0
  0
LINE
  5
47
330
1F
100
AcDbEntity
  8
0
  6
Continuous
 62
     7
370
    15
100
AcDbLine
 10
174.0223453909
 20
320.0016820763
 30
0.0
 11
174.0223453909
 21
305.0016820763
 31
0.0
  0
LINE
  5
48
330
1F
100
AcDbEntity
  8
0
  6
Continuous
 62
     7
370
    15
100
AcDbLine
 10
225.2723453909
 20
320.0016820763
 30
0.0
 11
220.2457051497
 21
328.7080783654
 31
0.0
  0
LINE
  5
49
330
1F
100
AcDbEntity
  8
0
  6
Continuous
 62
     7
370
    15
100
AcDbLine
 10
182.298985632
 20
328.7080783654
 30
0.0
 11
177.2723453909
 21
320.0016820763
 31
0.0
  0
LINE
  5
4A
330
1F
100
AcDbEntity
  8
0
  6
Continuous
 62
     7
370
    15
100
AcDbLine
 10
220.2457051497
 20
328.7080783654
 30
0.0
 11
219.2723453909
 21
351.0016820763
 31
0.0
  0
LINE
  5
4B
330
1F
100
AcDbEntity
  8
0
  6
Continuous
 62
     7
370
    15
100
AcDbLine
 10
183.2723453909
 20
351.0016820763
 30
0.0
 11
182.298985632
 21
328.7080783654
 31
0.0
  0
LINE
  5
4C
330
1F
100
AcDbEntity
  8
0
  6
Continuous
 62
     7
370
    15
100
AcDbLine
 10
151.9531793517
 20
305.0016820763
 30
0.0
 11
151.2723453909
 21
279.0016820763
 31
0.0
  0
LINE
  5
4D
330
1F
100
AcDbEntity
  8
0
  6
Continuous
 62
     7
370
    15
100
AcDbLine
 10
251.2723453909
 20
279.0016820763
 30
0.0
 11
250.5915114301
 21
305.0016820763
 31
0.0
  0
LINE
  5
4E
330
1F
100
AcDbEntity
  8
0
  6
Continuous
 62
     7
370
    15
100
AcDbLine
 10
210.2723453909
 20
351.0016820763
 30
0.0
 11
210.2723453909
 21
356.290414138
 31
0.0
  0
LINE
  5
4F
330
1F
100
AcDbEntity
  8
0
  6
Continuous
 62
     7
370
    15
100
AcDbLine
 10
192.2723453909
 20
356.290414138
 30
0.0
 11
192.2723453909
 21
351.0016820763
 31
0.0
  0
LINE
  5
50
330
1F
100
AcDbEntity
  8
0
  6
Continuous
 62
     7
370
    15
100
AcDbLine
 10
136.2723453909
 20
202.5016820763
 30
0.0
 11
136.2723453909
 21
230.0016820763
 31
0.0
  0
LINE
  5
51
330
1F
100
AcDbEntity
  8
0
  6
Continuous
 62
     7
370
    15
100
AcDbLine
 10
159.0180805855
 20
230.0016820763
 30
0.0
 11
136.2723453909
 21
230.0016820763
 31
0.0
  0
SPLINE
  5
52
330
1F
100
AcDbEntity
  8
0
  6
Continuous
 62
     7
370
    15
100
AcDbSpline
210
0.0
220
0.0
230
1.0
 70
     8
 71
     3
 72
    14
 73
    10
 74
     0
 42
0.00000001
 43
0.00000001
 12
1.0
 22
0.0
 32
0.0
 13
1.0
 23
0.0
 33
0.0
 40
0.0
 40
0.0
 40
0.0
 40
0.0
 40
0.25
 40
0.25
 40
0.5
 40
0.5
 40
0.75
 40
0.75
 40
1.0
 40
1.0
 40
1.0
 40
1.0
 10
163.2723453908984
 20
216.251682076347
 30
0.0
 10
163.2723453908984
 20
217.4475202346471
 30
0.0
 10
163.1678617021409
 20
218.6332957150662
 30
0.0
 10
162.7663882518328
 20
220.9863066853695
 30
0.0
 10
162.4695889981834
 20
222.153560522803
 30
0.0
 10
161.7086192664918
 20
224.4719489092183
 30
0.0
 10
161.2504157639104
 20
225.6063040336027
 30
0.0
 10
160.2161653850696
 20
227.832304153723
 30
0.0
 10
159.639800976863
 20
228.9248307703512
 30
0.0
 10
159.0180805854691
 20
230.0016820763471
 30
0.0
  0
SPLINE
  5
53
330
1F
100
AcDbEntity
  8
0
  6
Continuous
 62
     7
370
    15
100
AcDbSpline
210
0.0
220
0.0
230
1.0
 70
     8
 71
     3
 72
    14
 73
    10
 74
     0
 42
0.00000001
 43
0.00000001
 12
1.0
 22
0.0
 32
0.0
 13
1.0
 23
0.0
 33
0.0
 40
0.0
 40
0.0
 40
0.0
 40
0.0
 40
0.5
 40
0.5
 40
0.75
 40
0.75
 40
0.875
 40
0.875
 40
1.0
 40
1.0
 40
1.0
 40
1.0
 10
159.0180805854691
 20
202.5016820763471
 30
0.0
 10
160.2629632191064
 20
204.6578820472672
 30
0.0
 10
161.3207884475514
 20
206.8628806611557
 30
0.0
 10
162.451798368571
 20
210.2892667068207
 30
0.0
 10
162.7520408943324
 20
211.451420374911
 30
0.0
 10
163.0604081818849
 20
213.2316942464461
 30
0.0
 10
163.1395099142076
 20
213.8312983166193
 30
0.0
 10
163.2458646304898
 20
215.0440325109444
 30
0.0
 10
163.2723453908984
 20
215.6495457124308
 30
0.0
 10
163.2723453908984
 20
216.251682076347
 30
0.0
  0
LINE
  5
54
330
1F
100
AcDbEntity
  8
0
  6
Continuous
 62
     7
370
    15
100
AcDbLine
 10
159.0180805855
 20
202.5016820763
 30
0.0
 11
136.2723453909
 21
202.5016820763
 31
0.0
  0
SPLINE
  5
55
330
1F
100
AcDbEntity
  8
0
  6
Continuous
 62
     7
370
    15
100
AcDbSpline
210
0.0
220
0.0
230
1.0
 70
     8
 71
     3
 72
    14
 73
    10
 74
     0
 42
0.00000001
 43
0.00000001
 12
1.0
 22
0.0
 32
0.0
 13
1.0
 23
0.0
 33
0.0
 40
0.0
 40
0.0
 40
0.0
 40
0.0
 40
0.5
 40
0.5
 40
0.75
 40
0.75
 40
0.875
 40
0.875
 40
1.0
 40
1.0
 40
1.0
 40
1.0
 10
243.5266101963278
 20
202.5016820763471
 30
0.0
 10
242.2817275626905
 20
204.6578820472672
 30
0.0
 10
241.2239023342455
 20
206.8628806611557
 30
0.0
 10
240.0928924132259
 20
210.2892667068207
 30
0.0
 10
239.7926498874644
 20
211.451420374911
 30
0.0
 10
239.484282599912
 20
213.2316942464461
 30
0.0
 10
239.4051808675893
 20
213.8312983166193
 30
0.0
 10
239.2988261513071
 20
215.0440325109444
 30
0.0
 10
239.2723453908984
 20
215.6495457124308
 30
0.0
 10
239.2723453908984
 20
216.251682076347
 30
0.0
  0
SPLINE
  5
56
330
1F
100
AcDbEntity
  8
0
  6
Continuous
 62
     7
370
    15
100
AcDbSpline
210
0.0
220
0.0
230
1.0
 70
     8
 71
     3
 72
    14
 73
    10
 74
     0
 42
0.00000001
 43
0.00000001
 12
1.0
 22
0.0
 32
0.0
 13
1.0
 23
0.0
 33
0.0
 40
0.0
 40
0.0
 40
0.0
 40
0.0
 40
0.25
 40
0.25
 40
0.5
 40
0.5
 40
0.75
 40
0.75
 40
1.0
 40
1.0
 40
1.0
 40
1.0
 10
239.2723453908984
 20
216.251682076347
 30
0.0
 10
239.2723453908984
 20
217.4475202346471
 30
0.0
 10
239.376829079656
 20
218.6332957150662
 30
0.0
 10
239.7783025299641
 20
220.9863066853695
 30
0.0
 10
240.0751017836135
 20
222.153560522803
 30
0.0
 10
240.8360715153051
 20
224.4719489092183
 30
0.0
 10
241.2942750178864
 20
225.6063040336027
 30
0.0
 10
242.3285253967273
 20
227.832304153723
 30
0.0
 10
242.9048898049339
 20
228.9248307703512
 30
0.0
 10
243.5266101963278
 20
230.0016820763471
 30
0.0
  0
LINE
  5
57
330
1F
100
AcDbEntity
  8
0
  6
Continuous
 62
     7
370
    15
100
AcDbLine
 10
243.5266101963
 20
230.0016820763
 30
0.0
 11
266.2723453909
 21
230.0016820763
 31
0.0
  0
LINE
  5
58
330
1F
100
AcDbEntity
  8
0
  6
Continuous
 62
     7
370
    15
100
AcDbLine
 10
266.2723453909
 20
202.5016820763
 30
0.0
 11
266.2723453909
 21
230.0016820763
 31
0.0
  0
LINE
  5
59
330
1F
100
AcDbEntity
  8
0
  6
Continuous
 62
     7
370
    15
100
AcDbLine
 10
243.5266101963
 20
202.5016820763
 30
0.0
 11
266.2723453909
 21
202.5016820763
 31
0.0
  0
LINE
  5
5A
330
1F
100
AcDbEntity
  8
0
  6
Continuous
 62
     7
370
    15
100
AcDbLine
 10
239.2723453909
 20
216.2516820763
 30
0.0
 11
239.2723453909
 21
188.7516820763
 31
0.0
  0
SPLINE
  5
5B
330
1F
100
AcDbEntity
  8
0
  6
Continuous
 62
     7
370
    15
100
AcDbSpline
210
0.0
220
0.0
230
1.0
 70
     8
 71
     3
 72
    14
 73
    10
 74
     0
 42
0.00000001
 43
0.00000001
 12
1.0
 22
0.0
 32
0.0
 13
1.0
 23
0.0
 33
0.0
 40
0.0
 40
0.0
 40
0.0
 40
0.0
 40
0.2500000000000001
 40
0.2500000000000001
 40
0.5000000000000002
 40
0.5000000000000002
 40
0.7500000000000001
 40
0.7500000000000001
 40
1.0
 40
1.0
 40
1.0
 40
1.0
 10
239.2723453908984
 20
188.7516820763472
 30
0.0
 10
239.2723453908984
 20
189.9475202346472
 30
0.0
 10
239.3768290796559
 20
191.1332957150663
 30
0.0
 10
239.7783025299641
 20
193.4863066853695
 30
0.0
 10
240.0751017836135
 20
194.653560522803
 30
0.0
 10
240.8360715153051
 20
196.9719489092183
 30
0.0
 10
241.2942750178864
 20
198.1063040336027
 30
0.0
 10
242.3285253967272
 20
200.332304153723
 30
0.0
 10
242.9048898049338
 20
201.4248307703512
 30
0.0
 10
243.5266101963278
 20
202.5016820763471
 30
0.0
  0
LINE
  5
5C
330
1F
100
AcDbEntity
  8
0
  6
Continuous
 62
     7
370
    15
100
AcDbLine
 10
163.2723453909
 20
216.2516820763
 30
0.0
 11
163.2723453909
 21
188.7516820763
 31
0.0
  0
SPLINE
  5
5D
330
1F
100
AcDbEntity
  8
0
  6
Continuous
 62
     7
370
    15
100
AcDbSpline
210
0.0
220
0.0
230
1.0
 70
     8
 71
     3
 72
    14
 73
    10
 74
     0
 42
0.00000001
 43
0.00000001
 12
1.0
 22
0.0
 32
0.0
 13
1.0
 23
0.0
 33
0.0
 40
0.0
 40
0.0
 40
0.0
 40
0.0
 40
0.2500000000000001
 40
0.2500000000000001
 40
0.5000000000000002
 40
0.5000000000000002
 40
0.7500000000000001
 40
0.7500000000000001
 40
1.0
 40
1.0
 40
1.0
 40
1.0
 10
163.2723453908984
 20
188.7516820763472
 30
0.0
 10
163.2723453908984
 20
189.9475202346472
 30
0.0
 10
163.1678617021409
 20
191.1332957150663
 30
0.0
 10
162.7663882518328
 20
193.4863066853695
 30
0.0
 10
162.4695889981834
 20
194.653560522803
 30
0.0
 10
161.7086192664918
 20
196.9719489092183
 30
0.0
 10
161.2504157639105
 20
198.1063040336027
 30
0.0
 10
160.2161653850697
 20
200.332304153723
 30
0.0
 10
159.6398009768631
 20
201.4248307703512
 30
0.0
 10
159.0180805854691
 20
202.5016820763471
 30
0.0
  0
LINE
  5
5E
330
1F
100
AcDbEntity
  8
0
  6
Continuous
 62
     7
370
    15
100
AcDbLine
 10
215.8668649102
 20
279.0016820763
 30
0.0
 11
236.0969056896
 21
279.0016820763
 31
0.0
  0
SPLINE
  5
5F
330
1F
100
AcDbEntity
  8
0
  6
Continuous
 62
     7
370
    15
100
AcDbSpline
210
0.0
220
0.0
230
1.0
 70
     8
 71
     3
 72
     8
 73
     4
 74
     0
 42
0.00000001
 43
0.00000001
 12
1.0
 22
0.0
 32
0.0
 13
1.0
 23
0.0
 33
0.0
 40
0.0
 40
0.0
 40
0.0
 40
0.0
 40
1.0
 40
1.0
 40
1.0
 40
1.0
 10
215.8668649102248
 20
279.0016820763472
 30
0.0
 10
215.6455573211463
 20
282.3353053685101
 30
0.0
 10
215.4200257515714
 20
285.6687065587905
 30
0.0
 10
215.1896363732572
 20
289.0016820763472
 30
0.0
  0
LINE
  5
60
330
1F
100
AcDbEntity
  8
0
  6
Continuous
 62
     7
370
    15
100
AcDbLine
 10
215.1896363733
 20
289.0016820763
 30
0.0
 11
235.9121909222
 21
289.0016820763
 31
0.0
  0
LINE
  5
61
330
1F
100
AcDbEntity
  8
0
  6
Continuous
 62
     7
370
    15
100
AcDbLine
 10
235.9121909222
 20
289.0016820763
 30
0.0
 11
236.0969056896
 21
279.0016820763
 31
0.0
  0
SPLINE
  5
62
330
1F
100
AcDbEntity
  8
0
  6
Continuous
 62
     7
370
    15
100
AcDbSpline
210
0.0
220
0.0
230
1.0
 70
    24
 71
     3
 72
     8
 73
     4
 74
     0
 42
0.00000001
 43
0.00000001
 12
1.0
 22
0.0
 32
0.0
 13
1.0
 23
0.0
 33
0.0
 40
0.001001884639077
 40
0.001001884639077
 40
0.001001884639077
 40
0.001001884639077
 40
0.0110190796468041
 40
0.0110190796468041
 40
0.0110190796468041
 40
0.0110190796468041
 10
236.1923453908985
 20
279.0016820763472
 30
0.0
 10
236.0972585284548
 20
275.6682424781651
 30
0.0
 10
236.0021745250975
 20
272.3349031103563
 30
0.0
 10
235.9070938972295
 20
269.0016820763471
 30
0.0
  0
LINE
  5
63
330
1F
100
AcDbEntity
  8
0
  6
Continuous
 62
     7
370
    15
100
AcDbLine
 10
215.7768392954
 20
269.0016820763
 30
0.0
 11
235.9070938972
 21
269.0016820763
 31
0.0
  0
LINE
  5
64
330
1F
100
AcDbEntity
  8
0
  6
Continuous
 62
     7
370
    15
100
AcDbLine
 10
215.7768392954
 20
269.0016820763
 30
0.0
 11
215.8668649102
 21
279.0016820763
 31
0.0
  0
LINE
  5
65
330
1F
100
AcDbEntity
  8
0
  6
Continuous
 62
     7
370
    15
100
AcDbLine
 10
166.4477850922
 20
279.0016820763
 30
0.0
 11
186.6778258716
 21
279.0016820763
 31
0.0
  0
LINE
  5
66
330
1F
100
AcDbEntity
  8
0
  6
Continuous
 62
     7
370
    15
100
AcDbLine
 10
186.7678514864
 20
269.0016820763
 30
0.0
 11
186.6778258716
 21
279.0016820763
 31
0.0
  0
LINE
  5
67
330
1F
100
AcDbEntity
  8
0
  6
Continuous
 62
     7
370
    15
100
AcDbLine
 10
186.7678514864
 20
269.0016820763
 30
0.0
 11
166.6375968846
 21
269.0016820763
 31
0.0
  0
SPLINE
  5
68
330
1F
100
AcDbEntity
  8
0
  6
Continuous
 62
     7
370
    15
100
AcDbSpline
210
0.0
220
0.0
230
1.0
 70
    24
 71
     3
 72
     8
 73
     4
 74
     0
 42
0.00000001
 43
0.00000001
 12
1.0
 22
0.0
 32
0.0
 13
1.0
 23
0.0
 33
0.0
 40
0.001001884639077
 40
0.001001884639077
 40
0.001001884639077
 40
0.001001884639077
 40
0.0110190796468041
 40
0.0110190796468041
 40
0.0110190796468041
 40
0.0110190796468041
 10
166.3523453908984
 20
279.0016820763472
 30
0.0
 10
166.4474322533421
 20
275.6682424781651
 30
0.0
 10
166.5425162566994
 20
272.3349031103563
 30
0.0
 10
166.6375968845674
 20
269.0016820763471
 30
0.0
  0
LINE
  5
69
330
1F
100
AcDbEntity
  8
0
  6
Continuous
 62
     7
370
    15
100
AcDbLine
 10
166.6324998596
 20
289.0016820763
 30
0.0
 11
187.3550544085
 21
289.0016820763
 31
0.0
  0
SPLINE
  5
6A
330
1F
100
AcDbEntity
  8
0
  6
Continuous
 62
     7
370
    15
100
AcDbSpline
210
0.0
220
0.0
230
1.0
 70
     8
 71
     3
 72
     8
 73
     4
 74
     0
 42
0.00000001
 43
0.00000001
 12
1.0
 22
0.0
 32
0.0
 13
1.0
 23
0.0
 33
0.0
 40
0.0
 40
0.0
 40
0.0
 40
0.0
 40
1.0
 40
1.0
 40
1.0
 40
1.0
 10
187.3550544085397
 20
289.0016820763472
 30
0.0
 10
187.1246650302255
 20
285.6687065587905
 30
0.0
 10
186.8991334606506
 20
282.3353053685101
 30
0.0
 10
186.677825871572
 20
279.0016820763472
 30
0.0
  0
LINE
  5
6B
330
1F
100
AcDbEntity
  8
0
  6
Continuous
 62
     7
370
    15
100
AcDbLine
 10
166.4477850922
 20
279.0016820763
 30
0.0
 11
166.6324998596
 21
289.0016820763
 31
0.0
  0
SPLINE
  5
6C
330
1F
100
AcDbEntity
  8
0
  6
Continuous
 62
     7
370
    15
100
AcDbSpline
210
0.0
220
0.0
230
1.0
 70
     8
 71
     3
 72
    18
 73
    14
 74
     0
 42
0.00000001
 43
0.00000001
 12
1.0
 22
0.0
 32
0.0
 13
1.0
 23
0.0
 33
0.0
 40
0.0
 40
0.0
 40
0.0
 40
0.0
 40
0.125
 40
0.125
 40
0.25
 40
0.25
 40
0.4999999999999999
 40
0.4999999999999999
 40
0.6249999999999999
 40
0.6249999999999999
 40
0.7499999999999999
 40
0.7499999999999999
 40
1.0
 40
1.0
 40
1.0
 40
1.0
 10
187.3550544085397
 20
289.0016820763472
 30
0.0
 10
188.5042855321725
 20
289.2530351991217
 30
0.0
 10
189.6589598139606
 20
289.4788070181934
 30
0.0
 10
191.9682258970034
 20
289.8708031751474
 30
0.0
 10
193.1245500889282
 20
290.0373935652911
 30
0.0
 10
196.5990336452208
 20
290.4413334027062
 30
0.0
 10
198.9227621422506
 20
290.5818402999113
 30
0.0
 10
202.4204142524066
 20
290.5828984008622
 30
0.0
 10
203.5882945747219
 20
290.5485373675396
 30
0.0
 10
205.9280260665501
 20
290.4107655956913
 30
0.0
 10
207.1028366376565
 20
290.3069963868986
 30
0.0
 10
210.6118252021455
 20
289.8984559829462
 30
0.0
 10
212.9148090460042
 20
289.4992190301589
 30
0.0
 10
215.1896363732572
 20
289.0016820763472
 30
0.0
  0
LINE
  5
6D
330
1F
100
AcDbEntity
  8
0
  6
Continuous
 62
     7
370
    15
100
AcDbLine
 10
215.8668649102
 20
279.0016820763
 30
0.0
 11
186.6778258716
 21
279.0016820763
 31
0.0
  0
SPLINE
  5
6E
330
1F
100
AcDbEntity
  8
0
  6
Continuous
 62
     7
370
    15
100
AcDbSpline
210
0.0
220
0.0
230
1.0
 70
     8
 71
     3
 72
     8
 73
     4
 74
     0
 42
0.00000001
 43
0.00000001
 12
1.0
 22
0.0
 32
0.0
 13
1.0
 23
0.0
 33
0.0
 40
0.0
 40
0.0
 40
0.0
 40
0.0
 40
1.0
 40
1.0
 40
1.0
 40
1.0
 10
166.6324998596161
 20
289.0016820763472
 30
0.0
 10
168.6880205576464
 20
290.1263200212628
 30
0.0
 10
170.7476645680526
 20
291.2433710992914
 30
0.0
 10
172.8144253942103
 20
292.3473272844663
 30
0.0
  0
LINE
  5
6F
330
1F
100
AcDbEntity
  8
0
  6
Continuous
 62
     7
370
    15
100
AcDbLine
 10
172.8144253942
 20
292.3473272845
 30
0.0
 11
229.7302653876
 21
292.3473272845
 31
0.0
  0
SPLINE
  5
70
330
1F
100
AcDbEntity
  8
0
  6
Continuous
 62
     7
370
    15
100
AcDbSpline
210
0.0
220
0.0
230
1.0
 70
     8
 71
     3
 72
     8
 73
     4
 74
     0
 42
0.00000001
 43
0.00000001
 12
1.0
 22
0.0
 32
0.0
 13
1.0
 23
0.0
 33
0.0
 40
0.0
 40
0.0
 40
0.0
 40
0.0
 40
1.0
 40
1.0
 40
1.0
 40
1.0
 10
229.7302653875866
 20
292.3473272844663
 30
0.0
 10
231.7970262137442
 20
291.2433710992914
 30
0.0
 10
233.8566702241505
 20
290.1263200212628
 30
0.0
 10
235.9121909221807
 20
289.0016820763472
 30
0.0
  0
LINE
  5
71
330
1F
100
AcDbEntity
  8
0
  6
Continuous
 62
     7
370
    15
100
AcDbLine
 10
186.7678514864
 20
269.0016820763
 30
0.0
 11
215.7768392954
 21
269.0016820763
 31
0.0
  0
SPLINE
  5
72
330
1F
100
AcDbEntity
  8
0
  6
Continuous
 62
     7
370
    15
100
AcDbSpline
210
0.0
220
0.0
230
1.0
 70
     8
 71
     3
 72
     8
 73
     4
 74
     0
 42
0.00000001
 43
0.00000001
 12
1.0
 22
0.0
 32
0.0
 13
1.0
 23
0.0
 33
0.0
 40
0.0
 40
0.0
 40
0.0
 40
0.0
 40
1.0
 40
1.0
 40
1.0
 40
1.0
 10
214.5764800865487
 20
267.5109760656916
 30
0.0
 10
214.9937783640164
 20
268.0068421705896
 30
0.0
 10
215.3926024356026
 20
268.5039073962352
 30
0.0
 10
215.776839295392
 20
269.0016820763471
 30
0.0
  0
SPLINE
  5
73
330
1F
100
AcDbEntity
  8
0
  6
Continuous
 62
     7
370
    15
100
AcDbSpline
210
0.0
220
0.0
230
1.0
 70
     8
 71
     3
 72
    12
 73
     8
 74
     0
 42
0.00000001
 43
0.00000001
 12
1.0
 22
0.0
 32
0.0
 13
1.0
 23
0.0
 33
0.0
 40
0.0
 40
0.0
 40
0.0
 40
0.0
 40
0.5
 40
0.5
 40
0.75
 40
0.75
 40
1.0
 40
1.0
 40
1.0
 40
1.0
 10
235.9070938972295
 20
269.0016820763471
 30
0.0
 10
234.979343102682
 20
268.7457361974971
 30
0.0
 10
234.0980306584733
 20
268.4925301979785
 30
0.0
 10
232.843206231515
 20
268.1171459286455
 30
0.0
 10
232.4354128450979
 20
267.9925298257121
 30
0.0
 10
231.6468210220756
 20
267.7464278026277
 30
0.0
 10
231.2720627547803
 20
267.6268403930179
 30
0.0
 10
230.9162211048372
 20
267.5109760656916
 30
0.0
  0
LINE
  5
74
330
1F
100
AcDbEntity
  8
0
  6
Continuous
 62
     7
370
    15
100
AcDbLine
 10
214.5764800865
 20
267.5109760657
 30
0.0
 11
230.9162211048
 21
267.5109760657
 31
0.0
  0
SPLINE
  5
75
330
1F
100
AcDbEntity
  8
0
  6
Continuous
 62
     7
370
    15
100
AcDbSpline
210
0.0
220
0.0
230
1.0
 70
     8
 71
     3
 72
     8
 73
     4
 74
     0
 42
0.00000001
 43
0.00000001
 12
1.0
 22
0.0
 32
0.0
 13
1.0
 23
0.0
 33
0.0
 40
0.0
 40
0.0
 40
0.0
 40
0.0
 40
1.0
 40
1.0
 40
1.0
 40
1.0
 10
187.9682106952482
 20
267.5109760656916
 30
0.0
 10
187.5509124177805
 20
268.0068421705896
 30
0.0
 10
187.1520883461943
 20
268.5039073962352
 30
0.0
 10
186.7678514864049
 20
269.0016820763471
 30
0.0
  0
LINE
  5
76
330
1F
100
AcDbEntity
  8
0
  6
Continuous
 62
     7
370
    15
100
AcDbLine
 10
187.9682106952
 20
267.5109760657
 30
0.0
 11
214.5764800865
 21
267.5109760657
 31
0.0
  0
SPLINE
  5
77
330
1F
100
AcDbEntity
  8
0
  6
Continuous
 62
     7
370
    15
100
AcDbSpline
210
0.0
220
0.0
230
1.0
 70
     8
 71
     3
 72
    12
 73
     8
 74
     0
 42
0.00000001
 43
0.00000001
 12
1.0
 22
0.0
 32
0.0
 13
1.0
 23
0.0
 33
0.0
 40
0.0
 40
0.0
 40
0.0
 40
0.0
 40
0.5
 40
0.5
 40
0.75
 40
0.75
 40
1.0
 40
1.0
 40
1.0
 40
1.0
 10
166.6375968845674
 20
269.0016820763471
 30
0.0
 10
167.5653476791149
 20
268.7457361974971
 30
0.0
 10
168.4466601233235
 20
268.4925301979785
 30
0.0
 10
169.7014845502819
 20
268.1171459286455
 30
0.0
 10
170.109277936699
 20
267.9925298257121
 30
0.0
 10
170.8978697597213
 20
267.7464278026277
 30
0.0
 10
171.2726280270165
 20
267.6268403930179
 30
0.0
 10
171.6284696769597
 20
267.5109760656916
 30
0.0
  0
LINE
  5
78
330
1F
100
AcDbEntity
  8
0
  6
Continuous
 62
     7
370
    15
100
AcDbLine
 10
187.9682106952
 20
267.5109760657
 30
0.0
 11
171.628469677
 21
267.5109760657
 31
0.0
  0
SPLINE
  5
79
330
1F
100
AcDbEntity
  8
0
  6
Continuous
 62
     7
370
    15
100
AcDbSpline
210
0.0
220
0.0
230
1.0
 70
     8
 71
     3
 72
    14
 73
    10
 74
     0
 42
0.00000001
 43
0.00000001
 12
1.0
 22
0.0
 32
0.0
 13
1.0
 23
0.0
 33
0.0
 40
0.0
 40
0.0
 40
0.0
 40
0.0
 40
0.4999999999999996
 40
0.4999999999999996
 40
0.7499999999999996
 40
0.7499999999999996
 40
0.8749999999999999
 40
0.8749999999999999
 40
1.0
 40
1.0
 40
1.0
 40
1.0
 10
243.5266101963279
 20
175.0016820763471
 30
0.0
 10
242.2817275626905
 20
177.1578820472671
 30
0.0
 10
241.2239023342456
 20
179.3628806611557
 30
0.0
 10
240.0928924132259
 20
182.7892667068207
 30
0.0
 10
239.7926498874645
 20
183.9514203749111
 30
0.0
 10
239.4842825999121
 20
185.7316942464462
 30
0.0
 10
239.4051808675893
 20
186.3312983166194
 30
0.0
 10
239.2988261513071
 20
187.5440325109445
 30
0.0
 10
239.2723453908984
 20
188.1495457124309
 30
0.0
 10
239.2723453908984
 20
188.7516820763472
 30
0.0
  0
LINE
  5
7A
330
1F
100
AcDbEntity
  8
0
  6
Continuous
 62
     7
370
    15
100
AcDbLine
 10
266.2723453909
 20
175.0016820763
 30
0.0
 11
266.2723453909
 21
202.5016820763
 31
0.0
  0
LINE
  5
7B
330
1F
100
AcDbEntity
  8
0
  6
Continuous
 62
     7
370
    15
100
AcDbLine
 10
243.5266101963
 20
175.0016820763
 30
0.0
 11
266.2723453909
 21
175.0016820763
 31
0.0
  0
LINE
  5
7C
330
1F
100
AcDbEntity
  8
0
  6
Continuous
 62
     7
370
    15
100
AcDbLine
 10
136.2723453909
 20
175.0016820763
 30
0.0
 11
136.2723453909
 21
202.5016820763
 31
0.0
  0
SPLINE
  5
7D
330
1F
100
AcDbEntity
  8
0
  6
Continuous
 62
     7
370
    15
100
AcDbSpline
210
0.0
220
0.0
230
1.0
 70
     8
 71
     3
 72
    14
 73
    10
 74
     0
 42
0.00000001
 43
0.00000001
 12
1.0
 22
0.0
 32
0.0
 13
1.0
 23
0.0
 33
0.0
 40
0.0
 40
0.0
 40
0.0
 40
0.0
 40
0.4999999999999996
 40
0.4999999999999996
 40
0.7499999999999996
 40
0.7499999999999996
 40
0.8749999999999999
 40
0.8749999999999999
 40
1.0
 40
1.0
 40
1.0
 40
1.0
 10
159.018080585469
 20
175.0016820763471
 30
0.0
 10
160.2629632191064
 20
177.1578820472671
 30
0.0
 10
161.3207884475513
 20
179.3628806611557
 30
0.0
 10
162.451798368571
 20
182.7892667068207
 30
0.0
 10
162.7520408943324
 20
183.9514203749111
 30
0.0
 10
163.0604081818848
 20
185.7316942464462
 30
0.0
 10
163.1395099142076
 20
186.3312983166194
 30
0.0
 10
163.2458646304898
 20
187.5440325109445
 30
0.0
 10
163.2723453908984
 20
188.1495457124309
 30
0.0
 10
163.2723453908984
 20
188.7516820763472
 30
0.0
  0
LINE
  5
7E
330
1F
100
AcDbEntity
  8
0
  6
Continuous
 62
     7
370
    15
100
AcDbLine
 10
159.0180805855
 20
175.0016820763
 30
0.0
 11
136.2723453909
 21
175.0016820763
 31
0.0
  0
SPLINE
  5
7F
330
1F
100
AcDbEntity
  8
0
  6
Continuous
 62
     7
370
    15
100
AcDbSpline
210
0.0
220
0.0
230
1.0
 70
     8
 71
     3
 72
    14
 73
    10
 74
     0
 42
0.00000001
 43
0.00000001
 12
1.0
 22
0.0
 32
0.0
 13
1.0
 23
0.0
 33
0.0
 40
0.0
 40
0.0
 40
0.0
 40
0.0
 40
0.25
 40
0.25
 40
0.5
 40
0.5
 40
0.75
 40
0.75
 40
1.0
 40
1.0
 40
1.0
 40
1.0
 10
172.8144253942103
 20
292.3473272844663
 30
0.0
 10
172.8817551348361
 20
293.182759701888
 30
0.0
 10
173.0190541784251
 20
294.000257290914
 30
0.0
 10
173.4270478846331
 20
295.6010599383175
 30
0.0
 10
173.6977647158072
 20
296.3843593143569
 30
0.0
 10
174.3768042853113
 20
297.9156863368839
 30
0.0
 10
174.7765103995202
 20
298.6439029975417
 30
0.0
 10
175.6869645148725
 20
300.0247298654571
 30
0.0
 10
176.1981511251908
 20
300.6781840563711
 30
0.0
 10
176.7659067128405
 20
301.2942765014666
 30
0.0
  0
LINE
  5
80
330
1F
100
AcDbEntity
  8
0
  6
Continuous
 62
     7
370
    15
100
AcDbLine
 10
225.778784069
 20
301.2942765015
 30
0.0
 11
176.7659067128
 21
301.2942765015
 31
0.0
  0
SPLINE
  5
81
330
1F
100
AcDbEntity
  8
0
  6
Continuous
 62
     7
370
    15
100
AcDbSpline
210
0.0
220
0.0
230
1.0
 70
     8
 71
     3
 72
    14
 73
    10
 74
     0
 42
0.00000001
 43
0.00000001
 12
1.0
 22
0.0
 32
0.0
 13
1.0
 23
0.0
 33
0.0
 40
0.0
 40
0.0
 40
0.0
 40
0.0
 40
0.25
 40
0.25
 40
0.5
 40
0.5
 40
0.75
 40
0.75
 40
1.0
 40
1.0
 40
1.0
 40
1.0
 10
225.7787840689563
 20
301.2942765014666
 30
0.0
 10
226.3465249547705
 20
300.678200009873
 30
0.0
 10
226.8574699572952
 20
300.0250134256187
 30
0.0
 10
227.7672641965413
 20
298.6453975498063
 30
0.0
 10
228.166161234119
 20
297.9189994910438
 30
0.0
 10
228.8452746602871
 20
296.3886581426698
 30
0.0
 10
229.1171517049468
 20
295.6027481433289
 30
0.0
 10
229.5256073946634
 20
294.000610624717
 30
0.0
 10
229.6629362161167
 20
293.1827526397588
 30
0.0
 10
229.7302653875866
 20
292.3473272844663
 30
0.0
  0
LINE
  5
82
330
1F
100
AcDbEntity
  8
0
  6
Continuous
 62
     7
370
    15
100
AcDbLine
 10
204.9345408972
 20
259.2231106478
 30
0.0
 11
202.1688776319
 21
252.4302535049
 31
0.0
  0
LINE
  5
83
330
1F
100
AcDbEntity
  8
0
  6
Continuous
 62
     7
370
    15
100
AcDbLine
 10
202.1688776319
 20
252.4302535049
 30
0.0
 11
200.3758131499
 21
252.4302535049
 31
0.0
  0
LINE
  5
84
330
1F
100
AcDbEntity
  8
0
  6
Continuous
 62
     7
370
    15
100
AcDbLine
 10
200.3758131499
 20
252.4302535049
 30
0.0
 11
197.6101498846
 21
259.2231106478
 31
0.0
  0
LINE
  5
85
330
1F
100
AcDbEntity
  8
0
  6
Continuous
 62
     7
370
    15
100
AcDbLine
 10
197.6101498846
 20
259.2231106478
 30
0.0
 11
192.2723453909
 21
259.2231106478
 31
0.0
  0
LINE
  5
86
330
1F
100
AcDbEntity
  8
0
  6
Continuous
 62
     7
370
    15
100
AcDbLine
 10
192.2723453909
 20
259.2231106478
 30
0.0
 11
192.2723453909
 21
261.0016820763
 31
0.0
  0
LINE
  5
87
330
1F
100
AcDbEntity
  8
0
  6
Continuous
 62
     7
370
    15
100
AcDbLine
 10
192.2723453909
 20
261.0016820763
 30
0.0
 11
198.829488248
 21
261.0016820763
 31
0.0
  0
LINE
  5
88
330
1F
100
AcDbEntity
  8
0
  6
Continuous
 62
     7
370
    15
100
AcDbLine
 10
198.829488248
 20
261.0016820763
 30
0.0
 11
201.2723453909
 21
255.0016820763
 31
0.0
  0
LINE
  5
89
330
1F
100
AcDbEntity
  8
0
  6
Continuous
 62
     7
370
    15
100
AcDbLine
 10
201.2723453909
 20
255.0016820763
 30
0.0
 11
203.7152025338
 21
261.0016820763
 31
0.0
  0
LINE
  5
8A
330
1F
100
AcDbEntity
  8
0
  6
Continuous
 62
     7
370
    15
100
AcDbLine
 10
203.7152025338
 20
261.0016820763
 30
0.0
 11
210.2723453909
 21
261.0016820763
 31
0.0
  0
LINE
  5
8B
330
1F
100
AcDbEntity
  8
0
  6
Continuous
 62
     7
370
    15
100
AcDbLine
 10
210.2723453909
 20
261.0016820763
 30
0.0
 11
210.2723453909
 21
259.2231106478
 31
0.0
  0
LINE
  5
8C
330
1F
100
AcDbEntity
  8
0
  6
Continuous
 62
     7
370
    15
100
AcDbLine
 10
210.2723453909
 20
259.2231106478
 30
0.0
 11
204.9345408972
 21
259.2231106478
 31
0.0
  0
LINE
  5
8D
330
1F
100
AcDbEntity
  8
0
  6
Continuous
 62
     7
370
    15
100
AcDbLine
 10
209.8437739623
 20
252.4302535049
 30
0.0
 11
207.616761256
 21
252.4302535049
 31
0.0
  0
LINE
  5
8E
330
1F
100
AcDbEntity
  8
0
  6
Continuous
 62
     7
370
    15
100
AcDbLine
 10
207.616761256
 20
252.4302535049
 30
0.0
 11
205.8072533613
 21
254.8315515863
 31
0.0
  0
LINE
  5
8F
330
1F
100
AcDbEntity
  8
0
  6
Continuous
 62
     7
370
    15
100
AcDbLine
 10
205.8072533613
 20
254.8315515863
 30
0.0
 11
204.8295819996
 21
252.4302535049
 31
0.0
  0
LINE
  5
90
330
1F
100
AcDbEntity
  8
0
  6
Continuous
 62
     7
370
    15
100
AcDbLine
 10
204.8295819996
 20
252.4302535049
 30
0.0
 11
202.9092475429
 21
252.4302535049
 31
0.0
  0
LINE
  5
91
330
1F
100
AcDbEntity
  8
0
  6
Continuous
 62
     7
370
    15
100
AcDbLine
 10
202.9092475429
 20
252.4302535049
 30
0.0
 11
205.3957271347
 21
258.5373963621
 31
0.0
  0
LINE
  5
92
330
1F
100
AcDbEntity
  8
0
  6
Continuous
 62
     7
370
    15
100
AcDbLine
 10
205.3957271347
 20
258.5373963621
 30
0.0
 11
207.3160615915
 21
258.5373963621
 31
0.0
  0
ARC
  5
93
330
1F
100
AcDbEntity
  8
0
  6
Continuous
 62
     7
370
    15
100
AcDbCircle
 10
206.329488248
 20
258.5373963621
 30
0.0
 40
2.22857142857144
100
AcDbArc
 50
272.0522846805
 51
0.0
  0
LINE
  5
94
330
1F
100
AcDbEntity
  8
0
  6
Continuous
 62
     7
370
    15
100
AcDbLine
 10
208.5580596766
 20
258.5373963621
 30
0.0
 11
210.2723453909
 21
258.5373963621
 31
0.0
  0
LINE
  5
95
330
1F
100
AcDbEntity
  8
0
  6
Continuous
 62
     7
370
    15
100
AcDbLine
 10
210.2723453909
 20
256.8231106478
 30
0.0
 11
209.7580596766
 21
256.8231106478
 31
0.0
  0
LINE
  5
96
330
1F
100
AcDbEntity
  8
0
  6
Continuous
 62
     7
370
    15
100
AcDbLine
 10
207.7970778794
 20
255.1463109431
 30
0.0
 11
209.8437739623
 21
252.4302535049
 31
0.0
  0
LINE
  5
97
330
1F
100
AcDbEntity
  8
0
  6
Continuous
 62
     7
370
    15
100
AcDbLine
 10
210.2723453909
 20
258.5373963621
 30
0.0
 11
210.2723453909
 21
256.8231106478
 31
0.0
  0
ARC
  5
98
330
1F
100
AcDbEntity
  8
0
  6
Continuous
 62
     7
370
    15
100
AcDbCircle
 10
207.2361252878
 20
257.7873963621
 30
0.0
 40
2.69999999999998
100
AcDbArc
 50
281.9911275691
 51
339.0751675724
  0
LINE
  5
99
330
1F
100
AcDbEntity
  8
0
  6
Continuous
 62
     7
370
    15
100
AcDbLine
 10
207.3160615915
 20
258.5373963621
 30
0.0
 11
206.4092966579
 21
256.31025442
 31
0.0
  0
LINE
  5
9A
330
1F
100
AcDbEntity
  8
0
  6
Continuous
 62
     7
370
    15
100
AcDbLine
 10
192.2723453909
 20
256.8231106478
 30
0.0
 11
192.2723453909
 21
258.5373963621
 31
0.0
  0
LINE
  5
9B
330
1F
100
AcDbEntity
  8
0
  6
Continuous
 62
     7
370
    15
100
AcDbLine
 10
193.9586052591
 20
256.8231106478
 30
0.0
 11
192.2723453909
 21
256.8231106478
 31
0.0
  0
LINE
  5
9C
330
1F
100
AcDbEntity
  8
0
  6
Continuous
 62
     7
370
    15
100
AcDbLine
 10
192.2723453909
 20
258.5373963621
 30
0.0
 11
197.1489636471
 21
258.5373963621
 31
0.0
  0
LINE
  5
9D
330
1F
100
AcDbEntity
  8
0
  6
Continuous
 62
     7
370
    15
100
AcDbLine
 10
197.1489636471
 20
258.5373963621
 30
0.0
 11
199.6354432389
 21
252.4302535049
 31
0.0
  0
LINE
  5
9E
330
1F
100
AcDbEntity
  8
0
  6
Continuous
 62
     7
370
    15
100
AcDbLine
 10
199.6354432389
 20
252.4302535049
 30
0.0
 11
197.7151087822
 21
252.4302535049
 31
0.0
  0
LINE
  5
9F
330
1F
100
AcDbEntity
  8
0
  6
Continuous
 62
     7
370
    15
100
AcDbLine
 10
197.7151087822
 20
252.4302535049
 30
0.0
 11
197.3312312311
 21
253.3731106478
 31
0.0
  0
LINE
  5
A0
330
1F
100
AcDbEntity
  8
0
  6
Continuous
 62
     7
370
    15
100
AcDbLine
 10
197.3312312311
 20
253.3731106478
 30
0.0
 11
194.5393822198
 21
253.3731106478
 31
0.0
  0
LINE
  5
A1
330
1F
100
AcDbEntity
  8
0
  6
Continuous
 62
     7
370
    15
100
AcDbLine
 10
194.5393822198
 20
253.3731106478
 30
0.0
 11
194.1774532724
 21
252.4302535049
 31
0.0
  0
LINE
  5
A2
330
1F
100
AcDbEntity
  8
0
  6
Continuous
 62
     7
370
    15
100
AcDbLine
 10
194.1774532724
 20
252.4302535049
 30
0.0
 11
192.2723453909
 21
252.4302535049
 31
0.0
  0
LINE
  5
A3
330
1F
100
AcDbEntity
  8
0
  6
Continuous
 62
     7
370
    15
100
AcDbLine
 10
192.2723453909
 20
252.4302535049
 30
0.0
 11
193.9586052591
 21
256.8231106478
 31
0.0
  0
CIRCLE
  5
A4
330
1F
100
AcDbEntity
  8
0
  6
Continuous
 62
     7
370
    15
100
AcDbCircle
 10
181.2723453909
 20
202.5016820763
 30
0.0
 40
9.000000000000028
  0
CIRCLE
  5
A5
330
1F
100
AcDbEntity
  8
0
  6
Continuous
 62
     7
370
    15
100
AcDbCircle
 10
181.2723453909
 20
202.5016820763
 30
0.0
 40
4.000000000000028
  0
SPLINE
  5
A6
330
1F
100
AcDbEntity
  8
0
  6
Continuous
 62
     7
370
    15
100
AcDbSpline
210
0.0
220
0.0
230
1.0
 70
     8
 71
     3
 72
    12
 73
     8
 74
     0
 42
0.00000001
 43
0.00000001
 12
1.0
 22
0.0
 32
0.0
 13
1.0
 23
0.0
 33
0.0
 40
0.0
 40
0.0
 40
0.0
 40
0.0
 40
0.5000000000000004
 40
0.5000000000000004
 40
0.7500000000000002
 40
0.7500000000000002
 40
1.0
 40
1.0
 40
1.0
 40
1.0
 10
177.8291996403908
 20
211.0211352676936
 30
0.0
 10
177.3450205077386
 20
212.3534604441087
 30
0.0
 10
176.8538905639558
 20
213.659339015331
 30
0.0
 10
176.1353779519011
 20
215.5979129762682
 30
0.0
 10
175.8989333237675
 20
216.2408042646892
 30
0.0
 10
175.4383929196614
 20
217.5258842419255
 30
0.0
 10
175.2141860819679
 20
218.1679530569803
 30
0.0
 10
175.0007725156446
 20
218.8147851181651
 30
0.0
  0
SPLINE
  5
A7
330
1F
100
AcDbEntity
  8
0
  6
Continuous
 62
     7
370
    15
100
AcDbSpline
210
0.0
220
0.0
230
1.0
 70
     8
 71
     3
 72
    14
 73
    10
 74
     0
 42
0.00000001
 43
0.00000001
 12
1.0
 22
0.0
 32
0.0
 13
1.0
 23
0.0
 33
0.0
 40
0.0
 40
0.0
 40
0.0
 40
0.0
 40
0.5
 40
0.5
 40
0.75
 40
0.75
 40
0.875
 40
0.875
 40
1.0
 40
1.0
 40
1.0
 40
1.0
 10
175.0007725156446
 20
218.8147851181651
 30
0.0
 10
174.4813177040337
 20
220.3891931198459
 30
0.0
 10
173.9366466716164
 20
221.8640213968474
 30
0.0
 10
173.1288330243828
 20
223.9156370297367
 30
0.0
 10
172.8610500321191
 20
224.5724340921373
 30
0.0
 10
172.4681360473964
 20
225.5115176546102
 30
0.0
 10
172.338445240216
 20
225.8172477445496
 30
0.0
 10
172.0860759054256
 20
226.4053723699088
 30
0.0
 10
171.9630699406241
 20
226.6885614231186
 30
0.0
 10
171.8439182661523
 20
226.9601856671142
 30
0.0
  0
SPLINE
  5
A8
330
1F
100
AcDbEntity
  8
0
  6
Continuous
 62
     7
370
    15
100
AcDbSpline
210
0.0
220
0.0
230
1.0
 70
     8
 71
     3
 72
    12
 73
     8
 74
     0
 42
0.00000001
 43
0.00000001
 12
1.0
 22
0.0
 32
0.0
 13
1.0
 23
0.0
 33
0.0
 40
0.0
 40
0.0
 40
0.0
 40
0.0
 40
0.5000000000000002
 40
0.5000000000000002
 40
0.7500000000000001
 40
0.7500000000000001
 40
1.0
 40
1.0
 40
1.0
 40
1.0
 10
171.8439182661523
 20
226.9601856671142
 30
0.0
 10
171.5448816511813
 20
227.6418848109036
 30
0.0
 10
171.2641317429162
 20
228.1703163334529
 30
0.0
 10
170.9076750570502
 20
228.7978344856454
 30
0.0
 10
170.7996590791492
 20
228.9781934188718
 30
0.0
 10
170.6135252242037
 20
229.2803130797772
 30
0.0
 10
170.5345780568815
 20
229.4034932645521
 30
0.0
 10
170.4705597283755
 20
229.501735401271
 30
0.0
  0
LINE
  5
A9
330
1F
100
AcDbEntity
  8
0
  6
Continuous
 62
     7
370
    15
100
AcDbLine
 10
170.4705597284
 20
229.5017354013
 30
0.0
 11
170.4705597284
 21
248.4328312506
 31
0.0
  0
SPLINE
  5
AA
330
1F
100
AcDbEntity
  8
0
  6
Continuous
 62
     7
370
    15
100
AcDbSpline
210
0.0
220
0.0
230
1.0
 70
     8
 71
     3
 72
     8
 73
     4
 74
     0
 42
0.00000001
 43
0.00000001
 12
1.0
 22
0.0
 32
0.0
 13
1.0
 23
0.0
 33
0.0
 40
0.0
 40
0.0
 40
0.0
 40
0.0
 40
1.0
 40
1.0
 40
1.0
 40
1.0
 10
171.3701851665796
 20
248.3541242233718
 30
0.0
 10
171.4531675878916
 20
254.7394959093764
 30
0.0
 10
171.5392625229401
 20
261.1251373441834
 30
0.0
 10
171.6284696769597
 20
267.5109760656916
 30
0.0
  0
LINE
  5
AB
330
1F
100
AcDbEntity
  8
0
  6
Continuous
 62
     7
370
    15
100
AcDbLine
 10
187.9682106952
 20
221.9976319748
 30
0.0
 11
187.9682106952
 21
267.5109760657
 31
0.0
  0
ELLIPSE
  5
AC
330
1F
100
AcDbEntity
  8
0
  6
Continuous
 62
     7
370
    15
100
AcDbEllipse
 10
201.2723453909
 20
117.5002093629
 30
0.0
 11
0.0
 21
115.693575034635
 31
0.0
210
0.0
220
0.0
230
1.0
 40
0.2679491924
 41
0.443568813115773
 42
0.6252255385289305
  0
SPLINE
  5
AD
330
1F
100
AcDbEntity
  8
0
  6
Continuous
 62
     7
370
    15
100
AcDbSpline
210
0.0
220
0.0
230
1.0
 70
     8
 71
     3
 72
     9
 73
     5
 74
     0
 42
0.00000001
 43
0.00000001
 12
1.0
 22
0.0
 32
0.0
 13
1.0
 23
0.0
 33
0.0
 40
0.0
 40
0.0
 40
0.0
 40
0.0
 40
0.5
 40
1.0
 40
1.0
 40
1.0
 40
1.0
 10
177.8932572306388
 20
210.8432504663558
 30
0.0
 10
177.8826457250195
 20
210.8729915550561
 30
0.0
 10
177.8613572258322
 20
210.9323796612994
 30
0.0
 10
177.8399399395881
 20
210.9915809766105
 30
0.0
 10
177.8291996403908
 20
211.0211352676936
 30
0.0
  0
LINE
  5
AE
330
1F
100
AcDbEntity
  8
0
  6
Continuous
 62
     7
370
    15
100
AcDbLine
 10
214.5764800865
 20
221.9976319748
 30
0.0
 11
214.5764800865
 21
267.5109760657
 31
0.0
  0
LINE
  5
AF
330
1F
100
AcDbEntity
  8
0
  6
Continuous
 62
     7
370
    15
100
AcDbLine
 10
214.5764800865
 20
221.9976319748
 30
0.0
 11
187.9682106952
 21
221.9976319748
 31
0.0
  0
ELLIPSE
  5
B0
330
1F
100
AcDbEntity
  8
0
  6
Continuous
 62
     7
370
    15
100
AcDbEllipse
 10
201.2723453909
 20
117.5002093629
 30
0.0
 11
0.0
 21
115.693575034635
 31
0.0
210
0.0
220
0.0
230
1.0
 40
0.2679491924
 41
5.467673361597814
 42
5.839616494063855
  0
SPLINE
  5
B1
330
1F
100
AcDbEntity
  8
0
  6
Continuous
 62
     7
370
    15
100
AcDbSpline
210
0.0
220
0.0
230
1.0
 70
     8
 71
     3
 72
    12
 73
     8
 74
     0
 42
0.00000001
 43
0.00000001
 12
1.0
 22
0.0
 32
0.0
 13
1.0
 23
0.0
 33
0.0
 40
0.0
 40
0.0
 40
0.0
 40
0.0
 40
0.5000000000000002
 40
0.5000000000000002
 40
0.7500000000000001
 40
0.7500000000000001
 40
1.0
 40
1.0
 40
1.0
 40
1.0
 10
230.7007725156446
 20
226.9601856671142
 30
0.0
 10
230.9998091306156
 20
227.6418848109036
 30
0.0
 10
231.2805590388807
 20
228.1703163334529
 30
0.0
 10
231.6370157247467
 20
228.7978344856454
 30
0.0
 10
231.7450317026477
 20
228.9781934188718
 30
0.0
 10
231.9311655575932
 20
229.2803130797772
 30
0.0
 10
232.0101127249154
 20
229.4034932645521
 30
0.0
 10
232.0741310534214
 20
229.501735401271
 30
0.0
  0
SPLINE
  5
B2
330
1F
100
AcDbEntity
  8
0
  6
Continuous
 62
     7
370
    15
100
AcDbSpline
210
0.0
220
0.0
230
1.0
 70
     8
 71
     3
 72
    14
 73
    10
 74
     0
 42
0.00000001
 43
0.00000001
 12
1.0
 22
0.0
 32
0.0
 13
1.0
 23
0.0
 33
0.0
 40
0.0
 40
0.0
 40
0.0
 40
0.0
 40
0.5
 40
0.5
 40
0.75
 40
0.75
 40
0.875
 40
0.875
 40
1.0
 40
1.0
 40
1.0
 40
1.0
 10
227.5439182661523
 20
218.8147851181651
 30
0.0
 10
228.0633730777632
 20
220.3891931198459
 30
0.0
 10
228.6080441101805
 20
221.8640213968474
 30
0.0
 10
229.4158577574141
 20
223.9156370297367
 30
0.0
 10
229.6836407496778
 20
224.5724340921373
 30
0.0
 10
230.0765547344005
 20
225.5115176546102
 30
0.0
 10
230.2062455415809
 20
225.8172477445496
 30
0.0
 10
230.4586148763712
 20
226.4053723699088
 30
0.0
 10
230.5816208411728
 20
226.6885614231186
 30
0.0
 10
230.7007725156446
 20
226.9601856671142
 30
0.0
  0
SPLINE
  5
B3
330
1F
100
AcDbEntity
  8
0
  6
Continuous
 62
     7
370
    15
100
AcDbSpline
210
0.0
220
0.0
230
1.0
 70
     8
 71
     3
 72
    12
 73
     8
 74
     0
 42
0.00000001
 43
0.00000001
 12
1.0
 22
0.0
 32
0.0
 13
1.0
 23
0.0
 33
0.0
 40
0.0
 40
0.0
 40
0.0
 40
0.0
 40
0.5000000000000004
 40
0.5000000000000004
 40
0.7500000000000002
 40
0.7500000000000002
 40
1.0
 40
1.0
 40
1.0
 40
1.0
 10
224.7154911414061
 20
211.0211352676936
 30
0.0
 10
225.1996702740583
 20
212.3534604441087
 30
0.0
 10
225.6908002178411
 20
213.659339015331
 30
0.0
 10
226.4093128298958
 20
215.5979129762682
 30
0.0
 10
226.6457574580294
 20
216.2408042646892
 30
0.0
 10
227.1062978621354
 20
217.5258842419255
 30
0.0
 10
227.330504699829
 20
218.1679530569803
 30
0.0
 10
227.5439182661523
 20
218.8147851181651
 30
0.0
  0
SPLINE
  5
B4
330
1F
100
AcDbEntity
  8
0
  6
Continuous
 62
     7
370
    15
100
AcDbSpline
210
0.0
220
0.0
230
1.0
 70
     8
 71
     3
 72
    22
 73
    18
 74
     0
 42
0.00000001
 43
0.00000001
 12
1.0
 22
0.0
 32
0.0
 13
1.0
 23
0.0
 33
0.0
 40
0.0
 40
0.0
 40
0.0
 40
0.0
 40
0.1250000000000001
 40
0.1250000000000001
 40
0.1875000000000001
 40
0.1875000000000001
 40
0.2500000000000001
 40
0.2500000000000001
 40
0.5000000000000001
 40
0.5000000000000001
 40
0.6250000000000001
 40
0.6250000000000001
 40
0.75
 40
0.75
 40
0.875
 40
0.875
 40
1.0
 40
1.0
 40
1.0
 40
1.0
 10
223.8427209368251
 20
196.8076630840916
 30
0.0
 10
223.6976640315649
 20
197.3826504228599
 30
0.0
 10
223.5701610994234
 20
197.9694251967986
 30
0.0
 10
223.4106705319166
 20
198.8695158064534
 30
0.0
 10
223.3628887580418
 20
199.1727338032003
 30
0.0
 10
223.2798430987199
 20
199.7777610588778
 30
0.0
 10
223.244389112283
 20
200.0805801115361
 30
0.0
 10
223.0980963931494
 20
201.5962111019452
 30
0.0
 10
223.080835875791
 20
202.8136296539693
 30
0.0
 10
223.2093451581189
 20
204.6473107260477
 30
0.0
 10
223.278536525455
 20
205.2635215507601
 30
0.0
 10
223.4622126244774
 20
206.4697441821684
 30
0.0
 10
223.5765002770068
 20
207.0620316433194
 30
0.0
 10
223.8435171817839
 20
208.2269994477368
 30
0.0
 10
223.9962442102324
 20
208.7996787301509
 30
0.0
 10
224.3341440850279
 20
209.92702673559
 30
0.0
 10
224.5199230378845
 20
210.4829866973529
 30
0.0
 10
224.7154911414061
 20
211.0211352676936
 30
0.0
  0
SPLINE
  5
B5
330
1F
100
AcDbEntity
  8
0
  6
Continuous
 62
     7
370
    15
100
AcDbSpline
210
0.0
220
0.0
230
1.0
 70
     8
 71
     3
 72
     8
 73
     4
 74
     0
 42
0.00000001
 43
0.00000001
 12
1.0
 22
0.0
 32
0.0
 13
1.0
 23
0.0
 33
0.0
 40
0.0
 40
0.0
 40
0.0
 40
0.0
 40
1.0
 40
1.0
 40
1.0
 40
1.0
 10
231.1745056152173
 20
248.3541242233718
 30
0.0
 10
231.0915231939053
 20
254.7394959093764
 30
0.0
 10
231.0054282588568
 20
261.1251373441834
 30
0.0
 10
230.9162211048372
 20
267.5109760656916
 30
0.0
  0
LINE
  5
B6
330
1F
100
AcDbEntity
  8
0
  6
Continuous
 62
     7
370
    15
100
AcDbLine
 10
232.0741310534
 20
229.5017354013
 30
0.0
 11
232.0741310534
 21
248.4328312506
 31
0.0
  0
LINE
  5
B7
330
1F
100
AcDbEntity
  8
0
  6
Continuous
 62
     7
370
    15
100
AcDbLine
 10
163.2723453909
 20
175.1658082107
 30
0.0
 11
169.0154911414
 21
175.1658082107
 31
0.0
  0
LINE
  5
B8
330
1F
100
AcDbEntity
  8
0
  6
Continuous
 62
     7
370
    15
100
AcDbLine
 10
163.2723453909
 20
188.7516820763
 30
0.0
 11
163.2723453909
 21
175.1658082107
 31
0.0
  0
LINE
  5
B9
330
1F
100
AcDbEntity
  8
0
  6
Continuous
 62
     7
370
    15
100
AcDbLine
 10
163.2723453909
 20
229.7780454703
 30
0.0
 11
163.2723453909
 21
216.2516820763
 31
0.0
  0
LINE
  5
BA
330
1F
100
AcDbEntity
  8
0
  6
Continuous
 62
     7
370
    15
100
AcDbLine
 10
163.2723453909
 20
229.7780454703
 30
0.0
 11
169.0154911414
 21
229.7780454703
 31
0.0
  0
LINE
  5
BB
330
1F
100
AcDbEntity
  8
0
  6
Continuous
 62
     7
370
    15
100
AcDbLine
 10
239.2723453909
 20
229.7780454703
 30
0.0
 11
239.2723453909
 21
216.2516820763
 31
0.0
  0
LINE
  5
BC
330
1F
100
AcDbEntity
  8
0
  6
Continuous
 62
     7
370
    15
100
AcDbLine
 10
239.2723453909
 20
188.7516820763
 30
0.0
 11
239.2723453909
 21
175.1658082107
 31
0.0
  0
LINE
  5
BD
330
1F
100
AcDbEntity
  8
0
  6
Continuous
 62
     7
370
    15
100
AcDbLine
 10
239.2723453909
 20
175.1658082107
 30
0.0
 11
233.5291996404
 21
175.1658082107
 31
0.0
  0
LINE
  5
BE
330
1F
100
AcDbEntity
  8
0
  6
Continuous
 62
     7
370
    15
100
AcDbLine
 10
239.2723453909
 20
229.7780454703
 30
0.0
 11
233.5291996404
 21
229.7780454703
 31
0.0
  0
SPLINE
  5
BF
330
1F
100
AcDbEntity
  8
0
  6
Continuous
 62
     7
370
    15
100
AcDbSpline
210
0.0
220
0.0
230
1.0
 70
     8
 71
     3
 72
    14
 73
    10
 74
     0
 42
0.00000001
 43
0.00000001
 12
1.0
 22
0.0
 32
0.0
 13
1.0
 23
0.0
 33
0.0
 40
0.0
 40
0.0
 40
0.0
 40
0.0
 40
0.25
 40
0.25
 40
0.5
 40
0.5
 40
0.75
 40
0.75
 40
1.0
 40
1.0
 40
1.0
 40
1.0
 10
169.015491141406
 20
175.1658082106738
 30
0.0
 10
169.2791113073342
 20
175.1658082106738
 30
0.0
 10
169.5387743989451
 20
175.191770407359
 30
0.0
 10
170.0504347055114
 20
175.2939902921811
 30
0.0
 10
170.3045887077884
 20
175.3713470377399
 30
0.0
 10
170.7901446668913
 20
175.5738828229246
 30
0.0
 10
171.0242271923185
 20
175.7001450279302
 30
0.0
 10
171.4586889853979
 20
175.9929776242608
 30
0.0
 10
171.6594732543614
 20
176.1590771095314
 30
0.0
 10
171.8439182661524
 20
176.3447312819012
 30
0.0
  0
SPLINE
  5
C0
330
1F
100
AcDbEntity
  8
0
  6
Continuous
 62
     7
370
    15
100
AcDbSpline
210
0.0
220
0.0
230
1.0
 70
     8
 71
     3
 72
    10
 73
     6
 74
     0
 42
0.00000001
 43
0.00000001
 12
1.0
 22
0.0
 32
0.0
 13
1.0
 23
0.0
 33
0.0
 40
0.0
 40
0.0
 40
0.0
 40
0.0
 40
0.5
 40
0.5
 40
1.0
 40
1.0
 40
1.0
 40
1.0
 10
169.0154911414061
 20
229.7780454703188
 30
0.0
 10
169.2643151950369
 20
229.7780454703188
 30
0.0
 10
169.5144799764466
 20
229.7542868336512
 30
0.0
 10
169.9999488123852
 20
229.6619222455552
 30
0.0
 10
170.2377887706413
 20
229.5933981094642
 30
0.0
 10
170.4705597283756
 20
229.501735401271
 30
0.0
  0
SPLINE
  5
C1
330
1F
100
AcDbEntity
  8
0
  6
Continuous
 62
     7
370
    15
100
AcDbSpline
210
0.0
220
0.0
230
1.0
 70
     8
 71
     3
 72
    14
 73
    10
 74
     0
 42
0.00000001
 43
0.00000001
 12
1.0
 22
0.0
 32
0.0
 13
1.0
 23
0.0
 33
0.0
 40
0.0
 40
0.0
 40
0.0
 40
0.0
 40
0.25
 40
0.25
 40
0.5
 40
0.5
 40
0.75
 40
0.75
 40
1.0
 40
1.0
 40
1.0
 40
1.0
 10
233.5291996403909
 20
175.1658082106738
 30
0.0
 10
233.2655794744627
 20
175.1658082106738
 30
0.0
 10
233.0059163828518
 20
175.191770407359
 30
0.0
 10
232.4942560762855
 20
175.2939902921811
 30
0.0
 10
232.2401020740085
 20
175.3713470377399
 30
0.0
 10
231.7545461149056
 20
175.5738828229246
 30
0.0
 10
231.5204635894784
 20
175.7001450279302
 30
0.0
 10
231.086001796399
 20
175.9929776242608
 30
0.0
 10
230.8852175274354
 20
176.1590771095314
 30
0.0
 10
230.7007725156445
 20
176.3447312819012
 30
0.0
  0
SPLINE
  5
C2
330
1F
100
AcDbEntity
  8
0
  6
Continuous
 62
     7
370
    15
100
AcDbSpline
210
0.0
220
0.0
230
1.0
 70
     8
 71
     3
 72
    10
 73
     6
 74
     0
 42
0.00000001
 43
0.00000001
 12
1.0
 22
0.0
 32
0.0
 13
1.0
 23
0.0
 33
0.0
 40
0.0
 40
0.0
 40
0.0
 40
0.0
 40
0.5
 40
0.5
 40
1.0
 40
1.0
 40
1.0
 40
1.0
 10
233.5291996403908
 20
229.7780454703188
 30
0.0
 10
233.28037558676
 20
229.7780454703188
 30
0.0
 10
233.0302108053503
 20
229.7542868336512
 30
0.0
 10
232.5447419694117
 20
229.6619222455552
 30
0.0
 10
232.3069020111556
 20
229.5933981094642
 30
0.0
 10
232.0741310534213
 20
229.501735401271
 30
0.0
  0
ELLIPSE
  5
C3
330
1F
100
AcDbEntity
  8
0
  6
Continuous
 62
     7
370
    15
100
AcDbEllipse
 10
201.2723453909
 20
756.3574232892
 30
0.0
 11
0.0
 21
1040.635515843946
 31
0.0
210
0.0
220
0.0
230
1.0
 40
0.0261859216
 41
4.259802016859977
 42
4.263759701715689
  0
ELLIPSE
  5
C4
330
1F
100
AcDbEntity
  8
0
  6
Continuous
 62
     7
370
    15
100
AcDbEllipse
 10
201.2723453909
 20
756.3574232892
 30
0.0
 11
0.0
 21
1040.635515843946
 31
0.0
210
0.0
220
0.0
230
1.0
 40
0.0261859216
 41
2.019425605463998
 42
2.023383290319712
  0
LINE
  5
C5
330
1F
100
AcDbEntity
  8
0
  6
Continuous
 62
     7
370
    15
100
AcDbLine
 10
228.5223453909
 20
320.0016820763
 30
0.0
 11
174.0223453909
 21
320.0016820763
 31
0.0
  0
LINE
  5
C6
330
1F
100
AcDbEntity
  8
0
  6
Continuous
 62
     7
370
    15
100
AcDbLine
 10
239.4354977781
 20
175.0016820763
 30
0.0
 11
239.2723453909
 21
175.1658082107
 31
0.0
  0
SPLINE
  5
C7
330
1F
100
AcDbEntity
  8
0
  6
Continuous
 62
     7
370
    15
100
AcDbSpline
210
0.0
220
0.0
230
1.0
 70
    24
 71
     3
 72
    14
 73
    10
 74
     0
 42
0.00000001
 43
0.00000001
 12
1.0
 22
0.0
 32
0.0
 13
1.0
 23
0.0
 33
0.0
 40
0.0
 40
0.0
 40
0.0
 40
0.0
 40
0.1249999999999999
 40
0.1249999999999999
 40
0.2499999999999998
 40
0.2499999999999998
 40
0.4999999999999999
 40
0.4999999999999999
 40
1.0
 40
1.0
 40
1.0
 40
1.0
 10
243.5266101963278
 20
175.0016820763471
 30
0.0
 10
243.2731969143708
 20
175.0016820763471
 30
0.0
 10
243.0266174269705
 20
175.0016820763471
 30
0.0
 10
242.548979292869
 20
175.0016820763471
 30
0.0
 10
242.3175254923983
 20
175.0016820763471
 30
0.0
 10
241.6542022826491
 20
175.0016820763471
 30
0.0
 10
241.252373001951
 20
175.0016820763471
 30
0.0
 10
240.1926878521319
 20
175.0016820763471
 30
0.0
 10
239.6806828914983
 20
175.0016820763471
 30
0.0
 10
239.4354977781445
 20
175.0016820763471
 30
0.0
  0
LINE
  5
C8
330
1F
100
AcDbEntity
  8
0
  6
Continuous
 62
     7
370
    15
100
AcDbLine
 10
163.1091930037
 20
175.0016820763
 30
0.0
 11
163.2723453909
 21
175.1658082107
 31
0.0
  0
SPLINE
  5
C9
330
1F
100
AcDbEntity
  8
0
  6
Continuous
 62
     7
370
    15
100
AcDbSpline
210
0.0
220
0.0
230
1.0
 70
    24
 71
     3
 72
    14
 73
    10
 74
     0
 42
0.00000001
 43
0.00000001
 12
1.0
 22
0.0
 32
0.0
 13
1.0
 23
0.0
 33
0.0
 40
0.0
 40
0.0
 40
0.0
 40
0.0
 40
0.1249999999999999
 40
0.1249999999999999
 40
0.2499999999999998
 40
0.2499999999999998
 40
0.4999999999999999
 40
0.4999999999999999
 40
1.0
 40
1.0
 40
1.0
 40
1.0
 10
159.0180805854691
 20
175.0016820763471
 30
0.0
 10
159.2714938674261
 20
175.0016820763471
 30
0.0
 10
159.5180733548264
 20
175.0016820763471
 30
0.0
 10
159.9957114889279
 20
175.0016820763471
 30
0.0
 10
160.2271652893986
 20
175.0016820763471
 30
0.0
 10
160.8904884991478
 20
175.0016820763471
 30
0.0
 10
161.2923177798459
 20
175.0016820763471
 30
0.0
 10
162.352002929665
 20
175.0016820763471
 30
0.0
 10
162.8640078902986
 20
175.0016820763471
 30
0.0
 10
163.1091930036523
 20
175.0016820763471
 30
0.0
  0
LINE
  5
CA
330
1F
100
AcDbEntity
  8
0
  6
Continuous
 62
     7
370
    15
100
AcDbLine
 10
204.7723453909
 20
320.0016820763
 30
0.0
 11
204.7723453909
 21
339.0016820763
 31
0.0
  0
LINE
  5
CB
330
1F
100
AcDbEntity
  8
0
  6
Continuous
 62
     7
370
    15
100
AcDbLine
 10
197.7723453909
 20
320.0016820763
 30
0.0
 11
197.7723453909
 21
339.0016820763
 31
0.0
  0
LINE
  5
CC
330
1F
100
AcDbEntity
  8
0
  6
Continuous
 62
     7
370
    15
100
AcDbLine
 10
197.7723453909
 20
339.0016820763
 30
0.0
 11
204.7723453909
 21
339.0016820763
 31
0.0
  0
LINE
  5
CD
330
1F
100
AcDbEntity
  8
0
  6
Continuous
 62
     7
370
    15
100
AcDbLine
 10
197.7723453909
 20
351.0016820763
 30
0.0
 11
204.7723453909
 21
351.0016820763
 31
0.0
  0
SPLINE
  5
CE
330
1F
100
AcDbEntity
  8
0
  6
Continuous
 62
     7
370
    15
100
AcDbSpline
210
0.0
220
0.0
230
1.0
 70
    24
 71
     3
 72
     8
 73
     4
 74
     0
 42
0.00000001
 43
0.00000001
 12
1.0
 22
0.0
 32
0.0
 13
1.0
 23
0.0
 33
0.0
 40
0.0
 40
0.0
 40
0.0
 40
0.0
 40
0.00426344474639
 40
0.00426344474639
 40
0.00426344474639
 40
0.00426344474639
 10
204.7723453908982
 20
351.0016820763471
 30
0.0
 10
204.7723453908982
 20
350.002309616016
 30
0.0
 10
204.7723453908982
 20
349.0022382684464
 30
0.0
 10
204.7723453908982
 20
348.0016820763471
 30
0.0
  0
LINE
  5
CF
330
1F
100
AcDbEntity
  8
0
  6
Continuous
 62
     7
370
    15
100
AcDbLine
 10
204.7723453909
 20
348.0016820763
 30
0.0
 11
197.7723453909
 21
348.0016820763
 31
0.0
  0
SPLINE
  5
D0
330
1F
100
AcDbEntity
  8
0
  6
Continuous
 62
     7
370
    15
100
AcDbSpline
210
0.0
220
0.0
230
1.0
 70
    24
 71
     3
 72
     8
 73
     4
 74
     0
 42
0.00000001
 43
0.00000001
 12
1.0
 22
0.0
 32
0.0
 13
1.0
 23
0.0
 33
0.0
 40
0.0
 40
0.0
 40
0.0
 40
0.0
 40
0.00426344474639
 40
0.00426344474639
 40
0.00426344474639
 40
0.00426344474639
 10
197.7723453908982
 20
348.0016820763471
 30
0.0
 10
197.7723453908982
 20
349.0022382684464
 30
0.0
 10
197.7723453908982
 20
350.002309616016
 30
0.0
 10
197.7723453908982
 20
351.0016820763471
 30
0.0
  0
LINE
  5
D1
330
1F
100
AcDbEntity
  8
0
  6
Continuous
 62
     7
370
    15
100
AcDbLine
 10
197.7723453909
 20
345.0016820763
 30
0.0
 11
197.7723453909
 21
348.0016820763
 31
0.0
  0
LINE
  5
D2
330
1F
100
AcDbEntity
  8
0
  6
Continuous
 62
     7
370
    15
100
AcDbLine
 10
204.7723453909
 20
345.0016820763
 30
0.0
 11
204.7723453909
 21
348.0016820763
 31
0.0
  0
LINE
  5
D3
330
1F
100
AcDbEntity
  8
0
  6
Continuous
 62
     7
370
    15
100
AcDbLine
 10
204.7723453909
 20
345.0016820763
 30
0.0
 11
197.7723453909
 21
345.0016820763
 31
0.0
  0
SPLINE
  5
D4
330
1F
100
AcDbEntity
  8
0
  6
Continuous
 62
     7
370
    15
100
AcDbSpline
210
0.0
220
0.0
230
1.0
 70
     8
 71
     3
 72
     8
 73
     4
 74
     0
 42
0.00000001
 43
0.00000001
 12
1.0
 22
0.0
 32
0.0
 13
1.0
 23
0.0
 33
0.0
 40
0.0
 40
0.0
 40
0.0
 40
0.0
 40
1.0
 40
1.0
 40
1.0
 40
1.0
 10
171.8439182661523
 20
176.3447312819011
 30
0.0
 10
172.8966787110884
 20
177.4043932766089
 30
0.0
 10
173.9490334135105
 20
178.4644671614631
 30
0.0
 10
175.0007725156446
 20
179.5251333904979
 30
0.0
  0
SPLINE
  5
D5
330
1F
100
AcDbEntity
  8
0
  6
Continuous
 62
     7
370
    15
100
AcDbSpline
210
0.0
220
0.0
230
1.0
 70
     8
 71
     3
 72
     8
 73
     4
 74
     0
 42
0.00000001
 43
0.00000001
 12
1.0
 22
0.0
 32
0.0
 13
1.0
 23
0.0
 33
0.0
 40
0.0
 40
0.0
 40
0.0
 40
0.0
 40
1.0
 40
1.0
 40
1.0
 40
1.0
 10
230.7007725156446
 20
176.3447312819011
 30
0.0
 10
229.6480120707085
 20
177.4043932766089
 30
0.0
 10
228.5956573682864
 20
178.4644671614631
 30
0.0
 10
227.5439182661523
 20
179.5251333904979
 30
0.0
  0
SPLINE
  5
D6
330
1F
100
AcDbEntity
  8
0
  6
Continuous
 62
     7
370
    15
100
AcDbSpline
210
0.0
220
0.0
230
1.0
 70
    24
 71
     3
 72
    14
 73
    10
 74
     0
 42
0.00000001
 43
0.00000001
 12
1.0
 22
0.0
 32
0.0
 13
1.0
 23
0.0
 33
0.0
 40
0.0
 40
0.0
 40
0.0
 40
0.0
 40
0.1249999999999997
 40
0.1249999999999997
 40
0.2499999999999994
 40
0.2499999999999994
 40
0.4999999999999996
 40
0.4999999999999996
 40
1.0
 40
1.0
 40
1.0
 40
1.0
 10
243.5266101963278
 20
230.0016820763471
 30
0.0
 10
243.2825580378498
 20
230.0016820763471
 30
0.0
 10
243.0448449348416
 20
230.0016820763471
 30
0.0
 10
242.5837473884172
 20
230.0016820763471
 30
0.0
 10
242.359964315512
 20
230.0016820763471
 30
0.0
 10
241.7168400528199
 20
230.0016820763471
 30
0.0
 10
241.3252901372634
 20
230.0016820763471
 30
0.0
 10
240.2841040921523
 20
230.0016820763471
 30
0.0
 10
239.7678744705146
 20
230.0016820763471
 30
0.0
 10
239.4941779421564
 20
230.0016820763471
 30
0.0
  0
LWPOLYLINE
  5
D7
330
1F
100
AcDbEntity
  8
0
  6
Continuous
 62
     7
370
    15
100
AcDbPolyline
 90
        3
 70
   128
 43
0.0
 10
239.4941779422
 20
230.0016820763
 10
239.397857667
 20
229.9045820783
 10
239.2723453909
 20
229.7780454703
  0
SPLINE
  5
D8
330
1F
100
AcDbEntity
  8
0
  6
Continuous
 62
     7
370
    15
100
AcDbSpline
210
0.0
220
0.0
230
1.0
 70
    24
 71
     3
 72
    14
 73
    10
 74
     0
 42
0.00000001
 43
0.00000001
 12
1.0
 22
0.0
 32
0.0
 13
1.0
 23
0.0
 33
0.0
 40
0.0
 40
0.0
 40
0.0
 40
0.0
 40
0.1249999999999997
 40
0.1249999999999997
 40
0.2499999999999994
 40
0.2499999999999994
 40
0.4999999999999996
 40
0.4999999999999996
 40
1.0
 40
1.0
 40
1.0
 40
1.0
 10
159.0180805854691
 20
230.0016820763471
 30
0.0
 10
159.2621327439471
 20
230.0016820763471
 30
0.0
 10
159.4998458469553
 20
230.0016820763471
 30
0.0
 10
159.9609433933797
 20
230.0016820763471
 30
0.0
 10
160.1847264662848
 20
230.0016820763471
 30
0.0
 10
160.827850728977
 20
230.0016820763471
 30
0.0
 10
161.2194006445334
 20
230.0016820763471
 30
0.0
 10
162.2605866896446
 20
230.0016820763471
 30
0.0
 10
162.7768163112823
 20
230.0016820763471
 30
0.0
 10
163.0505128396405
 20
230.0016820763471
 30
0.0
  0
LWPOLYLINE
  5
D9
330
1F
100
AcDbEntity
  8
0
  6
Continuous
 62
     7
370
    15
100
AcDbPolyline
 90
        3
 70
   128
 43
0.0
 10
163.0505128396
 20
230.0016820763
 10
163.1468331148
 20
229.9045820783
 10
163.2723453909
 20
229.7780454703
  0
LINE
  5
DA
330
1F
100
AcDbEntity
  8
0
  6
Continuous
 62
     7
370
    15
100
AcDbLine
 10
220.2457051497
 20
328.7080783654
 30
0.0
 11
204.7723453909
 21
328.7080783654
 31
0.0
  0
LINE
  5
DB
330
1F
100
AcDbEntity
  8
0
  6
Continuous
 62
     7
370
    15
100
AcDbLine
 10
197.7723453909
 20
328.7080783654
 30
0.0
 11
182.298985632
 21
328.7080783654
 31
0.0
  0
LINE
  5
DC
330
1F
100
AcDbEntity
  8
0
  6
Continuous
 62
     7
370
    15
100
AcDbLine
 10
197.7723453909
 20
345.0016820763
 30
0.0
 11
197.7723453909
 21
339.0016820763
 31
0.0
  0
LINE
  5
DD
330
1F
100
AcDbEntity
  8
0
  6
Continuous
 62
     7
370
    15
100
AcDbLine
 10
204.7723453909
 20
339.0016820763
 30
0.0
 11
204.7723453909
 21
345.0016820763
 31
0.0
  0
SPLINE
  5
DE
330
1F
100
AcDbEntity
  8
0
  6
Continuous
 62
     7
370
    15
100
AcDbSpline
210
0.0
220
0.0
230
1.0
 70
     8
 71
     3
 72
    14
 73
    10
 74
     0
 42
0.00000001
 43
0.00000001
 12
1.0
 22
0.0
 32
0.0
 13
1.0
 23
0.0
 33
0.0
 40
0.0
 40
0.0
 40
0.0
 40
0.0
 40
0.25
 40
0.25
 40
0.5
 40
0.5
 40
0.75
 40
0.75
 40
1.0
 40
1.0
 40
1.0
 40
1.0
 10
227.5439182661523
 20
179.5251333904979
 30
0.0
 10
227.3599975551413
 20
179.7106152144536
 30
0.0
 10
227.159383830431
 20
179.877133089809
 30
0.0
 10
226.7240063166815
 20
180.1713729660123
 30
0.0
 10
226.4905875696132
 20
180.2976063184481
 30
0.0
 10
226.0049773664416
 20
180.5008391134399
 30
0.0
 10
225.7513173709296
 20
180.5783321990576
 30
0.0
 10
225.2398962971819
 20
180.680979041472
 30
0.0
 10
224.9799196318093
 20
180.7071873586438
 30
0.0
 10
224.7154911414061
 20
180.7071873586438
 30
0.0
  0
SPLINE
  5
DF
330
1F
100
AcDbEntity
  8
0
  6
Continuous
 62
     7
370
    15
100
AcDbSpline
210
0.0
220
0.0
230
1.0
 70
     8
 71
     3
 72
    14
 73
    10
 74
     0
 42
0.00000001
 43
0.00000001
 12
1.0
 22
0.0
 32
0.0
 13
1.0
 23
0.0
 33
0.0
 40
0.0
 40
0.0
 40
0.0
 40
0.0
 40
0.25
 40
0.25
 40
0.5
 40
0.5
 40
0.75
 40
0.75
 40
1.0
 40
1.0
 40
1.0
 40
1.0
 10
175.0007725156446
 20
179.5251333904979
 30
0.0
 10
175.1846932266555
 20
179.7106152144536
 30
0.0
 10
175.3853069513658
 20
179.877133089809
 30
0.0
 10
175.8206844651153
 20
180.1713729660123
 30
0.0
 10
176.0541032121837
 20
180.2976063184481
 30
0.0
 10
176.5397134153553
 20
180.5008391134399
 30
0.0
 10
176.7933734108672
 20
180.5783321990576
 30
0.0
 10
177.304794484615
 20
180.680979041472
 30
0.0
 10
177.5647711499876
 20
180.7071873586438
 30
0.0
 10
177.8291996403908
 20
180.7071873586438
 30
0.0
  0
LINE
  5
E0
330
1F
100
AcDbEntity
  8
0
  6
Continuous
 62
     7
370
    15
100
AcDbLine
 10
224.7154911414
 20
180.7071873586
 30
0.0
 11
177.8291996404
 21
180.7071873586
 31
0.0
  0
LINE
  5
E1
330
1F
100
AcDbEntity
  8
0
  6
Continuous
 62
     7
370
    15
100
AcDbLine
 10
219.2723453909
 20
351.0016820763
 30
0.0
 11
204.7723453909
 21
351.0016820763
 31
0.0
  0
LINE
  5
E2
330
1F
100
AcDbEntity
  8
0
  6
Continuous
 62
     7
370
    15
100
AcDbLine
 10
197.7723453909
 20
351.0016820763
 30
0.0
 11
183.2723453909
 21
351.0016820763
 31
0.0
  0
LINE
  5
E3
330
1F
100
AcDbEntity
  8
0
  6
Continuous
 62
     7
370
    15
100
AcDbLine
 10
163.7723453909
 20
305.0016820763
 30
0.0
 11
176.7189380074
 21
305.0016820763
 31
0.0
  0
LINE
  5
E4
330
1F
100
AcDbEntity
  8
0
  6
Continuous
 62
     7
370
    15
100
AcDbLine
 10
163.7723453909
 20
279.0016820763
 30
0.0
 11
166.4477850922
 21
279.0016820763
 31
0.0
  0
LINE
  5
E5
330
1F
100
AcDbEntity
  8
0
  6
Continuous
 62
     7
370
    15
100
AcDbLine
 10
225.8257527744
 20
305.0016820763
 30
0.0
 11
238.7723453909
 21
305.0016820763
 31
0.0
  0
LINE
  5
E6
330
1F
100
AcDbEntity
  8
0
  6
Continuous
 62
     7
370
    15
100
AcDbLine
 10
236.0969056896
 20
279.0016820763
 30
0.0
 11
238.7723453909
 21
279.0016820763
 31
0.0
  0
LINE
  5
E7
330
1F
100
AcDbEntity
  8
0
  6
Continuous
 62
     7
370
    15
100
AcDbLine
 10
151.7723453909
 20
279.0016820763
 30
0.0
 11
163.7723453909
 21
279.0016820763
 31
0.0
  0
LINE
  5
E8
330
1F
100
AcDbEntity
  8
0
  6
Continuous
 62
     7
370
    15
100
AcDbLine
 10
156.9067092492
 20
249.6195144013
 30
0.0
 11
171.3701851666
 21
248.3541242234
 31
0.0
  0
SPLINE
  5
E9
330
1F
100
AcDbEntity
  8
0
  6
Continuous
 62
     7
370
    15
100
AcDbSpline
210
0.0
220
0.0
230
1.0
 70
     8
 71
     3
 72
    16
 73
    12
 74
     0
 42
0.00000001
 43
0.00000001
 12
1.0
 22
0.0
 32
0.0
 13
1.0
 23
0.0
 33
0.0
 40
0.0
 40
0.0
 40
0.0
 40
0.0
 40
0.2499999999999998
 40
0.2499999999999998
 40
0.4999999999999997
 40
0.4999999999999997
 40
0.7499999999999996
 40
0.7499999999999996
 40
0.8749999999999998
 40
0.8749999999999998
 40
1.0
 40
1.0
 40
1.0
 40
1.0
 10
153.000297414075
 20
252.1214999455375
 30
0.0
 10
153.1734078946917
 20
251.8182799585361
 30
0.0
 10
153.3844161351374
 20
251.5233278629094
 30
0.0
 10
153.8772361660326
 20
250.9773295428645
 30
0.0
 10
154.1595096322873
 20
250.7243668127426
 30
0.0
 10
154.8068389019894
 20
250.273115766296
 30
0.0
 10
155.1750275146402
 20
250.0741296710551
 30
0.0
 10
155.7800195600765
 20
249.8460012344837
 30
0.0
 10
155.9910733159131
 20
249.7812292499813
 30
0.0
 10
156.4335221939853
 20
249.6785617814458
 30
0.0
 10
156.6665692437241
 20
249.6405239294608
 30
0.0
 10
156.9067092491685
 20
249.6195144013254
 30
0.0
  0
SPLINE
  5
EA
330
1F
100
AcDbEntity
  8
0
  6
Continuous
 62
     7
370
    15
100
AcDbSpline
210
0.0
220
0.0
230
1.0
 70
     8
 71
     3
 72
     8
 73
     4
 74
     0
 42
0.00000001
 43
0.00000001
 12
1.0
 22
0.0
 32
0.0
 13
1.0
 23
0.0
 33
0.0
 40
0.0
 40
0.0
 40
0.0
 40
0.0
 40
1.0
 40
1.0
 40
1.0
 40
1.0
 10
153.000297414075
 20
252.1214999455375
 30
0.0
 10
152.5889652459342
 20
261.081468567414
 30
0.0
 10
152.1798540316458
 20
270.041539004375
 30
0.0
 10
151.7723453908985
 20
279.0016820763472
 30
0.0
  0
LINE
  5
EB
330
1F
100
AcDbEntity
  8
0
  6
Continuous
 62
     7
370
    15
100
AcDbLine
 10
151.9531793517
 20
305.0016820763
 30
0.0
 11
163.7723453909
 21
305.0016820763
 31
0.0
  0
SPLINE
  5
EC
330
1F
100
AcDbEntity
  8
0
  6
Continuous
 62
     7
370
    15
100
AcDbSpline
210
0.0
220
0.0
230
1.0
 70
     8
 71
     3
 72
    16
 73
    12
 74
     0
 42
0.00000001
 43
0.00000001
 12
1.0
 22
0.0
 32
0.0
 13
1.0
 23
0.0
 33
0.0
 40
0.0
 40
0.0
 40
0.0
 40
0.0
 40
0.2499999999999998
 40
0.2499999999999998
 40
0.4999999999999997
 40
0.4999999999999997
 40
0.7499999999999996
 40
0.7499999999999996
 40
0.8749999999999998
 40
0.8749999999999998
 40
1.0
 40
1.0
 40
1.0
 40
1.0
 10
249.5443933677219
 20
252.1214999455375
 30
0.0
 10
249.3712828871052
 20
251.8182799585361
 30
0.0
 10
249.1602746466595
 20
251.5233278629094
 30
0.0
 10
248.6674546157643
 20
250.9773295428645
 30
0.0
 10
248.3851811495096
 20
250.7243668127426
 30
0.0
 10
247.7378518798075
 20
250.273115766296
 30
0.0
 10
247.3696632671567
 20
250.0741296710551
 30
0.0
 10
246.7646712217204
 20
249.8460012344837
 30
0.0
 10
246.5536174658838
 20
249.7812292499813
 30
0.0
 10
246.1111685878115
 20
249.6785617814458
 30
0.0
 10
245.8781215380727
 20
249.6405239294608
 30
0.0
 10
245.6379815326284
 20
249.6195144013254
 30
0.0
  0
LINE
  5
ED
330
1F
100
AcDbEntity
  8
0
  6
Continuous
 62
     7
370
    15
100
AcDbLine
 10
245.6379815326
 20
249.6195144013
 30
0.0
 11
231.1745056152
 21
248.3541242234
 31
0.0
  0
LINE
  5
EE
330
1F
100
AcDbEntity
  8
0
  6
Continuous
 62
     7
370
    15
100
AcDbLine
 10
250.7723453909
 20
279.0016820763
 30
0.0
 11
238.7723453909
 21
279.0016820763
 31
0.0
  0
SPLINE
  5
EF
330
1F
100
AcDbEntity
  8
0
  6
Continuous
 62
     7
370
    15
100
AcDbSpline
210
0.0
220
0.0
230
1.0
 70
     8
 71
     3
 72
     8
 73
     4
 74
     0
 42
0.00000001
 43
0.00000001
 12
1.0
 22
0.0
 32
0.0
 13
1.0
 23
0.0
 33
0.0
 40
0.0
 40
0.0
 40
0.0
 40
0.0
 40
1.0
 40
1.0
 40
1.0
 40
1.0
 10
249.5443933677219
 20
252.1214999455375
 30
0.0
 10
249.9557255358627
 20
261.081468567414
 30
0.0
 10
250.3648367501511
 20
270.041539004375
 30
0.0
 10
250.7723453908984
 20
279.0016820763472
 30
0.0
  0
LINE
  5
F0
330
1F
100
AcDbEntity
  8
0
  6
Continuous
 62
     7
370
    15
100
AcDbLine
 10
238.7723453909
 20
305.0016820763
 30
0.0
 11
250.5915114301
 21
305.0016820763
 31
0.0
  0
LINE
  5
F1
330
1F
100
AcDbEntity
  8
0
  6
Continuous
 62
     7
370
    15
100
AcDbLine
 10
193.5942123891
 20
357.5016820763
 30
0.0
 11
192.2723453909
 21
356.290414138
 31
0.0
  0
LINE
  5
F2
330
1F
100
AcDbEntity
  8
0
  6
Continuous
 62
     7
370
    15
100
AcDbLine
 10
193.5942123891
 20
357.5016820763
 30
0.0
 11
194.9083843602
 21
387.6011687932
 31
0.0
  0
ELLIPSE
  5
F3
330
1F
100
AcDbEntity
  8
0
  6
Continuous
 62
     7
370
    15
100
AcDbEllipse
 10
201.2723453909
 20
533.3598401992
 30
0.0
 11
0.0
 21
206.1338899358802
 31
0.0
210
0.0
220
0.0
230
1.0
 40
0.0436609429
 41
2.356194490192345
 42
2.592744264804702
  0
ELLIPSE
  5
F4
330
1F
100
AcDbEntity
  8
0
  6
Continuous
 62
     7
370
    15
100
AcDbEllipse
 10
201.2723453909
 20
364.5373947041
 30
0.0
 11
9.000000000000028
 21
0.0
 31
0.0
210
0.0
220
0.0
230
1.0
 40
0.916331174
 41
4.163540591599616
 42
5.261237369169796
  0
ELLIPSE
  5
F5
330
1F
100
AcDbEntity
  8
0
  6
Continuous
 62
     7
370
    15
100
AcDbEllipse
 10
201.2723453909
 20
533.3598401992
 30
0.0
 11
0.0
 21
206.1338899358802
 31
0.0
210
0.0
220
0.0
230
1.0
 40
0.0436609429
 41
3.690441042375124
 42
3.926990816987401
  0
LINE
  5
F6
330
1F
100
AcDbEntity
  8
0
  6
Continuous
 62
     7
370
    15
100
AcDbLine
 10
207.6363064216
 20
387.6011687932
 30
0.0
 11
208.9504783927
 21
357.5016820763
 31
0.0
  0
LINE
  5
F7
330
1F
100
AcDbEntity
  8
0
  6
Continuous
 62
     7
370
    15
100
AcDbLine
 10
210.2723453909
 20
356.290414138
 30
0.0
 11
208.9504783927
 21
357.5016820763
 31
0.0
  0
LINE
  5
F8
330
1F
100
AcDbEntity
  8
0
  6
Continuous
 62
     7
370
    15
100
AcDbLine
 10
196.5769994391
 20
357.5016820763
 30
0.0
 11
205.9676913427
 21
357.5016820763
 31
0.0
  0
LINE
  5
F9
330
1F
100
AcDbEntity
  8
0
  6
Continuous
 62
     7
370
    15
100
AcDbLine
 10
194.9083843602
 20
387.6011687932
 30
0.0
 11
195.1223453909
 21
392.5016820763
 31
0.0
  0
LINE
  5
FA
330
1F
100
AcDbEntity
  8
0
  6
Continuous
 62
     7
370
    15
100
AcDbLine
 10
195.1223453909
 20
392.5016820763
 30
0.0
 11
207.4223453909
 21
392.5016820763
 31
0.0
  0
LINE
  5
FB
330
1F
100
AcDbEntity
  8
0
  6
Continuous
 62
     7
370
    15
100
AcDbLine
 10
207.6363064216
 20
387.6011687932
 30
0.0
 11
207.4223453909
 21
392.5016820763
 31
0.0
  0
LINE
  5
FC
330
1F
100
AcDbEntity
  8
0
  6
Continuous
 62
     7
370
    15
100
AcDbLine
 10
251.2723453909
 20
279.0016820763
 30
0.0
 11
249.1329591884
 21
230.0016820763
 31
0.0
  0
LINE
  5
FD
330
1F
100
AcDbEntity
  8
0
  6
Continuous
 62
     7
370
    15
100
AcDbLine
 10
251.2723453909
 20
279.0016820763
 30
0.0
 11
250.7723453909
 21
279.0016820763
 31
0.0
  0
LINE
  5
FE
330
1F
100
AcDbEntity
  8
0
  6
Continuous
 62
     7
370
    15
100
AcDbLine
 10
151.2723453909
 20
279.0016820763
 30
0.0
 11
153.4117315934
 21
230.0016820763
 31
0.0
  0
LINE
  5
FF
330
1F
100
AcDbEntity
  8
0
  6
Continuous
 62
     7
370
    15
100
AcDbLine
 10
151.2723453909
 20
279.0016820763
 30
0.0
 11
151.7723453909
 21
279.0016820763
 31
0.0
  0
LINE
  5
100
330
1F
100
AcDbEntity
  8
0
  6
Continuous
 62
     7
370
    15
100
AcDbLine
 10
163.1091930037
 20
175.0016820763
 30
0.0
 11
239.4354977781
 21
175.0016820763
 31
0.0
  0
SPLINE
  5
101
330
1F
100
AcDbEntity
  8
0
  6
Continuous
 62
     7
370
    15
100
AcDbSpline
210
0.0
220
0.0
230
1.0
 70
     8
 71
     3
 72
     8
 73
     4
 74
     0
 42
0.00000001
 43
0.00000001
 12
1.0
 22
0.0
 32
0.0
 13
1.0
 23
0.0
 33
0.0
 40
0.0
 40
0.0
 40
0.0
 40
0.0
 40
0.00426344474639
 40
0.00426344474639
 40
0.00426344474639
 40
0.00426344474639
 10
225.9893733875724
 20
348.0016820763471
 30
0.0
 10
225.1153526563353
 20
349.0022382684464
 30
0.0
 10
224.2409152454442
 20
350.002309616016
 30
0.0
 10
223.3658793759267
 20
351.0016820763471
 30
0.0
  0
LINE
  5
102
330
1F
100
AcDbEntity
  8
0
  6
Continuous
 62
     7
370
    15
100
AcDbLine
 10
225.9893733876
 20
345.0016820763
 30
0.0
 11
225.9893733876
 21
348.0016820763
 31
0.0
  0
LINE
  5
103
330
1F
100
AcDbEntity
  8
0
  6
Continuous
 62
     7
370
    15
100
AcDbLine
 10
225.9893733876
 20
345.0016820763
 30
0.0
 11
223.1469571884
 21
345.0016820763
 31
0.0
  0
LINE
  5
104
330
1F
100
AcDbEntity
  8
0
  6
Continuous
 62
     7
370
    15
100
AcDbLine
 10
223.1469571884
 20
345.0016820763
 30
0.0
 11
223.1469571884
 21
339.0016820763
 31
0.0
  0
LINE
  5
105
330
1F
100
AcDbEntity
  8
0
  6
Continuous
 62
     7
370
    15
100
AcDbLine
 10
223.1469571884
 20
339.0016820763
 30
0.0
 11
225.9893733876
 21
339.0016820763
 31
0.0
  0
LINE
  5
106
330
1F
100
AcDbEntity
  8
0
  6
Continuous
 62
     7
370
    15
100
AcDbLine
 10
225.9893733876
 20
320.0016820763
 30
0.0
 11
225.9893733876
 21
339.0016820763
 31
0.0
  0
LINE
  5
107
330
1F
100
AcDbEntity
  8
0
  6
Continuous
 62
     7
370
    15
100
AcDbLine
 10
219.2723453909
 20
351.0016820763
 30
0.0
 11
223.3658793759
 21
351.0016820763
 31
0.0
  0
LINE
  5
108
330
1F
100
AcDbEntity
  8
0
  6
Continuous
 62
     7
370
    15
100
AcDbLine
 10
176.5553173942
 20
339.0016820763
 30
0.0
 11
179.3977335934
 21
339.0016820763
 31
0.0
  0
LINE
  5
109
330
1F
100
AcDbEntity
  8
0
  6
Continuous
 62
     7
370
    15
100
AcDbLine
 10
179.3977335934
 20
339.0016820763
 30
0.0
 11
179.3977335934
 21
345.0016820763
 31
0.0
  0
LINE
  5
10A
330
1F
100
AcDbEntity
  8
0
  6
Continuous
 62
     7
370
    15
100
AcDbLine
 10
179.3977335934
 20
345.0016820763
 30
0.0
 11
176.5553173942
 21
345.0016820763
 31
0.0
  0
LINE
  5
10B
330
1F
100
AcDbEntity
  8
0
  6
Continuous
 62
     7
370
    15
100
AcDbLine
 10
176.5553173942
 20
345.0016820763
 30
0.0
 11
176.5553173942
 21
348.0016820763
 31
0.0
  0
SPLINE
  5
10C
330
1F
100
AcDbEntity
  8
0
  6
Continuous
 62
     7
370
    15
100
AcDbSpline
210
0.0
220
0.0
230
1.0
 70
     8
 71
     3
 72
     8
 73
     4
 74
     0
 42
0.00000001
 43
0.00000001
 12
1.0
 22
0.0
 32
0.0
 13
1.0
 23
0.0
 33
0.0
 40
0.0
 40
0.0
 40
0.0
 40
0.0
 40
0.00426344474639
 40
0.00426344474639
 40
0.00426344474639
 40
0.00426344474639
 10
179.1788114058702
 20
351.0016820763471
 30
0.0
 10
178.3037755363527
 20
350.002309616016
 30
0.0
 10
177.4293381254616
 20
349.0022382684464
 30
0.0
 10
176.5553173942246
 20
348.0016820763471
 30
0.0
  0
LINE
  5
10D
330
1F
100
AcDbEntity
  8
0
  6
Continuous
 62
     7
370
    15
100
AcDbLine
 10
176.5553173942
 20
320.0016820763
 30
0.0
 11
176.5553173942
 21
339.0016820763
 31
0.0
  0
LINE
  5
10E
330
1F
100
AcDbEntity
  8
0
  6
Continuous
 62
     7
370
    15
100
AcDbLine
 10
179.1788114059
 20
351.0016820763
 30
0.0
 11
183.2723453909
 21
351.0016820763
 31
0.0
  0
LINE
  5
10F
330
1F
100
AcDbEntity
  8
0
  6
Continuous
 62
     8
370
     0
100
AcDbLine
 10
223.8427209368
 20
196.8076630841
 30
0.0
 11
188.2421479502
 21
196.8076630841
 31
0.0
  0
LINE
  5
110
330
1F
100
AcDbEntity
  8
0
  6
Continuous
 62
     8
370
     0
100
AcDbLine
 10
169.0154911414
 20
229.7780454703
 30
0.0
 11
169.0154911414
 21
175.1658082107
 31
0.0
  0
LINE
  5
111
330
1F
100
AcDbEntity
  8
0
  6
Continuous
 62
     8
370
     0
100
AcDbLine
 10
233.5291996404
 20
229.7780454703
 30
0.0
 11
233.5291996404
 21
175.1658082107
 31
0.0
  0
LINE
  5
112
330
1F
100
AcDbEntity
  8
0
  6
Continuous
 62
     8
370
     0
100
AcDbLine
 10
171.8439182662
 20
226.9601856671
 30
0.0
 11
171.8439182662
 21
176.3447312819
 31
0.0
  0
LINE
  5
113
330
1F
100
AcDbEntity
  8
0
  6
Continuous
 62
     8
370
     0
100
AcDbLine
 10
230.7007725156
 20
226.9601856671
 30
0.0
 11
230.7007725156
 21
176.3447312819
 31
0.0
  0
LINE
  5
114
330
1F
100
AcDbEntity
  8
0
  6
Continuous
 62
     8
370
     0
100
AcDbLine
 10
175.0007725156
 20
218.8147851182
 30
0.0
 11
175.0007725156
 21
208.9567090841
 31
0.0
  0
LINE
  5
115
330
1F
100
AcDbEntity
  8
0
  6
Continuous
 62
     8
370
     0
100
AcDbLine
 10
175.0007725156
 20
196.0466550686
 30
0.0
 11
175.0007725156
 21
179.5251333905
 31
0.0
  0
LINE
  5
116
330
1F
100
AcDbEntity
  8
0
  6
Continuous
 62
     8
370
     0
100
AcDbLine
 10
227.5439182662
 20
218.8147851182
 30
0.0
 11
227.5439182662
 21
179.5251333905
 31
0.0
  0
LINE
  5
117
330
1F
100
AcDbEntity
  8
0
  6
Continuous
 62
     8
370
     0
100
AcDbLine
 10
224.7154911414
 20
180.7071873586
 30
0.0
 11
224.7154911414
 21
211.0211352677
 31
0.0
  0
LINE
  5
118
330
1F
100
AcDbEntity
  8
0
  6
Continuous
 62
     8
370
     0
100
AcDbLine
 10
177.8291996404
 20
180.7071873586
 30
0.0
 11
177.8291996404
 21
194.186350012
 31
0.0
  0
LINE
  5
119
330
1F
100
AcDbEntity
  8
0
  6
Continuous
 62
     8
370
     0
100
AcDbLine
 10
177.8291996404
 20
210.8170141407
 30
0.0
 11
177.8291996404
 21
211.0211352677
 31
0.0
  0
LINE
  5
11A
330
1F
100
AcDbEntity
  8
0
  6
Continuous
 62
     8
370
     0
100
AcDbLine
 10
163.7723453909
 20
305.0016820763
 30
0.0
 11
163.7723453909
 21
279.0016820763
 31
0.0
  0
LINE
  5
11B
330
1F
100
AcDbEntity
  8
0
  6
Continuous
 62
     8
370
     0
100
AcDbLine
 10
238.7723453909
 20
305.0016820763
 30
0.0
 11
238.7723453909
 21
279.0016820763
 31
0.0
  0
LINE
  5
11C
330
1F
100
AcDbEntity
  8
FORMAT
  6
CENTERX2
370
     0
100
AcDbLine
 10
201.2723453909
 20
169.2442836529
 30
0.0
 11
201.2723453909
 21
399.2543926034
 31
0.0
  0
LINE
  5
11D
330
1F
100
AcDbEntity
  8
FORMAT
  6
CENTERX2
370
     0
100
AcDbLine
 10
274.8355912667
 20
202.5016820763
 30
0.0
 11
129.2393386174
 21
202.5016820763
 31
0.0
  0
LINE
  5
11E
330
1F
100
AcDbEntity
  8
0
  6
Continuous
 62
     7
370
    15
100
AcDbLine
 10
436.2145857643
 20
279.0016820763
 30
0.0
 11
437.5236645244
 21
249.018849071
 31
0.0
  0
LINE
  5
11F
330
1F
100
AcDbEntity
  8
0
  6
Continuous
 62
     7
370
    15
100
AcDbLine
 10
459.9055070042
 20
249.018849071
 30
0.0
 11
461.2145857643
 21
279.0016820763
 31
0.0
  0
LINE
  5
120
330
1F
100
AcDbEntity
  8
0
  6
Continuous
 62
     7
370
    15
100
AcDbLine
 10
417.7712724645
 20
292.3473272845
 30
0.0
 11
414.7145857643
 21
290.5825483952
 31
0.0
  0
LINE
  5
121
330
1F
100
AcDbEntity
  8
0
  6
Continuous
 62
     7
370
    15
100
AcDbLine
 10
482.7145857643
 20
290.5825483952
 30
0.0
 11
479.657899064
 21
292.3473272845
 31
0.0
  0
ARC
  5
122
330
1F
100
AcDbEntity
  8
0
  6
Continuous
 62
     7
370
    15
100
AcDbCircle
 10
463.7145857643
 20
291.0016820763
 30
0.0
 40
15.99999999999999
100
AcDbArc
 50
4.8244358216
 51
40.03737313
  0
ARC
  5
123
330
1F
100
AcDbEntity
  8
0
  6
Continuous
 62
     7
370
    15
100
AcDbCircle
 10
433.7145857643
 20
291.0016820763
 30
0.0
 40
15.99999999999999
100
AcDbArc
 50
139.96262687
 51
175.1755641784
  0
LINE
  5
124
330
1F
100
AcDbEntity
  8
0
  6
Continuous
 62
     7
370
    15
100
AcDbLine
 10
475.272698147
 20
193.5016820763
 30
0.0
 11
476.7145857643
 21
193.5016820763
 31
0.0
  0
LINE
  5
125
330
1F
100
AcDbEntity
  8
0
  6
Continuous
 62
     7
370
    15
100
AcDbLine
 10
476.7145857643
 20
211.5016820763
 30
0.0
 11
475.272698147
 21
211.5016820763
 31
0.0
  0
LINE
  5
126
330
1F
100
AcDbEntity
  8
0
  6
Continuous
 62
     7
370
    15
100
AcDbLine
 10
475.9645857643
 20
301.2942765015
 30
0.0
 11
475.9645857643
 21
320.0016820763
 31
0.0
  0
LINE
  5
127
330
1F
100
AcDbEntity
  8
0
  6
Continuous
 62
     7
370
    15
100
AcDbLine
 10
421.4645857643
 20
320.0016820763
 30
0.0
 11
421.4645857643
 21
301.2942765015
 31
0.0
  0
LINE
  5
128
330
1F
100
AcDbEntity
  8
0
  6
Continuous
 62
     7
370
    15
100
AcDbLine
 10
429.7412260054
 20
328.7080783654
 30
0.0
 11
424.7145857643
 21
320.0016820763
 31
0.0
  0
LINE
  5
129
330
1F
100
AcDbEntity
  8
0
  6
Continuous
 62
     7
370
    15
100
AcDbLine
 10
430.7145857643
 20
351.0016820763
 30
0.0
 11
429.7412260054
 21
328.7080783654
 31
0.0
  0
LINE
  5
12A
330
1F
100
AcDbEntity
  8
0
  6
Continuous
 62
     7
370
    15
100
AcDbLine
 10
457.7145857643
 20
351.0016820763
 30
0.0
 11
457.7145857643
 21
356.290414138
 31
0.0
  0
LINE
  5
12B
330
1F
100
AcDbEntity
  8
0
  6
Continuous
 62
     7
370
    15
100
AcDbLine
 10
439.7145857643
 20
356.290414138
 30
0.0
 11
439.7145857643
 21
351.0016820763
 31
0.0
  0
LINE
  5
12C
330
1F
100
AcDbEntity
  8
0
  6
Continuous
 62
     7
370
    15
100
AcDbLine
 10
475.4645857643
 20
348.0016820763
 30
0.0
 11
472.4645857643
 21
351.0016820763
 31
0.0
  0
LINE
  5
12D
330
1F
100
AcDbEntity
  8
0
  6
Continuous
 62
     7
370
    15
100
AcDbLine
 10
475.4645857643
 20
345.0016820763
 30
0.0
 11
475.4645857643
 21
348.0016820763
 31
0.0
  0
LINE
  5
12E
330
1F
100
AcDbEntity
  8
0
  6
Continuous
 62
     7
370
    15
100
AcDbLine
 10
475.4645857643
 20
320.0016820763
 30
0.0
 11
475.4645857643
 21
339.0016820763
 31
0.0
  0
LINE
  5
12F
330
1F
100
AcDbEntity
  8
0
  6
Continuous
 62
     7
370
    15
100
AcDbLine
 10
472.2145857643
 20
339.0016820763
 30
0.0
 11
472.2145857643
 21
345.0016820763
 31
0.0
  0
LINE
  5
130
330
1F
100
AcDbEntity
  8
0
  6
Continuous
 62
     7
370
    15
100
AcDbLine
 10
432.8374533616
 20
175.0016820763
 30
0.0
 11
464.591718167
 21
175.0016820763
 31
0.0
  0
LINE
  5
131
330
1F
100
AcDbEntity
  8
0
  6
Continuous
 62
     7
370
    15
100
AcDbLine
 10
464.591718167
 20
230.0016820763
 30
0.0
 11
432.8374533616
 21
230.0016820763
 31
0.0
  0
LINE
  5
132
330
1F
100
AcDbEntity
  8
0
  6
Continuous
 62
     7
370
    15
100
AcDbLine
 10
480.4688505697
 20
202.5016820763
 30
0.0
 11
464.591718167
 21
230.0016820763
 31
0.0
  0
LINE
  5
133
330
1F
100
AcDbEntity
  8
0
  6
Continuous
 62
     7
370
    15
100
AcDbLine
 10
464.591718167
 20
175.0016820763
 30
0.0
 11
480.4688505697
 21
202.5016820763
 31
0.0
  0
CIRCLE
  5
134
330
1F
100
AcDbEntity
  8
0
  6
Continuous
 62
     7
370
    15
100
AcDbCircle
 10
448.7145857643
 20
202.5016820763
 30
0.0
 40
19.65000000000003
  0
LINE
  5
135
330
1F
100
AcDbEntity
  8
0
  6
Continuous
 62
     7
370
    15
100
AcDbLine
 10
432.8374533616
 20
175.0016820763
 30
0.0
 11
416.9603209589
 21
202.5016820763
 31
0.0
  0
LINE
  5
136
330
1F
100
AcDbEntity
  8
0
  6
Continuous
 62
     7
370
    15
100
AcDbLine
 10
416.9603209589
 20
202.5016820763
 30
0.0
 11
432.8374533616
 21
230.0016820763
 31
0.0
  0
LINE
  5
137
330
1F
100
AcDbEntity
  8
0
  6
Continuous
 62
     7
370
    15
100
AcDbLine
 10
436.8954197251
 20
305.0016820763
 30
0.0
 11
436.2145857643
 21
279.0016820763
 31
0.0
  0
LINE
  5
138
330
1F
100
AcDbEntity
  8
0
  6
Continuous
 62
     7
370
    15
100
AcDbLine
 10
436.8954197251
 20
305.0016820763
 30
0.0
 11
460.5337518035
 21
305.0016820763
 31
0.0
  0
LINE
  5
139
330
1F
100
AcDbEntity
  8
0
  6
Continuous
 62
     7
370
    15
100
AcDbLine
 10
460.5337518035
 20
305.0016820763
 30
0.0
 11
461.2145857643
 21
279.0016820763
 31
0.0
  0
LINE
  5
13A
330
1F
100
AcDbEntity
  8
0
  6
Continuous
 62
     7
370
    15
100
AcDbLine
 10
452.2145857643
 20
279.0016820763
 30
0.0
 11
461.2145857643
 21
279.0016820763
 31
0.0
  0
LINE
  5
13B
330
1F
100
AcDbEntity
  8
0
  6
Continuous
 62
     7
370
    15
100
AcDbLine
 10
445.2145857643
 20
279.0016820763
 30
0.0
 11
436.2145857643
 21
279.0016820763
 31
0.0
  0
LINE
  5
13C
330
1F
100
AcDbEntity
  8
0
  6
Continuous
 62
     7
370
    15
100
AcDbLine
 10
452.2145857643
 20
279.0016820763
 30
0.0
 11
452.2145857643
 21
230.0016820763
 31
0.0
  0
LINE
  5
13D
330
1F
100
AcDbEntity
  8
0
  6
Continuous
 62
     7
370
    15
100
AcDbLine
 10
452.2145857643
 20
279.0016820763
 30
0.0
 11
448.7145857643
 21
279.0016820763
 31
0.0
  0
LINE
  5
13E
330
1F
100
AcDbEntity
  8
0
  6
Continuous
 62
     7
370
    15
100
AcDbLine
 10
445.2145857643
 20
279.0016820763
 30
0.0
 11
445.2145857643
 21
230.0016820763
 31
0.0
  0
LINE
  5
13F
330
1F
100
AcDbEntity
  8
0
  6
Continuous
 62
     7
370
    15
100
AcDbLine
 10
448.7145857643
 20
279.0016820763
 30
0.0
 11
445.2145857643
 21
279.0016820763
 31
0.0
  0
SPLINE
  5
140
330
1F
100
AcDbEntity
  8
0
  6
Continuous
 62
     7
370
    15
100
AcDbSpline
210
0.0
220
0.0
230
1.0
 70
     8
 71
     3
 72
    16
 73
    12
 74
     0
 42
0.00000001
 43
0.00000001
 12
1.0
 22
0.0
 32
0.0
 13
1.0
 23
0.0
 33
0.0
 40
0.0
 40
0.0
 40
0.0
 40
0.0
 40
0.2499999999999998
 40
0.2499999999999998
 40
0.4999999999999997
 40
0.4999999999999997
 40
0.7499999999999996
 40
0.7499999999999996
 40
0.8749999999999998
 40
0.8749999999999998
 40
1.0
 40
1.0
 40
1.0
 40
1.0
 10
445.214585764294
 20
252.1214999455375
 30
0.0
 10
444.7246412369141
 20
251.8182799585361
 30
0.0
 10
444.2340659289789
 20
251.5233278629094
 30
0.0
 10
443.280182007843
 20
250.9773295428645
 30
0.0
 10
442.8142022077657
 20
250.7243668127426
 30
0.0
 10
441.9030281815124
 20
250.273115766296
 30
0.0
 10
441.4554018047253
 20
250.0741296710551
 30
0.0
 10
440.8244690610971
 20
249.8460012344837
 30
0.0
 10
440.6199561437921
 20
249.7812292499813
 30
0.0
 10
440.2226901194474
 20
249.6785617814458
 30
0.0
 10
440.0286954715119
 20
249.6405239294608
 30
0.0
 10
439.8439925526021
 20
249.6195144013254
 30
0.0
  0
ELLIPSE
  5
141
330
1F
100
AcDbEntity
  8
0
  6
Continuous
 62
     7
370
    15
100
AcDbEllipse
 10
448.7145857643
 20
249.0225890473
 30
0.0
 11
11.19100288506769
 21
0.0
 31
0.0
210
0.0
220
0.0
230
1.0
 40
0.0874893018
 41
2.485946252038907
 42
3.8930971682547
  0
ELLIPSE
  5
142
330
1F
100
AcDbEntity
  8
0
  6
Continuous
 62
     7
370
    15
100
AcDbEllipse
 10
448.7145857643
 20
249.0225890473
 30
0.0
 11
11.19100288506769
 21
0.0
 31
0.0
210
0.0
220
0.0
230
1.0
 40
0.0874893018
 41
5.531680792514835
 42
6.938831708730486
  0
SPLINE
  5
143
330
1F
100
AcDbEntity
  8
0
  6
Continuous
 62
     7
370
    15
100
AcDbSpline
210
0.0
220
0.0
230
1.0
 70
     8
 71
     3
 72
    16
 73
    12
 74
     0
 42
0.00000001
 43
0.00000001
 12
1.0
 22
0.0
 32
0.0
 13
1.0
 23
0.0
 33
0.0
 40
0.0
 40
0.0
 40
0.0
 40
0.0
 40
0.2499999999999998
 40
0.2499999999999998
 40
0.4999999999999997
 40
0.4999999999999997
 40
0.7499999999999996
 40
0.7499999999999996
 40
0.8749999999999998
 40
0.8749999999999998
 40
1.0
 40
1.0
 40
1.0
 40
1.0
 10
452.214585764294
 20
252.1214999455375
 30
0.0
 10
452.7045302916739
 20
251.8182799585361
 30
0.0
 10
453.1951055996092
 20
251.5233278629094
 30
0.0
 10
454.148989520745
 20
250.9773295428645
 30
0.0
 10
454.6149693208223
 20
250.7243668127426
 30
0.0
 10
455.5261433470756
 20
250.273115766296
 30
0.0
 10
455.9737697238627
 20
250.0741296710551
 30
0.0
 10
456.6047024674909
 20
249.8460012344837
 30
0.0
 10
456.8092153847959
 20
249.7812292499813
 30
0.0
 10
457.2064814091406
 20
249.6785617814458
 30
0.0
 10
457.4004760570761
 20
249.6405239294608
 30
0.0
 10
457.585178975986
 20
249.6195144013254
 30
0.0
  0
CIRCLE
  5
144
330
1F
100
AcDbEntity
  8
0
  6
Continuous
 62
     7
370
    15
100
AcDbCircle
 10
448.7145857643
 20
202.5016820763
 30
0.0
 40
15.84744307244762
  0
ELLIPSE
  5
145
330
1F
100
AcDbEntity
  8
0
  6
Continuous
 62
     7
370
    15
100
AcDbEllipse
 10
448.7145857643
 20
245.7380241888
 30
0.0
 11
31.0
 21
0.0
 31
0.0
210
0.0
220
0.0
230
1.0
 40
0.0874886635
 41
1.683940804559628
 42
1.837724071741866
  0
ELLIPSE
  5
146
330
1F
100
AcDbEntity
  8
0
  6
Continuous
 62
     7
370
    15
100
AcDbEllipse
 10
448.7145857643
 20
245.7380241888
 30
0.0
 11
31.0
 21
0.0
 31
0.0
210
0.0
220
0.0
230
1.0
 40
0.0874886635
 41
1.303868581847924
 42
1.457651849030164
  0
LINE
  5
147
330
1F
100
AcDbEntity
  8
0
  6
Continuous
 62
     7
370
    15
100
AcDbLine
 10
415.1511951934
 20
269.0016820763
 30
0.0
 11
436.6511951934
 21
269.0016820763
 31
0.0
  0
LINE
  5
148
330
1F
100
AcDbEntity
  8
0
  6
Continuous
 62
     7
370
    15
100
AcDbLine
 10
415.1511951934
 20
269.0016820763
 30
0.0
 11
414.7145857643
 21
279.0016820763
 31
0.0
  0
LINE
  5
149
330
1F
100
AcDbEntity
  8
0
  6
Continuous
 62
     7
370
    15
100
AcDbLine
 10
414.7145857643
 20
279.0016820763
 30
0.0
 11
436.2145857643
 21
279.0016820763
 31
0.0
  0
LINE
  5
14A
330
1F
100
AcDbEntity
  8
0
  6
Continuous
 62
     7
370
    15
100
AcDbLine
 10
461.2145857643
 20
279.0016820763
 30
0.0
 11
482.7145857643
 21
279.0016820763
 31
0.0
  0
LINE
  5
14B
330
1F
100
AcDbEntity
  8
0
  6
Continuous
 62
     7
370
    15
100
AcDbLine
 10
482.2779763352
 20
269.0016820763
 30
0.0
 11
482.7145857643
 21
279.0016820763
 31
0.0
  0
LINE
  5
14C
330
1F
100
AcDbEntity
  8
0
  6
Continuous
 62
     7
370
    15
100
AcDbLine
 10
482.2779763352
 20
269.0016820763
 30
0.0
 11
460.7779763352
 21
269.0016820763
 31
0.0
  0
SPLINE
  5
14D
330
1F
100
AcDbEntity
  8
0
  6
Continuous
 62
     7
370
    15
100
AcDbSpline
210
0.0
220
0.0
230
1.0
 70
    24
 71
     3
 72
     8
 73
     4
 74
     0
 42
0.00000001
 43
0.00000001
 12
1.0
 22
0.0
 32
0.0
 13
1.0
 23
0.0
 33
0.0
 40
0.0
 40
0.0
 40
0.0
 40
0.0
 40
1.0
 40
1.0
 40
1.0
 40
1.0
 10
414.714585764294
 20
279.0016820763472
 30
0.0
 10
414.714585764294
 20
282.3353053685101
 30
0.0
 10
414.714585764294
 20
285.6687065587905
 30
0.0
 10
414.714585764294
 20
289.0016820763472
 30
0.0
  0
LINE
  5
14E
330
1F
100
AcDbEntity
  8
0
  6
Continuous
 62
     7
370
    15
100
AcDbLine
 10
414.7145857643
 20
289.0016820763
 30
0.0
 11
436.47644498
 21
289.0016820763
 31
0.0
  0
LINE
  5
14F
330
1F
100
AcDbEntity
  8
0
  6
Continuous
 62
     7
370
    15
100
AcDbLine
 10
460.9527265486
 20
289.0016820763
 30
0.0
 11
482.7145857643
 21
289.0016820763
 31
0.0
  0
SPLINE
  5
150
330
1F
100
AcDbEntity
  8
0
  6
Continuous
 62
     7
370
    15
100
AcDbSpline
210
0.0
220
0.0
230
1.0
 70
    24
 71
     3
 72
     8
 73
     4
 74
     0
 42
0.00000001
 43
0.00000001
 12
1.0
 22
0.0
 32
0.0
 13
1.0
 23
0.0
 33
0.0
 40
0.0
 40
0.0
 40
0.0
 40
0.0
 40
1.0
 40
1.0
 40
1.0
 40
1.0
 10
482.714585764294
 20
289.0016820763472
 30
0.0
 10
482.714585764294
 20
285.6687065587905
 30
0.0
 10
482.714585764294
 20
282.3353053685101
 30
0.0
 10
482.714585764294
 20
279.0016820763472
 30
0.0
  0
SPLINE
  5
151
330
1F
100
AcDbEntity
  8
0
  6
Continuous
 62
     7
370
    15
100
AcDbSpline
210
0.0
220
0.0
230
1.0
 70
    24
 71
     3
 72
    17
 73
    13
 74
     0
 42
0.00000001
 43
0.00000001
 12
1.0
 22
0.0
 32
0.0
 13
1.0
 23
0.0
 33
0.0
 40
0.0
 40
0.0
 40
0.0
 40
0.0
 40
0.0350412259042156
 40
0.1514117963504388
 40
0.2677812933708773
 40
0.3843993449690497
 40
0.5010163573880894
 40
0.6181596374527412
 40
0.7353848692943763
 40
0.8512644019519715
 40
0.9672305697352245
 40
1.0
 40
1.0
 40
1.0
 40
1.0
 10
414.714585764294
 20
289.0016820763472
 30
0.0
 10
414.714585764294
 20
289.0363982751535
 30
0.0
 10
414.714585764294
 20
289.1864056418505
 30
0.0
 10
414.714585764294
 20
289.4329448281762
 30
0.0
 10
414.714585764294
 20
289.7201814339471
 30
0.0
 10
414.714585764294
 20
289.969488409101
 30
0.0
 10
414.714585764294
 20
290.1796557071235
 30
0.0
 10
414.714585764294
 20
290.3480008590796
 30
0.0
 10
414.714585764294
 20
290.4735535287245
 30
0.0
 10
414.714585764294
 20
290.5508036145666
 30
0.0
 10
414.714585764294
 20
290.585688688315
 30
0.0
 10
414.714585764294
 20
290.5791345149718
 30
0.0
 10
414.714585764294
 20
290.5776904993553
 30
0.0
  0
LINE
  5
152
330
1F
100
AcDbEntity
  8
0
  6
Continuous
 62
     7
370
    15
100
AcDbLine
 10
417.7712724645
 20
292.3473272845
 30
0.0
 11
436.564053783
 21
292.3473272845
 31
0.0
  0
SPLINE
  5
153
330
1F
100
AcDbEntity
  8
0
  6
Continuous
 62
     7
370
    15
100
AcDbSpline
210
0.0
220
0.0
230
1.0
 70
    24
 71
     3
 72
    17
 73
    13
 74
     0
 42
0.00000001
 43
0.00000001
 12
1.0
 22
0.0
 32
0.0
 13
1.0
 23
0.0
 33
0.0
 40
0.0
 40
0.0
 40
0.0
 40
0.0
 40
0.0120671419941146
 40
0.1292458269066293
 40
0.2465150784392457
 40
0.3619565462123132
 40
0.4774787225425696
 40
0.5991969691078248
 40
0.7209164362514522
 40
0.842936931007878
 40
0.9649587241043724
 40
1.0
 40
1.0
 40
1.0
 40
1.0
 10
482.714585764294
 20
290.5804396556974
 30
0.0
 10
482.714585764294
 20
290.5811272434
 30
0.0
 10
482.714585764294
 20
290.5884916915221
 30
0.0
 10
482.714585764294
 20
290.5593032939258
 30
0.0
 10
482.714585764294
 20
290.489958816706
 30
0.0
 10
482.714585764294
 20
290.3720424502554
 30
0.0
 10
482.714585764294
 20
290.2105662260099
 30
0.0
 10
482.714585764294
 20
290.0020327933125
 30
0.0
 10
482.714585764294
 20
289.7462448728199
 30
0.0
 10
482.714585764294
 20
289.448286751774
 30
0.0
 10
482.714585764294
 20
289.1920003159768
 30
0.0
 10
482.714585764294
 20
289.0363975532237
 30
0.0
 10
482.714585764294
 20
289.0016820763472
 30
0.0
  0
LINE
  5
154
330
1F
100
AcDbEntity
  8
0
  6
Continuous
 62
     7
370
    15
100
AcDbLine
 10
460.8651177456
 20
292.3473272845
 30
0.0
 11
479.657899064
 21
292.3473272845
 31
0.0
  0
SPLINE
  5
155
330
1F
100
AcDbEntity
  8
0
  6
Continuous
 62
     7
370
    15
100
AcDbSpline
210
0.0
220
0.0
230
1.0
 70
    24
 71
     3
 72
     8
 73
     4
 74
     0
 42
0.00000001
 43
0.00000001
 12
1.0
 22
0.0
 32
0.0
 13
1.0
 23
0.0
 33
0.0
 40
0.0
 40
0.0
 40
0.0
 40
0.0
 40
1.0
 40
1.0
 40
1.0
 40
1.0
 10
420.714585764294
 20
267.5109760656916
 30
0.0
 10
418.8639882670632
 20
268.0068421705896
 30
0.0
 10
417.0089155902782
 20
268.5039073962352
 30
0.0
 10
415.1511951933792
 20
269.0016820763471
 30
0.0
  0
LINE
  5
156
330
1F
100
AcDbEntity
  8
0
  6
Continuous
 62
     7
370
    15
100
AcDbLine
 10
420.7145857643
 20
267.5109760657
 30
0.0
 11
436.7162808234
 21
267.5109760657
 31
0.0
  0
SPLINE
  5
157
330
1F
100
AcDbEntity
  8
0
  6
Continuous
 62
     7
370
    15
100
AcDbSpline
210
0.0
220
0.0
230
1.0
 70
    24
 71
     3
 72
     8
 73
     4
 74
     0
 42
0.00000001
 43
0.00000001
 12
1.0
 22
0.0
 32
0.0
 13
1.0
 23
0.0
 33
0.0
 40
0.0
 40
0.0
 40
0.0
 40
0.0
 40
1.0
 40
1.0
 40
1.0
 40
1.0
 10
476.714585764294
 20
267.5109760656916
 30
0.0
 10
478.5651832615249
 20
268.0068421705896
 30
0.0
 10
480.4202559383098
 20
268.5039073962352
 30
0.0
 10
482.2779763352088
 20
269.0016820763471
 30
0.0
  0
LINE
  5
158
330
1F
100
AcDbEntity
  8
0
  6
Continuous
 62
     7
370
    15
100
AcDbLine
 10
476.7145857643
 20
267.5109760657
 30
0.0
 11
460.7128907052
 21
267.5109760657
 31
0.0
  0
LINE
  5
159
330
1F
100
AcDbEntity
  8
0
  6
Continuous
 62
     7
370
    15
100
AcDbLine
 10
423.0913404185
 20
213.1274628484
 30
0.0
 11
420.7145857643
 21
221.9976319748
 31
0.0
  0
LINE
  5
15A
330
1F
100
AcDbEntity
  8
0
  6
Continuous
 62
     7
370
    15
100
AcDbLine
 10
420.7145857643
 20
221.9976319748
 30
0.0
 11
420.7145857643
 21
267.5109760657
 31
0.0
  0
LINE
  5
15B
330
1F
100
AcDbEntity
  8
0
  6
Continuous
 62
     7
370
    15
100
AcDbLine
 10
476.7145857643
 20
221.9976319748
 30
0.0
 11
476.7145857643
 21
267.5109760657
 31
0.0
  0
LINE
  5
15C
330
1F
100
AcDbEntity
  8
0
  6
Continuous
 62
     7
370
    15
100
AcDbLine
 10
474.3366335545
 20
213.1229935098
 30
0.0
 11
476.7145857643
 21
221.9976319748
 31
0.0
  0
LINE
  5
15D
330
1F
100
AcDbEntity
  8
0
  6
Continuous
 62
     7
370
    15
100
AcDbLine
 10
475.9645857643
 20
301.2942765015
 30
0.0
 11
460.6308336351
 21
301.2942765015
 31
0.0
  0
LINE
  5
15E
330
1F
100
AcDbEntity
  8
0
  6
Continuous
 62
     7
370
    15
100
AcDbLine
 10
436.7983378935
 20
301.2942765015
 30
0.0
 11
421.4645857643
 21
301.2942765015
 31
0.0
  0
LINE
  5
15F
330
1F
100
AcDbEntity
  8
0
  6
Continuous
 62
     7
370
    15
100
AcDbLine
 10
476.7145857643
 20
195.9991046883
 30
0.0
 11
476.7145857643
 21
193.5016820763
 31
0.0
  0
LINE
  5
160
330
1F
100
AcDbEntity
  8
0
  6
Continuous
 62
     7
370
    15
100
AcDbLine
 10
476.7145857643
 20
211.5016820763
 30
0.0
 11
476.7145857643
 21
209.0042594644
 31
0.0
  0
LINE
  5
161
330
1F
100
AcDbEntity
  8
0
  6
Continuous
 62
     7
370
    15
100
AcDbLine
 10
475.9645857643
 20
320.0016820763
 30
0.0
 11
421.4645857643
 21
320.0016820763
 31
0.0
  0
LINE
  5
162
330
1F
100
AcDbEntity
  8
0
  6
Continuous
 62
     7
370
    15
100
AcDbLine
 10
433.9381520285
 20
351.0016820763
 30
0.0
 11
440.000329855
 21
351.0016820763
 31
0.0
  0
SPLINE
  5
163
330
1F
100
AcDbEntity
  8
0
  6
Continuous
 62
     7
370
    15
100
AcDbSpline
210
0.0
220
0.0
230
1.0
 70
     8
 71
     3
 72
     8
 73
     4
 74
     0
 42
0.00000001
 43
0.00000001
 12
1.0
 22
0.0
 32
0.0
 13
1.0
 23
0.0
 33
0.0
 40
0.0
 40
0.0
 40
0.0
 40
0.0
 40
0.00426344474639
 40
0.00426344474639
 40
0.00426344474639
 40
0.00426344474639
 10
440.0003298550151
 20
351.0016820763471
 30
0.0
 10
439.4951276601986
 20
350.002309616016
 30
0.0
 10
438.9902709856312
 20
349.0022382684464
 30
0.0
 10
438.4856548811742
 20
348.0016820763471
 30
0.0
  0
LINE
  5
164
330
1F
100
AcDbEntity
  8
0
  6
Continuous
 62
     7
370
    15
100
AcDbLine
 10
438.4856548812
 20
348.0016820763
 30
0.0
 11
432.4234770547
 21
348.0016820763
 31
0.0
  0
SPLINE
  5
165
330
1F
100
AcDbEntity
  8
0
  6
Continuous
 62
     7
370
    15
100
AcDbSpline
210
0.0
220
0.0
230
1.0
 70
     8
 71
     3
 72
     8
 73
     4
 74
     0
 42
0.00000001
 43
0.00000001
 12
1.0
 22
0.0
 32
0.0
 13
1.0
 23
0.0
 33
0.0
 40
0.0
 40
0.0
 40
0.0
 40
0.0
 40
0.00426344474639
 40
0.00426344474639
 40
0.00426344474639
 40
0.00426344474639
 10
432.4234770546831
 20
348.0016820763471
 30
0.0
 10
432.9280931591401
 20
349.0022382684464
 30
0.0
 10
433.4329498337076
 20
350.002309616016
 30
0.0
 10
433.9381520285241
 20
351.0016820763471
 30
0.0
  0
LINE
  5
166
330
1F
100
AcDbEntity
  8
0
  6
Continuous
 62
     7
370
    15
100
AcDbLine
 10
438.4856548812
 20
320.0016820763
 30
0.0
 11
438.4856548812
 21
339.0016820763
 31
0.0
  0
LINE
  5
167
330
1F
100
AcDbEntity
  8
0
  6
Continuous
 62
     7
370
    15
100
AcDbLine
 10
432.4234770547
 20
320.0016820763
 30
0.0
 11
432.4234770547
 21
339.0016820763
 31
0.0
  0
LINE
  5
168
330
1F
100
AcDbEntity
  8
0
  6
Continuous
 62
     7
370
    15
100
AcDbLine
 10
432.4234770547
 20
339.0016820763
 30
0.0
 11
438.4856548812
 21
339.0016820763
 31
0.0
  0
LINE
  5
169
330
1F
100
AcDbEntity
  8
0
  6
Continuous
 62
     7
370
    15
100
AcDbLine
 10
432.4234770547
 20
345.0016820763
 30
0.0
 11
432.4234770547
 21
348.0016820763
 31
0.0
  0
LINE
  5
16A
330
1F
100
AcDbEntity
  8
0
  6
Continuous
 62
     7
370
    15
100
AcDbLine
 10
438.4856548812
 20
345.0016820763
 30
0.0
 11
438.4856548812
 21
348.0016820763
 31
0.0
  0
LINE
  5
16B
330
1F
100
AcDbEntity
  8
0
  6
Continuous
 62
     7
370
    15
100
AcDbLine
 10
438.4856548812
 20
345.0016820763
 30
0.0
 11
432.4234770547
 21
345.0016820763
 31
0.0
  0
LINE
  5
16C
330
1F
100
AcDbEntity
  8
0
  6
Continuous
 62
     7
370
    15
100
AcDbLine
 10
440.1267246389
 20
339.0016820763
 30
0.0
 11
440.1267246389
 21
345.0016820763
 31
0.0
  0
LINE
  5
16D
330
1F
100
AcDbEntity
  8
0
  6
Continuous
 62
     7
370
    15
100
AcDbLine
 10
440.000329855
 20
351.0016820763
 30
0.0
 11
442.917452886
 21
351.0016820763
 31
0.0
  0
LINE
  5
16E
330
1F
100
AcDbEntity
  8
0
  6
Continuous
 62
     7
370
    15
100
AcDbLine
 10
442.4218023524
 20
328.7080783654
 30
0.0
 11
442.917452886
 21
351.0016820763
 31
0.0
  0
SPLINE
  5
16F
330
1F
100
AcDbEntity
  8
0
  6
Continuous
 62
     7
370
    15
100
AcDbSpline
210
0.0
220
0.0
230
1.0
 70
     8
 71
     3
 72
     8
 73
     4
 74
     0
 42
0.00000001
 43
0.00000001
 12
1.0
 22
0.0
 32
0.0
 13
1.0
 23
0.0
 33
0.0
 40
0.0
 40
0.0
 40
0.0
 40
0.0
 40
1.0
 40
1.0
 40
1.0
 40
1.0
 10
439.8739646069558
 20
320.0016820763471
 30
0.0
 10
440.7214156911632
 20
322.9059541469897
 30
0.0
 10
441.5701992715316
 20
325.8086664521618
 30
0.0
 10
442.4218023524443
 20
328.7080783653911
 30
0.0
  0
LINE
  5
170
330
1F
100
AcDbEntity
  8
0
  6
Continuous
 62
     7
370
    15
100
AcDbLine
 10
440.1267246389
 20
345.0016820763
 30
0.0
 11
438.4856548812
 21
345.0016820763
 31
0.0
  0
LINE
  5
171
330
1F
100
AcDbEntity
  8
0
  6
Continuous
 62
     7
370
    15
100
AcDbLine
 10
438.4856548812
 20
339.0016820763
 30
0.0
 11
440.1267246389
 21
339.0016820763
 31
0.0
  0
LINE
  5
172
330
1F
100
AcDbEntity
  8
0
  6
Continuous
 62
     7
370
    15
100
AcDbLine
 10
467.3623304145
 20
328.7080783654
 30
0.0
 11
442.4218023524
 21
328.7080783654
 31
0.0
  0
SPLINE
  5
173
330
1F
100
AcDbEntity
  8
0
  6
Continuous
 62
     7
370
    15
100
AcDbSpline
210
0.0
220
0.0
230
1.0
 70
     8
 71
     3
 72
     8
 73
     4
 74
     0
 42
0.00000001
 43
0.00000001
 12
1.0
 22
0.0
 32
0.0
 13
1.0
 23
0.0
 33
0.0
 40
0.0
 40
0.0
 40
0.0
 40
0.0
 40
1.0
 40
1.0
 40
1.0
 40
1.0
 10
467.3623304144845
 20
328.7080783653911
 30
0.0
 10
469.0655276594169
 20
325.8086816316195
 30
0.0
 10
470.7631041808019
 20
322.9059533866001
 30
0.0
 10
472.4580059054615
 20
320.0016820763471
 30
0.0
  0
LINE
  5
174
330
1F
100
AcDbEntity
  8
0
  6
Continuous
 62
     7
370
    15
100
AcDbLine
 10
434.0645468124
 20
345.0016820763
 30
0.0
 11
434.0645468124
 21
339.0016820763
 31
0.0
  0
LWPOLYLINE
  5
175
330
1F
100
AcDbEntity
  8
0
  6
Continuous
 62
     7
370
    15
100
AcDbPolyline
 90
        3
 70
   128
 43
0.0
 10
466.3710293473
 20
351.0016820763
 10
467.2309849869
 20
331.6643988607
 10
467.3623304145
 20
328.7080783654
  0
LINE
  5
176
330
1F
100
AcDbEntity
  8
0
  6
Continuous
 62
     7
370
    15
100
AcDbLine
 10
466.3710293473
 20
351.0016820763
 30
0.0
 11
442.917452886
 21
351.0016820763
 31
0.0
  0
LINE
  5
177
330
1F
100
AcDbEntity
  8
0
  6
Continuous
 62
     7
370
    15
100
AcDbLine
 10
432.4234770547
 20
328.7080783654
 30
0.0
 11
429.7412260054
 21
328.7080783654
 31
0.0
  0
LINE
  5
178
330
1F
100
AcDbEntity
  8
0
  6
Continuous
 62
     7
370
    15
100
AcDbLine
 10
433.9381520285
 20
351.0016820763
 30
0.0
 11
430.7145857643
 21
351.0016820763
 31
0.0
  0
LINE
  5
179
330
1F
100
AcDbEntity
  8
0
  6
Continuous
 62
     7
370
    15
100
AcDbLine
 10
441.0364527625
 20
357.5016820763
 30
0.0
 11
439.7145857643
 21
356.290414138
 31
0.0
  0
LINE
  5
17A
330
1F
100
AcDbEntity
  8
0
  6
Continuous
 62
     7
370
    15
100
AcDbLine
 10
441.0364527625
 20
357.5016820763
 30
0.0
 11
442.3506247336
 21
387.6011687932
 31
0.0
  0
ELLIPSE
  5
17B
330
1F
100
AcDbEntity
  8
0
  6
Continuous
 62
     7
370
    15
100
AcDbEllipse
 10
448.7145857643
 20
533.3598401992
 30
0.0
 11
0.0
 21
206.1338899358802
 31
0.0
210
0.0
220
0.0
230
1.0
 40
0.0436609429
 41
2.356194490192344
 42
2.592744264804698
  0
ELLIPSE
  5
17C
330
1F
100
AcDbEntity
  8
0
  6
Continuous
 62
     7
370
    15
100
AcDbEllipse
 10
448.7145857643
 20
364.5373947041
 30
0.0
 11
9.0
 21
0.0
 31
0.0
210
0.0
220
0.0
230
1.0
 40
0.916331174
 41
4.163540591599609
 42
5.261237369169792
  0
ELLIPSE
  5
17D
330
1F
100
AcDbEntity
  8
0
  6
Continuous
 62
     7
370
    15
100
AcDbEllipse
 10
448.7145857643
 20
533.3598401992
 30
0.0
 11
0.0
 21
206.1338899358802
 31
0.0
210
0.0
220
0.0
230
1.0
 40
0.0436609429
 41
3.690441042375114
 42
3.926990816987398
  0
LINE
  5
17E
330
1F
100
AcDbEntity
  8
0
  6
Continuous
 62
     7
370
    15
100
AcDbLine
 10
455.078546795
 20
387.6011687932
 30
0.0
 11
456.3927187661
 21
357.5016820763
 31
0.0
  0
LINE
  5
17F
330
1F
100
AcDbEntity
  8
0
  6
Continuous
 62
     7
370
    15
100
AcDbLine
 10
457.7145857643
 20
356.290414138
 30
0.0
 11
456.3927187661
 21
357.5016820763
 31
0.0
  0
LINE
  5
180
330
1F
100
AcDbEntity
  8
0
  6
Continuous
 62
     7
370
    15
100
AcDbLine
 10
444.0192398125
 20
357.5016820763
 30
0.0
 11
453.4099317161
 21
357.5016820763
 31
0.0
  0
LINE
  5
181
330
1F
100
AcDbEntity
  8
0
  6
Continuous
 62
     7
370
    15
100
AcDbLine
 10
478.2145857643
 20
256.8231106478
 30
0.0
 11
478.2145857643
 21
258.5373963621
 31
0.0
  0
LINE
  5
182
330
1F
100
AcDbEntity
  8
0
  6
Continuous
 62
     7
370
    15
100
AcDbLine
 10
478.2145857643
 20
258.5373963621
 30
0.0
 11
476.7145857643
 21
258.5373963621
 31
0.0
  0
LINE
  5
183
330
1F
100
AcDbEntity
  8
0
  6
Continuous
 62
     7
370
    15
100
AcDbLine
 10
478.2145857643
 20
256.8231106478
 30
0.0
 11
476.7145857643
 21
256.8231106478
 31
0.0
  0
LINE
  5
184
330
1F
100
AcDbEntity
  8
0
  6
Continuous
 62
     7
370
    15
100
AcDbLine
 10
478.2145857643
 20
259.2231106478
 30
0.0
 11
478.2145857643
 21
261.0016820763
 31
0.0
  0
LINE
  5
185
330
1F
100
AcDbEntity
  8
0
  6
Continuous
 62
     7
370
    15
100
AcDbLine
 10
478.2145857643
 20
259.2231106478
 30
0.0
 11
476.7145857643
 21
259.2231106478
 31
0.0
  0
LINE
  5
186
330
1F
100
AcDbEntity
  8
0
  6
Continuous
 62
     7
370
    15
100
AcDbLine
 10
478.2145857643
 20
261.0016820763
 30
0.0
 11
476.7145857643
 21
261.0016820763
 31
0.0
  0
LINE
  5
187
330
1F
100
AcDbEntity
  8
0
  6
Continuous
 62
     7
370
    15
100
AcDbLine
 10
478.2145857643
 20
252.4302535049
 30
0.0
 11
476.7145857643
 21
252.4302535049
 31
0.0
  0
LINE
  5
188
330
1F
100
AcDbEntity
  8
0
  6
Continuous
 62
     7
370
    15
100
AcDbLine
 10
478.2145857643
 20
252.4302535049
 30
0.0
 11
478.2145857643
 21
256.8231106478
 31
0.0
  0
LINE
  5
189
330
1F
100
AcDbEntity
  8
0
  6
Continuous
 62
     7
370
    15
100
AcDbLine
 10
442.3506247336
 20
387.6011687932
 30
0.0
 11
442.5645857643
 21
392.5016820763
 31
0.0
  0
LINE
  5
18A
330
1F
100
AcDbEntity
  8
0
  6
Continuous
 62
     7
370
    15
100
AcDbLine
 10
442.5645857643
 20
392.5016820763
 30
0.0
 11
454.8645857643
 21
392.5016820763
 31
0.0
  0
LINE
  5
18B
330
1F
100
AcDbEntity
  8
0
  6
Continuous
 62
     7
370
    15
100
AcDbLine
 10
455.078546795
 20
387.6011687932
 30
0.0
 11
454.8645857643
 21
392.5016820763
 31
0.0
  0
LINE
  5
18C
330
1F
100
AcDbEntity
  8
0
  6
Continuous
 62
     7
370
    15
100
AcDbLine
 10
478.2145857643
 20
258.5373963621
 30
0.0
 11
478.2145857643
 21
259.2231106478
 31
0.0
  0
SPLINE
  5
18D
330
1F
100
AcDbEntity
  8
0
  6
Continuous
 62
     7
370
    15
100
AcDbSpline
210
0.0
220
0.0
230
1.0
 70
     8
 71
     3
 72
     8
 73
     4
 74
     0
 42
0.00000001
 43
0.00000001
 12
1.0
 22
0.0
 32
0.0
 13
1.0
 23
0.0
 33
0.0
 40
0.0
 40
0.0
 40
0.0
 40
0.0
 40
0.00426344474639
 40
0.00426344474639
 40
0.00426344474639
 40
0.00426344474639
 10
475.2346253570246
 20
348.0016820763471
 30
0.0
 10
474.2253931481106
 20
349.0022382684464
 30
0.0
 10
473.2156797989757
 20
350.002309616016
 30
0.0
 10
472.2052754093427
 20
351.0016820763471
 30
0.0
  0
LINE
  5
18E
330
1F
100
AcDbEntity
  8
0
  6
Continuous
 62
     7
370
    15
100
AcDbLine
 10
475.234625357
 20
345.0016820763
 30
0.0
 11
475.234625357
 21
348.0016820763
 31
0.0
  0
LINE
  5
18F
330
1F
100
AcDbEntity
  8
0
  6
Continuous
 62
     7
370
    15
100
AcDbLine
 10
475.234625357
 20
345.0016820763
 30
0.0
 11
471.9524858415
 21
345.0016820763
 31
0.0
  0
LINE
  5
190
330
1F
100
AcDbEntity
  8
0
  6
Continuous
 62
     7
370
    15
100
AcDbLine
 10
471.9524858415
 20
345.0016820763
 30
0.0
 11
471.9524858415
 21
339.0016820763
 31
0.0
  0
LINE
  5
191
330
1F
100
AcDbEntity
  8
0
  6
Continuous
 62
     7
370
    15
100
AcDbLine
 10
471.9524858415
 20
339.0016820763
 30
0.0
 11
475.234625357
 21
339.0016820763
 31
0.0
  0
LINE
  5
192
330
1F
100
AcDbEntity
  8
0
  6
Continuous
 62
     7
370
    15
100
AcDbLine
 10
475.234625357
 20
320.0016820763
 30
0.0
 11
475.234625357
 21
339.0016820763
 31
0.0
  0
LINE
  5
193
330
1F
100
AcDbEntity
  8
0
  6
Continuous
 62
     7
370
    15
100
AcDbLine
 10
466.3710293473
 20
351.0016820763
 30
0.0
 11
472.2052754093
 21
351.0016820763
 31
0.0
  0
LINE
  5
194
330
1F
100
AcDbEntity
  8
0
  6
Continuous
 62
     7
370
    15
100
AcDbLine
 10
475.4645857643
 20
348.0016820763
 30
0.0
 11
475.234625357
 21
348.0016820763
 31
0.0
  0
LINE
  5
195
330
1F
100
AcDbEntity
  8
0
  6
Continuous
 62
     7
370
    15
100
AcDbLine
 10
472.2052754093
 20
351.0016820763
 30
0.0
 11
472.4645857643
 21
351.0016820763
 31
0.0
  0
LINE
  5
196
330
1F
100
AcDbEntity
  8
0
  6
Continuous
 62
     7
370
    15
100
AcDbLine
 10
475.4645857643
 20
345.0016820763
 30
0.0
 11
475.234625357
 21
345.0016820763
 31
0.0
  0
LINE
  5
197
330
1F
100
AcDbEntity
  8
0
  6
Continuous
 62
     7
370
    15
100
AcDbLine
 10
475.234625357
 20
339.0016820763
 30
0.0
 11
475.4645857643
 21
339.0016820763
 31
0.0
  0
LINE
  5
198
330
1F
100
AcDbEntity
  8
0
  6
Continuous
 62
     8
370
     0
100
AcDbLine
 10
445.2145857643
 20
249.6195144013
 30
0.0
 11
439.8439925526
 21
249.6195144013
 31
0.0
  0
LINE
  5
199
330
1F
100
AcDbEntity
  8
0
  6
Continuous
 62
     8
370
     0
100
AcDbLine
 10
452.2145857643
 20
249.6195144013
 30
0.0
 11
457.585178976
 21
249.6195144013
 31
0.0
  0
INSERT
  5
1A5
330
1F
100
AcDbEntity
  8
FORMAT
100
AcDbBlockReference
  2
SW_CENTERMARKSYMBOL_0
 10
448.7145857643
 20
202.5016820763
 30
0.0
  0
ARC
  5
1A6
330
1F
100
AcDbEntity
  8
0
  6
Continuous
 62
     7
370
    15
100
AcDbCircle
 10
169.0154911414
 20
112.2782963827
 30
0.0
 40
4.000000000000014
100
AcDbArc
 50
45.0
 51
90.0
  0
ARC
  5
1A7
330
1F
100
AcDbEntity
  8
0
  6
Continuous
 62
     7
370
    15
100
AcDbCircle
 10
233.5291996404
 20
112.2782963827
 30
0.0
 40
4.000000000000014
100
AcDbArc
 50
90.0
 51
135.0
  0
ARC
  5
1A8
330
1F
100
AcDbEntity
  8
0
  6
Continuous
 62
     7
370
    15
100
AcDbCircle
 10
169.0154911414
 20
65.2782963827
 30
0.0
 40
4.0
100
AcDbArc
 50
270.0
 51
315.0
  0
ARC
  5
1A9
330
1F
100
AcDbEntity
  8
0
  6
Continuous
 62
     7
370
    15
100
AcDbCircle
 10
233.5291996404
 20
65.2782963827
 30
0.0
 40
4.0
100
AcDbArc
 50
225.0
 51
270.0
  0
LINE
  5
1AA
330
1F
100
AcDbEntity
  8
0
  6
Continuous
 62
     7
370
    15
100
AcDbLine
 10
169.0154911414
 20
116.2782963827
 30
0.0
 11
163.2723453909
 21
116.2782963827
 31
0.0
  0
LINE
  5
1AB
330
1F
100
AcDbEntity
  8
0
  6
Continuous
 62
     7
370
    15
100
AcDbLine
 10
239.2723453909
 20
116.2782963827
 30
0.0
 11
233.5291996404
 21
116.2782963827
 31
0.0
  0
LINE
  5
1AC
330
1F
100
AcDbEntity
  8
0
  6
Continuous
 62
     7
370
    15
100
AcDbLine
 10
233.5291996404
 20
61.2782963827
 30
0.0
 11
239.2723453909
 21
61.2782963827
 31
0.0
  0
LINE
  5
1AD
330
1F
100
AcDbEntity
  8
0
  6
Continuous
 62
     7
370
    15
100
AcDbLine
 10
163.2723453909
 20
61.2782963827
 30
0.0
 11
169.0154911414
 21
61.2782963827
 31
0.0
  0
LINE
  5
1AE
330
1F
100
AcDbEntity
  8
0
  6
Continuous
 62
     7
370
    15
100
AcDbLine
 10
230.7007725156
 20
115.1067235075
 30
0.0
 11
228.9393417726
 21
113.3452927644
 31
0.0
  0
LINE
  5
1AF
330
1F
100
AcDbEntity
  8
0
  6
Continuous
 62
     7
370
    15
100
AcDbLine
 10
173.6053490092
 20
113.3452927644
 30
0.0
 11
171.8439182662
 21
115.1067235075
 31
0.0
  0
LINE
  5
1B0
330
1F
100
AcDbEntity
  8
0
  6
Continuous
 62
     7
370
    15
100
AcDbLine
 10
228.9393417726
 20
64.2113000011
 30
0.0
 11
230.7007725156
 21
62.449869258
 31
0.0
  0
LINE
  5
1B1
330
1F
100
AcDbEntity
  8
0
  6
Continuous
 62
     7
370
    15
100
AcDbLine
 10
171.8439182662
 20
62.449869258
 30
0.0
 11
172.2757252478
 21
62.8816762397
 31
0.0
  0
LINE
  5
1B2
330
1F
100
AcDbEntity
  8
0
  6
Continuous
 62
     7
370
    15
100
AcDbLine
 10
243.5266101963
 20
120.5325611882
 30
0.0
 11
239.2723453909
 21
116.2782963827
 31
0.0
  0
LINE
  5
1B3
330
1F
100
AcDbEntity
  8
0
  6
Continuous
 62
     7
370
    15
100
AcDbLine
 10
163.2723453909
 20
116.2782963827
 30
0.0
 11
159.0180805855
 21
120.5325611882
 31
0.0
  0
LINE
  5
1B4
330
1F
100
AcDbEntity
  8
0
  6
Continuous
 62
     7
370
    15
100
AcDbLine
 10
239.2723453909
 20
61.2782963827
 30
0.0
 11
243.5266101963
 21
57.0240315773
 31
0.0
  0
LINE
  5
1B5
330
1F
100
AcDbEntity
  8
0
  6
Continuous
 62
     7
370
    15
100
AcDbLine
 10
159.0180805855
 20
57.0240315773
 30
0.0
 11
163.2723453909
 21
61.2782963827
 31
0.0
  0
LINE
  5
1B6
330
1F
100
AcDbEntity
  8
0
  6
Continuous
 62
     7
370
    15
100
AcDbLine
 10
172.2723453909
 20
62.8782963827
 30
0.0
 11
172.2723453909
 21
60.7782963827
 31
0.0
  0
LINE
  5
1B7
330
1F
100
AcDbEntity
  8
0
  6
Continuous
 62
     7
370
    15
100
AcDbLine
 10
207.4223453909
 20
82.6282963827
 30
0.0
 11
207.4223453909
 21
94.9282963827
 31
0.0
  0
LINE
  5
1B8
330
1F
100
AcDbEntity
  8
0
  6
Continuous
 62
     7
370
    15
100
AcDbLine
 10
195.1223453909
 20
82.6282963827
 30
0.0
 11
207.4223453909
 21
82.6282963827
 31
0.0
  0
LINE
  5
1B9
330
1F
100
AcDbEntity
  8
0
  6
Continuous
 62
     7
370
    15
100
AcDbLine
 10
195.1223453909
 20
94.9282963827
 30
0.0
 11
195.1223453909
 21
82.6282963827
 31
0.0
  0
LINE
  5
1BA
330
1F
100
AcDbEntity
  8
0
  6
Continuous
 62
     7
370
    15
100
AcDbLine
 10
207.4223453909
 20
94.9282963827
 30
0.0
 11
195.1223453909
 21
94.9282963827
 31
0.0
  0
LINE
  5
1BB
330
1F
100
AcDbEntity
  8
0
  6
Continuous
 62
     7
370
    15
100
AcDbLine
 10
205.9676913427
 20
96.4564293845
 30
0.0
 11
196.5769994391
 21
96.4564293845
 31
0.0
  0
ARC
  5
1BC
330
1F
100
AcDbEntity
  8
0
  6
Continuous
 62
     7
370
    15
100
AcDbCircle
 10
201.2723453909
 20
88.7782963827
 30
0.0
 40
9.000000000000021
100
AcDbArc
 50
45.0
 51
58.5533037301
  0
LINE
  5
1BD
330
1F
100
AcDbEntity
  8
0
  6
Continuous
 62
     7
370
    15
100
AcDbLine
 10
207.6363064216
 20
95.1422574134
 30
0.0
 11
207.4223453909
 21
94.9282963827
 31
0.0
  0
LINE
  5
1BE
330
1F
100
AcDbEntity
  8
0
  6
Continuous
 62
     7
370
    15
100
AcDbLine
 10
194.9083843602
 20
95.1422574134
 30
0.0
 11
195.1223453909
 21
94.9282963827
 31
0.0
  0
ARC
  5
1BF
330
1F
100
AcDbEntity
  8
0
  6
Continuous
 62
     7
370
    15
100
AcDbCircle
 10
201.2723453909
 20
88.7782963827
 30
0.0
 40
9.000000000000002
100
AcDbArc
 50
121.4466962699
 51
135.0
  0
LINE
  5
1C0
330
1F
100
AcDbEntity
  8
0
  6
Continuous
 62
     7
370
    15
100
AcDbLine
 10
208.9504783927
 20
84.082950431
 30
0.0
 11
208.9504783927
 21
93.4736423345
 31
0.0
  0
ARC
  5
1C1
330
1F
100
AcDbEntity
  8
0
  6
Continuous
 62
     7
370
    15
100
AcDbCircle
 10
201.2723453909
 20
88.7782963827
 30
0.0
 40
9.000000000000012
100
AcDbArc
 50
315.0
 51
328.5533037301
  0
LINE
  5
1C2
330
1F
100
AcDbEntity
  8
0
  6
Continuous
 62
     7
370
    15
100
AcDbLine
 10
207.6363064216
 20
82.4143353521
 30
0.0
 11
207.4223453909
 21
82.6282963827
 31
0.0
  0
ARC
  5
1C3
330
1F
100
AcDbEntity
  8
0
  6
Continuous
 62
     7
370
    15
100
AcDbCircle
 10
201.2723453909
 20
88.7782963827
 30
0.0
 40
9.000000000000021
100
AcDbArc
 50
31.4466962699
 51
45.0
  0
LINE
  5
1C4
330
1F
100
AcDbEntity
  8
0
  6
Continuous
 62
     7
370
    15
100
AcDbLine
 10
193.5942123891
 20
93.4736423345
 30
0.0
 11
193.5942123891
 21
84.082950431
 31
0.0
  0
ARC
  5
1C5
330
1F
100
AcDbEntity
  8
0
  6
Continuous
 62
     7
370
    15
100
AcDbCircle
 10
201.2723453909
 20
88.7782963827
 30
0.0
 40
9.000000000000012
100
AcDbArc
 50
135.0
 51
148.5533037301
  0
LINE
  5
1C6
330
1F
100
AcDbEntity
  8
0
  6
Continuous
 62
     7
370
    15
100
AcDbLine
 10
194.9083843602
 20
82.4143353521
 30
0.0
 11
195.1223453909
 21
82.6282963827
 31
0.0
  0
ARC
  5
1C7
330
1F
100
AcDbEntity
  8
0
  6
Continuous
 62
     7
370
    15
100
AcDbCircle
 10
201.2723453909
 20
88.7782963827
 30
0.0
 40
9.000000000000005
100
AcDbArc
 50
211.4466962699
 51
225.0
  0
LINE
  5
1C8
330
1F
100
AcDbEntity
  8
0
  6
Continuous
 62
     7
370
    15
100
AcDbLine
 10
196.5769994391
 20
81.1001633809
 30
0.0
 11
205.9676913427
 21
81.1001633809
 31
0.0
  0
ARC
  5
1C9
330
1F
100
AcDbEntity
  8
0
  6
Continuous
 62
     7
370
    15
100
AcDbCircle
 10
201.2723453909
 20
88.7782963827
 30
0.0
 40
8.999999999999993
100
AcDbArc
 50
225.0
 51
238.5533037301
  0
ARC
  5
1CA
330
1F
100
AcDbEntity
  8
0
  6
Continuous
 62
     7
370
    15
100
AcDbCircle
 10
201.2723453909
 20
88.7782963827
 30
0.0
 40
9.000000000000012
100
AcDbArc
 50
301.4466962699
 51
315.0
  0
ARC
  5
1CB
330
1F
100
AcDbEntity
  8
0
  6
Continuous
 62
     7
370
    15
100
AcDbCircle
 10
201.2723453909
 20
88.7782963827
 30
0.0
 40
9.000000000000021
100
AcDbArc
 50
58.5533037301
 51
121.4466962699
  0
ARC
  5
1CC
330
1F
100
AcDbEntity
  8
0
  6
Continuous
 62
     7
370
    15
100
AcDbCircle
 10
201.2723453909
 20
88.7782963827
 30
0.0
 40
9.000000000000012
100
AcDbArc
 50
328.5533037301
 51
31.4466962699
  0
ARC
  5
1CD
330
1F
100
AcDbEntity
  8
0
  6
Continuous
 62
     7
370
    15
100
AcDbCircle
 10
201.2723453909
 20
88.7782963827
 30
0.0
 40
9.000000000000012
100
AcDbArc
 50
148.5533037301
 51
211.4466962699
  0
ARC
  5
1CE
330
1F
100
AcDbEntity
  8
0
  6
Continuous
 62
     7
370
    15
100
AcDbCircle
 10
201.2723453909
 20
88.7782963827
 30
0.0
 40
9.000000000000007
100
AcDbArc
 50
238.5533037301
 51
301.4466962699
  0
ARC
  5
1CF
330
1F
100
AcDbEntity
  8
0
  6
Continuous
 62
     7
370
    15
100
AcDbCircle
 10
201.2723453909
 20
88.7782963827
 30
0.0
 40
23.74999999999999
100
AcDbArc
 50
21.525546637
 51
38.474453363
  0
SPLINE
  5
1D0
330
1F
100
AcDbEntity
  8
0
  6
Continuous
 62
     7
370
    15
100
AcDbSpline
210
0.0
220
0.0
230
1.0
 70
    24
 71
     3
 72
     8
 73
     4
 74
     0
 42
0.00000001
 43
0.00000001
 12
1.0
 22
0.0
 32
0.0
 13
1.0
 23
0.0
 33
0.0
 40
0.0
 40
0.0
 40
0.0
 40
0.0
 40
0.00426344474639
 40
0.00426344474639
 40
0.00426344474639
 40
0.00426344474639
 10
219.8658793759268
 20
103.5547301185005
 30
0.0
 10
220.7409152454443
 20
104.059932313317
 30
0.0
 10
221.6153526563354
 20
104.5647889878845
 30
0.0
 10
222.4893733875724
 20
105.0694050923414
 30
0.0
  0
ARC
  5
1D1
330
1F
100
AcDbEntity
  8
0
  6
Continuous
 62
     7
370
    15
100
AcDbCircle
 10
201.2723453909
 20
88.7782963827
 30
0.0
 40
26.75000000000002
100
AcDbArc
 50
22.4817997988
 51
37.5182002012
  0
SPLINE
  5
1D2
330
1F
100
AcDbEntity
  8
0
  6
Continuous
 62
     7
370
    15
100
AcDbSpline
210
0.0
220
0.0
230
1.0
 70
    24
 71
     3
 72
     8
 73
     4
 74
     0
 42
0.00000001
 43
0.00000001
 12
1.0
 22
0.0
 32
0.0
 13
1.0
 23
0.0
 33
0.0
 40
0.0
 40
0.0
 40
0.0
 40
0.0
 40
0.00426344474639
 40
0.00426344474639
 40
0.00426344474639
 40
0.00426344474639
 10
225.9893733875724
 20
99.00722726585036
 30
0.0
 10
225.1153526563353
 20
98.50261116139336
 30
0.0
 10
224.2409152454442
 20
97.99775448682591
 30
0.0
 10
223.3658793759267
 20
97.49255229200942
 30
0.0
  0
ARC
  5
1D3
330
1F
100
AcDbEntity
  8
0
  6
Continuous
 62
     7
370
    15
100
AcDbCircle
 10
201.2723453909
 20
88.7782963827
 30
0.0
 40
18.00000000000001
100
AcDbArc
 50
41.2122714176
 51
138.7877285824
  0
ARC
  5
1D4
330
1F
100
AcDbEntity
  8
0
  6
Continuous
 62
     7
370
    15
100
AcDbCircle
 10
201.2723453909
 20
88.7782963827
 30
0.0
 40
18.97335975884889
100
AcDbArc
 50
40.6301856582
 51
139.3698143418
  0
ARC
  5
1D5
330
1F
100
AcDbEntity
  8
0
  6
Continuous
 62
     7
370
    15
100
AcDbCircle
 10
201.2723453909
 20
88.7782963827
 30
0.0
 40
23.74999999999999
100
AcDbArc
 50
261.525546637
 51
278.474453363
  0
LINE
  5
1D6
330
1F
100
AcDbEntity
  8
0
  6
Continuous
 62
     7
370
    15
100
AcDbLine
 10
197.7723453909
 20
71.1218527997
 30
0.0
 11
197.7723453909
 21
65.2876067377
 31
0.0
  0
ARC
  5
1D7
330
1F
100
AcDbEntity
  8
0
  6
Continuous
 62
     7
370
    15
100
AcDbCircle
 10
201.2723453909
 20
88.7782963827
 30
0.0
 40
18.00000000000002
100
AcDbArc
 50
161.2122714176
 51
258.7877285824
  0
LINE
  5
1D8
330
1F
100
AcDbEntity
  8
0
  6
Continuous
 62
     7
370
    15
100
AcDbLine
 10
179.1788114059
 20
97.492552292
 30
0.0
 11
184.2314167075
 21
94.575429261
 31
0.0
  0
ARC
  5
1D9
330
1F
100
AcDbEntity
  8
0
  6
Continuous
 62
     7
370
    15
100
AcDbCircle
 10
201.2723453909
 20
88.7782963827
 30
0.0
 40
23.75
100
AcDbArc
 50
141.525546637
 51
158.474453363
  0
LINE
  5
1DA
330
1F
100
AcDbEntity
  8
0
  6
Continuous
 62
     7
370
    15
100
AcDbLine
 10
187.7314167075
 20
100.6376070875
 30
0.0
 11
182.6788114059
 21
103.5547301185
 31
0.0
  0
LINE
  5
1DB
330
1F
100
AcDbEntity
  8
0
  6
Continuous
 62
     7
370
    15
100
AcDbLine
 10
218.3132740743
 20
94.575429261
 30
0.0
 11
223.3658793759
 21
97.492552292
 31
0.0
  0
ARC
  5
1DC
330
1F
100
AcDbEntity
  8
0
  6
Continuous
 62
     7
370
    15
100
AcDbCircle
 10
201.2723453909
 20
88.7782963827
 30
0.0
 40
18.0
100
AcDbArc
 50
281.2122714176
 51
18.7877285823
  0
LINE
  5
1DD
330
1F
100
AcDbEntity
  8
0
  6
Continuous
 62
     7
370
    15
100
AcDbLine
 10
204.7723453909
 20
65.2876067377
 30
0.0
 11
204.7723453909
 21
71.1218527997
 31
0.0
  0
LINE
  5
1DE
330
1F
100
AcDbEntity
  8
0
  6
Continuous
 62
     7
370
    15
100
AcDbLine
 10
219.8658793759
 20
103.5547301185
 30
0.0
 11
214.8132740743
 21
100.6376070875
 31
0.0
  0
SPLINE
  5
1DF
330
1F
100
AcDbEntity
  8
0
  6
Continuous
 62
     7
370
    15
100
AcDbSpline
210
0.0
220
0.0
230
1.0
 70
    24
 71
     3
 72
     8
 73
     4
 74
     0
 42
0.00000001
 43
0.00000001
 12
1.0
 22
0.0
 32
0.0
 13
1.0
 23
0.0
 33
0.0
 40
0.0
 40
0.0
 40
0.0
 40
0.0
 40
0.00426344474639
 40
0.00426344474639
 40
0.00426344474639
 40
0.00426344474639
 10
179.1788114058702
 20
97.49255229200956
 30
0.0
 10
178.3037755363527
 20
97.99775448682607
 30
0.0
 10
177.4293381254616
 20
98.50261116139353
 30
0.0
 10
176.5553173942246
 20
99.00722726585053
 30
0.0
  0
ARC
  5
1E0
330
1F
100
AcDbEntity
  8
0
  6
Continuous
 62
     7
370
    15
100
AcDbCircle
 10
201.2723453909
 20
88.7782963827
 30
0.0
 40
26.75000000000001
100
AcDbArc
 50
142.4817997988
 51
157.5182002012
  0
SPLINE
  5
1E1
330
1F
100
AcDbEntity
  8
0
  6
Continuous
 62
     7
370
    15
100
AcDbSpline
210
0.0
220
0.0
230
1.0
 70
    24
 71
     3
 72
     8
 73
     4
 74
     0
 42
0.00000001
 43
0.00000001
 12
1.0
 22
0.0
 32
0.0
 13
1.0
 23
0.0
 33
0.0
 40
0.0
 40
0.0
 40
0.0
 40
0.0
 40
0.00426344474639
 40
0.00426344474639
 40
0.00426344474639
 40
0.00426344474639
 10
180.0553173942246
 20
105.0694050923416
 30
0.0
 10
180.9293381254616
 20
104.5647889878846
 30
0.0
 10
181.8037755363527
 20
104.0599323133171
 30
0.0
 10
182.6788114058702
 20
103.5547301185006
 30
0.0
  0
ARC
  5
1E2
330
1F
100
AcDbEntity
  8
0
  6
Continuous
 62
     7
370
    15
100
AcDbCircle
 10
201.2723453909
 20
88.7782963827
 30
0.0
 40
18.97335975884888
100
AcDbArc
 50
160.6301856582
 51
259.3698143418
  0
ARC
  5
1E3
330
1F
100
AcDbEntity
  8
0
  6
Continuous
 62
     7
370
    15
100
AcDbCircle
 10
201.2723453909
 20
88.7782963827
 30
0.0
 40
18.9733597588489
100
AcDbArc
 50
280.6301856582
 51
19.3698143418
  0
ARC
  5
1E4
330
1F
100
AcDbEntity
  8
0
  6
Continuous
 62
     7
370
    15
100
AcDbCircle
 10
201.2723453909
 20
88.7782963827
 30
0.0
 40
26.75
100
AcDbArc
 50
262.4817997988
 51
277.5182002012
  0
SPLINE
  5
1E5
330
1F
100
AcDbEntity
  8
0
  6
Continuous
 62
     7
370
    15
100
AcDbSpline
210
0.0
220
0.0
230
1.0
 70
    24
 71
     3
 72
     8
 73
     4
 74
     0
 42
0.00000001
 43
0.00000001
 12
1.0
 22
0.0
 32
0.0
 13
1.0
 23
0.0
 33
0.0
 40
0.0
 40
0.0
 40
0.0
 40
0.0
 40
0.00426344474639
 40
0.00426344474639
 40
0.00426344474639
 40
0.00426344474639
 10
197.7723453908982
 20
62.25825679000013
 30
0.0
 10
197.7723453908982
 20
63.26748899891413
 30
0.0
 10
197.7723453908982
 20
64.27720234804904
 30
0.0
 10
197.7723453908982
 20
65.28760673768203
 30
0.0
  0
SPLINE
  5
1E6
330
1F
100
AcDbEntity
  8
0
  6
Continuous
 62
     7
370
    15
100
AcDbSpline
210
0.0
220
0.0
230
1.0
 70
    24
 71
     3
 72
     8
 73
     4
 74
     0
 42
0.00000001
 43
0.00000001
 12
1.0
 22
0.0
 32
0.0
 13
1.0
 23
0.0
 33
0.0
 40
0.0
 40
0.0
 40
0.0
 40
0.0
 40
0.00426344474639
 40
0.00426344474639
 40
0.00426344474639
 40
0.00426344474639
 10
204.7723453908982
 20
65.28760673768197
 30
0.0
 10
204.7723453908982
 20
64.27720234804897
 30
0.0
 10
204.7723453908982
 20
63.26748899891406
 30
0.0
 10
204.7723453908982
 20
62.25825679000006
 30
0.0
  0
ARC
  5
1E7
330
1F
100
AcDbEntity
  8
0
  6
Continuous
 62
     7
370
    15
100
AcDbCircle
 10
201.2723453909
 20
88.7782963827
 30
0.0
 40
24.00000000000001
100
AcDbArc
 50
38.3855386471
 51
141.6144613529
  0
ARC
  5
1E8
330
1F
100
AcDbEntity
  8
0
  6
Continuous
 62
     7
370
    15
100
AcDbCircle
 10
201.2723453909
 20
88.7782963827
 30
0.0
 40
24.00000000000002
100
AcDbArc
 50
158.3855386471
 51
261.6144613529
  0
ARC
  5
1E9
330
1F
100
AcDbEntity
  8
0
  6
Continuous
 62
     7
370
    15
100
AcDbCircle
 10
201.2723453909
 20
88.7782963827
 30
0.0
 40
24.00000000000002
100
AcDbArc
 50
278.3855386471
 51
21.6144613529
  0
CIRCLE
  5
1EA
330
1F
100
AcDbEntity
  8
0
  6
Continuous
 62
     7
370
    15
100
AcDbCircle
 10
201.2723453909
 20
88.7782963827
 30
0.0
 40
27.25
  0
LINE
  5
1EB
330
1F
100
AcDbEntity
  8
0
  6
Continuous
 62
     7
370
    15
100
AcDbLine
 10
238.7723453909
 20
100.5974624219
 30
0.0
 11
225.8257527744
 21
100.5974624219
 31
0.0
  0
SPLINE
  5
1EC
330
1F
100
AcDbEntity
  8
0
  6
Continuous
 62
     7
370
    15
100
AcDbSpline
210
0.0
220
0.0
230
1.0
 70
     8
 71
     3
 72
    14
 73
    10
 74
     0
 42
0.00000001
 43
0.00000001
 12
1.0
 22
0.0
 32
0.0
 13
1.0
 23
0.0
 33
0.0
 40
0.0
 40
0.0
 40
0.0
 40
0.0
 40
0.25
 40
0.25
 40
0.5
 40
0.5
 40
0.75
 40
0.75
 40
1.0
 40
1.0
 40
1.0
 40
1.0
 10
229.7302653875866
 20
100.9288283640207
 30
0.0
 10
229.6629356469608
 20
100.9069517962618
 30
0.0
 10
229.5256366033718
 20
100.8855448685125
 30
0.0
 10
229.1176428971638
 20
100.8436263759399
 30
0.0
 10
228.8469260659897
 20
100.8231149599137
 30
0.0
 10
228.1678864964856
 20
100.783015750605
 30
0.0
 10
227.7681803822767
 20
100.7639467262437
 30
0.0
 10
226.8577262669244
 20
100.7277885021798
 30
0.0
 10
226.3465396566061
 20
100.7106772019875
 30
0.0
 10
225.7787840689564
 20
100.6945442535409
 30
0.0
  0
SPLINE
  5
1ED
330
1F
100
AcDbEntity
  8
0
  6
Continuous
 62
     7
370
    15
100
AcDbSpline
210
0.0
220
0.0
230
1.0
 70
     8
 71
     3
 72
     8
 73
     4
 74
     0
 42
0.00000001
 43
0.00000001
 12
1.0
 22
0.0
 32
0.0
 13
1.0
 23
0.0
 33
0.0
 40
0.0
 40
0.0
 40
0.0
 40
0.0
 40
1.0
 40
1.0
 40
1.0
 40
1.0
 10
235.9121909221807
 20
101.0164371670389
 30
0.0
 10
233.8566702241505
 20
100.9869874860196
 30
0.0
 10
231.7970262137442
 20
100.9577364741015
 30
0.0
 10
229.7302653875866
 20
100.9288283640207
 30
0.0
  0
LINE
  5
1EE
330
1F
100
AcDbEntity
  8
0
  6
Continuous
 62
     7
370
    15
100
AcDbLine
 10
236.0969056896
 20
101.2782963827
 30
0.0
 11
235.9121909222
 21
101.016437167
 31
0.0
  0
LINE
  5
1EF
330
1F
100
AcDbEntity
  8
0
  6
Continuous
 62
     7
370
    15
100
AcDbLine
 10
238.7723453909
 20
101.2782963827
 30
0.0
 11
236.0969056896
 21
101.2782963827
 31
0.0
  0
ARC
  5
1F0
330
1F
100
AcDbEntity
  8
0
  6
Continuous
 62
     7
370
    15
100
AcDbCircle
 10
238.7723453909
 20
88.7782963827
 30
0.0
 40
11.81916603920115
100
AcDbArc
 50
270.0
 51
90.0
  0
ARC
  5
1F1
330
1F
100
AcDbEntity
  8
0
  6
Continuous
 62
     7
370
    15
100
AcDbCircle
 10
238.7723453909
 20
88.7782963827
 30
0.0
 40
12.50000000000001
100
AcDbArc
 50
16.2602047083
 51
90.0
  0
ARC
  5
1F2
330
1F
100
AcDbEntity
  8
0
  6
Continuous
 62
     7
370
    15
100
AcDbCircle
 10
238.7723453909
 20
88.7782963827
 30
0.0
 40
12.5
100
AcDbArc
 50
0.0
 51
16.2602047083
  0
ARC
  5
1F3
330
1F
100
AcDbEntity
  8
0
  6
Continuous
 62
     7
370
    15
100
AcDbCircle
 10
238.7723453909
 20
88.7782963827
 30
0.0
 40
12.5
100
AcDbArc
 50
343.7397952917
 51
0.0
  0
ARC
  5
1F4
330
1F
100
AcDbEntity
  8
0
  6
Continuous
 62
     7
370
    15
100
AcDbCircle
 10
238.7723453909
 20
88.7782963827
 30
0.0
 40
12.5
100
AcDbArc
 50
270.0
 51
343.7397952917
  0
ARC
  5
1F5
330
1F
100
AcDbEntity
  8
0
  6
Continuous
 62
     7
370
    15
100
AcDbCircle
 10
163.7723453909
 20
88.7782963827
 30
0.0
 40
11.81916603920115
100
AcDbArc
 50
90.0
 51
270.0
  0
ARC
  5
1F6
330
1F
100
AcDbEntity
  8
0
  6
Continuous
 62
     7
370
    15
100
AcDbCircle
 10
163.7723453909
 20
88.7782963827
 30
0.0
 40
12.5
100
AcDbArc
 50
196.2602047083
 51
270.0
  0
ARC
  5
1F7
330
1F
100
AcDbEntity
  8
0
  6
Continuous
 62
     7
370
    15
100
AcDbCircle
 10
163.7723453909
 20
88.7782963827
 30
0.0
 40
12.49999999999997
100
AcDbArc
 50
180.0
 51
196.2602047083
  0
ARC
  5
1F8
330
1F
100
AcDbEntity
  8
0
  6
Continuous
 62
     7
370
    15
100
AcDbCircle
 10
163.7723453909
 20
88.7782963827
 30
0.0
 40
12.49999999999997
100
AcDbArc
 50
163.7397952917
 51
180.0
  0
ARC
  5
1F9
330
1F
100
AcDbEntity
  8
0
  6
Continuous
 62
     7
370
    15
100
AcDbCircle
 10
163.7723453909
 20
88.7782963827
 30
0.0
 40
12.50000000000001
100
AcDbArc
 50
90.0
 51
163.7397952917
  0
SPLINE
  5
1FA
330
1F
100
AcDbEntity
  8
0
  6
Continuous
 62
     7
370
    15
100
AcDbSpline
210
0.0
220
0.0
230
1.0
 70
     8
 71
     3
 72
    14
 73
    10
 74
     0
 42
0.00000001
 43
0.00000001
 12
1.0
 22
0.0
 32
0.0
 13
1.0
 23
0.0
 33
0.0
 40
0.0
 40
0.0
 40
0.0
 40
0.0
 40
0.25
 40
0.25
 40
0.5
 40
0.5
 40
0.75
 40
0.75
 40
1.0
 40
1.0
 40
1.0
 40
1.0
 10
176.7659067128406
 20
100.6945442535409
 30
0.0
 10
176.1981658270264
 20
100.7106767842303
 30
0.0
 10
175.6872208245017
 20
100.7277810768957
 30
0.0
 10
174.7774265852555
 20
100.7639075900153
 30
0.0
 10
174.3785295476779
 20
100.7829289926101
 30
0.0
 10
173.6994161215097
 20
100.8230023911327
 30
0.0
 10
173.4275390768501
 20
100.8435821687358
 30
0.0
 10
173.0190833871335
 20
100.8855356161413
 30
0.0
 10
172.8817545656802
 20
100.9069519811901
 30
0.0
 10
172.8144253942103
 20
100.9288283640207
 30
0.0
  0
LINE
  5
1FB
330
1F
100
AcDbEntity
  8
0
  6
Continuous
 62
     7
370
    15
100
AcDbLine
 10
176.7189380074
 20
100.5974624219
 30
0.0
 11
163.7723453909
 21
100.5974624219
 31
0.0
  0
LINE
  5
1FC
330
1F
100
AcDbEntity
  8
0
  6
Continuous
 62
     7
370
    15
100
AcDbLine
 10
166.4477850922
 20
101.2782963827
 30
0.0
 11
163.7723453909
 21
101.2782963827
 31
0.0
  0
LINE
  5
1FD
330
1F
100
AcDbEntity
  8
0
  6
Continuous
 62
     7
370
    15
100
AcDbLine
 10
166.6324998596
 20
101.016437167
 30
0.0
 11
166.4477850922
 21
101.2782963827
 31
0.0
  0
SPLINE
  5
1FE
330
1F
100
AcDbEntity
  8
0
  6
Continuous
 62
     7
370
    15
100
AcDbSpline
210
0.0
220
0.0
230
1.0
 70
     8
 71
     3
 72
     8
 73
     4
 74
     0
 42
0.00000001
 43
0.00000001
 12
1.0
 22
0.0
 32
0.0
 13
1.0
 23
0.0
 33
0.0
 40
0.0
 40
0.0
 40
0.0
 40
0.0
 40
1.0
 40
1.0
 40
1.0
 40
1.0
 10
172.8144253942103
 20
100.9288283640207
 30
0.0
 10
170.7476645680526
 20
100.9577364741015
 30
0.0
 10
168.6880205576464
 20
100.9869874860196
 30
0.0
 10
166.6324998596161
 20
101.0164371670389
 30
0.0
  0
SPLINE
  5
1FF
330
1F
100
AcDbEntity
  8
0
  6
Continuous
 62
     7
370
    15
100
AcDbSpline
210
0.0
220
0.0
230
1.0
 70
     8
 71
     3
 72
    14
 73
    10
 74
     0
 42
0.00000001
 43
0.00000001
 12
1.0
 22
0.0
 32
0.0
 13
1.0
 23
0.0
 33
0.0
 40
0.0
 40
0.0
 40
0.0
 40
0.0
 40
0.25
 40
0.25
 40
0.5
 40
0.5
 40
0.75
 40
0.75
 40
1.0
 40
1.0
 40
1.0
 40
1.0
 10
225.7787840689563
 20
76.86204851192059
 30
0.0
 10
226.3465249547705
 20
76.84591598123112
 30
0.0
 10
226.8574699572952
 20
76.82881168856576
 30
0.0
 10
227.7672641965413
 20
76.79268517544615
 30
0.0
 10
228.166161234119
 20
76.77366377285139
 30
0.0
 10
228.8452746602871
 20
76.73359037432878
 30
0.0
 10
229.1171517049468
 20
76.7130105967256
 30
0.0
 10
229.5256073946634
 20
76.67105714932016
 30
0.0
 10
229.6629362161167
 20
76.64964078427131
 30
0.0
 10
229.7302653875866
 20
76.62776440144073
 30
0.0
  0
LINE
  5
200
330
1F
100
AcDbEntity
  8
0
  6
Continuous
 62
     7
370
    15
100
AcDbLine
 10
225.8257527744
 20
76.9591303435
 30
0.0
 11
238.7723453909
 21
76.9591303435
 31
0.0
  0
LINE
  5
201
330
1F
100
AcDbEntity
  8
0
  6
Continuous
 62
     7
370
    15
100
AcDbLine
 10
236.0969056896
 20
76.2782963827
 30
0.0
 11
238.7723453909
 21
76.2782963827
 31
0.0
  0
LINE
  5
202
330
1F
100
AcDbEntity
  8
0
  6
Continuous
 62
     7
370
    15
100
AcDbLine
 10
235.9121909222
 20
76.5401555984
 30
0.0
 11
236.0969056896
 21
76.2782963827
 31
0.0
  0
SPLINE
  5
203
330
1F
100
AcDbEntity
  8
0
  6
Continuous
 62
     7
370
    15
100
AcDbSpline
210
0.0
220
0.0
230
1.0
 70
     8
 71
     3
 72
     8
 73
     4
 74
     0
 42
0.00000001
 43
0.00000001
 12
1.0
 22
0.0
 32
0.0
 13
1.0
 23
0.0
 33
0.0
 40
0.0
 40
0.0
 40
0.0
 40
0.0
 40
1.0
 40
1.0
 40
1.0
 40
1.0
 10
229.7302653875866
 20
76.62776440144073
 30
0.0
 10
231.7970262137442
 20
76.59885629135991
 30
0.0
 10
233.8566702241505
 20
76.56960527944189
 30
0.0
 10
235.9121909221807
 20
76.54015559842259
 30
0.0
  0
LINE
  5
204
330
1F
100
AcDbEntity
  8
0
  6
Continuous
 62
     7
370
    15
100
AcDbLine
 10
163.7723453909
 20
76.9591303435
 30
0.0
 11
176.7189380074
 21
76.9591303435
 31
0.0
  0
SPLINE
  5
205
330
1F
100
AcDbEntity
  8
0
  6
Continuous
 62
     7
370
    15
100
AcDbSpline
210
0.0
220
0.0
230
1.0
 70
     8
 71
     3
 72
    14
 73
    10
 74
     0
 42
0.00000001
 43
0.00000001
 12
1.0
 22
0.0
 32
0.0
 13
1.0
 23
0.0
 33
0.0
 40
0.0
 40
0.0
 40
0.0
 40
0.0
 40
0.25
 40
0.25
 40
0.5
 40
0.5
 40
0.75
 40
0.75
 40
1.0
 40
1.0
 40
1.0
 40
1.0
 10
172.8144253942103
 20
76.62776440144073
 30
0.0
 10
172.8817551348361
 20
76.64964096919968
 30
0.0
 10
173.0190541784251
 20
76.67104789694892
 30
0.0
 10
173.4270478846331
 20
76.71296638952157
 30
0.0
 10
173.6977647158072
 20
76.73347780554774
 30
0.0
 10
174.3768042853113
 20
76.7735770148564
 30
0.0
 10
174.7765103995202
 20
76.79264603921776
 30
0.0
 10
175.6869645148725
 20
76.82880426328163
 30
0.0
 10
176.1981511251908
 20
76.84591556347395
 30
0.0
 10
176.7659067128405
 20
76.86204851192059
 30
0.0
  0
SPLINE
  5
206
330
1F
100
AcDbEntity
  8
0
  6
Continuous
 62
     7
370
    15
100
AcDbSpline
210
0.0
220
0.0
230
1.0
 70
     8
 71
     3
 72
     8
 73
     4
 74
     0
 42
0.00000001
 43
0.00000001
 12
1.0
 22
0.0
 32
0.0
 13
1.0
 23
0.0
 33
0.0
 40
0.0
 40
0.0
 40
0.0
 40
0.0
 40
1.0
 40
1.0
 40
1.0
 40
1.0
 10
166.6324998596161
 20
76.54015559842259
 30
0.0
 10
168.6880205576464
 20
76.56960527944189
 30
0.0
 10
170.7476645680526
 20
76.59885629135991
 30
0.0
 10
172.8144253942103
 20
76.62776440144073
 30
0.0
  0
LINE
  5
207
330
1F
100
AcDbEntity
  8
0
  6
Continuous
 62
     7
370
    15
100
AcDbLine
 10
166.4477850922
 20
76.2782963827
 30
0.0
 11
166.6324998596
 21
76.5401555984
 31
0.0
  0
LINE
  5
208
330
1F
100
AcDbEntity
  8
0
  6
Continuous
 62
     7
370
    15
100
AcDbLine
 10
163.7723453909
 20
76.2782963827
 30
0.0
 11
166.4477850922
 21
76.2782963827
 31
0.0
  0
ARC
  5
209
330
1F
100
AcDbEntity
  8
0
  6
Continuous
 62
     7
370
    15
100
AcDbCircle
 10
201.2723453909
 20
88.7782963827
 30
0.0
 40
30.94331329974628
100
AcDbArc
 50
23.1207795216
 51
156.8792204784
  0
ARC
  5
20A
330
1F
100
AcDbEntity
  8
0
  6
Continuous
 62
     7
370
    15
100
AcDbCircle
 10
201.2723453909
 20
88.7782963827
 30
0.0
 40
30.94331329974628
100
AcDbArc
 50
203.1207795216
 51
336.8792204784
  0
ARC
  5
20B
330
1F
100
AcDbEntity
  8
0
  6
Continuous
 62
     7
370
    15
100
AcDbCircle
 10
201.2723453909
 20
88.7782963827
 30
0.0
 40
36.73814078430814
100
AcDbArc
 50
112.2608601122
 51
160.5418569914
  0
SPLINE
  5
20C
330
1F
100
AcDbEntity
  8
0
  6
Continuous
 62
     7
370
    15
100
AcDbSpline
210
0.0
220
0.0
230
1.0
 70
    24
 71
     3
 72
    18
 73
    14
 74
     0
 42
0.00000001
 43
0.00000001
 12
1.0
 22
0.0
 32
0.0
 13
1.0
 23
0.0
 33
0.0
 40
0.0
 40
0.0
 40
0.0
 40
0.0
 40
0.1249999999999999
 40
0.1249999999999999
 40
0.2499999999999999
 40
0.2499999999999999
 40
0.5
 40
0.5
 40
0.625
 40
0.625
 40
0.7500000000000001
 40
0.7500000000000001
 40
1.0
 40
1.0
 40
1.0
 40
1.0
 10
187.3550544085397
 20
122.7782963827307
 30
0.0
 10
188.5042855321725
 20
122.7782963827307
 30
0.0
 10
189.6589598139606
 20
122.7782963827307
 30
0.0
 10
191.9682258970034
 20
122.7782963827307
 30
0.0
 10
193.1245500889282
 20
122.7782963827307
 30
0.0
 10
196.5990336452208
 20
122.7782963827307
 30
0.0
 10
198.9227621422506
 20
122.7782963827307
 30
0.0
 10
202.4204142524066
 20
122.7782963827307
 30
0.0
 10
203.5882945747219
 20
122.7782963827307
 30
0.0
 10
205.9280260665501
 20
122.7782963827307
 30
0.0
 10
207.1028366376565
 20
122.7782963827307
 30
0.0
 10
210.6118252021456
 20
122.7782963827307
 30
0.0
 10
212.9148090460042
 20
122.7782963827307
 30
0.0
 10
215.1896363732572
 20
122.7782963827307
 30
0.0
  0
ARC
  5
20D
330
1F
100
AcDbEntity
  8
0
  6
Continuous
 62
     7
370
    15
100
AcDbCircle
 10
201.2723453909
 20
88.7782963827
 30
0.0
 40
36.73814078430814
100
AcDbArc
 50
19.4581430086
 51
67.7391398878
  0
ARC
  5
20E
330
1F
100
AcDbEntity
  8
0
  6
Continuous
 62
     7
370
    15
100
AcDbCircle
 10
201.2723453909
 20
88.7782963827
 30
0.0
 40
36.73814078430814
100
AcDbArc
 50
292.2608601122
 51
340.5418569914
  0
SPLINE
  5
20F
330
1F
100
AcDbEntity
  8
0
  6
Continuous
 62
     7
370
    15
100
AcDbSpline
210
0.0
220
0.0
230
1.0
 70
    24
 71
     3
 72
    18
 73
    14
 74
     0
 42
0.00000001
 43
0.00000001
 12
1.0
 22
0.0
 32
0.0
 13
1.0
 23
0.0
 33
0.0
 40
0.0
 40
0.0
 40
0.0
 40
0.0
 40
0.125
 40
0.125
 40
0.25
 40
0.25
 40
0.4999999999999999
 40
0.4999999999999999
 40
0.6249999999999999
 40
0.6249999999999999
 40
0.7499999999999999
 40
0.7499999999999999
 40
1.0
 40
1.0
 40
1.0
 40
1.0
 10
187.3550544085397
 20
54.77829638273072
 30
0.0
 10
188.5042855321725
 20
54.77829638273072
 30
0.0
 10
189.6589598139606
 20
54.77829638273072
 30
0.0
 10
191.9682258970034
 20
54.77829638273072
 30
0.0
 10
193.1245500889282
 20
54.77829638273072
 30
0.0
 10
196.5990336452208
 20
54.77829638273071
 30
0.0
 10
198.9227621422506
 20
54.77829638273072
 30
0.0
 10
202.4204142524066
 20
54.77829638273071
 30
0.0
 10
203.5882945747219
 20
54.77829638273072
 30
0.0
 10
205.9280260665501
 20
54.77829638273072
 30
0.0
 10
207.1028366376565
 20
54.77829638273072
 30
0.0
 10
210.6118252021455
 20
54.77829638273071
 30
0.0
 10
212.9148090460042
 20
54.77829638273071
 30
0.0
 10
215.1896363732572
 20
54.77829638273072
 30
0.0
  0
ARC
  5
210
330
1F
100
AcDbEntity
  8
0
  6
Continuous
 62
     7
370
    15
100
AcDbCircle
 10
201.2723453909
 20
88.7782963827
 30
0.0
 40
36.73814078430814
100
AcDbArc
 50
199.4581430086
 51
247.7391398878
  0
ARC
  5
211
330
1F
100
AcDbEntity
  8
0
  6
Continuous
 62
     7
370
    15
100
AcDbCircle
 10
201.2723453909
 20
88.7782963827
 30
0.0
 40
37.00000000000002
100
AcDbArc
 50
113.231456505
 51
160.2548018994
  0
SPLINE
  5
212
330
1F
100
AcDbEntity
  8
0
  6
Continuous
 62
     7
370
    15
100
AcDbSpline
210
0.0
220
0.0
230
1.0
 70
    24
 71
     3
 72
     8
 73
     4
 74
     0
 42
0.00000001
 43
0.00000001
 12
1.0
 22
0.0
 32
0.0
 13
1.0
 23
0.0
 33
0.0
 40
0.0
 40
0.0
 40
0.0
 40
0.0
 40
1.0
 40
1.0
 40
1.0
 40
1.0
 10
186.677825871572
 20
122.7782963827307
 30
0.0
 10
186.8991334606506
 20
122.7782963827307
 30
0.0
 10
187.1246650302255
 20
122.7782963827307
 30
0.0
 10
187.3550544085397
 20
122.7782963827307
 30
0.0
  0
ARC
  5
213
330
1F
100
AcDbEntity
  8
0
  6
Continuous
 62
     7
370
    15
100
AcDbCircle
 10
201.2723453909
 20
88.7782963827
 30
0.0
 40
37.00000000000002
100
AcDbArc
 50
19.7451981006
 51
66.768543495
  0
SPLINE
  5
214
330
1F
100
AcDbEntity
  8
0
  6
Continuous
 62
     7
370
    15
100
AcDbSpline
210
0.0
220
0.0
230
1.0
 70
    24
 71
     3
 72
     8
 73
     4
 74
     0
 42
0.00000001
 43
0.00000001
 12
1.0
 22
0.0
 32
0.0
 13
1.0
 23
0.0
 33
0.0
 40
0.0
 40
0.0
 40
0.0
 40
0.0
 40
1.0
 40
1.0
 40
1.0
 40
1.0
 10
215.1896363732572
 20
122.7782963827307
 30
0.0
 10
215.4200257515714
 20
122.7782963827307
 30
0.0
 10
215.6455573211463
 20
122.7782963827307
 30
0.0
 10
215.8668649102248
 20
122.7782963827307
 30
0.0
  0
ARC
  5
215
330
1F
100
AcDbEntity
  8
0
  6
Continuous
 62
     7
370
    15
100
AcDbCircle
 10
201.2723453909
 20
88.7782963827
 30
0.0
 40
37.00000000000001
100
AcDbArc
 50
293.231456505
 51
340.2548018994
  0
SPLINE
  5
216
330
1F
100
AcDbEntity
  8
0
  6
Continuous
 62
     7
370
    15
100
AcDbSpline
210
0.0
220
0.0
230
1.0
 70
    24
 71
     3
 72
     8
 73
     4
 74
     0
 42
0.00000001
 43
0.00000001
 12
1.0
 22
0.0
 32
0.0
 13
1.0
 23
0.0
 33
0.0
 40
0.0
 40
0.0
 40
0.0
 40
0.0
 40
1.0
 40
1.0
 40
1.0
 40
1.0
 10
215.8668649102248
 20
54.77829638273072
 30
0.0
 10
215.6455573211463
 20
54.77829638273072
 30
0.0
 10
215.4200257515714
 20
54.77829638273072
 30
0.0
 10
215.1896363732572
 20
54.77829638273072
 30
0.0
  0
ARC
  5
217
330
1F
100
AcDbEntity
  8
0
  6
Continuous
 62
     7
370
    15
100
AcDbCircle
 10
201.2723453909
 20
88.7782963827
 30
0.0
 40
37.00000000000001
100
AcDbArc
 50
199.7451981006
 51
246.768543495
  0
SPLINE
  5
218
330
1F
100
AcDbEntity
  8
0
  6
Continuous
 62
     7
370
    15
100
AcDbSpline
210
0.0
220
0.0
230
1.0
 70
    24
 71
     3
 72
     8
 73
     4
 74
     0
 42
0.00000001
 43
0.00000001
 12
1.0
 22
0.0
 32
0.0
 13
1.0
 23
0.0
 33
0.0
 40
0.0
 40
0.0
 40
0.0
 40
0.0
 40
1.0
 40
1.0
 40
1.0
 40
1.0
 10
187.3550544085397
 20
54.77829638273072
 30
0.0
 10
187.1246650302255
 20
54.77829638273072
 30
0.0
 10
186.8991334606506
 20
54.77829638273072
 30
0.0
 10
186.677825871572
 20
54.77829638273072
 30
0.0
  0
LINE
  5
219
330
1F
100
AcDbEntity
  8
0
  6
Continuous
 62
     7
370
    15
100
AcDbLine
 10
251.2723453909
 20
92.2782963827
 30
0.0
 11
250.7723453909
 21
92.2782963827
 31
0.0
  0
LINE
  5
21A
330
1F
100
AcDbEntity
  8
0
  6
Continuous
 62
     7
370
    15
100
AcDbLine
 10
251.2723453909
 20
92.2782963827
 30
0.0
 11
251.2723453909
 21
88.7782963827
 31
0.0
  0
LINE
  5
21B
330
1F
100
AcDbEntity
  8
0
  6
Continuous
 62
     7
370
    15
100
AcDbLine
 10
151.2723453909
 20
88.7782963827
 30
0.0
 11
151.2723453909
 21
92.2782963827
 31
0.0
  0
LINE
  5
21C
330
1F
100
AcDbEntity
  8
0
  6
Continuous
 62
     7
370
    15
100
AcDbLine
 10
151.2723453909
 20
92.2782963827
 30
0.0
 11
151.7723453909
 21
92.2782963827
 31
0.0
  0
LINE
  5
21D
330
1F
100
AcDbEntity
  8
0
  6
Continuous
 62
     7
370
    15
100
AcDbLine
 10
151.2723453909
 20
85.2782963827
 30
0.0
 11
151.7723453909
 21
85.2782963827
 31
0.0
  0
LINE
  5
21E
330
1F
100
AcDbEntity
  8
0
  6
Continuous
 62
     7
370
    15
100
AcDbLine
 10
151.2723453909
 20
85.2782963827
 30
0.0
 11
151.2723453909
 21
88.7782963827
 31
0.0
  0
LINE
  5
21F
330
1F
100
AcDbEntity
  8
0
  6
Continuous
 62
     7
370
    15
100
AcDbLine
 10
251.2723453909
 20
88.7782963827
 30
0.0
 11
251.2723453909
 21
85.2782963827
 31
0.0
  0
LINE
  5
220
330
1F
100
AcDbEntity
  8
0
  6
Continuous
 62
     7
370
    15
100
AcDbLine
 10
251.2723453909
 20
85.2782963827
 30
0.0
 11
250.7723453909
 21
85.2782963827
 31
0.0
  0
LINE
  5
221
330
1F
100
AcDbEntity
  8
0
  6
Continuous
 62
     7
370
    15
100
AcDbLine
 10
266.2723453909
 20
120.5325611882
 30
0.0
 11
266.2723453909
 21
104.6554287854
 31
0.0
  0
LINE
  5
222
330
1F
100
AcDbEntity
  8
0
  6
Continuous
 62
     7
370
    15
100
AcDbLine
 10
243.5266101963
 20
104.6554287854
 30
0.0
 11
266.2723453909
 21
104.6554287854
 31
0.0
  0
SPLINE
  5
223
330
1F
100
AcDbEntity
  8
0
  6
Continuous
 62
     7
370
    15
100
AcDbSpline
210
0.0
220
0.0
230
1.0
 70
     8
 71
     3
 72
    14
 73
    10
 74
     0
 42
0.00000001
 43
0.00000001
 12
1.0
 22
0.0
 32
0.0
 13
1.0
 23
0.0
 33
0.0
 40
0.0
 40
0.0
 40
0.0
 40
0.0
 40
0.25
 40
0.25
 40
0.5
 40
0.5
 40
0.75
 40
0.75
 40
1.0
 40
1.0
 40
1.0
 40
1.0
 10
239.2723453908984
 20
112.5939949868028
 30
0.0
 10
239.2723453908984
 20
111.9035775042011
 30
0.0
 10
239.376829079656
 20
111.2189697113826
 30
0.0
 10
239.7783025299641
 20
109.8604581942719
 30
0.0
 10
240.0751017836135
 20
109.186543877017
 30
0.0
 10
240.8360715153051
 20
107.8480217180341
 30
0.0
 10
241.2942750178864
 20
107.1931014816141
 30
0.0
 10
242.3285253967273
 20
105.9079197130465
 30
0.0
 10
242.9048898049339
 20
105.2771491768394
 30
0.0
 10
243.5266101963278
 20
104.6554287854455
 30
0.0
  0
SPLINE
  5
224
330
1F
100
AcDbEntity
  8
0
  6
Continuous
 62
     7
370
    15
100
AcDbSpline
210
0.0
220
0.0
230
1.0
 70
     8
 71
     3
 72
    14
 73
    10
 74
     0
 42
0.00000001
 43
0.00000001
 12
1.0
 22
0.0
 32
0.0
 13
1.0
 23
0.0
 33
0.0
 40
0.0
 40
0.0
 40
0.0
 40
0.0
 40
0.5
 40
0.5
 40
0.75
 40
0.75
 40
0.875
 40
0.875
 40
1.0
 40
1.0
 40
1.0
 40
1.0
 10
243.5266101963278
 20
120.5325611881601
 30
0.0
 10
242.2817275626905
 20
119.2876785545228
 30
0.0
 10
241.2239023342455
 20
118.0146220112315
 30
0.0
 10
240.0928924132259
 20
116.0363971054192
 30
0.0
 10
239.7926498874644
 20
115.3654273723075
 30
0.0
 10
239.484282599912
 20
114.3375857733455
 30
0.0
 10
239.4051808675893
 20
113.9914042020238
 30
0.0
 10
239.2988261513071
 20
113.2912317884748
 30
0.0
 10
239.2723453908984
 20
112.9416385785988
 30
0.0
 10
239.2723453908984
 20
112.5939949868028
 30
0.0
  0
LINE
  5
225
330
1F
100
AcDbEntity
  8
0
  6
Continuous
 62
     7
370
    15
100
AcDbLine
 10
243.5266101963
 20
120.5325611882
 30
0.0
 11
266.2723453909
 21
120.5325611882
 31
0.0
  0
SPLINE
  5
226
330
1F
100
AcDbEntity
  8
0
  6
Continuous
 62
     7
370
    15
100
AcDbSpline
210
0.0
220
0.0
230
1.0
 70
     8
 71
     3
 72
    14
 73
    10
 74
     0
 42
0.00000001
 43
0.00000001
 12
1.0
 22
0.0
 32
0.0
 13
1.0
 23
0.0
 33
0.0
 40
0.0
 40
0.0
 40
0.0
 40
0.0
 40
0.5
 40
0.5
 40
0.75
 40
0.75
 40
0.875
 40
0.875
 40
1.0
 40
1.0
 40
1.0
 40
1.0
 10
159.0180805854691
 20
120.5325611881601
 30
0.0
 10
160.2629632191064
 20
119.2876785545228
 30
0.0
 10
161.3207884475514
 20
118.0146220112315
 30
0.0
 10
162.451798368571
 20
116.0363971054192
 30
0.0
 10
162.7520408943324
 20
115.3654273723075
 30
0.0
 10
163.0604081818849
 20
114.3375857733455
 30
0.0
 10
163.1395099142076
 20
113.9914042020238
 30
0.0
 10
163.2458646304898
 20
113.2912317884748
 30
0.0
 10
163.2723453908984
 20
112.9416385785988
 30
0.0
 10
163.2723453908984
 20
112.5939949868028
 30
0.0
  0
SPLINE
  5
227
330
1F
100
AcDbEntity
  8
0
  6
Continuous
 62
     7
370
    15
100
AcDbSpline
210
0.0
220
0.0
230
1.0
 70
     8
 71
     3
 72
    14
 73
    10
 74
     0
 42
0.00000001
 43
0.00000001
 12
1.0
 22
0.0
 32
0.0
 13
1.0
 23
0.0
 33
0.0
 40
0.0
 40
0.0
 40
0.0
 40
0.0
 40
0.25
 40
0.25
 40
0.5
 40
0.5
 40
0.75
 40
0.75
 40
1.0
 40
1.0
 40
1.0
 40
1.0
 10
163.2723453908984
 20
112.5939949868028
 30
0.0
 10
163.2723453908984
 20
111.9035775042011
 30
0.0
 10
163.1678617021409
 20
111.2189697113826
 30
0.0
 10
162.7663882518328
 20
109.8604581942719
 30
0.0
 10
162.4695889981834
 20
109.186543877017
 30
0.0
 10
161.7086192664918
 20
107.8480217180341
 30
0.0
 10
161.2504157639104
 20
107.1931014816141
 30
0.0
 10
160.2161653850696
 20
105.9079197130465
 30
0.0
 10
159.639800976863
 20
105.2771491768394
 30
0.0
 10
159.0180805854691
 20
104.6554287854455
 30
0.0
  0
LINE
  5
228
330
1F
100
AcDbEntity
  8
0
  6
Continuous
 62
     7
370
    15
100
AcDbLine
 10
159.0180805855
 20
104.6554287854
 30
0.0
 11
136.2723453909
 21
104.6554287854
 31
0.0
  0
LINE
  5
229
330
1F
100
AcDbEntity
  8
0
  6
Continuous
 62
     7
370
    15
100
AcDbLine
 10
136.2723453909
 20
120.5325611882
 30
0.0
 11
136.2723453909
 21
104.6554287854
 31
0.0
  0
LINE
  5
22A
330
1F
100
AcDbEntity
  8
0
  6
Continuous
 62
     7
370
    15
100
AcDbLine
 10
159.0180805855
 20
120.5325611882
 30
0.0
 11
136.2723453909
 21
120.5325611882
 31
0.0
  0
SPLINE
  5
22B
330
1F
100
AcDbEntity
  8
0
  6
Continuous
 62
     7
370
    15
100
AcDbSpline
210
0.0
220
0.0
230
1.0
 70
     8
 71
     3
 72
    11
 73
     7
 74
     0
 42
0.00000001
 43
0.00000001
 12
1.0
 22
0.0
 32
0.0
 13
1.0
 23
0.0
 33
0.0
 40
0.0
 40
0.0
 40
0.0
 40
0.0
 40
0.3249576461745322
 40
0.6499092735476288
 40
0.9609142113460061
 40
1.0
 40
1.0
 40
1.0
 40
1.0
 10
159.0180805854691
 20
104.6554287854453
 30
0.0
 10
159.2157299209635
 20
104.2540540192756
 30
0.0
 10
159.6110249311302
 20
103.4513119211203
 30
0.0
 10
160.1551672812388
 20
102.2454617191499
 30
0.0
 10
160.525561755944
 20
101.392800920628
 30
0.0
 10
160.7002262424686
 20
100.9435934802839
 30
0.0
 10
160.7197266139147
 20
100.8934418317297
 30
0.0
  0
LINE
  5
22C
330
1F
100
AcDbEntity
  8
0
  6
Continuous
 62
     7
370
    15
100
AcDbLine
 10
163.2723453909
 20
101.2682923795
 30
0.0
 11
163.2723453909
 21
112.5939949868
 31
0.0
  0
LINE
  5
22D
330
1F
100
AcDbEntity
  8
0
  6
Continuous
 62
     7
370
    15
100
AcDbLine
 10
239.2723453909
 20
101.2682923795
 30
0.0
 11
239.2723453909
 21
112.5939949868
 31
0.0
  0
SPLINE
  5
22E
330
1F
100
AcDbEntity
  8
0
  6
Continuous
 62
     7
370
    15
100
AcDbSpline
210
0.0
220
0.0
230
1.0
 70
     8
 71
     3
 72
    11
 73
     7
 74
     0
 42
0.00000001
 43
0.00000001
 12
1.0
 22
0.0
 32
0.0
 13
1.0
 23
0.0
 33
0.0
 40
0.0
 40
0.0
 40
0.0
 40
0.0
 40
0.3248571272202998
 40
0.6499089431473177
 40
0.961429926067546
 40
1.0
 40
1.0
 40
1.0
 40
1.0
 10
243.5266101963278
 20
104.6554287854453
 30
0.0
 10
243.3290239191484
 20
104.2541769788583
 30
0.0
 10
242.9337329502204
 20
103.4514328932158
 30
0.0
 10
242.3892931582493
 20
102.2449383803105
 30
0.0
 10
242.0188232839437
 20
101.3921565272708
 30
0.0
 10
241.844188523295
 20
100.9429368945954
 30
0.0
 10
241.824948741251
 20
100.8934456719404
 30
0.0
  0
SPLINE
  5
22F
330
1F
100
AcDbEntity
  8
0
  6
Continuous
 62
     7
370
    15
100
AcDbSpline
210
0.0
220
0.0
230
1.0
 70
     8
 71
     3
 72
    11
 73
     7
 74
     0
 42
0.00000001
 43
0.00000001
 12
1.0
 22
0.0
 32
0.0
 13
1.0
 23
0.0
 33
0.0
 40
0.0
 40
0.0
 40
0.0
 40
0.0
 40
0.3249576461745586
 40
0.6499092735476816
 40
0.9609142113460841
 40
1.0
 40
1.0
 40
1.0
 40
1.0
 10
159.0180805854691
 20
72.90116398001611
 30
0.0
 10
159.2157299209635
 20
73.30253874618587
 30
0.0
 10
159.6110249311302
 20
74.10528084434117
 30
0.0
 10
160.1551672812388
 20
75.31113104631157
 30
0.0
 10
160.525561755944
 20
76.16379184483331
 30
0.0
 10
160.7002262424685
 20
76.61299928517737
 30
0.0
 10
160.7197266139146
 20
76.66315093373139
 30
0.0
  0
LINE
  5
230
330
1F
100
AcDbEntity
  8
0
  6
Continuous
 62
     7
370
    15
100
AcDbLine
 10
159.0180805855
 20
72.90116398
 30
0.0
 11
136.2723453909
 21
72.90116398
 31
0.0
  0
LINE
  5
231
330
1F
100
AcDbEntity
  8
0
  6
Continuous
 62
     7
370
    15
100
AcDbLine
 10
136.2723453909
 20
72.90116398
 30
0.0
 11
136.2723453909
 21
104.6554287854
 31
0.0
  0
LINE
  5
232
330
1F
100
AcDbEntity
  8
0
  6
Continuous
 62
     7
370
    15
100
AcDbLine
 10
243.5266101963
 20
72.90116398
 30
0.0
 11
266.2723453909
 21
72.90116398
 31
0.0
  0
SPLINE
  5
233
330
1F
100
AcDbEntity
  8
0
  6
Continuous
 62
     7
370
    15
100
AcDbSpline
210
0.0
220
0.0
230
1.0
 70
     8
 71
     3
 72
    11
 73
     7
 74
     0
 42
0.00000001
 43
0.00000001
 12
1.0
 22
0.0
 32
0.0
 13
1.0
 23
0.0
 33
0.0
 40
0.0
 40
0.0
 40
0.0
 40
0.0
 40
0.324857127220326
 40
0.6499089431473701
 40
0.9614299260676235
 40
1.0
 40
1.0
 40
1.0
 40
1.0
 10
243.5266101963278
 20
72.90116398001611
 30
0.0
 10
243.3290239191484
 20
73.30241578660313
 30
0.0
 10
242.9337329502204
 20
74.1051598722457
 30
0.0
 10
242.3892931582494
 20
75.31165438515096
 30
0.0
 10
242.0188232839437
 20
76.16443623819053
 30
0.0
 10
241.8441885232951
 20
76.61365587086587
 30
0.0
 10
241.8249487412512
 20
76.6631470935207
 30
0.0
  0
LINE
  5
234
330
1F
100
AcDbEntity
  8
0
  6
Continuous
 62
     7
370
    15
100
AcDbLine
 10
266.2723453909
 20
104.6554287854
 30
0.0
 11
266.2723453909
 21
72.90116398
 31
0.0
  0
LINE
  5
235
330
1F
100
AcDbEntity
  8
0
  6
Continuous
 62
     7
370
    15
100
AcDbLine
 10
163.2723453909
 20
76.2883003859
 30
0.0
 11
163.2723453909
 21
64.9625977787
 31
0.0
  0
SPLINE
  5
236
330
1F
100
AcDbEntity
  8
0
  6
Continuous
 62
     7
370
    15
100
AcDbSpline
210
0.0
220
0.0
230
1.0
 70
     8
 71
     3
 72
    14
 73
    10
 74
     0
 42
0.00000001
 43
0.00000001
 12
1.0
 22
0.0
 32
0.0
 13
1.0
 23
0.0
 33
0.0
 40
0.0
 40
0.0
 40
0.0
 40
0.0
 40
0.25
 40
0.25
 40
0.5
 40
0.5
 40
0.75
 40
0.75
 40
1.0
 40
1.0
 40
1.0
 40
1.0
 10
163.2723453908984
 20
64.96259777865862
 30
0.0
 10
163.2723453908984
 20
65.65301526126035
 30
0.0
 10
163.1678617021409
 20
66.3376230540788
 30
0.0
 10
162.7663882518328
 20
67.69613457118953
 30
0.0
 10
162.4695889981834
 20
68.3700488884444
 30
0.0
 10
161.7086192664918
 20
69.70857104742734
 30
0.0
 10
161.2504157639104
 20
70.3634912838473
 30
0.0
 10
160.2161653850696
 20
71.6486730524149
 30
0.0
 10
159.639800976863
 20
72.27944358862204
 30
0.0
 10
159.0180805854691
 20
72.90116398001601
 30
0.0
  0
SPLINE
  5
237
330
1F
100
AcDbEntity
  8
0
  6
Continuous
 62
     7
370
    15
100
AcDbSpline
210
0.0
220
0.0
230
1.0
 70
     8
 71
     3
 72
    14
 73
    10
 74
     0
 42
0.00000001
 43
0.00000001
 12
1.0
 22
0.0
 32
0.0
 13
1.0
 23
0.0
 33
0.0
 40
0.0
 40
0.0
 40
0.0
 40
0.0
 40
0.25
 40
0.25
 40
0.5
 40
0.5
 40
0.75
 40
0.75
 40
1.0
 40
1.0
 40
1.0
 40
1.0
 10
239.2723453908984
 20
64.96259777865862
 30
0.0
 10
239.2723453908984
 20
65.65301526126035
 30
0.0
 10
239.376829079656
 20
66.3376230540788
 30
0.0
 10
239.7783025299641
 20
67.69613457118953
 30
0.0
 10
240.0751017836135
 20
68.3700488884444
 30
0.0
 10
240.8360715153051
 20
69.70857104742734
 30
0.0
 10
241.2942750178864
 20
70.3634912838473
 30
0.0
 10
242.3285253967273
 20
71.6486730524149
 30
0.0
 10
242.9048898049339
 20
72.27944358862204
 30
0.0
 10
243.5266101963278
 20
72.90116398001601
 30
0.0
  0
LINE
  5
238
330
1F
100
AcDbEntity
  8
0
  6
Continuous
 62
     7
370
    15
100
AcDbLine
 10
239.2723453909
 20
76.2883003859
 30
0.0
 11
239.2723453909
 21
64.9625977787
 31
0.0
  0
SPLINE
  5
239
330
1F
100
AcDbEntity
  8
0
  6
Continuous
 62
     7
370
    15
100
AcDbSpline
210
0.0
220
0.0
230
1.0
 70
     8
 71
     3
 72
    14
 73
    10
 74
     0
 42
0.00000001
 43
0.00000001
 12
1.0
 22
0.0
 32
0.0
 13
1.0
 23
0.0
 33
0.0
 40
0.0
 40
0.0
 40
0.0
 40
0.0
 40
0.5
 40
0.5
 40
0.75
 40
0.75
 40
0.875
 40
0.875
 40
1.0
 40
1.0
 40
1.0
 40
1.0
 10
243.5266101963278
 20
57.02403157730134
 30
0.0
 10
242.2817275626905
 20
58.26891421093868
 30
0.0
 10
241.2239023342455
 20
59.54197075423001
 30
0.0
 10
240.0928924132259
 20
61.52019566004223
 30
0.0
 10
239.7926498874644
 20
62.19116539315392
 30
0.0
 10
239.484282599912
 20
63.21900699211594
 30
0.0
 10
239.4051808675893
 20
63.56518856343762
 30
0.0
 10
239.2988261513071
 20
64.26536097698667
 30
0.0
 10
239.2723453908984
 20
64.61495418686269
 30
0.0
 10
239.2723453908984
 20
64.96259777865862
 30
0.0
  0
LINE
  5
23A
330
1F
100
AcDbEntity
  8
0
  6
Continuous
 62
     7
370
    15
100
AcDbLine
 10
243.5266101963
 20
57.0240315773
 30
0.0
 11
266.2723453909
 21
57.0240315773
 31
0.0
  0
LINE
  5
23B
330
1F
100
AcDbEntity
  8
0
  6
Continuous
 62
     7
370
    15
100
AcDbLine
 10
266.2723453909
 20
57.0240315773
 30
0.0
 11
266.2723453909
 21
72.90116398
 31
0.0
  0
SPLINE
  5
23C
330
1F
100
AcDbEntity
  8
0
  6
Continuous
 62
     7
370
    15
100
AcDbSpline
210
0.0
220
0.0
230
1.0
 70
     8
 71
     3
 72
    14
 73
    10
 74
     0
 42
0.00000001
 43
0.00000001
 12
1.0
 22
0.0
 32
0.0
 13
1.0
 23
0.0
 33
0.0
 40
0.0
 40
0.0
 40
0.0
 40
0.0
 40
0.5
 40
0.5
 40
0.75
 40
0.75
 40
0.875
 40
0.875
 40
1.0
 40
1.0
 40
1.0
 40
1.0
 10
159.0180805854691
 20
57.02403157730134
 30
0.0
 10
160.2629632191064
 20
58.26891421093868
 30
0.0
 10
161.3207884475514
 20
59.54197075423001
 30
0.0
 10
162.451798368571
 20
61.52019566004223
 30
0.0
 10
162.7520408943324
 20
62.19116539315392
 30
0.0
 10
163.0604081818849
 20
63.21900699211594
 30
0.0
 10
163.1395099142076
 20
63.56518856343762
 30
0.0
 10
163.2458646304898
 20
64.26536097698667
 30
0.0
 10
163.2723453908984
 20
64.61495418686269
 30
0.0
 10
163.2723453908984
 20
64.96259777865862
 30
0.0
  0
LINE
  5
23D
330
1F
100
AcDbEntity
  8
0
  6
Continuous
 62
     7
370
    15
100
AcDbLine
 10
159.0180805855
 20
57.0240315773
 30
0.0
 11
136.2723453909
 21
57.0240315773
 31
0.0
  0
LINE
  5
23E
330
1F
100
AcDbEntity
  8
0
  6
Continuous
 62
     7
370
    15
100
AcDbLine
 10
136.2723453909
 20
57.0240315773
 30
0.0
 11
136.2723453909
 21
72.90116398
 31
0.0
  0
LINE
  5
23F
330
1F
100
AcDbEntity
  8
0
  6
Continuous
 62
     7
370
    15
100
AcDbLine
 10
163.2723453909
 20
112.5939949868
 30
0.0
 11
163.2723453909
 21
116.2782963827
 31
0.0
  0
LINE
  5
240
330
1F
100
AcDbEntity
  8
0
  6
Continuous
 62
     7
370
    15
100
AcDbLine
 10
239.2723453909
 20
112.5939949868
 30
0.0
 11
239.2723453909
 21
116.2782963827
 31
0.0
  0
LINE
  5
241
330
1F
100
AcDbEntity
  8
0
  6
Continuous
 62
     7
370
    15
100
AcDbLine
 10
239.2723453909
 20
64.9625977787
 30
0.0
 11
239.2723453909
 21
61.2782963827
 31
0.0
  0
LINE
  5
242
330
1F
100
AcDbEntity
  8
0
  6
Continuous
 62
     7
370
    15
100
AcDbLine
 10
163.2723453909
 20
64.9625977787
 30
0.0
 11
163.2723453909
 21
61.2782963827
 31
0.0
  0
SPLINE
  5
243
330
1F
100
AcDbEntity
  8
0
  6
Continuous
 62
     7
370
    15
100
AcDbSpline
210
0.0
220
0.0
230
1.0
 70
     8
 71
     3
 72
    18
 73
    14
 74
     0
 42
0.00000001
 43
0.00000001
 12
1.0
 22
0.0
 32
0.0
 13
1.0
 23
0.0
 33
0.0
 40
0.0
 40
0.0
 40
0.0
 40
0.0
 40
0.0570292489935119
 40
0.1514073791511352
 40
0.2486476431697292
 40
0.3458965454484698
 40
0.4389655972164616
 40
0.5320439781903812
 40
0.6270430029618014
 40
0.722051505181862
 40
0.8216969662915554
 40
0.9214429341749232
 40
1.0
 40
1.0
 40
1.0
 40
1.0
 10
172.2752248709531
 20
62.88217661655017
 30
0.0
 10
172.2749585836263
 20
62.88181797054693
 30
0.0
 10
172.274251615413
 20
62.88086579859392
 30
0.0
 10
172.3000725670086
 20
62.9156570991547
 30
0.0
 10
172.3504677240443
 20
62.98354912156279
 30
0.0
 10
172.4248650780544
 20
63.08374023361623
 30
0.0
 10
172.5191048950803
 20
63.2105961289295
 30
0.0
 10
172.6314641994467
 20
63.36175656489358
 30
0.0
 10
172.762256054241
 20
63.53759464554637
 30
0.0
 10
172.9123618711651
 20
63.73924023777144
 30
0.0
 10
173.0806937911194
 20
63.9651466201128
 30
0.0
 10
173.2515615143773
 20
64.19425040892132
 30
0.0
 10
173.3705650932116
 20
64.3535606274692
 30
0.0
 10
173.4229959003688
 20
64.42374980521215
 30
0.0
  0
LINE
  5
244
330
1F
100
AcDbEntity
  8
0
  6
Continuous
 62
     7
370
    15
100
AcDbLine
 10
177.085572146
 20
60.7782963827
 30
0.0
 11
172.2723453909
 21
60.7782963827
 31
0.0
  0
LINE
  5
245
330
1F
100
AcDbEntity
  8
0
  6
Continuous
 62
     8
370
     0
100
AcDbLine
 10
238.7723453909
 20
100.5974624219
 30
0.0
 11
238.7723453909
 21
101.2782963827
 31
0.0
  0
LINE
  5
246
330
1F
100
AcDbEntity
  8
0
  6
Continuous
 62
     8
370
     0
100
AcDbLine
 10
238.7723453909
 20
76.9591303435
 30
0.0
 11
238.7723453909
 21
76.2782963827
 31
0.0
  0
LINE
  5
247
330
1F
100
AcDbEntity
  8
0
  6
Continuous
 62
     8
370
     0
100
AcDbLine
 10
163.7723453909
 20
100.5974624219
 30
0.0
 11
163.7723453909
 21
101.2782963827
 31
0.0
  0
LINE
  5
248
330
1F
100
AcDbEntity
  8
0
  6
Continuous
 62
     8
370
     0
100
AcDbLine
 10
163.7723453909
 20
76.9591303435
 30
0.0
 11
163.7723453909
 21
76.2782963827
 31
0.0
  0
LINE
  5
249
330
1F
100
AcDbEntity
  8
0
  6
Continuous
 62
     8
370
     0
100
AcDbLine
 10
169.0154911414
 20
106.9027371721
 30
0.0
 11
169.0154911414
 21
116.2782963827
 31
0.0
  0
LINE
  5
24A
330
1F
100
AcDbEntity
  8
0
  6
Continuous
 62
     8
370
     0
100
AcDbLine
 10
171.8439182662
 20
111.2052372567
 30
0.0
 11
171.8439182662
 21
115.1067235075
 31
0.0
  0
LINE
  5
24B
330
1F
100
AcDbEntity
  8
0
  6
Continuous
 62
     8
370
     0
100
AcDbLine
 10
230.7007725156
 20
111.2052372567
 30
0.0
 11
230.7007725156
 21
115.1067235075
 31
0.0
  0
LINE
  5
24C
330
1F
100
AcDbEntity
  8
0
  6
Continuous
 62
     8
370
     0
100
AcDbLine
 10
233.5291996404
 20
106.9027371721
 30
0.0
 11
233.5291996404
 21
116.2782963827
 31
0.0
  0
LINE
  5
24D
330
1F
100
AcDbEntity
  8
0
  6
Continuous
 62
     8
370
     0
100
AcDbLine
 10
171.8439182662
 20
66.3513555088
 30
0.0
 11
171.8439182662
 21
62.449869258
 31
0.0
  0
LINE
  5
24E
330
1F
100
AcDbEntity
  8
0
  6
Continuous
 62
     8
370
     0
100
AcDbLine
 10
169.0154911414
 20
70.6538555934
 30
0.0
 11
169.0154911414
 21
61.2782963827
 31
0.0
  0
LINE
  5
24F
330
1F
100
AcDbEntity
  8
0
  6
Continuous
 62
     8
370
     0
100
AcDbLine
 10
233.5291996404
 20
70.6538555934
 30
0.0
 11
233.5291996404
 21
61.2782963827
 31
0.0
  0
LINE
  5
250
330
1F
100
AcDbEntity
  8
0
  6
Continuous
 62
     8
370
     0
100
AcDbLine
 10
230.7007725156
 20
66.3513555088
 30
0.0
 11
230.7007725156
 21
62.449869258
 31
0.0
  0
INSERT
  5
25C
330
1F
100
AcDbEntity
  8
FORMAT
100
AcDbBlockReference
  2
SW_CENTERMARKSYMBOL_1
 10
201.2723453909
 20
88.7782963827
 30
0.0
  0
ENDSEC
  0
SECTION
  2
OBJECTS
  0
DICTIONARY
  5
C
330
0
100
AcDbDictionary
281
     1
  3
ACAD_GROUP
350
D
  3
ACAD_LAYOUT
350
1A
  3
ACAD_MLINESTYLE
350
17
  3
ACAD_PLOTSETTINGS
350
19
  3
ACAD_PLOTSTYLENAME
350
E
  0
DICTIONARY
  5
D
102
{ACAD_REACTORS
330
C
102
}
330
C
100
AcDbDictionary
281
     1
  0
DICTIONARY
  5
1A
102
{ACAD_REACTORS
330
C
102
}
330
C
100
AcDbDictionary
281
     1
  3
Layout1
350
1E
  3
Layout2
350
26
  3
Model
350
22
  0
DICTIONARY
  5
17
102
{ACAD_REACTORS
330
C
102
}
330
C
100
AcDbDictionary
281
     1
  3
Standard
350
18
  0
DICTIONARY
  5
19
102
{ACAD_REACTORS
330
C
102
}
330
C
100
AcDbDictionary
281
     1
  0
ACDBDICTIONARYWDFLT
  5
E
102
{ACAD_REACTORS
330
C
102
}
330
C
100
AcDbDictionary
281
     1
  3
Normal
350
F
100
AcDbDictionaryWithDefault
340
F
  0
LAYOUT
  5
1E
102
{ACAD_REACTORS
330
1A
102
}
330
1A
100
AcDbPlotSettings
  1

  2
none_device
  4

  6

 40
0.0
 41
0.0
 42
0.0
 43
0.0
 44
0.0
 45
0.0
 46
0.0
 47
0.0
 48
0.0
 49
0.0
140
0.0
141
0.0
142
1.0
143
1.0
 70
   688
 72
     0
 73
     0
 74
     5
  7

 75
    16
147
1.0
148
0.0
149
0.0
100
AcDbLayout
  1
Layout1
 70
     1
 71
     1
 10
0.0
 20
0.0
 11
420.0
 21
297.0
 12
0.0
 22
0.0
 32
0.0
 14
1.0000000000E+20
 24
1.0000000000E+20
 34
1.0000000000E+20
 15
-1.0000000000E+20
 25
-1.0000000000E+20
 35
-1.0000000000E+20
146
0.0
 13
0.0
 23
0.0
 33
0.0
 16
1.0
 26
0.0
 36
0.0
 17
0.0
 27
1.0
 37
0.0
 76
     0
330
1B
  0
LAYOUT
  5
26
102
{ACAD_REACTORS
330
1A
102
}
330
1A
100
AcDbPlotSettings
  1

  2
none_device
  4

  6

 40
0.0
 41
0.0
 42
0.0
 43
0.0
 44
0.0
 45
0.0
 46
0.0
 47
0.0
 48
0.0
 49
0.0
140
0.0
141
0.0
142
1.0
143
1.0
 70
   688
 72
     0
 73
     0
 74
     5
  7

 75
    16
147
1.0
148
0.0
149
0.0
100
AcDbLayout
  1
Layout2
 70
     1
 71
     2
 10
0.0
 20
0.0
 11
0.0
 21
0.0
 12
0.0
 22
0.0
 32
0.0
 14
0.0
 24
0.0
 34
0.0
 15
0.0
 25
0.0
 35
0.0
146
0.0
 13
0.0
 23
0.0
 33
0.0
 16
1.0
 26
0.0
 36
0.0
 17
0.0
 27
1.0
 37
0.0
 76
     0
330
23
  0
LAYOUT
  5
22
102
{ACAD_REACTORS
330
1A
102
}
330
1A
100
AcDbPlotSettings
  1

  2
none_device
  4

  6

 40
0.0
 41
0.0
 42
0.0
 43
0.0
 44
0.0
 45
0.0
 46
0.0
 47
0.0
 48
0.0
 49
0.0
140
0.0
141
0.0
142
1.0
143
1.0
 70
  1712
 72
     0
 73
     0
 74
     0
  7

 75
     0
147
1.0
148
0.0
149
0.0
100
AcDbLayout
  1
Model
 70
     1
 71
     0
 10
0.0
 20
0.0
 11
594.0
 21
420.0
 12
0.0
 22
0.0
 32
0.0
 14
0.0
 24
0.0
 34
0.0
 15
594.0
 25
420.0
 35
0.0
146
0.0
 13
0.0
 23
0.0
 33
0.0
 16
1.0
 26
0.0
 36
0.0
 17
0.0
 27
1.0
 37
0.0
 76
     0
330
1F
331
29
  0
MLINESTYLE
  5
18
102
{ACAD_REACTORS
330
17
102
}
330
17
100
AcDbMlineStyle
  2
Standard
 70
     0
  3

 62
   256
 51
90.0
 52
90.0
 71
     2
 49
0.5
 62
   256
  6
BYLAYER
 49
-0.5
 62
   256
  6
BYLAYER
  0
ACDBPLACEHOLDER
  5
F
102
{ACAD_REACTORS
330
E
102
}
330
E
  0
ENDSEC
  0
EOF
