  0
SECTION
  2
HEADER
  9
$ACADVER
  1
AC1015
  9
$ACADMAINTVER
 70
     6
  9
$DWGCODEPAGE
  3
ANSI_1252
  9
$INSBASE
 10
0.0
 20
0.0
 30
0.0
  9
$EXTMIN
 10
0.0
 20
0.0
 30
0.0
  9
$EXTMAX
 10
841.0
 20
594.0
 30
0.0
  9
$LIMMIN
 10
0.0
 20
0.0
  9
$LIMMAX
 10
841.0
 20
594.0
  9
$ORTHOMODE
 70
     0
  9
$REGENMODE
 70
     1
  9
$FILLMODE
 70
     1
  9
$QTEXTMODE
 70
     0
  9
$MIRRTEXT
 70
     1
  9
$LTSCALE
 40
1.0
  9
$ATTMODE
 70
     1
  9
$TEXTSIZE
 40
2.5
  9
$TRACEWID
 40
1.0
  9
$TEXTSTYLE
  7
Standard
  9
$CLAYER
  8
0
  9
$CELTYPE
  6
ByLayer
  9
$CECOLOR
 62
   256
  9
$CELTSCALE
 40
1.0
  9
$DISPSILH
 70
     0
  9
$DIMSCALE
 40
1.0
  9
$DIMASZ
 40
2.5
  9
$DIMEXO
 40
1.0
  9
$DIMDLI
 40
3.75
  9
$DIMRND
 40
0.0
  9
$DIMDLE
 40
0.0
  9
$DIMEXE
 40
1.0
  9
$DIMTP
 40
0.0
  9
$DIMTM
 40
0.0
  9
$DIMTXT
 40
2.5
  9
$DIMCEN
 40
2.5
  9
$DIMTSZ
 40
0.0
  9
$DIMTOL
 70
     0
  9
$DIMLIM
 70
     0
  9
$DIMTIH
 70
     1
  9
$DIMTOH
 70
     1
  9
$DIMSE1
 70
     0
  9
$DIMSE2
 70
     0
  9
$DIMTAD
 70
     1
  9
$DIMZIN
 70
     0
  9
$DIMBLK
  1

  9
$DIMASO
 70
     1
  9
$DIMSHO
 70
     1
  9
$DIMPOST
  1

  9
$DIMAPOST
  1

  9
$DIMALT
 70
     0
  9
$DIMALTD
 70
     3
  9
$DIMALTF
 40
0.0393700787
  9
$DIMLFAC
 40
1.0
  9
$DIMTOFL
 70
     1
  9
$DIMTVP
 40
0.0
  9
$DIMTIX
 70
     0
  9
$DIMSOXD
 70
     0
  9
$DIMSAH
 70
     0
  9
$DIMBLK1
  1

  9
$DIMBLK2
  1

  9
$DIMSTYLE
  2
ISO-25
  9
$DIMCLRD
 70
     0
  9
$DIMCLRE
 70
     0
  9
$DIMCLRT
 70
     0
  9
$DIMTFAC
 40
1.0
  9
$DIMGAP
 40
1.524
  9
$DIMJUST
 70
     0
  9
$DIMSD1
 70
     0
  9
$DIMSD2
 70
     0
  9
$DIMTOLJ
 70
     0
  9
$DIMTZIN
 70
     0
  9
$DIMALTZ
 70
     0
  9
$DIMALTTZ
 70
     0
  9
$DIMUPT
 70
     0
  9
$DIMDEC
 70
     2
  9
$DIMTDEC
 70
     2
  9
$DIMALTU
 70
     2
  9
$DIMALTTD
 70
     3
  9
$DIMTXSTY
  7
Standard
  9
$DIMAUNIT
 70
     0
  9
$DIMADEC
 70
     2
  9
$DIMALTRND
 40
0.0
  9
$DIMAZIN
 70
     0
  9
$DIMDSEP
 70
    44
  9
$DIMATFIT
 70
     3
  9
$DIMFRAC
 70
     0
  9
$DIMLDRBLK
  1

  9
$DIMLUNIT
 70
     2
  9
$DIMLWD
 70
    -2
  9
$DIMLWE
 70
    -2
  9
$DIMTMOVE
 70
     0
  9
$LUNITS
 70
     2
  9
$LUPREC
 70
     2
  9
$SKETCHINC
 40
1.0
  9
$FILLETRAD
 40
10.0
  9
$AUNITS
 70
     0
  9
$AUPREC
 70
     2
  9
$MENU
  1
.
  9
$ELEVATION
 40
0.0
  9
$PELEVATION
 40
0.0
  9
$THICKNESS
 40
0.0
  9
$LIMCHECK
 70
     0
  9
$CHAMFERA
 40
10.0
  9
$CHAMFERB
 40
10.0
  9
$CHAMFERC
 40
20.0
  9
$CHAMFERD
 40
0.0
  9
$SKPOLY
 70
     0
  9
$TDCREATE
 40
2457189.485751447
  9
$TDUCREATE
 40
2457189.152418113
  9
$TDUPDATE
 40
2457189.485754329
  9
$TDUUPDATE
 40
2457189.152420995
  9
$TDINDWG
 40
0.0000000116
  9
$TDUSRTIMER
 40
0.0000000116
  9
$USRTIMER
 70
     1
  9
$ANGBASE
 50
0.0
  9
$ANGDIR
 70
     0
  9
$PDMODE
 70
     0
  9
$PDSIZE
 40
-1.0
  9
$PLINEWID
 40
0.0
  9
$SPLFRAME
 70
     0
  9
$SPLINETYPE
 70
     6
  9
$SPLINESEGS
 70
     8
  9
$HANDSEED
  5
24D
  9
$SURFTAB1
 70
     6
  9
$SURFTAB2
 70
     6
  9
$SURFTYPE
 70
     6
  9
$SURFU
 70
     6
  9
$SURFV
 70
     6
  9
$UCSBASE
  2

  9
$UCSNAME
  2

  9
$UCSORG
 10
0.0
 20
0.0
 30
0.0
  9
$UCSXDIR
 10
1.0
 20
0.0
 30
0.0
  9
$UCSYDIR
 10
0.0
 20
1.0
 30
0.0
  9
$UCSORTHOREF
  2

  9
$UCSORTHOVIEW
 70
     0
  9
$UCSORGTOP
 10
0.0
 20
0.0
 30
0.0
  9
$UCSORGBOTTOM
 10
0.0
 20
0.0
 30
0.0
  9
$UCSORGLEFT
 10
0.0
 20
0.0
 30
0.0
  9
$UCSORGRIGHT
 10
0.0
 20
0.0
 30
0.0
  9
$UCSORGFRONT
 10
0.0
 20
0.0
 30
0.0
  9
$UCSORGBACK
 10
0.0
 20
0.0
 30
0.0
  9
$PUCSBASE
  2

  9
$PUCSNAME
  2

  9
$PUCSORG
 10
0.0
 20
0.0
 30
0.0
  9
$PUCSXDIR
 10
1.0
 20
0.0
 30
0.0
  9
$PUCSYDIR
 10
0.0
 20
1.0
 30
0.0
  9
$PUCSORTHOREF
  2

  9
$PUCSORTHOVIEW
 70
     0
  9
$PUCSORGTOP
 10
0.0
 20
0.0
 30
0.0
  9
$PUCSORGBOTTOM
 10
0.0
 20
0.0
 30
0.0
  9
$PUCSORGLEFT
 10
0.0
 20
0.0
 30
0.0
  9
$PUCSORGRIGHT
 10
0.0
 20
0.0
 30
0.0
  9
$PUCSORGFRONT
 10
0.0
 20
0.0
 30
0.0
  9
$PUCSORGBACK
 10
0.0
 20
0.0
 30
0.0
  9
$USERI1
 70
     0
  9
$USERI2
 70
     0
  9
$USERI3
 70
     0
  9
$USERI4
 70
     0
  9
$USERI5
 70
     0
  9
$USERR1
 40
0.0
  9
$USERR2
 40
0.0
  9
$USERR3
 40
0.0
  9
$USERR4
 40
0.0
  9
$USERR5
 40
0.0
  9
$WORLDVIEW
 70
     1
  9
$SHADEDGE
 70
     3
  9
$SHADEDIF
 70
    70
  9
$TILEMODE
 70
     1
  9
$MAXACTVP
 70
    64
  9
$PINSBASE
 10
0.0
 20
0.0
 30
0.0
  9
$PLIMCHECK
 70
     0
  9
$PEXTMIN
 10
1.0000000000E+20
 20
1.0000000000E+20
 30
1.0000000000E+20
  9
$PEXTMAX
 10
-1.0000000000E+20
 20
-1.0000000000E+20
 30
-1.0000000000E+20
  9
$PLIMMIN
 10
0.0
 20
0.0
  9
$PLIMMAX
 10
420.0
 20
297.0
  9
$UNITMODE
 70
     0
  9
$VISRETAIN
 70
     1
  9
$PLINEGEN
 70
     0
  9
$PSLTSCALE
 70
     1
  9
$TREEDEPTH
 70
  3020
  9
$CMLSTYLE
  2
Standard
  9
$CMLJUST
 70
     0
  9
$CMLSCALE
 40
20.0
  9
$PROXYGRAPHICS
 70
     1
  9
$MEASUREMENT
 70
     1
  9
$CELWEIGHT
370
    -1
  9
$ENDCAPS
280
     0
  9
$JOINSTYLE
280
     0
  9
$LWDISPLAY
290
     1
  9
$INSUNITS
 70
     4
  9
$HYPERLINKBASE
  1

  9
$STYLESHEET
  1

  9
$XEDIT
290
     1
  9
$CEPSNTYPE
380
     0
  9
$PSTYLEMODE
290
     1
  9
$FINGERPRINTGUID
  2
{22657B5B-3144-4D2E-ACDA-AEAD47CDF41F}
  9
$VERSIONGUID
  2
{FAEB1C32-E019-11D5-929B-00C0DF256EC4}
  9
$EXTNAMES
290
     1
  9
$PSVPSCALE
 40
0.0
  9
$OLESTARTUP
290
     0
  0
ENDSEC
  0
SECTION
  2
CLASSES
  0
CLASS
  1
ACDBDICTIONARYWDFLT
  2
AcDbDictionaryWithDefault
  3
ObjectDBX Classes
 90
        0
280
     0
281
     0
  0
CLASS
  1
VISUALSTYLE
  2
AcDbVisualStyle
  3
ObjectDBX Classes
 90
     4095
280
     0
281
     0
  0
CLASS
  1
MATERIAL
  2
AcDbMaterial
  3
ObjectDBX Classes
 90
     1153
280
     0
281
     0
  0
CLASS
  1
ACDBPLACEHOLDER
  2
AcDbPlaceHolder
  3
ObjectDBX Classes
 90
        0
280
     0
281
     0
  0
CLASS
  1
LAYOUT
  2
AcDbLayout
  3
ObjectDBX Classes
 90
        0
280
     0
281
     0
  0
ENDSEC
  0
SECTION
  2
TABLES
  0
TABLE
  2
VPORT
  5
8
330
0
100
AcDbSymbolTable
 70
     1
  0
VPORT
  5
29
330
8
100
AcDbSymbolTableRecord
100
AcDbViewportTableRecord
  2
*Active
 70
     0
 10
0.0
 20
0.0
 11
1.0
 21
1.0
 12
420.5
 22
297.0
 13
0.0
 23
0.0
 14
10.0
 24
10.0
 15
10.0
 25
10.0
 16
0.0
 26
0.0
 36
1.0
 17
0.0
 27
0.0
 37
0.0
 40
594.0
 41
1.4158249158
 42
50.0
 43
0.0
 44
0.0
 50
0.0
 51
0.0
 71
     0
 72
  2000
 73
     1
 74
     3
 75
     0
 76
     0
 77
     0
 78
     0
281
     0
 65
     1
110
0.0
120
0.0
130
0.0
111
1.0
121
0.0
131
0.0
112
0.0
122
1.0
132
0.0
 79
     0
146
0.0
  0
ENDTAB
  0
TABLE
  2
LTYPE
  5
5
330
0
100
AcDbSymbolTable
 70
     6
  0
LTYPE
  5
14
330
5
100
AcDbSymbolTableRecord
100
AcDbLinetypeTableRecord
  2
ByBlock
 70
     0
  3

 72
    65
 73
     0
 40
0.0
  0
LTYPE
  5
15
330
5
100
AcDbSymbolTableRecord
100
AcDbLinetypeTableRecord
  2
ByLayer
 70
     0
  3

 72
    65
 73
     0
 40
0.0
  0
LTYPE
  5
16
330
5
100
AcDbSymbolTableRecord
100
AcDbLinetypeTableRecord
  2
Continuous
 70
     0
  3
Solid line
 72
    65
 73
     0
 40
0.0
  0
LTYPE
  5
3F
330
5
100
AcDbSymbolTableRecord
100
AcDbLinetypeTableRecord
  2
HIDDEN
 70
     0
  3
Hidden __ __ __ __ __ __ __ __ __ __ __ __ __ __
 72
    65
 73
     2
 40
1.905
 49
1.27
 74
     0
 49
-0.635
 74
     0
  0
LTYPE
  5
40
330
5
100
AcDbSymbolTableRecord
100
AcDbLinetypeTableRecord
  2
PHANTOM
 70
     0
  3
Phantom ______  __  __  ______  __  __  ______
 72
    65
 73
     6
 40
12.7
 49
6.35
 74
     0
 49
-1.27
 74
     0
 49
1.27
 74
     0
 49
-1.27
 74
     0
 49
1.27
 74
     0
 49
-1.27
 74
     0
  0
LTYPE
  5
41
330
5
100
AcDbSymbolTableRecord
100
AcDbLinetypeTableRecord
  2
CENTER
 70
     0
  3
Center ____ _ ____ _ ____ _ ____ _ ____ _ ____
 72
    65
 73
     4
 40
10.16
 49
6.35
 74
     0
 49
-1.27
 74
     0
 49
1.27
 74
     0
 49
-1.27
 74
     0
  0
LTYPE
  5
42
330
5
100
AcDbSymbolTableRecord
100
AcDbLinetypeTableRecord
  2
CENTERX2
 70
     0
  3
Center (2x) ________  __  ________  __  _____
 72
    65
 73
     4
 40
20.32
 49
12.7
 74
     0
 49
-2.54
 74
     0
 49
2.54
 74
     0
 49
-2.54
 74
     0
  0
LTYPE
  5
43
330
5
100
AcDbSymbolTableRecord
100
AcDbLinetypeTableRecord
  2
DOT2
 70
     0
  3
Dot (.5x) ........................................
 72
    65
 73
     2
 40
0.635
 49
0.0
 74
     0
 49
-0.635
 74
     0
  0
ENDTAB
  0
TABLE
  2
LAYER
  5
2
330
0
100
AcDbSymbolTable
 70
     3
  0
LAYER
  5
10
330
2
100
AcDbSymbolTableRecord
100
AcDbLayerTableRecord
  2
0
 70
     0
 62
     7
  6
Continuous
370
    -3
390
F
  0
LAYER
  5
44
330
2
100
AcDbSymbolTableRecord
100
AcDbLayerTableRecord
  2
FORMAT
 70
     0
 62
     7
  6
Continuous
370
    -3
390
F
  0
LAYER
  5
45
330
2
100
AcDbSymbolTableRecord
100
AcDbLayerTableRecord
  2
PROTOTYPE
 70
     0
 62
     7
  6
Continuous
370
    -3
390
F
  0
ENDTAB
  0
TABLE
  2
STYLE
  5
3
330
0
100
AcDbSymbolTable
 70
     1
  0
STYLE
  5
11
330
3
100
AcDbSymbolTableRecord
100
AcDbTextStyleTableRecord
  2
Standard
 70
     0
 40
0.0
 41
1.0
 50
0.0
 71
     0
 42
2.5
  3
txt
  4

  0
ENDTAB
  0
TABLE
  2
VIEW
  5
6
330
0
100
AcDbSymbolTable
 70
     0
  0
ENDTAB
  0
TABLE
  2
UCS
  5
7
330
0
100
AcDbSymbolTable
 70
     0
  0
ENDTAB
  0
TABLE
  2
APPID
  5
9
330
0
100
AcDbSymbolTable
 70
     1
  0
APPID
  5
12
330
9
100
AcDbSymbolTableRecord
100
AcDbRegAppTableRecord
  2
ACAD
 70
     0
  0
ENDTAB
  0
TABLE
  2
DIMSTYLE
  5
A
330
0
100
AcDbSymbolTable
 70
     1
100
AcDbDimStyleTable
  0
DIMSTYLE
105
27
330
A
100
AcDbSymbolTableRecord
100
AcDbDimStyleTableRecord
  2
ISO-25
 70
     0
 41
2.5
 42
0.625
 43
3.75
 44
1.25
 73
     0
 74
     0
 77
     1
 78
     8
140
2.5
141
2.5
143
0.0393700787
147
0.625
171
     3
172
     1
178
     0
271
     2
272
     2
274
     3
278
    44
283
     0
284
     8
340
11
  0
ENDTAB
  0
TABLE
  2
BLOCK_RECORD
  5
1
330
0
100
AcDbSymbolTable
 70
     2
  0
BLOCK_RECORD
  5
1F
330
1
100
AcDbSymbolTableRecord
100
AcDbBlockTableRecord
  2
*Model_Space
340
22
  0
BLOCK_RECORD
  5
1B
330
1
100
AcDbSymbolTableRecord
100
AcDbBlockTableRecord
  2
*Paper_Space
340
1E
  0
BLOCK_RECORD
  5
23
330
1
100
AcDbSymbolTableRecord
100
AcDbBlockTableRecord
  2
*Paper_Space0
340
26
  0
BLOCK_RECORD
  5
78
330
1
100
AcDbSymbolTableRecord
100
AcDbBlockTableRecord
  2
SW_CENTERMARKSYMBOL_0
340
0
102
{BLKREFS
331
F3
102
}
  0
ENDTAB
  0
ENDSEC
  0
SECTION
  2
BLOCKS
  0
BLOCK
  5
20
330
1F
100
AcDbEntity
  8
0
100
AcDbBlockBegin
  2
*Model_Space
 70
     0
 10
0.0
 20
0.0
 30
0.0
  3
*Model_Space
  1

  0
ENDBLK
  5
21
330
1F
100
AcDbEntity
  8
0
100
AcDbBlockEnd
  0
BLOCK
  5
1C
330
1B
100
AcDbEntity
 67
     1
  8
0
100
AcDbBlockBegin
  2
*Paper_Space
 70
     0
 10
0.0
 20
0.0
 30
0.0
  3
*Paper_Space
  1

  0
ENDBLK
  5
1D
330
1B
100
AcDbEntity
 67
     1
  8
0
100
AcDbBlockEnd
  0
BLOCK
  5
24
330
23
100
AcDbEntity
  8
0
100
AcDbBlockBegin
  2
*Paper_Space0
 70
     0
 10
0.0
 20
0.0
 30
0.0
  3
*Paper_Space0
  1

  0
ENDBLK
  5
25
330
23
100
AcDbEntity
  8
0
100
AcDbBlockEnd
  0
BLOCK
  5
79
330
78
100
AcDbEntity
  8
0
100
AcDbBlockBegin
  2
SW_CENTERMARKSYMBOL_0
 70
     0
 10
0.0
 20
0.0
 30
0.0
  3
SW_CENTERMARKSYMBOL_0
  1

  0
ARC
  5
7B
330
78
100
AcDbEntity
  8
FORMAT
 62
     0
100
AcDbCircle
 10
-45.8462256738
 20
-230.4845408948
 30
0.0
 40
235.0000000000008
100
AcDbArc
 50
78.75
 51
79.3595295693
  0
ARC
  5
7C
330
78
100
AcDbEntity
  8
FORMAT
 62
     0
100
AcDbCircle
 10
-45.8462256738
 20
-230.4845408948
 30
0.0
 40
235.0000000000008
100
AcDbArc
 50
78.1404704307
 51
78.75
  0
ARC
  5
7D
330
78
100
AcDbEntity
  8
FORMAT
 62
     0
100
AcDbCircle
 10
-45.8462256738
 20
-230.4845408948
 30
0.0
 40
235.0000000000007
100
AcDbArc
 50
101.25
 51
101.8595295693
  0
ARC
  5
7E
330
78
100
AcDbEntity
  8
FORMAT
 62
     0
100
AcDbCircle
 10
-45.8462256738
 20
-230.4845408948
 30
0.0
 40
235.0000000000007
100
AcDbArc
 50
100.6404704307
 51
101.25
  0
ARC
  5
7F
330
78
100
AcDbEntity
  8
FORMAT
 62
     0
100
AcDbCircle
 10
-45.8462256738
 20
-230.4845408948
 30
0.0
 40
235.0000000000008
100
AcDbArc
 50
123.75
 51
124.3595295693
  0
ARC
  5
80
330
78
100
AcDbEntity
  8
FORMAT
 62
     0
100
AcDbCircle
 10
-45.8462256738
 20
-230.4845408948
 30
0.0
 40
235.0000000000008
100
AcDbArc
 50
123.1404704307
 51
123.75
  0
ARC
  5
81
330
78
100
AcDbEntity
  8
FORMAT
 62
     0
100
AcDbCircle
 10
-45.8462256738
 20
-230.4845408948
 30
0.0
 40
235.0000000000008
100
AcDbArc
 50
146.25
 51
146.8595295693
  0
ARC
  5
82
330
78
100
AcDbEntity
  8
FORMAT
 62
     0
100
AcDbCircle
 10
-45.8462256738
 20
-230.4845408948
 30
0.0
 40
235.0000000000008
100
AcDbArc
 50
145.6404704307
 51
146.25
  0
ARC
  5
83
330
78
100
AcDbEntity
  8
FORMAT
 62
     0
100
AcDbCircle
 10
-45.8462256738
 20
-230.4845408948
 30
0.0
 40
235.0000000000008
100
AcDbArc
 50
168.75
 51
169.3595295693
  0
ARC
  5
84
330
78
100
AcDbEntity
  8
FORMAT
 62
     0
100
AcDbCircle
 10
-45.8462256738
 20
-230.4845408948
 30
0.0
 40
235.0000000000008
100
AcDbArc
 50
168.1404704307
 51
168.75
  0
ARC
  5
85
330
78
100
AcDbEntity
  8
FORMAT
 62
     0
100
AcDbCircle
 10
-45.8462256738
 20
-230.4845408948
 30
0.0
 40
235.0000000000008
100
AcDbArc
 50
191.25
 51
191.8595295693
  0
ARC
  5
86
330
78
100
AcDbEntity
  8
FORMAT
 62
     0
100
AcDbCircle
 10
-45.8462256738
 20
-230.4845408948
 30
0.0
 40
235.0000000000008
100
AcDbArc
 50
190.6404704307
 51
191.25
  0
ARC
  5
87
330
78
100
AcDbEntity
  8
FORMAT
 62
     0
100
AcDbCircle
 10
-45.8462256738
 20
-230.4845408948
 30
0.0
 40
235.0000000000007
100
AcDbArc
 50
213.75
 51
214.3595295693
  0
ARC
  5
88
330
78
100
AcDbEntity
  8
FORMAT
 62
     0
100
AcDbCircle
 10
-45.8462256738
 20
-230.4845408948
 30
0.0
 40
235.0000000000007
100
AcDbArc
 50
213.1404704307
 51
213.75
  0
ARC
  5
89
330
78
100
AcDbEntity
  8
FORMAT
 62
     0
100
AcDbCircle
 10
-45.8462256738
 20
-230.4845408948
 30
0.0
 40
235.0000000000007
100
AcDbArc
 50
236.25
 51
236.8595295693
  0
ARC
  5
8A
330
78
100
AcDbEntity
  8
FORMAT
 62
     0
100
AcDbCircle
 10
-45.8462256738
 20
-230.4845408948
 30
0.0
 40
235.0000000000007
100
AcDbArc
 50
235.6404704307
 51
236.25
  0
ARC
  5
8B
330
78
100
AcDbEntity
  8
FORMAT
 62
     0
100
AcDbCircle
 10
-45.8462256738
 20
-230.4845408948
 30
0.0
 40
235.0000000000007
100
AcDbArc
 50
258.75
 51
259.3595295693
  0
ARC
  5
8C
330
78
100
AcDbEntity
  8
FORMAT
 62
     0
100
AcDbCircle
 10
-45.8462256738
 20
-230.4845408948
 30
0.0
 40
235.0000000000007
100
AcDbArc
 50
258.1404704307
 51
258.75
  0
ARC
  5
8D
330
78
100
AcDbEntity
  8
FORMAT
 62
     0
100
AcDbCircle
 10
-45.8462256738
 20
-230.4845408948
 30
0.0
 40
235.0000000000006
100
AcDbArc
 50
281.25
 51
281.8595295693
  0
ARC
  5
8E
330
78
100
AcDbEntity
  8
FORMAT
 62
     0
100
AcDbCircle
 10
-45.8462256738
 20
-230.4845408948
 30
0.0
 40
235.0000000000006
100
AcDbArc
 50
280.6404704307
 51
281.25
  0
ARC
  5
8F
330
78
100
AcDbEntity
  8
FORMAT
 62
     0
100
AcDbCircle
 10
-45.8462256738
 20
-230.4845408948
 30
0.0
 40
235.0000000000006
100
AcDbArc
 50
303.75
 51
304.3595295693
  0
ARC
  5
90
330
78
100
AcDbEntity
  8
FORMAT
 62
     0
100
AcDbCircle
 10
-45.8462256738
 20
-230.4845408948
 30
0.0
 40
235.0000000000006
100
AcDbArc
 50
303.1404704307
 51
303.75
  0
ARC
  5
91
330
78
100
AcDbEntity
  8
FORMAT
 62
     0
100
AcDbCircle
 10
-45.8462256738
 20
-230.4845408948
 30
0.0
 40
235.0000000000006
100
AcDbArc
 50
326.25
 51
326.8595295693
  0
ARC
  5
92
330
78
100
AcDbEntity
  8
FORMAT
 62
     0
100
AcDbCircle
 10
-45.8462256738
 20
-230.4845408948
 30
0.0
 40
235.0000000000006
100
AcDbArc
 50
325.6404704307
 51
326.25
  0
ARC
  5
93
330
78
100
AcDbEntity
  8
FORMAT
 62
     0
100
AcDbCircle
 10
-45.8462256738
 20
-230.4845408948
 30
0.0
 40
235.0000000000006
100
AcDbArc
 50
348.75
 51
349.3595295693
  0
ARC
  5
94
330
78
100
AcDbEntity
  8
FORMAT
 62
     0
100
AcDbCircle
 10
-45.8462256738
 20
-230.4845408948
 30
0.0
 40
235.0000000000006
100
AcDbArc
 50
348.1404704307
 51
348.75
  0
ARC
  5
95
330
78
100
AcDbEntity
  8
FORMAT
 62
     0
100
AcDbCircle
 10
-45.8462256738
 20
-230.4845408948
 30
0.0
 40
235.0000000000006
100
AcDbArc
 50
11.25
 51
11.8595295693
  0
ARC
  5
96
330
78
100
AcDbEntity
  8
FORMAT
 62
     0
100
AcDbCircle
 10
-45.8462256738
 20
-230.4845408948
 30
0.0
 40
235.0000000000006
100
AcDbArc
 50
10.6404704307
 51
11.25
  0
ARC
  5
97
330
78
100
AcDbEntity
  8
FORMAT
 62
     0
100
AcDbCircle
 10
-45.8462256738
 20
-230.4845408948
 30
0.0
 40
235.0000000000007
100
AcDbArc
 50
33.75
 51
34.3595295693
  0
ARC
  5
98
330
78
100
AcDbEntity
  8
FORMAT
 62
     0
100
AcDbCircle
 10
-45.8462256738
 20
-230.4845408948
 30
0.0
 40
235.0000000000007
100
AcDbArc
 50
33.1404704307
 51
33.75
  0
ARC
  5
99
330
78
100
AcDbEntity
  8
FORMAT
 62
     0
100
AcDbCircle
 10
-45.8462256738
 20
-230.4845408948
 30
0.0
 40
235.0000000000007
100
AcDbArc
 50
56.25
 51
56.8595295693
  0
ARC
  5
9A
330
78
100
AcDbEntity
  8
FORMAT
 62
     0
100
AcDbCircle
 10
-45.8462256738
 20
-230.4845408948
 30
0.0
 40
235.0000000000007
100
AcDbArc
 50
55.6404704307
 51
56.25
  0
ARC
  5
9B
330
78
100
AcDbEntity
  8
FORMAT
 62
     0
100
AcDbCircle
 10
-45.8462256738
 20
-230.4845408948
 30
0.0
 40
235.0000000000007
100
AcDbArc
 50
79.9690591386
 51
100.0309408614
  0
ARC
  5
9C
330
78
100
AcDbEntity
  8
FORMAT
 62
     0
100
AcDbCircle
 10
-45.8462256738
 20
-230.4845408948
 30
0.0
 40
235.0000000000008
100
AcDbArc
 50
102.4690591386
 51
122.5309408614
  0
ARC
  5
9D
330
78
100
AcDbEntity
  8
FORMAT
 62
     0
100
AcDbCircle
 10
-45.8462256738
 20
-230.4845408948
 30
0.0
 40
235.0000000000008
100
AcDbArc
 50
124.9690591386
 51
145.0309408614
  0
ARC
  5
9E
330
78
100
AcDbEntity
  8
FORMAT
 62
     0
100
AcDbCircle
 10
-45.8462256738
 20
-230.4845408948
 30
0.0
 40
235.0000000000008
100
AcDbArc
 50
147.4690591386
 51
167.5309408614
  0
ARC
  5
9F
330
78
100
AcDbEntity
  8
FORMAT
 62
     0
100
AcDbCircle
 10
-45.8462256738
 20
-230.4845408948
 30
0.0
 40
235.0000000000007
100
AcDbArc
 50
169.9690591386
 51
190.0309408614
  0
ARC
  5
A0
330
78
100
AcDbEntity
  8
FORMAT
 62
     0
100
AcDbCircle
 10
-45.8462256738
 20
-230.4845408948
 30
0.0
 40
235.0000000000007
100
AcDbArc
 50
192.4690591386
 51
212.5309408614
  0
ARC
  5
A1
330
78
100
AcDbEntity
  8
FORMAT
 62
     0
100
AcDbCircle
 10
-45.8462256738
 20
-230.4845408948
 30
0.0
 40
235.0000000000007
100
AcDbArc
 50
214.9690591386
 51
235.0309408614
  0
ARC
  5
A2
330
78
100
AcDbEntity
  8
FORMAT
 62
     0
100
AcDbCircle
 10
-45.8462256738
 20
-230.4845408948
 30
0.0
 40
235.0000000000007
100
AcDbArc
 50
237.4690591386
 51
257.5309408614
  0
ARC
  5
A3
330
78
100
AcDbEntity
  8
FORMAT
 62
     0
100
AcDbCircle
 10
-45.8462256738
 20
-230.4845408948
 30
0.0
 40
235.0000000000007
100
AcDbArc
 50
259.9690591386
 51
280.0309408614
  0
ARC
  5
A4
330
78
100
AcDbEntity
  8
FORMAT
 62
     0
100
AcDbCircle
 10
-45.8462256738
 20
-230.4845408948
 30
0.0
 40
235.0000000000007
100
AcDbArc
 50
282.4690591386
 51
302.5309408614
  0
ARC
  5
A5
330
78
100
AcDbEntity
  8
FORMAT
 62
     0
100
AcDbCircle
 10
-45.8462256738
 20
-230.4845408948
 30
0.0
 40
235.0000000000006
100
AcDbArc
 50
304.9690591386
 51
325.0309408614
  0
ARC
  5
A6
330
78
100
AcDbEntity
  8
FORMAT
 62
     0
100
AcDbCircle
 10
-45.8462256738
 20
-230.4845408948
 30
0.0
 40
235.0000000000006
100
AcDbArc
 50
327.4690591386
 51
347.5309408614
  0
ARC
  5
A7
330
78
100
AcDbEntity
  8
FORMAT
 62
     0
100
AcDbCircle
 10
-45.8462256738
 20
-230.4845408948
 30
0.0
 40
235.0000000000006
100
AcDbArc
 50
349.9690591386
 51
10.0309408614
  0
ARC
  5
A8
330
78
100
AcDbEntity
  8
FORMAT
 62
     0
100
AcDbCircle
 10
-45.8462256738
 20
-230.4845408948
 30
0.0
 40
235.0000000000007
100
AcDbArc
 50
12.4690591386
 51
32.5309408614
  0
ARC
  5
A9
330
78
100
AcDbEntity
  8
FORMAT
 62
     0
100
AcDbCircle
 10
-45.8462256738
 20
-230.4845408948
 30
0.0
 40
235.0000000000007
100
AcDbArc
 50
34.9690591386
 51
55.0309408614
  0
ARC
  5
AA
330
78
100
AcDbEntity
  8
FORMAT
 62
     0
100
AcDbCircle
 10
-45.8462256738
 20
-230.4845408948
 30
0.0
 40
235.0000000000007
100
AcDbArc
 50
57.4690591386
 51
77.5309408614
  0
LINE
  5
AB
330
78
100
AcDbEntity
  8
FORMAT
 62
     0
100
AcDbLine
 10
0.0
 20
0.0
 30
0.0
 11
0.487725805
 21
2.451963201
 31
0.0
  0
LINE
  5
AC
330
78
100
AcDbEntity
  8
FORMAT
 62
     0
100
AcDbLine
 10
0.0
 20
0.0
 30
0.0
 11
-0.487725805
 21
-2.451963201
 31
0.0
  0
LINE
  5
AD
330
78
100
AcDbEntity
  8
FORMAT
 62
     0
100
AcDbLine
 10
0.9754516101
 20
4.903926402
 30
0.0
 11
3.2189903133
 21
16.1829571267
 31
0.0
  0
LINE
  5
AE
330
78
100
AcDbEntity
  8
FORMAT
 62
     0
100
AcDbLine
 10
-0.9754516101
 20
-4.903926402
 30
0.0
 11
-3.2189903133
 21
-16.1829571267
 31
0.0
  0
LINE
  5
AF
330
78
100
AcDbEntity
  8
FORMAT
 62
     0
100
AcDbLine
 10
-91.6924513476
 20
0.0
 30
0.0
 11
-92.1801771526
 21
2.451963201
 31
0.0
  0
LINE
  5
B0
330
78
100
AcDbEntity
  8
FORMAT
 62
     0
100
AcDbLine
 10
-91.6924513476
 20
0.0
 30
0.0
 11
-91.2047255425
 21
-2.451963201
 31
0.0
  0
LINE
  5
B1
330
78
100
AcDbEntity
  8
FORMAT
 62
     0
100
AcDbLine
 10
-92.6679029577
 20
4.903926402
 30
0.0
 11
-94.9114416608
 21
16.1829571267
 31
0.0
  0
LINE
  5
B2
330
78
100
AcDbEntity
  8
FORMAT
 62
     0
100
AcDbLine
 10
-90.7169997375
 20
-4.903926402
 30
0.0
 11
-88.4734610343
 21
-16.1829571267
 31
0.0
  0
LINE
  5
B3
330
78
100
AcDbEntity
  8
FORMAT
 62
     0
100
AcDbLine
 10
-176.4052304334
 20
-35.0891820037
 30
0.0
 11
-177.7941560159
 21
-33.0105079729
 31
0.0
  0
LINE
  5
B4
330
78
100
AcDbEntity
  8
FORMAT
 62
     0
100
AcDbLine
 10
-176.4052304334
 20
-35.0891820037
 30
0.0
 11
-175.0163048508
 21
-37.1678560344
 31
0.0
  0
LINE
  5
B5
330
78
100
AcDbEntity
  8
FORMAT
 62
     0
100
AcDbLine
 10
-179.1830815985
 20
-30.9318339421
 30
0.0
 11
-185.5721392782
 21
-21.3699334007
 31
0.0
  0
LINE
  5
B6
330
78
100
AcDbEntity
  8
FORMAT
 62
     0
100
AcDbLine
 10
-173.6273792683
 20
-39.2465300652
 30
0.0
 11
-167.2383215886
 21
-48.8084306066
 31
0.0
  0
LINE
  5
B7
330
78
100
AcDbEntity
  8
FORMAT
 62
     0
100
AcDbLine
 10
-45.8462256738
 20
-230.4845408948
 30
0.0
 11
-45.8462256738
 21
-227.9845408948
 31
0.0
  0
LINE
  5
B8
330
78
100
AcDbEntity
  8
FORMAT
 62
     0
100
AcDbLine
 10
-45.8462256738
 20
-230.4845408948
 30
0.0
 11
-48.3462256738
 21
-230.4845408948
 31
0.0
  0
LINE
  5
B9
330
78
100
AcDbEntity
  8
FORMAT
 62
     0
100
AcDbLine
 10
-45.8462256738
 20
-230.4845408948
 30
0.0
 11
-45.8462256738
 21
-232.9845408948
 31
0.0
  0
LINE
  5
BA
330
78
100
AcDbEntity
  8
FORMAT
 62
     0
100
AcDbLine
 10
-45.8462256738
 20
-230.4845408948
 30
0.0
 11
-43.3462256738
 21
-230.4845408948
 31
0.0
  0
LINE
  5
BB
330
78
100
AcDbEntity
  8
FORMAT
 62
     0
100
AcDbLine
 10
-45.8462256738
 20
-225.4845408948
 30
0.0
 11
-45.8462256738
 21
37.0412529982
 31
0.0
  0
LINE
  5
BC
330
78
100
AcDbEntity
  8
FORMAT
 62
     0
100
AcDbLine
 10
-50.8462256738
 20
-230.4845408948
 30
0.0
 11
-312.7818713122
 21
-230.4845408948
 31
0.0
  0
LINE
  5
BD
330
78
100
AcDbEntity
  8
FORMAT
 62
     0
100
AcDbLine
 10
-45.8462256738
 20
-235.4845408948
 30
0.0
 11
-45.8462256738
 21
-496.1074715031
 31
0.0
  0
LINE
  5
BE
330
78
100
AcDbEntity
  8
FORMAT
 62
     0
100
AcDbLine
 10
-40.8462256738
 20
-230.4845408948
 30
0.0
 11
221.378520598
 21
-230.4845408948
 31
0.0
  0
LINE
  5
BF
330
78
100
AcDbEntity
  8
FORMAT
 62
     0
100
AcDbLine
 10
-241.2415845649
 20
-99.9255361351
 30
0.0
 11
-243.3202585956
 21
-98.5366105526
 31
0.0
  0
LINE
  5
C0
330
78
100
AcDbEntity
  8
FORMAT
 62
     0
100
AcDbLine
 10
-241.2415845649
 20
-99.9255361351
 30
0.0
 11
-239.1629105341
 21
-101.3144617177
 31
0.0
  0
LINE
  5
C1
330
78
100
AcDbEntity
  8
FORMAT
 62
     0
100
AcDbLine
 10
-245.3989326264
 20
-97.14768497
 30
0.0
 11
-254.9608331679
 21
-90.7586272903
 31
0.0
  0
LINE
  5
C2
330
78
100
AcDbEntity
  8
FORMAT
 62
     0
100
AcDbLine
 10
-237.0842365034
 20
-102.7033873002
 30
0.0
 11
-227.5223359619
 21
-109.09244498
 31
0.0
  0
LINE
  5
C3
330
78
100
AcDbEntity
  8
FORMAT
 62
     0
100
AcDbLine
 10
-276.3307665686
 20
-184.638315221
 30
0.0
 11
-278.7827297696
 21
-184.1505894159
 31
0.0
  0
LINE
  5
C4
330
78
100
AcDbEntity
  8
FORMAT
 62
     0
100
AcDbLine
 10
-276.3307665686
 20
-184.638315221
 30
0.0
 11
-273.8788033675
 21
-185.126041026
 31
0.0
  0
LINE
  5
C5
330
78
100
AcDbEntity
  8
FORMAT
 62
     0
100
AcDbLine
 10
-281.2346929706
 20
-183.6628636109
 30
0.0
 11
-292.5137236952
 21
-181.4193249077
 31
0.0
  0
LINE
  5
C6
330
78
100
AcDbEntity
  8
FORMAT
 62
     0
100
AcDbLine
 10
-271.4268401665
 20
-185.613766831
 30
0.0
 11
-260.1478094419
 21
-187.8573055342
 31
0.0
  0
LINE
  5
C7
330
78
100
AcDbEntity
  8
FORMAT
 62
     0
100
AcDbLine
 10
-276.3307665686
 20
-276.3307665685
 30
0.0
 11
-278.7827297696
 21
-276.8184923736
 31
0.0
  0
LINE
  5
C8
330
78
100
AcDbEntity
  8
FORMAT
 62
     0
100
AcDbLine
 10
-276.3307665686
 20
-276.3307665685
 30
0.0
 11
-273.8788033676
 21
-275.8430407635
 31
0.0
  0
LINE
  5
C9
330
78
100
AcDbEntity
  8
FORMAT
 62
     0
100
AcDbLine
 10
-281.2346929706
 20
-277.3062181786
 30
0.0
 11
-292.5137236952
 21
-279.5497568818
 31
0.0
  0
LINE
  5
CA
330
78
100
AcDbEntity
  8
FORMAT
 62
     0
100
AcDbLine
 10
-271.4268401665
 20
-275.3553149585
 30
0.0
 11
-260.1478094419
 21
-273.1117762553
 31
0.0
  0
LINE
  5
CB
330
78
100
AcDbEntity
  8
FORMAT
 62
     0
100
AcDbLine
 10
-241.2415845649
 20
-361.0435456544
 30
0.0
 11
-243.3202585957
 21
-362.4324712369
 31
0.0
  0
LINE
  5
CC
330
78
100
AcDbEntity
  8
FORMAT
 62
     0
100
AcDbLine
 10
-241.2415845649
 20
-361.0435456544
 30
0.0
 11
-239.1629105341
 21
-359.6546200718
 31
0.0
  0
LINE
  5
CD
330
78
100
AcDbEntity
  8
FORMAT
 62
     0
100
AcDbLine
 10
-245.3989326264
 20
-363.8213968195
 30
0.0
 11
-254.9608331679
 21
-370.2104544992
 31
0.0
  0
LINE
  5
CE
330
78
100
AcDbEntity
  8
FORMAT
 62
     0
100
AcDbLine
 10
-237.0842365034
 20
-358.2656944893
 30
0.0
 11
-227.5223359619
 21
-351.8766368095
 31
0.0
  0
LINE
  5
CF
330
78
100
AcDbEntity
  8
FORMAT
 62
     0
100
AcDbLine
 10
-176.4052304334
 20
-425.8798997859
 30
0.0
 11
-177.794156016
 21
-427.9585738166
 31
0.0
  0
LINE
  5
D0
330
78
100
AcDbEntity
  8
FORMAT
 62
     0
100
AcDbLine
 10
-176.4052304334
 20
-425.8798997859
 30
0.0
 11
-175.0163048509
 21
-423.8012257551
 31
0.0
  0
LINE
  5
D1
330
78
100
AcDbEntity
  8
FORMAT
 62
     0
100
AcDbLine
 10
-179.1830815985
 20
-430.0372478474
 30
0.0
 11
-185.5721392782
 21
-439.5991483888
 31
0.0
  0
LINE
  5
D2
330
78
100
AcDbEntity
  8
FORMAT
 62
     0
100
AcDbLine
 10
-173.6273792683
 20
-421.7225517243
 30
0.0
 11
-167.2383215886
 21
-412.1606511829
 31
0.0
  0
LINE
  5
D3
330
78
100
AcDbEntity
  8
FORMAT
 62
     0
100
AcDbLine
 10
-91.6924513476
 20
-460.9690817895
 30
0.0
 11
-92.1801771526
 21
-463.4210449905
 31
0.0
  0
LINE
  5
D4
330
78
100
AcDbEntity
  8
FORMAT
 62
     0
100
AcDbLine
 10
-91.6924513476
 20
-460.9690817895
 30
0.0
 11
-91.2047255426
 21
-458.5171185885
 31
0.0
  0
LINE
  5
D5
330
78
100
AcDbEntity
  8
FORMAT
 62
     0
100
AcDbLine
 10
-92.6679029577
 20
-465.8730081915
 30
0.0
 11
-94.9114416609
 21
-477.1520389162
 31
0.0
  0
LINE
  5
D6
330
78
100
AcDbEntity
  8
FORMAT
 62
     0
100
AcDbLine
 10
-90.7169997375
 20
-456.0651553875
 30
0.0
 11
-88.4734610343
 21
-444.7861246629
 31
0.0
  0
LINE
  5
D7
330
78
100
AcDbEntity
  8
FORMAT
 62
     0
100
AcDbLine
 10
0.0
 20
-460.9690817895
 30
0.0
 11
0.487725805
 21
-463.4210449905
 31
0.0
  0
LINE
  5
D8
330
78
100
AcDbEntity
  8
FORMAT
 62
     0
100
AcDbLine
 10
0.0
 20
-460.9690817895
 30
0.0
 11
-0.4877258051
 21
-458.5171185885
 31
0.0
  0
LINE
  5
D9
330
78
100
AcDbEntity
  8
FORMAT
 62
     0
100
AcDbLine
 10
0.9754516101
 20
-465.8730081915
 30
0.0
 11
3.2189903132
 21
-477.1520389162
 31
0.0
  0
LINE
  5
DA
330
78
100
AcDbEntity
  8
FORMAT
 62
     0
100
AcDbLine
 10
-0.9754516101
 20
-456.0651553875
 30
0.0
 11
-3.2189903133
 21
-444.7861246629
 31
0.0
  0
LINE
  5
DB
330
78
100
AcDbEntity
  8
FORMAT
 62
     0
100
AcDbLine
 10
84.7127790858
 20
-425.8798997859
 30
0.0
 11
86.1017046683
 21
-427.9585738166
 31
0.0
  0
LINE
  5
DC
330
78
100
AcDbEntity
  8
FORMAT
 62
     0
100
AcDbLine
 10
84.7127790858
 20
-425.8798997859
 30
0.0
 11
83.3238535033
 21
-423.8012257551
 31
0.0
  0
LINE
  5
DD
330
78
100
AcDbEntity
  8
FORMAT
 62
     0
100
AcDbLine
 10
87.4906302509
 20
-430.0372478474
 30
0.0
 11
93.8796879306
 21
-439.5991483889
 31
0.0
  0
LINE
  5
DE
330
78
100
AcDbEntity
  8
FORMAT
 62
     0
100
AcDbLine
 10
81.9349279207
 20
-421.7225517243
 30
0.0
 11
75.545870241
 21
-412.1606511829
 31
0.0
  0
LINE
  5
DF
330
78
100
AcDbEntity
  8
FORMAT
 62
     0
100
AcDbLine
 10
149.5491332173
 20
-361.0435456544
 30
0.0
 11
151.6278072481
 21
-362.4324712369
 31
0.0
  0
LINE
  5
E0
330
78
100
AcDbEntity
  8
FORMAT
 62
     0
100
AcDbLine
 10
149.5491332173
 20
-361.0435456544
 30
0.0
 11
147.4704591865
 21
-359.6546200718
 31
0.0
  0
LINE
  5
E1
330
78
100
AcDbEntity
  8
FORMAT
 62
     0
100
AcDbLine
 10
153.7064812788
 20
-363.8213968195
 30
0.0
 11
163.2683818203
 21
-370.2104544992
 31
0.0
  0
LINE
  5
E2
330
78
100
AcDbEntity
  8
FORMAT
 62
     0
100
AcDbLine
 10
145.3917851558
 20
-358.2656944893
 30
0.0
 11
135.8298846143
 21
-351.8766368095
 31
0.0
  0
LINE
  5
E3
330
78
100
AcDbEntity
  8
FORMAT
 62
     0
100
AcDbLine
 10
184.638315221
 20
-276.3307665686
 30
0.0
 11
187.090278422
 21
-276.8184923736
 31
0.0
  0
LINE
  5
E4
330
78
100
AcDbEntity
  8
FORMAT
 62
     0
100
AcDbLine
 10
184.638315221
 20
-276.3307665686
 30
0.0
 11
182.18635202
 21
-275.8430407635
 31
0.0
  0
LINE
  5
E5
330
78
100
AcDbEntity
  8
FORMAT
 62
     0
100
AcDbLine
 10
189.542241623
 20
-277.3062181786
 30
0.0
 11
200.8212723476
 21
-279.5497568818
 31
0.0
  0
LINE
  5
E6
330
78
100
AcDbEntity
  8
FORMAT
 62
     0
100
AcDbLine
 10
179.7343888189
 20
-275.3553149585
 30
0.0
 11
168.4553580943
 21
-273.1117762553
 31
0.0
  0
LINE
  5
E7
330
78
100
AcDbEntity
  8
FORMAT
 62
     0
100
AcDbLine
 10
184.638315221
 20
-184.638315221
 30
0.0
 11
187.090278422
 21
-184.1505894159
 31
0.0
  0
LINE
  5
E8
330
78
100
AcDbEntity
  8
FORMAT
 62
     0
100
AcDbLine
 10
184.638315221
 20
-184.638315221
 30
0.0
 11
182.18635202
 21
-185.126041026
 31
0.0
  0
LINE
  5
E9
330
78
100
AcDbEntity
  8
FORMAT
 62
     0
100
AcDbLine
 10
189.542241623
 20
-183.6628636109
 30
0.0
 11
200.8212723476
 21
-181.4193249077
 31
0.0
  0
LINE
  5
EA
330
78
100
AcDbEntity
  8
FORMAT
 62
     0
100
AcDbLine
 10
179.7343888189
 20
-185.6137668311
 30
0.0
 11
168.4553580943
 21
-187.8573055342
 31
0.0
  0
LINE
  5
EB
330
78
100
AcDbEntity
  8
FORMAT
 62
     0
100
AcDbLine
 10
149.5491332173
 20
-99.9255361352
 30
0.0
 11
151.6278072481
 21
-98.5366105526
 31
0.0
  0
LINE
  5
EC
330
78
100
AcDbEntity
  8
FORMAT
 62
     0
100
AcDbLine
 10
149.5491332173
 20
-99.9255361352
 30
0.0
 11
147.4704591865
 21
-101.3144617177
 31
0.0
  0
LINE
  5
ED
330
78
100
AcDbEntity
  8
FORMAT
 62
     0
100
AcDbLine
 10
153.7064812788
 20
-97.1476849701
 30
0.0
 11
163.2683818203
 21
-90.7586272903
 31
0.0
  0
LINE
  5
EE
330
78
100
AcDbEntity
  8
FORMAT
 62
     0
100
AcDbLine
 10
145.3917851558
 20
-102.7033873003
 30
0.0
 11
135.8298846143
 21
-109.09244498
 31
0.0
  0
LINE
  5
EF
330
78
100
AcDbEntity
  8
FORMAT
 62
     0
100
AcDbLine
 10
84.7127790858
 20
-35.0891820037
 30
0.0
 11
86.1017046684
 21
-33.0105079729
 31
0.0
  0
LINE
  5
F0
330
78
100
AcDbEntity
  8
FORMAT
 62
     0
100
AcDbLine
 10
84.7127790858
 20
-35.0891820037
 30
0.0
 11
83.3238535033
 21
-37.1678560344
 31
0.0
  0
LINE
  5
F1
330
78
100
AcDbEntity
  8
FORMAT
 62
     0
100
AcDbLine
 10
87.4906302509
 20
-30.9318339422
 30
0.0
 11
93.8796879306
 21
-21.3699334007
 31
0.0
  0
LINE
  5
F2
330
78
100
AcDbEntity
  8
FORMAT
 62
     0
100
AcDbLine
 10
81.9349279207
 20
-39.2465300652
 30
0.0
 11
75.545870241
 21
-48.8084306067
 31
0.0
  0
ENDBLK
  5
7A
330
78
100
AcDbEntity
  8
0
100
AcDbBlockEnd
  0
ENDSEC
  0
SECTION
  2
ENTITIES
  0
CIRCLE
  5
46
330
1F
100
AcDbEntity
  8
0
  6
Continuous
 62
     7
370
    15
100
AcDbCircle
 10
313.689452828
 20
725.9007946742
 30
0.0
 40
14.00000000000006
  0
CIRCLE
  5
47
330
1F
100
AcDbEntity
  8
0
  6
Continuous
 62
     7
370
    15
100
AcDbCircle
 10
463.2385860453
 20
625.9752585391
 30
0.0
 40
13.99999999999994
  0
CIRCLE
  5
48
330
1F
100
AcDbEntity
  8
0
  6
Continuous
 62
     7
370
    15
100
AcDbCircle
 10
463.2385860453
 20
364.8572490199
 30
0.0
 40
14.0
  0
CIRCLE
  5
49
330
1F
100
AcDbEntity
  8
0
  6
Continuous
 62
     7
370
    15
100
AcDbCircle
 10
313.689452828
 20
264.9317128847
 30
0.0
 40
14.0
  0
CIRCLE
  5
4A
330
1F
100
AcDbEntity
  8
0
  6
Continuous
 62
     7
370
    15
100
AcDbCircle
 10
137.2842223946
 20
300.0208948884
 30
0.0
 40
14.00000000000001
  0
CIRCLE
  5
4B
330
1F
100
AcDbEntity
  8
0
  6
Continuous
 62
     7
370
    15
100
AcDbCircle
 10
37.3586862595
 20
449.5700281057
 30
0.0
 40
13.99999999999999
  0
CIRCLE
  5
4C
330
1F
100
AcDbEntity
  8
0
  6
Continuous
 62
     7
370
    15
100
AcDbCircle
 10
72.4478682631
 20
625.9752585391
 30
0.0
 40
13.99999999999999
  0
CIRCLE
  5
4D
330
1F
100
AcDbEntity
  8
0
  6
Continuous
 62
     7
370
    15
100
AcDbCircle
 10
498.327768049
 20
541.2624794532
 30
0.0
 40
14.0
  0
CIRCLE
  5
4E
330
1F
100
AcDbEntity
  8
0
  6
Continuous
 62
     7
370
    15
100
AcDbCircle
 10
267.8432271542
 20
495.4162537795
 30
0.0
 40
175.0
  0
CIRCLE
  5
4F
330
1F
100
AcDbEntity
  8
0
  6
Continuous
 62
     7
370
    15
100
AcDbCircle
 10
267.8432271542
 20
495.4162537795
 30
0.0
 40
260.0
  0
CIRCLE
  5
50
330
1F
100
AcDbEntity
  8
0
  6
Continuous
 62
     7
370
    15
100
AcDbCircle
 10
221.9970014805
 20
725.9007946742
 30
0.0
 40
14.00000000000003
  0
CIRCLE
  5
51
330
1F
100
AcDbEntity
  8
0
  6
Continuous
 62
     7
370
    15
100
AcDbCircle
 10
137.2842223946
 20
690.8116126706
 30
0.0
 40
14.00000000000001
  0
CIRCLE
  5
52
330
1F
100
AcDbEntity
  8
0
  6
Continuous
 62
     7
370
    15
100
AcDbCircle
 10
37.3586862595
 20
541.2624794533
 30
0.0
 40
13.99999999999998
  0
CIRCLE
  5
53
330
1F
100
AcDbEntity
  8
0
  6
Continuous
 62
     7
370
    15
100
AcDbCircle
 10
72.4478682631
 20
364.8572490199
 30
0.0
 40
14.00000000000001
  0
CIRCLE
  5
54
330
1F
100
AcDbEntity
  8
0
  6
Continuous
 62
     7
370
    15
100
AcDbCircle
 10
221.9970014804
 20
264.9317128847
 30
0.0
 40
14.00000000000003
  0
CIRCLE
  5
55
330
1F
100
AcDbEntity
  8
0
  6
Continuous
 62
     7
370
    15
100
AcDbCircle
 10
398.4022319138
 20
300.0208948884
 30
0.0
 40
14.0
  0
CIRCLE
  5
56
330
1F
100
AcDbEntity
  8
0
  6
Continuous
 62
     7
370
    15
100
AcDbCircle
 10
498.327768049
 20
449.5700281057
 30
0.0
 40
14.0
  0
CIRCLE
  5
57
330
1F
100
AcDbEntity
  8
0
  6
Continuous
 62
     7
370
    15
100
AcDbCircle
 10
398.4022319139
 20
690.8116126706
 30
0.0
 40
14.00000000000006
  0
ARC
  5
58
330
1F
100
AcDbEntity
  8
0
  6
Continuous
 62
     7
370
    15
100
AcDbCircle
 10
267.8432271542
 20
495.4162537795
 30
0.0
 40
235.9999999999999
100
AcDbArc
 50
165.3520760779
 51
172.1479239221
  0
ARC
  5
59
330
1F
100
AcDbEntity
  8
0
  6
Continuous
 62
     7
370
    15
100
AcDbCircle
 10
267.8432271542
 20
495.4162537795
 30
0.0
 40
236.0
100
AcDbArc
 50
142.8520760779
 51
149.6479239221
  0
ARC
  5
5A
330
1F
100
AcDbEntity
  8
0
  6
Continuous
 62
     7
370
    15
100
AcDbCircle
 10
267.8432271542
 20
495.4162537795
 30
0.0
 40
236.0
100
AcDbArc
 50
120.3520760779
 51
127.1479239221
  0
ARC
  5
5B
330
1F
100
AcDbEntity
  8
0
  6
Continuous
 62
     7
370
    15
100
AcDbCircle
 10
267.8432271542
 20
495.4162537795
 30
0.0
 40
236.0
100
AcDbArc
 50
97.8520760779
 51
104.6479239221
  0
ARC
  5
5C
330
1F
100
AcDbEntity
  8
0
  6
Continuous
 62
     7
370
    15
100
AcDbCircle
 10
267.8432271542
 20
495.4162537795
 30
0.0
 40
236.0
100
AcDbArc
 50
75.3520760779
 51
82.1479239221
  0
ARC
  5
5D
330
1F
100
AcDbEntity
  8
0
  6
Continuous
 62
     7
370
    15
100
AcDbCircle
 10
267.8432271542
 20
495.4162537795
 30
0.0
 40
235.9999999999999
100
AcDbArc
 50
52.8520760779
 51
59.6479239221
  0
ARC
  5
5E
330
1F
100
AcDbEntity
  8
0
  6
Continuous
 62
     7
370
    15
100
AcDbCircle
 10
267.8432271542
 20
495.4162537795
 30
0.0
 40
236.0
100
AcDbArc
 50
30.3520760779
 51
37.1479239221
  0
ARC
  5
5F
330
1F
100
AcDbEntity
  8
0
  6
Continuous
 62
     7
370
    15
100
AcDbCircle
 10
267.8432271542
 20
495.4162537795
 30
0.0
 40
236.0
100
AcDbArc
 50
7.8520760779
 51
14.6479239221
  0
ARC
  5
60
330
1F
100
AcDbEntity
  8
0
  6
Continuous
 62
     7
370
    15
100
AcDbCircle
 10
267.8432271542
 20
495.4162537795
 30
0.0
 40
236.0
100
AcDbArc
 50
345.3520760779
 51
352.1479239221
  0
ARC
  5
61
330
1F
100
AcDbEntity
  8
0
  6
Continuous
 62
     7
370
    15
100
AcDbCircle
 10
267.8432271542
 20
495.4162537795
 30
0.0
 40
236.0
100
AcDbArc
 50
322.8520760779
 51
329.6479239221
  0
ARC
  5
62
330
1F
100
AcDbEntity
  8
0
  6
Continuous
 62
     7
370
    15
100
AcDbCircle
 10
267.8432271542
 20
495.4162537795
 30
0.0
 40
236.0
100
AcDbArc
 50
300.3520760779
 51
307.147923922
  0
ARC
  5
63
330
1F
100
AcDbEntity
  8
0
  6
Continuous
 62
     7
370
    15
100
AcDbCircle
 10
267.8432271542
 20
495.4162537795
 30
0.0
 40
236.0
100
AcDbArc
 50
277.8520760779
 51
284.647923922
  0
ARC
  5
64
330
1F
100
AcDbEntity
  8
0
  6
Continuous
 62
     7
370
    15
100
AcDbCircle
 10
267.8432271542
 20
495.4162537795
 30
0.0
 40
236.0
100
AcDbArc
 50
255.3520760779
 51
262.147923922
  0
ARC
  5
65
330
1F
100
AcDbEntity
  8
0
  6
Continuous
 62
     7
370
    15
100
AcDbCircle
 10
267.8432271542
 20
495.4162537795
 30
0.0
 40
236.0
100
AcDbArc
 50
232.8520760779
 51
239.6479239221
  0
ARC
  5
66
330
1F
100
AcDbEntity
  8
0
  6
Continuous
 62
     7
370
    15
100
AcDbCircle
 10
267.8432271542
 20
495.4162537795
 30
0.0
 40
236.0
100
AcDbArc
 50
210.3520760779
 51
217.1479239221
  0
ARC
  5
67
330
1F
100
AcDbEntity
  8
0
  6
Continuous
 62
     7
370
    15
100
AcDbCircle
 10
267.8432271542
 20
495.4162537795
 30
0.0
 40
236.0
100
AcDbArc
 50
187.8520760779
 51
194.6479239221
  0
ARC
  5
68
330
1F
100
AcDbEntity
  8
0
  6
Continuous
 62
     7
370
    15
100
AcDbCircle
 10
267.8432271542
 20
495.4162537795
 30
0.0
 40
233.2614672282429
100
AcDbArc
 50
165.3499581172
 51
172.1500418828
  0
ARC
  5
69
330
1F
100
AcDbEntity
  8
0
  6
Continuous
 62
     7
370
    15
100
AcDbCircle
 10
267.8432271542
 20
495.4162537795
 30
0.0
 40
233.2614672282429
100
AcDbArc
 50
142.8499581172
 51
149.6500418828
  0
ARC
  5
6A
330
1F
100
AcDbEntity
  8
0
  6
Continuous
 62
     7
370
    15
100
AcDbCircle
 10
267.8432271542
 20
495.4162537795
 30
0.0
 40
233.261467228243
100
AcDbArc
 50
120.3499581172
 51
127.1500418828
  0
ARC
  5
6B
330
1F
100
AcDbEntity
  8
0
  6
Continuous
 62
     7
370
    15
100
AcDbCircle
 10
267.8432271542
 20
495.4162537795
 30
0.0
 40
233.2614672282429
100
AcDbArc
 50
97.8499581172
 51
104.6500418828
  0
ARC
  5
6C
330
1F
100
AcDbEntity
  8
0
  6
Continuous
 62
     7
370
    15
100
AcDbCircle
 10
267.8432271542
 20
495.4162537795
 30
0.0
 40
233.261467228243
100
AcDbArc
 50
75.3499581172
 51
82.1500418828
  0
ARC
  5
6D
330
1F
100
AcDbEntity
  8
0
  6
Continuous
 62
     7
370
    15
100
AcDbCircle
 10
267.8432271542
 20
495.4162537795
 30
0.0
 40
233.261467228243
100
AcDbArc
 50
52.8499581172
 51
59.6500418828
  0
ARC
  5
6E
330
1F
100
AcDbEntity
  8
0
  6
Continuous
 62
     7
370
    15
100
AcDbCircle
 10
267.8432271542
 20
495.4162537795
 30
0.0
 40
233.261467228243
100
AcDbArc
 50
30.3499581172
 51
37.1500418828
  0
ARC
  5
6F
330
1F
100
AcDbEntity
  8
0
  6
Continuous
 62
     7
370
    15
100
AcDbCircle
 10
267.8432271542
 20
495.4162537795
 30
0.0
 40
233.261467228243
100
AcDbArc
 50
7.8499581172
 51
14.6500418828
  0
ARC
  5
70
330
1F
100
AcDbEntity
  8
0
  6
Continuous
 62
     7
370
    15
100
AcDbCircle
 10
267.8432271542
 20
495.4162537795
 30
0.0
 40
233.261467228243
100
AcDbArc
 50
345.3499581172
 51
352.1500418828
  0
ARC
  5
71
330
1F
100
AcDbEntity
  8
0
  6
Continuous
 62
     7
370
    15
100
AcDbCircle
 10
267.8432271542
 20
495.4162537795
 30
0.0
 40
233.261467228243
100
AcDbArc
 50
322.8499581172
 51
329.6500418828
  0
ARC
  5
72
330
1F
100
AcDbEntity
  8
0
  6
Continuous
 62
     7
370
    15
100
AcDbCircle
 10
267.8432271542
 20
495.4162537795
 30
0.0
 40
233.261467228243
100
AcDbArc
 50
300.3499581172
 51
307.1500418828
  0
ARC
  5
73
330
1F
100
AcDbEntity
  8
0
  6
Continuous
 62
     7
370
    15
100
AcDbCircle
 10
267.8432271542
 20
495.4162537795
 30
0.0
 40
233.261467228243
100
AcDbArc
 50
277.8499581172
 51
284.6500418828
  0
ARC
  5
74
330
1F
100
AcDbEntity
  8
0
  6
Continuous
 62
     7
370
    15
100
AcDbCircle
 10
267.8432271542
 20
495.4162537795
 30
0.0
 40
233.261467228243
100
AcDbArc
 50
255.3499581172
 51
262.1500418828
  0
ARC
  5
75
330
1F
100
AcDbEntity
  8
0
  6
Continuous
 62
     7
370
    15
100
AcDbCircle
 10
267.8432271542
 20
495.4162537795
 30
0.0
 40
233.261467228243
100
AcDbArc
 50
232.8499581172
 51
239.6500418828
  0
ARC
  5
76
330
1F
100
AcDbEntity
  8
0
  6
Continuous
 62
     7
370
    15
100
AcDbCircle
 10
267.8432271542
 20
495.4162537795
 30
0.0
 40
233.2614672282429
100
AcDbArc
 50
210.3499581172
 51
217.1500418828
  0
ARC
  5
77
330
1F
100
AcDbEntity
  8
0
  6
Continuous
 62
     7
370
    15
100
AcDbCircle
 10
267.8432271542
 20
495.4162537795
 30
0.0
 40
233.2614672282429
100
AcDbArc
 50
187.8499581172
 51
194.6500418828
  0
INSERT
  5
F3
330
1F
100
AcDbEntity
  8
FORMAT
100
AcDbBlockReference
  2
SW_CENTERMARKSYMBOL_0
 10
313.689452828
 20
725.9007946742
 30
0.0
  0
LINE
  5
F4
330
1F
100
AcDbEntity
  8
0
  6
Continuous
 62
     7
370
    15
100
AcDbLine
 10
806.405824513
 20
755.4162537795
 30
0.0
 11
781.405824513
 21
755.4162537795
 31
0.0
  0
LINE
  5
F5
330
1F
100
AcDbEntity
  8
0
  6
Continuous
 62
     7
370
    15
100
AcDbLine
 10
781.405824513
 20
235.4162537795
 30
0.0
 11
806.405824513
 21
235.4162537795
 31
0.0
  0
LINE
  5
F6
330
1F
100
AcDbEntity
  8
0
  6
Continuous
 62
     7
370
    15
100
AcDbLine
 10
676.405824513
 20
259.4162537795
 30
0.0
 11
679.6568309909
 21
259.4162537795
 31
0.0
  0
LINE
  5
F7
330
1F
100
AcDbEntity
  8
0
  6
Continuous
 62
     7
370
    15
100
AcDbLine
 10
679.6568309909
 20
731.4162537795
 30
0.0
 11
676.405824513
 21
731.4162537795
 31
0.0
  0
ARC
  5
F8
330
1F
100
AcDbEntity
  8
0
  6
Continuous
 62
     7
370
    15
100
AcDbCircle
 10
679.6568309909
 20
262.4162537795
 30
0.0
 40
3.000000000000057
100
AcDbArc
 50
270.0
 51
355.0
  0
ARC
  5
F9
330
1F
100
AcDbEntity
  8
0
  6
Continuous
 62
     7
370
    15
100
AcDbCircle
 10
679.6568309909
 20
728.4162537795
 30
0.0
 40
3.000000000000114
100
AcDbArc
 50
5.0
 51
90.0
  0
LINE
  5
FA
330
1F
100
AcDbEntity
  8
0
  6
Continuous
 62
     7
370
    15
100
AcDbLine
 10
673.905824513
 20
483.4162537795
 30
0.0
 11
676.405824513
 21
483.4162537795
 31
0.0
  0
LINE
  5
FB
330
1F
100
AcDbEntity
  8
0
  6
Continuous
 62
     7
370
    15
100
AcDbLine
 10
676.405824513
 20
507.4162537795
 30
0.0
 11
673.905824513
 21
507.4162537795
 31
0.0
  0
LINE
  5
FC
330
1F
100
AcDbEntity
  8
0
  6
Continuous
 62
     7
370
    15
100
AcDbLine
 10
682.6454150852
 20
262.1547865512
 30
0.0
 11
683.1061626192
 21
267.4211549639
 31
0.0
  0
LINE
  5
FD
330
1F
100
AcDbEntity
  8
0
  6
Continuous
 62
     7
370
    15
100
AcDbLine
 10
683.1061626192
 20
723.411352595
 30
0.0
 11
682.6454150852
 21
728.6777210077
 31
0.0
  0
LINE
  5
FE
330
1F
100
AcDbEntity
  8
0
  6
Continuous
 62
     7
370
    15
100
AcDbLine
 10
664.7426847922
 20
505.8085586249
 30
0.0
 11
663.505824513
 21
503.6662537795
 31
0.0
  0
LINE
  5
FF
330
1F
100
AcDbEntity
  8
0
  6
Continuous
 62
     7
370
    15
100
AcDbLine
 10
663.505824513
 20
487.1662537795
 30
0.0
 11
664.7426847922
 21
485.0239489341
 31
0.0
  0
LINE
  5
100
330
1F
100
AcDbEntity
  8
0
  6
Continuous
 62
     7
370
    15
100
AcDbLine
 10
672.6689642338
 20
485.0239489341
 30
0.0
 11
673.905824513
 21
487.1662537795
 31
0.0
  0
LINE
  5
101
330
1F
100
AcDbEntity
  8
0
  6
Continuous
 62
     7
370
    15
100
AcDbLine
 10
673.905824513
 20
503.6662537795
 30
0.0
 11
672.6689642338
 21
505.8085586249
 31
0.0
  0
LINE
  5
102
330
1F
100
AcDbEntity
  8
0
  6
Continuous
 62
     7
370
    15
100
AcDbLine
 10
663.505824513
 20
501.4162537795
 30
0.0
 11
628.405824513
 21
501.4162537795
 31
0.0
  0
LINE
  5
103
330
1F
100
AcDbEntity
  8
0
  6
Continuous
 62
     7
370
    15
100
AcDbLine
 10
628.405824513
 20
489.4162537795
 30
0.0
 11
663.505824513
 21
489.4162537795
 31
0.0
  0
LINE
  5
104
330
1F
100
AcDbEntity
  8
0
  6
Continuous
 62
     7
370
    15
100
AcDbLine
 10
781.405824513
 20
501.4162537795
 30
0.0
 11
683.623575149
 21
501.4162537795
 31
0.0
  0
LINE
  5
105
330
1F
100
AcDbEntity
  8
0
  6
Continuous
 62
     7
370
    15
100
AcDbLine
 10
683.6235729891
 20
489.4162537795
 30
0.0
 11
781.405824513
 21
489.4162537795
 31
0.0
  0
ARC
  5
106
330
1F
100
AcDbEntity
  8
0
  6
Continuous
 62
     7
370
    15
100
AcDbCircle
 10
689.0486616878
 20
277.9756638983
 30
0.0
 40
4.999999999999917
100
AcDbArc
 50
93.0
 51
163.2730725328
  0
ARC
  5
107
330
1F
100
AcDbEntity
  8
0
  6
Continuous
 62
     7
370
    15
100
AcDbCircle
 10
689.0486616878
 20
712.8568436606
 30
0.0
 40
4.999999999999917
100
AcDbArc
 50
196.7225882972
 51
267.0
  0
LINE
  5
108
330
1F
100
AcDbEntity
  8
0
  6
Continuous
 62
     7
370
    15
100
AcDbLine
 10
688.7869819066
 20
282.9688115721
 30
0.0
 11
714.0366644036
 21
284.2920913594
 31
0.0
  0
LINE
  5
109
330
1F
100
AcDbEntity
  8
0
  6
Continuous
 62
     7
370
    15
100
AcDbLine
 10
714.0366644036
 20
706.5404161996
 30
0.0
 11
688.7869819066
 21
707.8636959868
 31
0.0
  0
ARC
  5
10A
330
1F
100
AcDbEntity
  8
0
  6
Continuous
 62
     7
370
    15
100
AcDbCircle
 10
713.905824513
 20
286.7886651963
 30
0.0
 40
2.500000000000015
100
AcDbArc
 50
273.0
 51
0.0
  0
ARC
  5
10B
330
1F
100
AcDbEntity
  8
0
  6
Continuous
 62
     7
370
    15
100
AcDbCircle
 10
713.905824513
 20
704.0438423627
 30
0.0
 40
2.500000000000015
100
AcDbArc
 50
0.0
 51
87.0
  0
LINE
  5
10C
330
1F
100
AcDbEntity
  8
0
  6
Continuous
 62
     7
370
    15
100
AcDbLine
 10
781.405824513
 20
684.4162537795
 30
0.0
 11
716.405824513
 21
684.4162537795
 31
0.0
  0
LINE
  5
10D
330
1F
100
AcDbEntity
  8
0
  6
Continuous
 62
     7
370
    15
100
AcDbLine
 10
716.405824513
 20
306.4162537795
 30
0.0
 11
781.405824513
 21
306.4162537795
 31
0.0
  0
LINE
  5
10E
330
1F
100
AcDbEntity
  8
0
  6
Continuous
 62
     7
370
    15
100
AcDbLine
 10
673.905824513
 20
640.3939592029
 30
0.0
 11
676.405824513
 21
640.3939592029
 31
0.0
  0
LINE
  5
10F
330
1F
100
AcDbEntity
  8
0
  6
Continuous
 62
     7
370
    15
100
AcDbLine
 10
676.405824513
 20
664.3939592029
 30
0.0
 11
673.905824513
 21
664.3939592029
 31
0.0
  0
LINE
  5
110
330
1F
100
AcDbEntity
  8
0
  6
Continuous
 62
     7
370
    15
100
AcDbLine
 10
673.905824513
 20
326.4385483561
 30
0.0
 11
676.405824513
 21
326.4385483561
 31
0.0
  0
LINE
  5
111
330
1F
100
AcDbEntity
  8
0
  6
Continuous
 62
     7
370
    15
100
AcDbLine
 10
676.405824513
 20
350.4385483561
 30
0.0
 11
673.905824513
 21
350.4385483561
 31
0.0
  0
LINE
  5
112
330
1F
100
AcDbEntity
  8
0
  6
Continuous
 62
     7
370
    15
100
AcDbLine
 10
664.1227803888
 20
661.7125581258
 30
0.0
 11
663.505824513
 21
660.6439592029
 31
0.0
  0
LINE
  5
113
330
1F
100
AcDbEntity
  8
0
  6
Continuous
 62
     7
370
    15
100
AcDbLine
 10
663.505824513
 20
644.1439592029
 30
0.0
 11
664.1227803888
 21
643.0753602799
 31
0.0
  0
LINE
  5
114
330
1F
100
AcDbEntity
  8
0
  6
Continuous
 62
     7
370
    15
100
AcDbLine
 10
673.2872141527
 20
643.0724946288
 30
0.0
 11
673.905824513
 21
644.1439592029
 31
0.0
  0
LINE
  5
115
330
1F
100
AcDbEntity
  8
0
  6
Continuous
 62
     7
370
    15
100
AcDbLine
 10
673.905824513
 20
660.6439592029
 30
0.0
 11
673.2872141527
 21
661.715423777
 31
0.0
  0
LINE
  5
116
330
1F
100
AcDbEntity
  8
0
  6
Continuous
 62
     7
370
    15
100
AcDbLine
 10
664.1244348732
 20
347.7600129302
 30
0.0
 11
663.505824513
 21
346.6885483561
 31
0.0
  0
LINE
  5
117
330
1F
100
AcDbEntity
  8
0
  6
Continuous
 62
     7
370
    15
100
AcDbLine
 10
663.505824513
 20
330.1885483561
 30
0.0
 11
664.1244348732
 21
329.117083782
 31
0.0
  0
LINE
  5
118
330
1F
100
AcDbEntity
  8
0
  6
Continuous
 62
     7
370
    15
100
AcDbLine
 10
673.2888686371
 20
329.1199494331
 30
0.0
 11
673.905824513
 21
330.1885483561
 31
0.0
  0
LINE
  5
119
330
1F
100
AcDbEntity
  8
0
  6
Continuous
 62
     7
370
    15
100
AcDbLine
 10
673.905824513
 20
346.6885483561
 30
0.0
 11
673.2888686371
 21
347.757147279
 31
0.0
  0
LINE
  5
11A
330
1F
100
AcDbEntity
  8
0
  6
Continuous
 62
     7
370
    15
100
AcDbLine
 10
663.505824513
 20
658.3939592029
 30
0.0
 11
628.405824513
 21
658.3939592029
 31
0.0
  0
LINE
  5
11B
330
1F
100
AcDbEntity
  8
0
  6
Continuous
 62
     7
370
    15
100
AcDbLine
 10
628.405824513
 20
646.3939592029
 30
0.0
 11
663.505824513
 21
646.3939592029
 31
0.0
  0
LINE
  5
11C
330
1F
100
AcDbEntity
  8
0
  6
Continuous
 62
     7
370
    15
100
AcDbLine
 10
781.405824513
 20
658.3939592029
 30
0.0
 11
683.2560770704
 21
658.3939592029
 31
0.0
  0
LINE
  5
11D
330
1F
100
AcDbEntity
  8
0
  6
Continuous
 62
     7
370
    15
100
AcDbLine
 10
683.9973123984
 20
646.3939592029
 30
0.0
 11
781.405824513
 21
646.3939592029
 31
0.0
  0
LINE
  5
11E
330
1F
100
AcDbEntity
  8
0
  6
Continuous
 62
     7
370
    15
100
AcDbLine
 10
663.505824513
 20
344.4385483561
 30
0.0
 11
628.405824513
 21
344.4385483561
 31
0.0
  0
LINE
  5
11F
330
1F
100
AcDbEntity
  8
0
  6
Continuous
 62
     7
370
    15
100
AcDbLine
 10
628.405824513
 20
332.4385483561
 30
0.0
 11
663.505824513
 21
332.4385483561
 31
0.0
  0
LINE
  5
120
330
1F
100
AcDbEntity
  8
0
  6
Continuous
 62
     7
370
    15
100
AcDbLine
 10
781.405824513
 20
344.4385483561
 30
0.0
 11
683.997940586
 21
344.4385483561
 31
0.0
  0
LINE
  5
121
330
1F
100
AcDbEntity
  8
0
  6
Continuous
 62
     7
370
    15
100
AcDbLine
 10
683.2563272679
 20
332.4385483561
 30
0.0
 11
781.405824513
 21
332.4385483561
 31
0.0
  0
LINE
  5
122
330
1F
100
AcDbEntity
  8
0
  6
Continuous
 62
     7
370
    15
100
AcDbLine
 10
673.905824513
 20
705.4162537795
 30
0.0
 11
676.405824513
 21
705.4162537795
 31
0.0
  0
LINE
  5
123
330
1F
100
AcDbEntity
  8
0
  6
Continuous
 62
     7
370
    15
100
AcDbLine
 10
676.405824513
 20
729.4162537795
 30
0.0
 11
673.905824513
 21
729.4162537795
 31
0.0
  0
LINE
  5
124
330
1F
100
AcDbEntity
  8
0
  6
Continuous
 62
     7
370
    15
100
AcDbLine
 10
673.905824513
 20
261.4162537795
 30
0.0
 11
676.405824513
 21
261.4162537795
 31
0.0
  0
LINE
  5
125
330
1F
100
AcDbEntity
  8
0
  6
Continuous
 62
     7
370
    15
100
AcDbLine
 10
676.405824513
 20
285.4162537795
 30
0.0
 11
673.905824513
 21
285.4162537795
 31
0.0
  0
LINE
  5
126
330
1F
100
AcDbEntity
  8
0
  6
Continuous
 62
     7
370
    15
100
AcDbLine
 10
663.9388372149
 20
726.4162537795
 30
0.0
 11
663.505824513
 21
725.6662537795
 31
0.0
  0
LINE
  5
127
330
1F
100
AcDbEntity
  8
0
  6
Continuous
 62
     7
370
    15
100
AcDbLine
 10
663.505824513
 20
709.1662537795
 30
0.0
 11
663.9388372149
 21
708.4162537795
 31
0.0
  0
LINE
  5
128
330
1F
100
AcDbEntity
  8
0
  6
Continuous
 62
     7
370
    15
100
AcDbLine
 10
673.4728118111
 20
708.4162537795
 30
0.0
 11
673.905824513
 21
709.1662537795
 31
0.0
  0
LINE
  5
129
330
1F
100
AcDbEntity
  8
0
  6
Continuous
 62
     7
370
    15
100
AcDbLine
 10
673.905824513
 20
725.6662537795
 30
0.0
 11
673.4728118111
 21
726.4162537795
 31
0.0
  0
LINE
  5
12A
330
1F
100
AcDbEntity
  8
0
  6
Continuous
 62
     7
370
    15
100
AcDbLine
 10
663.9388372149
 20
282.4162537795
 30
0.0
 11
663.505824513
 21
281.6662537795
 31
0.0
  0
LINE
  5
12B
330
1F
100
AcDbEntity
  8
0
  6
Continuous
 62
     7
370
    15
100
AcDbLine
 10
663.505824513
 20
265.1662537795
 30
0.0
 11
663.9388372149
 21
264.4162537795
 31
0.0
  0
LINE
  5
12C
330
1F
100
AcDbEntity
  8
0
  6
Continuous
 62
     7
370
    15
100
AcDbLine
 10
673.4728118111
 20
264.4162537795
 30
0.0
 11
673.905824513
 21
265.1662537795
 31
0.0
  0
LINE
  5
12D
330
1F
100
AcDbEntity
  8
0
  6
Continuous
 62
     7
370
    15
100
AcDbLine
 10
673.905824513
 20
281.6662537795
 30
0.0
 11
673.4728118111
 21
282.4162537795
 31
0.0
  0
LINE
  5
12E
330
1F
100
AcDbEntity
  8
0
  6
Continuous
 62
     7
370
    15
100
AcDbLine
 10
663.505824513
 20
723.4162537795
 30
0.0
 11
628.405824513
 21
723.4162537795
 31
0.0
  0
LINE
  5
12F
330
1F
100
AcDbEntity
  8
0
  6
Continuous
 62
     7
370
    15
100
AcDbLine
 10
628.405824513
 20
711.4162537795
 30
0.0
 11
663.505824513
 21
711.4162537795
 31
0.0
  0
LINE
  5
130
330
1F
100
AcDbEntity
  8
0
  6
Continuous
 62
     7
370
    15
100
AcDbLine
 10
781.405824513
 20
723.4162537795
 30
0.0
 11
683.1057338212
 21
723.4162537795
 31
0.0
  0
LINE
  5
131
330
1F
100
AcDbEntity
  8
0
  6
Continuous
 62
     7
370
    15
100
AcDbLine
 10
684.2606870853
 20
711.4162537795
 30
0.0
 11
781.405824513
 21
711.4162537795
 31
0.0
  0
LINE
  5
132
330
1F
100
AcDbEntity
  8
0
  6
Continuous
 62
     7
370
    15
100
AcDbLine
 10
663.505824513
 20
279.4162537795
 30
0.0
 11
628.405824513
 21
279.4162537795
 31
0.0
  0
LINE
  5
133
330
1F
100
AcDbEntity
  8
0
  6
Continuous
 62
     7
370
    15
100
AcDbLine
 10
628.405824513
 20
267.4162537795
 30
0.0
 11
663.505824513
 21
267.4162537795
 31
0.0
  0
LINE
  5
134
330
1F
100
AcDbEntity
  8
0
  6
Continuous
 62
     7
370
    15
100
AcDbLine
 10
781.405824513
 20
279.4162537795
 30
0.0
 11
684.2601629962
 21
279.4162537795
 31
0.0
  0
LINE
  5
135
330
1F
100
AcDbEntity
  8
0
  6
Continuous
 62
     7
370
    15
100
AcDbLine
 10
683.1057338212
 20
267.4162537795
 30
0.0
 11
781.405824513
 21
267.4162537795
 31
0.0
  0
LINE
  5
136
330
1F
100
AcDbEntity
  8
0
  6
Continuous
 62
     7
370
    15
100
AcDbLine
 10
664.1237001684
 20
661.7141512308
 30
0.0
 11
664.1227803888
 21
661.7125581258
 31
0.0
  0
LINE
  5
137
330
1F
100
AcDbEntity
  8
0
  6
Continuous
 62
     7
370
    15
100
AcDbLine
 10
673.2872141527
 20
329.117083782
 30
0.0
 11
673.2888686371
 21
329.1199494331
 31
0.0
  0
LINE
  5
138
330
1F
100
AcDbEntity
  8
0
  6
Continuous
 62
     7
370
    15
100
AcDbLine
 10
806.405824513
 20
495.4162537795
 30
0.0
 11
806.405824513
 21
755.4162537795
 31
0.0
  0
LINE
  5
139
330
1F
100
AcDbEntity
  8
0
  6
Continuous
 62
     7
370
    15
100
AcDbLine
 10
806.405824513
 20
235.4162537795
 30
0.0
 11
806.405824513
 21
495.4162537795
 31
0.0
  0
LINE
  5
13A
330
1F
100
AcDbEntity
  8
0
  6
Continuous
 62
     7
370
    15
100
AcDbLine
 10
781.405824513
 20
495.4162537795
 30
0.0
 11
781.405824513
 21
755.4162537795
 31
0.0
  0
LINE
  5
13B
330
1F
100
AcDbEntity
  8
0
  6
Continuous
 62
     7
370
    15
100
AcDbLine
 10
781.405824513
 20
235.4162537795
 30
0.0
 11
781.405824513
 21
495.4162537795
 31
0.0
  0
LINE
  5
13C
330
1F
100
AcDbEntity
  8
0
  6
Continuous
 62
     7
370
    15
100
AcDbLine
 10
676.405824513
 20
490.189390253
 30
0.0
 11
676.405824513
 21
731.4162537795
 31
0.0
  0
LINE
  5
13D
330
1F
100
AcDbEntity
  8
0
  6
Continuous
 62
     7
370
    15
100
AcDbLine
 10
676.405824513
 20
259.4162537795
 30
0.0
 11
676.405824513
 21
490.189390253
 31
0.0
  0
LINE
  5
13E
330
1F
100
AcDbEntity
  8
0
  6
Continuous
 62
     7
370
    15
100
AcDbLine
 10
673.905824513
 20
483.4162537795
 30
0.0
 11
673.905824513
 21
507.4162537795
 31
0.0
  0
SPLINE
  5
13F
330
1F
100
AcDbEntity
  8
0
  6
Continuous
 62
     7
370
    15
100
AcDbSpline
210
0.0
220
0.0
230
1.0
 70
     8
 71
     3
 72
    38
 73
    34
 74
     0
 42
0.00000001
 43
0.00000001
 12
1.0
 22
0.0
 32
0.0
 13
1.0
 23
0.0
 33
0.0
 40
0.0
 40
0.0
 40
0.0
 40
0.0
 40
0.0211928376931478
 40
0.0545629821153693
 40
0.086714487741269
 40
0.1193242195380471
 40
0.1521665753394914
 40
0.1854866767051137
 40
0.2176684167591623
 40
0.2503072646388384
 40
0.2831780394835633
 40
0.3165249662459613
 40
0.3487979982543432
 40
0.381528732038593
 40
0.4144916620668725
 40
0.4479313142336948
 40
0.4803199144517445
 40
0.5129323811699975
 40
0.546250048445076
 40
0.5798110644248535
 40
0.612291269631491
 40
0.6449965695915983
 40
0.6784117969456844
 40
0.7120723796831298
 40
0.7445791697097152
 40
0.77731205171129
 40
0.8107589162395479
 40
0.8444529146088667
 40
0.8769061804880927
 40
0.9095858417525461
 40
0.9429809824439398
 40
0.9766239751419792
 40
0.9999999999999999
 40
0.9999999999999999
 40
0.9999999999999999
 40
0.9999999999999999
 10
683.1061514244832
 20
723.4113516156273
 30
0.0
 10
683.1061331702278
 20
723.4115658563143
 30
0.0
 10
683.1060861729063
 20
723.4121174393981
 30
0.0
 10
683.1101616310206
 20
723.3642780383234
 30
0.0
 10
683.1177996338164
 20
723.2746480803643
 30
0.0
 10
683.1290101107301
 20
723.1431570669682
 30
0.0
 10
683.1437871474033
 20
722.9699462223772
 30
0.0
 10
683.1619054594879
 20
722.7577466426565
 30
0.0
 10
683.1832121992245
 20
722.508453477617
 30
0.0
 10
683.2074652671286
 20
722.2250108210628
 30
0.0
 10
683.234954529234
 20
721.9041661876698
 30
0.0
 10
683.2651242017455
 20
721.552552730883
 30
0.0
 10
683.297795164637
 20
721.1723946456201
 30
0.0
 10
683.332636695011
 20
720.7676685256868
 30
0.0
 10
683.3700041419338
 20
720.3343961480076
 30
0.0
 10
683.4091135993149
 20
719.8818127520999
 30
0.0
 10
683.4496593742825
 20
719.4135626341526
 30
0.0
 10
683.49144018977
 20
718.9320545658238
 30
0.0
 10
683.5347497378358
 20
718.4340147021943
 30
0.0
 10
683.5787381117858
 20
717.9293114166576
 30
0.0
 10
683.6228651477938
 20
717.4241643672021
 30
0.0
 10
683.6670318219146
 20
716.9197031560847
 30
0.0
 10
683.7115209225893
 20
716.4127225881728
 30
0.0
 10
683.7553869782304
 20
715.9139960669816
 30
0.0
 10
683.7981065909867
 20
715.4293943489176
 30
0.0
 10
683.8396031788853
 20
714.9596874347427
 30
0.0
 10
683.8801325001143
 20
714.5019103680912
 30
0.0
 10
683.9187585319844
 20
714.0665418876049
 30
0.0
 10
683.9550386058869
 20
713.6584161461677
 30
0.0
 10
683.9889534968042
 20
713.2775917058631
 30
0.0
 10
684.0206373738117
 20
712.9224370063316
 30
0.0
 10
684.0469359502063
 20
712.6281060140741
 30
0.0
 10
684.0616541804449
 20
712.4636171755427
 30
0.0
 10
684.0676881973513
 20
712.3961818646028
 30
0.0
  0
SPLINE
  5
140
330
1F
100
AcDbEntity
  8
0
  6
Continuous
 62
     7
370
    15
100
AcDbSpline
210
0.0
220
0.0
230
1.0
 70
     8
 71
     3
 72
    45
 73
    41
 74
     0
 42
0.00000001
 43
0.00000001
 12
1.0
 22
0.0
 32
0.0
 13
1.0
 23
0.0
 33
0.0
 40
0.0
 40
0.0
 40
0.0
 40
0.0
 40
0.0016334679464087
 40
0.0281412183630362
 40
0.0546489141023818
 40
0.0819322985862889
 40
0.1092156292910032
 40
0.1356282790111451
 40
0.1620408932067867
 40
0.1892251422179879
 40
0.2164093687909003
 40
0.2427501445938101
 40
0.2690909180713187
 40
0.2961982168677097
 40
0.3233055328875264
 40
0.3496266708909841
 40
0.3759478401964069
 40
0.4030314776369587
 40
0.4301151643245619
 40
0.4564763851457186
 40
0.4828376581908345
 40
0.5099599860769362
 40
0.5370823752201911
 40
0.5635272794971403
 40
0.5899722357085466
 40
0.6171800394504977
 40
0.6443878912042693
 40
0.6709261529414969
 40
0.6974644440940427
 40
0.7247699442429413
 40
0.7520754577060642
 40
0.7786771991535371
 40
0.8052789331844041
 40
0.8326531175927259
 40
0.8600272723081968
 40
0.8866333030060701
 40
0.9132392906365261
 40
0.9406216162288258
 40
0.9680038800301708
 40
1.0
 40
1.0
 40
1.0
 40
1.0
 10
683.2560770704315
 20
658.3927132507625
 30
0.0
 10
683.2554293822171
 20
658.3931251226304
 30
0.0
 10
683.2442710760454
 20
658.4002208089574
 30
0.0
 10
683.22501265797
 20
658.3743851133053
 30
0.0
 10
683.1984091505127
 20
658.3127656339137
 30
0.0
 10
683.1748999857003
 20
658.2029188166568
 30
0.0
 10
683.154568306808
 20
658.0524408292334
 30
0.0
 10
683.137793787202
 20
657.8628805676528
 30
0.0
 10
683.1243690032363
 20
657.6356989230613
 30
0.0
 10
683.1143586964928
 20
657.368607844867
 30
0.0
 10
683.1079792645861
 20
657.0659102456964
 30
0.0
 10
683.1052762833356
 20
656.7332556833859
 30
0.0
 10
683.10610588925
 20
656.3709778639425
 30
0.0
 10
683.1105915571927
 20
655.9767925887494
 30
0.0
 10
683.1187063012663
 20
655.5570682165309
 30
0.0
 10
683.1302661709042
 20
655.1191899058135
 30
0.0
 10
683.1451833426769
 20
654.6627594120172
 30
0.0
 10
683.1636213241534
 20
654.185863511519
 30
0.0
 10
683.1853338074891
 20
653.6960456616155
 30
0.0
 10
683.2099299477417
 20
653.2016094751209
 30
0.0
 10
683.2373850384873
 20
652.7015152554275
 30
0.0
 10
683.2678638626879
 20
652.1945742027503
 30
0.0
 10
683.300938046828
 20
651.6886962026974
 30
0.0
 10
683.3360450905816
 20
651.1922525086029
 30
0.0
 10
683.3732189914633
 20
650.7037370039048
 30
0.0
 10
683.412595225391
 20
650.222752620163
 30
0.0
 10
683.4535971021664
 20
649.7569326600345
 30
0.0
 10
683.4955395246825
 20
649.3138442411472
 30
0.0
 10
683.538504029521
 20
648.8917075679917
 30
0.0
 10
683.5825867046212
 20
648.4907501884416
 30
0.0
 10
683.6270974476134
 20
648.1177065848532
 30
0.0
 10
683.671294962228
 20
647.7784816406185
 30
0.0
 10
683.715296976118
 20
647.4711858511382
 30
0.0
 10
683.759165191036
 20
647.1964898429592
 30
0.0
 10
683.8021549657434
 20
646.9594211820984
 30
0.0
 10
683.8435408917206
 20
646.7636741244531
 30
0.0
 10
683.8835131953399
 20
646.6066537255563
 30
0.0
 10
683.9219348811807
 20
646.4922636811045
 30
0.0
 10
683.9612012578251
 20
646.4070062710488
 30
0.0
 10
683.9846675539499
 20
646.4084712869409
 30
0.0
 10
683.9973123983925
 20
646.4092607126759
 30
0.0
  0
SPLINE
  5
141
330
1F
100
AcDbEntity
  8
0
  6
Continuous
 62
     7
370
    15
100
AcDbSpline
210
0.0
220
0.0
230
1.0
 70
     8
 71
     3
 72
    46
 73
    42
 74
     0
 42
0.00000001
 43
0.00000001
 12
1.0
 22
0.0
 32
0.0
 13
1.0
 23
0.0
 33
0.0
 40
0.0
 40
0.0
 40
0.0
 40
0.0
 40
0.0066409383048506
 40
0.0331569886512622
 40
0.0598571051039649
 40
0.0871381043757305
 40
0.1146200084315997
 40
0.1411272637880376
 40
0.1678191494395029
 40
0.1950942896801161
 40
0.2225713892004527
 40
0.2490118655043143
 40
0.2756368616682962
 40
0.3028449380183811
 40
0.3302549628992777
 40
0.3566012263531819
 40
0.3834215109906289
 40
0.410241757180251
 40
0.4375533040718346
 40
0.4638182772036364
 40
0.4905544079364669
 40
0.5172905353149183
 40
0.544514517552738
 40
0.5707443116766073
 40
0.5974427243562447
 40
0.6241411694445411
 40
0.6513243256293847
 40
0.6775787855600444
 40
0.7043006569937087
 40
0.7310225832930952
 40
0.7582276241337589
 40
0.7845565617325932
 40
0.8113535055629627
 40
0.8381505044446685
 40
0.8654311923886554
 40
0.8918544126746558
 40
0.9184602674002363
 40
0.9456414378089053
 40
0.9730211366006263
 40
0.9995190899339474
 40
1.0
 40
1.0
 40
1.0
 40
1.0
 10
683.6235751489871
 20
501.4121849318267
 30
0.0
 10
683.6199320014016
 20
501.4134202462104
 30
0.0
 10
683.6017424327592
 20
501.4195879446773
 30
0.0
 10
683.5690145200371
 20
501.3884909276183
 30
0.0
 10
683.5254606887333
 20
501.3178356825243
 30
0.0
 10
683.4821821087801
 20
501.2002441698018
 30
0.0
 10
683.4401170576508
 20
501.0416815585343
 30
0.0
 10
683.3997433700296
 20
500.8438253553948
 30
0.0
 10
683.3611031726497
 20
500.6083746383674
 30
0.0
 10
683.3239379584177
 20
500.3325304748355
 30
0.0
 10
683.2891120285211
 20
500.0215569335413
 30
0.0
 10
683.2569813673568
 20
499.680154461932
 30
0.0
 10
683.2275382859393
 20
499.3099116003812
 30
0.0
 10
683.2005900347165
 20
498.9070381930212
 30
0.0
 10
683.1768052327574
 20
498.4799947617631
 30
0.0
 10
683.1563050079939
 20
498.0330933118938
 30
0.0
 10
683.1392107085403
 20
497.5709425131471
 30
0.0
 10
683.1253310584391
 20
497.087759713616
 30
0.0
 10
683.1150914680056
 20
496.5957390091107
 30
0.0
 10
683.1084250230277
 20
496.0958845553475
 30
0.0
 10
683.1053618343011
 20
495.5947935608753
 30
0.0
 10
683.1058894880352
 20
495.0864085911931
 30
0.0
 10
683.1100720112545
 20
494.5835487032481
 30
0.0
 10
683.1178315243478
 20
494.0869146521352
 30
0.0
 10
683.1290242639581
 20
493.6028366410699
 30
0.0
 10
683.1438088653038
 20
493.125871230599
 30
0.0
 10
683.161905701415
 20
492.6679419345237
 30
0.0
 10
683.1832361554827
 20
492.2294200520054
 30
0.0
 10
683.2075004281992
 20
491.815728681825
 30
0.0
 10
683.2349887909237
 20
491.4226701309189
 30
0.0
 10
683.2651247698216
 20
491.0601175639138
 30
0.0
 10
683.297832687124
 20
490.7281295426294
 30
0.0
 10
683.3326827490466
 20
490.4306919197208
 30
0.0
 10
683.3700492336626
 20
490.1651321482205
 30
0.0
 10
683.4091138333048
 20
489.9384726504307
 30
0.0
 10
683.4496593098594
 20
489.751048064932
 30
0.0
 10
683.4914402156453
 20
489.6037514607825
 30
0.0
 10
683.5347496994963
 20
489.4949017692737
 30
0.0
 10
683.5787382378805
 20
489.4342928918441
 30
0.0
 10
683.6085132308984
 20
489.4095698047363
 30
0.0
 10
683.6233092437186
 20
489.4165016323564
 30
0.0
 10
683.6235729891329
 20
489.4166251952222
 30
0.0
  0
SPLINE
  5
142
330
1F
100
AcDbEntity
  8
0
  6
Continuous
 62
     7
370
    15
100
AcDbSpline
210
0.0
220
0.0
230
1.0
 70
     8
 71
     3
 72
    45
 73
    41
 74
     0
 42
0.00000001
 43
0.00000001
 12
1.0
 22
0.0
 32
0.0
 13
1.0
 23
0.0
 33
0.0
 40
0.0
 40
0.0
 40
0.0
 40
0.0
 40
0.0167824216589744
 40
0.0439259311423574
 40
0.0710695028567303
 40
0.0975522773435901
 40
0.1240350981142273
 40
0.1512820483836808
 40
0.1785290336223478
 40
0.2051012038623697
 40
0.2316733873339125
 40
0.2590151307884229
 40
0.2863568672803388
 40
0.3129684434560382
 40
0.3395799949042186
 40
0.3669660707380395
 40
0.394352101482862
 40
0.4209374778653219
 40
0.4475228033235815
 40
0.4748849919250983
 40
0.502247117504484
 40
0.5287543442588942
 40
0.5552615163370995
 40
0.582544361836088
 40
0.60982715355695
 40
0.6362392814935941
 40
0.6626513739064375
 40
0.6898350858911516
 40
0.7170187754380185
 40
0.7433590308773033
 40
0.7696992839912307
 40
0.7968060472812891
 40
0.8239128277944314
 40
0.8502334458222078
 40
0.8765540951513354
 40
0.9036371975529863
 40
0.9307203492007133
 40
0.9570810492543543
 40
0.9834418015309191
 40
0.9999999999999999
 40
0.9999999999999999
 40
0.9999999999999999
 40
0.9999999999999999
 10
683.9979405859556
 20
344.4337575611837
 30
0.0
 10
683.9913078688049
 20
344.4340299846054
 30
0.0
 10
683.9739475448446
 20
344.4347430195122
 30
0.0
 10
683.942998301326
 20
344.3875650447478
 30
0.0
 10
683.9059982174143
 20
344.2979148729484
 30
0.0
 10
683.8672676309716
 20
344.1657790968278
 30
0.0
 10
683.8269055149835
 20
343.9942726123332
 30
0.0
 10
683.7847808589565
 20
343.7812004465442
 30
0.0
 10
683.7415482968157
 20
343.5294978143359
 30
0.0
 10
683.6979392557683
 20
343.2436660748089
 30
0.0
 10
683.6538604985747
 20
342.9240344532442
 30
0.0
 10
683.6092414669437
 20
342.5689732460553
 30
0.0
 10
683.5648049975174
 20
342.1838155863551
 30
0.0
 10
683.5212874106567
 20
341.7753125517718
 30
0.0
 10
683.478546854696
 20
341.3431974537775
 30
0.0
 10
683.4365231110988
 20
340.8857780049713
 30
0.0
 10
683.3959432463201
 20
340.4106159320169
 30
0.0
 10
683.3574585421169
 20
339.9259133842937
 30
0.0
 10
683.3208926116864
 20
339.4308187889081
 30
0.0
 10
683.2861999177119
 20
338.9235617348269
 30
0.0
 10
683.2540167507773
 20
338.4131050707443
 30
0.0
 10
683.2248334338908
 20
337.9080942042718
 30
0.0
 10
683.1984587440655
 20
337.4071232606192
 30
0.0
 10
683.1748865210528
 20
336.9085617438931
 30
0.0
 10
683.1545717864523
 20
336.4215242578029
 30
0.0
 10
683.1377928685308
 20
335.9540338830764
 30
0.0
 10
683.124369257397
 20
335.5042504999225
 30
0.0
 10
683.1143586276208
 20
335.071081540795
 30
0.0
 10
683.1079792819272
 20
334.6624946866465
 30
0.0
 10
683.1052762804634
 20
334.2849699977984
 30
0.0
 10
683.1061058835846
 20
333.9364616871177
 30
0.0
 10
683.1105915836964
 20
333.6167442039628
 30
0.0
 10
683.1187062024461
 20
333.331678092871
 30
0.0
 10
683.1302665281031
 20
333.0855501795836
 30
0.0
 10
683.1451819918697
 20
332.8763530621248
 30
0.0
 10
683.1636265286811
 20
332.7049332873897
 30
0.0
 10
683.1853146210708
 20
332.5739532479855
 30
0.0
 10
683.2099994248323
 20
332.487418045613
 30
0.0
 10
683.233533871675
 20
332.4420007341616
 30
0.0
 10
683.2499816783053
 20
332.4432641256365
 30
0.0
 10
683.2563272678836
 20
332.4437515440477
 30
0.0
  0
SPLINE
  5
143
330
1F
100
AcDbEntity
  8
0
  6
Continuous
 62
     7
370
    15
100
AcDbSpline
210
0.0
220
0.0
230
1.0
 70
     8
 71
     3
 72
    38
 73
    34
 74
     0
 42
0.00000001
 43
0.00000001
 12
1.0
 22
0.0
 32
0.0
 13
1.0
 23
0.0
 33
0.0
 40
0.0
 40
0.0
 40
0.0
 40
0.0
 40
0.0322857648348208
 40
0.0647957877838372
 40
0.0980118620313349
 40
0.1314713403916659
 40
0.1638196374905713
 40
0.1963917414003157
 40
0.2296685497347784
 40
0.2631883832475784
 40
0.2956229191599021
 40
0.3282818355103527
 40
0.3616479280359446
 40
0.3952582120286578
 40
0.4277605422328066
 40
0.4604884934207711
 40
0.4939284678908041
 40
0.5276147035327378
 40
0.5601062531845595
 40
0.5928241153805299
 40
0.6262569080809273
 40
0.6599372545124275
 40
0.6923469490316333
 40
0.7249828207282282
 40
0.7583334091528661
 40
0.7919315381330116
 40
0.8243435208903723
 40
0.8569833080151603
 40
0.8899764130319101
 40
0.9234538315712247
 40
0.9557654243234865
 40
0.9883035941665455
 40
0.9999999999999999
 40
0.9999999999999999
 40
0.9999999999999999
 40
0.9999999999999999
 10
684.0676881973513
 20
278.4363256943333
 30
0.0
 10
684.0592772696924
 20
278.3423179552831
 30
0.0
 10
684.0423969917607
 20
278.1536494959575
 30
0.0
 10
684.0131432094526
 20
277.8261152044041
 30
0.0
 10
683.9810136499764
 20
277.465824379741
 30
0.0
 10
683.9463399687822
 20
277.0763103442968
 30
0.0
 10
683.9096869279332
 20
276.6637891440939
 30
0.0
 10
683.8711736757817
 20
276.2294858032247
 30
0.0
 10
683.8305122985153
 20
275.7700099087194
 30
0.0
 10
683.7885001703135
 20
275.2942367841703
 30
0.0
 10
683.7456805273849
 20
274.8082465787836
 30
0.0
 10
683.7021717827492
 20
274.3133376969191
 30
0.0
 10
683.6576801535249
 20
273.8060941059124
 30
0.0
 10
683.6131135313225
 20
273.2968140995459
 30
0.0
 10
683.569011908615
 20
272.7916944891224
 30
0.0
 10
683.5254614074047
 20
272.2917717413014
 30
0.0
 10
683.4821819126446
 20
271.793851290665
 30
0.0
 10
683.4401171082625
 20
271.3088363913591
 30
0.0
 10
683.3997433566326
 20
270.8423388615855
 30
0.0
 10
683.361103176144
 20
270.3949800267386
 30
0.0
 10
683.3239379582052
 20
269.9638660239778
 30
0.0
 10
683.2891120258284
 20
269.5591404996088
 30
0.0
 10
683.2569813778742
 20
269.1851047711085
 30
0.0
 10
683.2275382457221
 20
268.8418252265197
 30
0.0
 10
683.2005901890018
 20
268.527186953191
 30
0.0
 10
683.1767764360717
 20
268.2487838072183
 30
0.0
 10
683.1563089256044
 20
268.0092349214253
 30
0.0
 10
683.1392047387791
 20
267.8088616493189
 30
0.0
 10
683.1253559241954
 20
267.6464983028214
 30
0.0
 10
683.1150370994999
 20
267.5254457731344
 30
0.0
 10
683.1085777039508
 20
267.4496379546197
 30
0.0
 10
683.1056149331664
 20
267.4148581899926
 30
0.0
 10
683.1060392322778
 20
267.4198389437382
 30
0.0
 10
683.1061514244832
 20
267.4211559433086
 30
0.0
  0
LINE
  5
144
330
1F
100
AcDbEntity
  8
0
  6
Continuous
 62
     7
370
    15
100
AcDbLine
 10
664.7426847922
 20
500.6124062022
 30
0.0
 11
672.6689642338
 21
500.6124062022
 31
0.0
  0
SPLINE
  5
145
330
1F
100
AcDbEntity
  8
0
  6
Continuous
 62
     7
370
    15
100
AcDbSpline
210
0.0
220
0.0
230
1.0
 70
     8
 71
     3
 72
    16
 73
    12
 74
     0
 42
0.00000001
 43
0.00000001
 12
1.0
 22
0.0
 32
0.0
 13
1.0
 23
0.0
 33
0.0
 40
0.0
 40
0.0
 40
0.0
 40
0.0
 40
0.25
 40
0.25
 40
0.5
 40
0.5
 40
0.625
 40
0.625
 40
0.75
 40
0.75
 40
1.0
 40
1.0
 40
1.0
 40
1.0
 10
672.6689642337794
 20
500.6124062021731
 30
0.0
 10
672.9129395303098
 20
499.7672509834082
 30
0.0
 10
673.1176334858008
 20
498.9014230865982
 30
0.0
 10
673.3974872581263
 20
497.1655377454182
 30
0.0
 10
673.4728958324174
 20
496.2928976096484
 30
0.0
 10
673.4727696931845
 20
494.9756926728753
 30
0.0
 10
673.4540782269911
 20
494.5352665290577
 30
0.0
 10
673.379903369934
 20
493.6517354858874
 30
0.0
 10
673.3247271216133
 20
493.2126285073904
 30
0.0
 10
673.1133900815378
 20
491.9110253832753
 30
0.0
 10
672.9114270171683
 20
491.0600170763084
 30
0.0
 10
672.6689642337793
 20
490.2201013567599
 30
0.0
  0
LINE
  5
146
330
1F
100
AcDbEntity
  8
0
  6
Continuous
 62
     7
370
    15
100
AcDbLine
 10
664.7426847922
 20
490.2201013568
 30
0.0
 11
672.6689642338
 21
490.2201013568
 31
0.0
  0
SPLINE
  5
147
330
1F
100
AcDbEntity
  8
0
  6
Continuous
 62
     7
370
    15
100
AcDbSpline
210
0.0
220
0.0
230
1.0
 70
     8
 71
     3
 72
    16
 73
    12
 74
     0
 42
0.00000001
 43
0.00000001
 12
1.0
 22
0.0
 32
0.0
 13
1.0
 23
0.0
 33
0.0
 40
0.0
 40
0.0
 40
0.0
 40
0.0
 40
0.25
 40
0.25
 40
0.5
 40
0.5
 40
0.625
 40
0.625
 40
0.75
 40
0.75
 40
1.0
 40
1.0
 40
1.0
 40
1.0
 10
664.7426847921504
 20
500.6124062021732
 30
0.0
 10
664.49870949562
 20
499.7672509834084
 30
0.0
 10
664.294015540129
 20
498.9014230865982
 30
0.0
 10
664.0141617678034
 20
497.1655377454182
 30
0.0
 10
663.9387531935124
 20
496.2928976096484
 30
0.0
 10
663.9388793327449
 20
494.9756926728753
 30
0.0
 10
663.9575707989386
 20
494.5352665290577
 30
0.0
 10
664.0317456559957
 20
493.6517354858874
 30
0.0
 10
664.0869219043163
 20
493.2126285073903
 30
0.0
 10
664.2982589443919
 20
491.9110253832752
 30
0.0
 10
664.5002220087615
 20
491.0600170763083
 30
0.0
 10
664.7426847921505
 20
490.2201013567598
 30
0.0
  0
LINE
  5
148
330
1F
100
AcDbEntity
  8
0
  6
Continuous
 62
     7
370
    15
100
AcDbLine
 10
664.7426847922
 20
505.8085586249
 30
0.0
 11
672.6689642338
 21
505.8085586249
 31
0.0
  0
SPLINE
  5
149
330
1F
100
AcDbEntity
  8
0
  6
Continuous
 62
     7
370
    15
100
AcDbSpline
210
0.0
220
0.0
230
1.0
 70
     8
 71
     3
 72
    16
 73
    12
 74
     0
 42
0.00000001
 43
0.00000001
 12
1.0
 22
0.0
 32
0.0
 13
1.0
 23
0.0
 33
0.0
 40
0.0
 40
0.0
 40
0.0
 40
0.0
 40
0.2499999999999983
 40
0.2499999999999983
 40
0.4999999999999967
 40
0.4999999999999967
 40
0.6249999999999958
 40
0.6249999999999958
 40
0.749999999999995
 40
0.749999999999995
 40
1.0
 40
1.0
 40
1.0
 40
1.0
 10
672.6689642337798
 20
505.8085586248798
 30
0.0
 10
672.9138857483621
 20
505.3843421177564
 30
0.0
 10
673.1157454683986
 20
504.9570327119457
 30
0.0
 10
673.3953867399956
 20
504.0935020282473
 30
0.0
 10
673.472245874724
 20
503.6572144980856
 30
0.0
 10
673.4730900358932
 20
502.9945632627753
 30
0.0
 10
673.4543009492231
 20
502.7726402049943
 30
0.0
 10
673.3810334571423
 20
502.3336529859992
 30
0.0
 10
673.3266294054789
 20
502.1156311375512
 30
0.0
 10
673.1165503471268
 20
501.4654471733313
 30
0.0
 10
672.9141910539595
 20
501.0371515141034
 30
0.0
 10
672.6689642337795
 20
500.6124062021731
 30
0.0
  0
SPLINE
  5
14A
330
1F
100
AcDbEntity
  8
0
  6
Continuous
 62
     7
370
    15
100
AcDbSpline
210
0.0
220
0.0
230
1.0
 70
     8
 71
     3
 72
    16
 73
    12
 74
     0
 42
0.00000001
 43
0.00000001
 12
1.0
 22
0.0
 32
0.0
 13
1.0
 23
0.0
 33
0.0
 40
0.0
 40
0.0
 40
0.0
 40
0.0
 40
0.2499999999999999
 40
0.2499999999999999
 40
0.4999999999999998
 40
0.4999999999999998
 40
0.6249999999999998
 40
0.6249999999999998
 40
0.7499999999999997
 40
0.7499999999999997
 40
1.0
 40
1.0
 40
1.0
 40
1.0
 10
664.74268479215
 20
500.6124062021731
 30
0.0
 10
664.4977632775676
 20
501.0366227092965
 30
0.0
 10
664.2959035575311
 20
501.4639321151072
 30
0.0
 10
664.0162622859341
 20
502.3274627988056
 30
0.0
 10
663.9394031512059
 20
502.7637503289673
 30
0.0
 10
663.9385589900365
 20
503.4264015642776
 30
0.0
 10
663.9573480767066
 20
503.6483246220586
 30
0.0
 10
664.0306155687874
 20
504.0873118410537
 30
0.0
 10
664.0850196204508
 20
504.3053336895017
 30
0.0
 10
664.2950986788029
 20
504.9555176537216
 30
0.0
 10
664.4974579719702
 20
505.3838133129495
 30
0.0
 10
664.7426847921502
 20
505.8085586248798
 30
0.0
  0
SPLINE
  5
14B
330
1F
100
AcDbEntity
  8
0
  6
Continuous
 62
     7
370
    15
100
AcDbSpline
210
0.0
220
0.0
230
1.0
 70
     8
 71
     3
 72
    16
 73
    12
 74
     0
 42
0.00000001
 43
0.00000001
 12
1.0
 22
0.0
 32
0.0
 13
1.0
 23
0.0
 33
0.0
 40
0.0
 40
0.0
 40
0.0
 40
0.0
 40
0.2500000000000001
 40
0.2500000000000001
 40
0.5000000000000001
 40
0.5000000000000001
 40
0.6250000000000001
 40
0.6250000000000001
 40
0.7500000000000002
 40
0.7500000000000002
 40
1.0
 40
1.0
 40
1.0
 40
1.0
 10
664.74268479215
 20
485.0239489340533
 30
0.0
 10
664.4977632775676
 20
485.4481654411767
 30
0.0
 10
664.2959035575311
 20
485.8754748469875
 30
0.0
 10
664.016262285934
 20
486.7390055306859
 30
0.0
 10
663.9394031512059
 20
487.1752930608474
 30
0.0
 10
663.9385589900365
 20
487.8379442961579
 30
0.0
 10
663.9573480767066
 20
488.0598673539387
 30
0.0
 10
664.0306155687874
 20
488.4988545729339
 30
0.0
 10
664.0850196204509
 20
488.7168764213819
 30
0.0
 10
664.2950986788029
 20
489.3670603856017
 30
0.0
 10
664.4974579719702
 20
489.7953560448296
 30
0.0
 10
664.7426847921503
 20
490.22010135676
 30
0.0
  0
LINE
  5
14C
330
1F
100
AcDbEntity
  8
0
  6
Continuous
 62
     7
370
    15
100
AcDbLine
 10
663.505824513
 20
487.1662537795
 30
0.0
 11
663.505824513
 21
503.6662537795
 31
0.0
  0
SPLINE
  5
14D
330
1F
100
AcDbEntity
  8
0
  6
Continuous
 62
     7
370
    15
100
AcDbSpline
210
0.0
220
0.0
230
1.0
 70
     8
 71
     3
 72
    16
 73
    12
 74
     0
 42
0.00000001
 43
0.00000001
 12
1.0
 22
0.0
 32
0.0
 13
1.0
 23
0.0
 33
0.0
 40
0.0
 40
0.0
 40
0.0
 40
0.0
 40
0.2499999999999947
 40
0.2499999999999947
 40
0.4999999999999895
 40
0.4999999999999895
 40
0.6249999999999903
 40
0.6249999999999903
 40
0.7499999999999912
 40
0.7499999999999912
 40
1.0
 40
1.0
 40
1.0
 40
1.0
 10
672.6689642337798
 20
490.2201013567599
 30
0.0
 10
672.9138857483621
 20
489.7958848496365
 30
0.0
 10
673.1157454683986
 20
489.3685754438258
 30
0.0
 10
673.3953867399956
 20
488.5050447601275
 30
0.0
 10
673.472245874724
 20
488.0687572299658
 30
0.0
 10
673.4730900358932
 20
487.4061059946554
 30
0.0
 10
673.4543009492231
 20
487.1841829368745
 30
0.0
 10
673.3810334571422
 20
486.7451957178794
 30
0.0
 10
673.3266294054789
 20
486.5271738694314
 30
0.0
 10
673.1165503471268
 20
485.8769899052115
 30
0.0
 10
672.9141910539596
 20
485.4486942459836
 30
0.0
 10
672.6689642337795
 20
485.0239489340533
 30
0.0
  0
LINE
  5
14E
330
1F
100
AcDbEntity
  8
0
  6
Continuous
 62
     7
370
    15
100
AcDbLine
 10
664.7426847922
 20
485.0239489341
 30
0.0
 11
672.6689642338
 21
485.0239489341
 31
0.0
  0
LINE
  5
14F
330
1F
100
AcDbEntity
  8
0
  6
Continuous
 62
     7
370
    15
100
AcDbLine
 10
628.405824513
 20
489.4162537795
 30
0.0
 11
628.405824513
 21
501.4162537795
 31
0.0
  0
SPLINE
  5
150
330
1F
100
AcDbEntity
  8
0
  6
Continuous
 62
     7
370
    15
100
AcDbSpline
210
0.0
220
0.0
230
1.0
 70
     8
 71
     3
 72
    15
 73
    11
 74
     0
 42
0.00000001
 43
0.00000001
 12
1.0
 22
0.0
 32
0.0
 13
1.0
 23
0.0
 33
0.0
 40
0.0
 40
0.0
 40
0.0
 40
0.0
 40
0.0125669924376966
 40
0.1607098399898636
 40
0.2984494084959347
 40
0.4371306173200912
 40
0.5786826347354307
 40
0.7211981291784496
 40
0.8601360503729076
 40
1.0
 40
1.0
 40
1.0
 40
1.0
 10
684.2601625931554
 20
279.4145465281671
 30
0.0
 10
684.2603345909981
 20
279.4151064815678
 30
0.0
 10
684.2625341423942
 20
279.4222673055966
 30
0.0
 10
684.2542122757101
 20
279.3954142567823
 30
0.0
 10
684.2356096519215
 20
279.3333113663171
 30
0.0
 10
684.20658121007
 20
279.2296473539404
 30
0.0
 10
684.1708289238322
 20
279.0877361148728
 30
0.0
 10
684.1323504701987
 20
278.906796735487
 30
0.0
 10
684.0949661578717
 20
278.6926806901872
 30
0.0
 10
684.0768009624967
 20
278.5219663663814
 30
0.0
 10
684.0676881973513
 20
278.4363256943333
 30
0.0
  0
SPLINE
  5
151
330
1F
100
AcDbEntity
  8
0
  6
Continuous
 62
     7
370
    15
100
AcDbSpline
210
0.0
220
0.0
230
1.0
 70
     8
 71
     3
 72
    14
 73
    10
 74
     0
 42
0.00000001
 43
0.00000001
 12
1.0
 22
0.0
 32
0.0
 13
1.0
 23
0.0
 33
0.0
 40
0.0
 40
0.0
 40
0.0
 40
0.0
 40
0.1422985129283222
 40
0.285607419865078
 40
0.4319889209320136
 40
0.5794320305514792
 40
0.7220048042403627
 40
0.8656164843683224
 40
0.9999999999999999
 40
0.9999999999999999
 40
0.9999999999999999
 40
0.9999999999999999
 10
684.0676881973513
 20
712.3961818646028
 30
0.0
 10
684.0769802407352
 20
712.3091153197324
 30
0.0
 10
684.0956303058803
 20
712.1343640118988
 30
0.0
 10
684.1341670362
 20
711.9160401610436
 30
0.0
 10
684.1738711753322
 20
711.7315507809972
 30
0.0
 10
684.2104599180507
 20
711.588388205789
 30
0.0
 10
684.2389108781437
 20
711.4878226156446
 30
0.0
 10
684.2574606511
 20
711.4266134998084
 30
0.0
 10
684.2592817899629
 20
711.4207816569219
 30
0.0
 10
684.2601621326688
 20
711.4179625306865
 30
0.0
  0
LINE
  5
152
330
1F
100
AcDbEntity
  8
0
  6
Continuous
 62
     7
370
    15
100
AcDbLine
 10
716.405824513
 20
501.4162537795
 30
0.0
 11
716.405824513
 21
646.3939592029
 31
0.0
  0
LINE
  5
153
330
1F
100
AcDbEntity
  8
0
  6
Continuous
 62
     7
370
    15
100
AcDbLine
 10
716.405824513
 20
658.3939592029
 30
0.0
 11
716.405824513
 21
704.0438423627
 31
0.0
  0
LINE
  5
154
330
1F
100
AcDbEntity
  8
0
  6
Continuous
 62
     7
370
    15
100
AcDbLine
 10
716.405824513
 20
286.7886651963
 30
0.0
 11
716.405824513
 21
332.4385483561
 31
0.0
  0
LINE
  5
155
330
1F
100
AcDbEntity
  8
0
  6
Continuous
 62
     7
370
    15
100
AcDbLine
 10
716.405824513
 20
344.4385483561
 30
0.0
 11
716.405824513
 21
489.4162537795
 31
0.0
  0
LINE
  5
156
330
1F
100
AcDbEntity
  8
0
  6
Continuous
 62
     7
370
    15
100
AcDbLine
 10
673.905824513
 20
640.3939592029
 30
0.0
 11
673.905824513
 21
664.3939592029
 31
0.0
  0
LINE
  5
157
330
1F
100
AcDbEntity
  8
0
  6
Continuous
 62
     7
370
    15
100
AcDbLine
 10
673.905824513
 20
346.9238297303
 30
0.0
 11
673.905824513
 21
350.4385483561
 31
0.0
  0
LINE
  5
158
330
1F
100
AcDbEntity
  8
0
  6
Continuous
 62
     7
370
    15
100
AcDbLine
 10
673.905824513
 20
326.4385483561
 30
0.0
 11
673.905824513
 21
346.9238297303
 31
0.0
  0
SPLINE
  5
159
330
1F
100
AcDbEntity
  8
0
  6
Continuous
 62
     7
370
    15
100
AcDbSpline
210
0.0
220
0.0
230
1.0
 70
     8
 71
     3
 72
    10
 73
     6
 74
     0
 42
0.00000001
 43
0.00000001
 12
1.0
 22
0.0
 32
0.0
 13
1.0
 23
0.0
 33
0.0
 40
0.0
 40
0.0
 40
0.0
 40
0.0
 40
0.4879971273818339
 40
0.977895855969163
 40
1.0
 40
1.0
 40
1.0
 40
1.0
 10
664.7426847921506
 20
662.4321548477345
 30
0.0
 10
664.6229583921472
 20
662.3161168863138
 30
0.0
 10
664.383039048684
 20
662.0835887929267
 30
0.0
 10
664.1799586137955
 20
661.8422035789602
 30
0.0
 10
664.1269616844992
 20
661.7168756648022
 30
0.0
 10
664.1246737056206
 20
661.7114650188589
 30
0.0
  0
SPLINE
  5
15A
330
1F
100
AcDbEntity
  8
0
  6
Continuous
 62
     7
370
    15
100
AcDbSpline
210
0.0
220
0.0
230
1.0
 70
     8
 71
     3
 72
    16
 73
    12
 74
     0
 42
0.00000001
 43
0.00000001
 12
1.0
 22
0.0
 32
0.0
 13
1.0
 23
0.0
 33
0.0
 40
0.0
 40
0.0
 40
0.0
 40
0.0
 40
0.2499999999999972
 40
0.2499999999999972
 40
0.4999999999999944
 40
0.4999999999999944
 40
0.6249999999999958
 40
0.6249999999999958
 40
0.7499999999999972
 40
0.7499999999999972
 40
1.0
 40
1.0
 40
1.0
 40
1.0
 10
664.7426847921504
 20
662.4321548477345
 30
0.0
 10
664.49870949562
 20
661.8345398613907
 30
0.0
 10
664.294015540129
 20
661.2223070842158
 30
0.0
 10
664.0141617678033
 20
659.994850788105
 30
0.0
 10
663.9387531935124
 20
659.3778010305667
 30
0.0
 10
663.9388793327449
 20
658.446396487562
 30
0.0
 10
663.9575707989386
 20
658.1349681746568
 30
0.0
 10
664.0317456559957
 20
657.5102173826423
 30
0.0
 10
664.0869219043163
 20
657.1997218604806
 30
0.0
 10
664.2982589443918
 20
656.2793494650052
 30
0.0
 10
664.5002220087615
 20
655.6775957203029
 30
0.0
 10
664.7426847921504
 20
655.0836856193849
 30
0.0
  0
SPLINE
  5
15B
330
1F
100
AcDbEntity
  8
0
  6
Continuous
 62
     7
370
    15
100
AcDbSpline
210
0.0
220
0.0
230
1.0
 70
     8
 71
     3
 72
    16
 73
    12
 74
     0
 42
0.00000001
 43
0.00000001
 12
1.0
 22
0.0
 32
0.0
 13
1.0
 23
0.0
 33
0.0
 40
0.0
 40
0.0
 40
0.0
 40
0.0
 40
0.2499999999999971
 40
0.2499999999999971
 40
0.4999999999999942
 40
0.4999999999999942
 40
0.6249999999999938
 40
0.6249999999999938
 40
0.7499999999999933
 40
0.7499999999999933
 40
1.0
 40
1.0
 40
1.0
 40
1.0
 10
664.74268479215
 20
645.0454899745313
 30
0.0
 10
664.4977632775676
 20
645.8650133348685
 30
0.0
 10
664.2959035575311
 20
646.6905117166461
 30
0.0
 10
664.016262285934
 20
648.3587248950008
 30
0.0
 10
663.9394031512057
 20
649.2015676811429
 30
0.0
 10
663.9385589900365
 20
650.4817115651603
 30
0.0
 10
663.9573480767066
 20
650.9104339910793
 30
0.0
 10
664.0306155687874
 20
651.7584921755558
 30
0.0
 10
664.0850196204509
 20
652.1796780437783
 30
0.0
 10
664.2950986788029
 20
653.4357370095362
 30
0.0
 10
664.4974579719702
 20
654.2631406866077
 30
0.0
 10
664.7426847921503
 20
655.0836856193852
 30
0.0
  0
SPLINE
  5
15C
330
1F
100
AcDbEntity
  8
0
  6
Continuous
 62
     7
370
    15
100
AcDbSpline
210
0.0
220
0.0
230
1.0
 70
     8
 71
     3
 72
    16
 73
    12
 74
     0
 42
0.00000001
 43
0.00000001
 12
1.0
 22
0.0
 32
0.0
 13
1.0
 23
0.0
 33
0.0
 40
0.0
 40
0.0
 40
0.0
 40
0.0
 40
0.250000000000001
 40
0.250000000000001
 40
0.500000000000002
 40
0.500000000000002
 40
0.6250000000000014
 40
0.6250000000000014
 40
0.750000000000001
 40
0.750000000000001
 40
1.0
 40
1.0
 40
1.0
 40
1.0
 10
664.74268479215
 20
642.3557635580271
 30
0.0
 10
664.4977632775676
 20
642.5753541806081
 30
0.0
 10
664.2959035575311
 20
642.7965458053585
 30
0.0
 10
664.016262285934
 20
643.2435421793016
 30
0.0
 10
663.9394031512057
 20
643.4693812231947
 30
0.0
 10
663.9385589900365
 20
643.8123947431128
 30
0.0
 10
663.9573480767066
 20
643.927270570915
 30
0.0
 10
664.0306155687874
 20
644.15450707658
 30
0.0
 10
664.0850196204509
 20
644.2673634898337
 30
0.0
 10
664.2950986788029
 20
644.6039234753543
 30
0.0
 10
664.4974579719702
 20
644.8256256224402
 30
0.0
 10
664.7426847921503
 20
645.0454899745313
 30
0.0
  0
LINE
  5
15D
330
1F
100
AcDbEntity
  8
0
  6
Continuous
 62
     7
370
    15
100
AcDbLine
 10
663.505824513
 20
644.1439592029
 30
0.0
 11
663.505824513
 21
660.6439592029
 31
0.0
  0
LINE
  5
15E
330
1F
100
AcDbEntity
  8
0
  6
Continuous
 62
     7
370
    15
100
AcDbLine
 10
664.7426847922
 20
655.0836856194
 30
0.0
 11
672.6689642338
 21
655.0836856194
 31
0.0
  0
SPLINE
  5
15F
330
1F
100
AcDbEntity
  8
0
  6
Continuous
 62
     7
370
    15
100
AcDbSpline
210
0.0
220
0.0
230
1.0
 70
     8
 71
     3
 72
    16
 73
    12
 74
     0
 42
0.00000001
 43
0.00000001
 12
1.0
 22
0.0
 32
0.0
 13
1.0
 23
0.0
 33
0.0
 40
0.0
 40
0.0
 40
0.0
 40
0.0
 40
0.2500000000000048
 40
0.2500000000000048
 40
0.5000000000000095
 40
0.5000000000000095
 40
0.6250000000000071
 40
0.6250000000000071
 40
0.7500000000000048
 40
0.7500000000000048
 40
1.0
 40
1.0
 40
1.0
 40
1.0
 10
672.6689642337798
 20
655.083685619385
 30
0.0
 10
672.9138857483621
 20
654.2641622590477
 30
0.0
 10
673.1157454683986
 20
653.4386638772701
 30
0.0
 10
673.3953867399956
 20
651.7704506989155
 30
0.0
 10
673.472245874724
 20
650.9276079127735
 30
0.0
 10
673.4730900358932
 20
649.6474640287561
 30
0.0
 10
673.4543009492231
 20
649.2187416028369
 30
0.0
 10
673.3810334571423
 20
648.3706834183606
 30
0.0
 10
673.3266294054789
 20
647.9494975501381
 30
0.0
 10
673.1165503471269
 20
646.6934385843801
 30
0.0
 10
672.9141910539596
 20
645.8660349073086
 30
0.0
 10
672.6689642337795
 20
645.0454899745313
 30
0.0
  0
LINE
  5
160
330
1F
100
AcDbEntity
  8
0
  6
Continuous
 62
     7
370
    15
100
AcDbLine
 10
664.7426847922
 20
645.0454899745
 30
0.0
 11
672.6689642338
 21
645.0454899745
 31
0.0
  0
SPLINE
  5
161
330
1F
100
AcDbEntity
  8
0
  6
Continuous
 62
     7
370
    15
100
AcDbSpline
210
0.0
220
0.0
230
1.0
 70
     8
 71
     3
 72
    16
 73
    12
 74
     0
 42
0.00000001
 43
0.00000001
 12
1.0
 22
0.0
 32
0.0
 13
1.0
 23
0.0
 33
0.0
 40
0.0
 40
0.0
 40
0.0
 40
0.0
 40
0.25
 40
0.25
 40
0.5
 40
0.5
 40
0.625
 40
0.625
 40
0.75
 40
0.75
 40
1.0
 40
1.0
 40
1.0
 40
1.0
 10
672.6689642337794
 20
662.4321548477345
 30
0.0
 10
672.9129395303098
 20
661.8345398613907
 30
0.0
 10
673.1176334858008
 20
661.2223070842158
 30
0.0
 10
673.3974872581263
 20
659.994850788105
 30
0.0
 10
673.4728958324174
 20
659.3778010305666
 30
0.0
 10
673.4727696931845
 20
658.446396487562
 30
0.0
 10
673.4540782269911
 20
658.1349681746568
 30
0.0
 10
673.379903369934
 20
657.5102173826423
 30
0.0
 10
673.3247271216133
 20
657.1997218604806
 30
0.0
 10
673.1133900815378
 20
656.2793494650052
 30
0.0
 10
672.9114270171683
 20
655.677595720303
 30
0.0
 10
672.6689642337793
 20
655.083685619385
 30
0.0
  0
SPLINE
  5
162
330
1F
100
AcDbEntity
  8
0
  6
Continuous
 62
     7
370
    15
100
AcDbSpline
210
0.0
220
0.0
230
1.0
 70
     8
 71
     3
 72
    10
 73
     6
 74
     0
 42
0.00000001
 43
0.00000001
 12
1.0
 22
0.0
 32
0.0
 13
1.0
 23
0.0
 33
0.0
 40
0.0
 40
0.0
 40
0.0
 40
0.0
 40
0.1326340636021948
 40
0.5655959040290757
 40
1.0
 40
1.0
 40
1.0
 40
1.0
 10
673.2803671994479
 20
661.7114706866851
 30
0.0
 10
673.2642248541903
 20
661.7438555693775
 30
0.0
 10
673.1953885076948
 20
661.8819555152426
 30
0.0
 10
672.9932225134735
 20
662.1229468959531
 30
0.0
 10
672.7771700776299
 20
662.3289713380357
 30
0.0
 10
672.6689642337795
 20
662.4321548477345
 30
0.0
  0
SPLINE
  5
163
330
1F
100
AcDbEntity
  8
0
  6
Continuous
 62
     7
370
    15
100
AcDbSpline
210
0.0
220
0.0
230
1.0
 70
     8
 71
     3
 72
    16
 73
    12
 74
     0
 42
0.00000001
 43
0.00000001
 12
1.0
 22
0.0
 32
0.0
 13
1.0
 23
0.0
 33
0.0
 40
0.0
 40
0.0
 40
0.0
 40
0.0
 40
0.2499999999999972
 40
0.2499999999999972
 40
0.4999999999999944
 40
0.4999999999999944
 40
0.6249999999999958
 40
0.6249999999999958
 40
0.7499999999999972
 40
0.7499999999999972
 40
1.0
 40
1.0
 40
1.0
 40
1.0
 10
672.6689642337797
 20
645.0454899745313
 30
0.0
 10
672.9138857483621
 20
644.8258993519504
 30
0.0
 10
673.1157454683986
 20
644.6047077272
 30
0.0
 10
673.3953867399955
 20
644.1577113532568
 30
0.0
 10
673.472245874724
 20
643.9318723093638
 30
0.0
 10
673.4730900358932
 20
643.5888587894457
 30
0.0
 10
673.4543009492231
 20
643.4739829616435
 30
0.0
 10
673.3810334571422
 20
643.2467464559785
 30
0.0
 10
673.3266294054789
 20
643.1338900427248
 30
0.0
 10
673.1165503471268
 20
642.797330057204
 30
0.0
 10
672.9141910539595
 20
642.5756279101183
 30
0.0
 10
672.6689642337795
 20
642.3557635580271
 30
0.0
  0
SPLINE
  5
164
330
1F
100
AcDbEntity
  8
0
  6
Continuous
 62
     7
370
    15
100
AcDbSpline
210
0.0
220
0.0
230
1.0
 70
     8
 71
     3
 72
    16
 73
    12
 74
     0
 42
0.00000001
 43
0.00000001
 12
1.0
 22
0.0
 32
0.0
 13
1.0
 23
0.0
 33
0.0
 40
0.0
 40
0.0
 40
0.0
 40
0.0
 40
0.2500000000000028
 40
0.2500000000000028
 40
0.5000000000000056
 40
0.5000000000000056
 40
0.6250000000000041
 40
0.6250000000000041
 40
0.7500000000000028
 40
0.7500000000000028
 40
1.0
 40
1.0
 40
1.0
 40
1.0
 10
664.74268479215
 20
345.7870175844027
 30
0.0
 10
664.4977632775676
 20
346.0066082069835
 30
0.0
 10
664.2959035575311
 20
346.227799831734
 30
0.0
 10
664.0162622859341
 20
346.6747962056771
 30
0.0
 10
663.9394031512057
 20
346.9006352495702
 30
0.0
 10
663.9385589900365
 20
347.2436487694884
 30
0.0
 10
663.9573480767066
 20
347.3585245972906
 30
0.0
 10
664.0306155687875
 20
347.5857611029556
 30
0.0
 10
664.0850196204508
 20
347.6986175162093
 30
0.0
 10
664.2950986788029
 20
348.0351775017299
 30
0.0
 10
664.4974579719702
 20
348.2568796488158
 30
0.0
 10
664.7426847921503
 20
348.4767440009069
 30
0.0
  0
SPLINE
  5
165
330
1F
100
AcDbEntity
  8
0
  6
Continuous
 62
     7
370
    15
100
AcDbSpline
210
0.0
220
0.0
230
1.0
 70
     8
 71
     3
 72
    16
 73
    12
 74
     0
 42
0.00000001
 43
0.00000001
 12
1.0
 22
0.0
 32
0.0
 13
1.0
 23
0.0
 33
0.0
 40
0.0
 40
0.0
 40
0.0
 40
0.0
 40
0.2499999999999953
 40
0.2499999999999953
 40
0.4999999999999907
 40
0.4999999999999907
 40
0.6249999999999911
 40
0.6249999999999911
 40
0.7499999999999916
 40
0.7499999999999916
 40
1.0
 40
1.0
 40
1.0
 40
1.0
 10
664.74268479215
 20
335.7488219395489
 30
0.0
 10
664.4977632775677
 20
336.5683452998862
 30
0.0
 10
664.2959035575311
 20
337.3938436816638
 30
0.0
 10
664.016262285934
 20
339.0620568600185
 30
0.0
 10
663.9394031512057
 20
339.9048996461603
 30
0.0
 10
663.9385589900365
 20
341.1850435301779
 30
0.0
 10
663.9573480767066
 20
341.613765956097
 30
0.0
 10
664.0306155687875
 20
342.4618241405734
 30
0.0
 10
664.0850196204509
 20
342.8830100087959
 30
0.0
 10
664.2950986788029
 20
344.1390689745538
 30
0.0
 10
664.4974579719702
 20
344.9664726516252
 30
0.0
 10
664.7426847921503
 20
345.7870175844027
 30
0.0
  0
SPLINE
  5
166
330
1F
100
AcDbEntity
  8
0
  6
Continuous
 62
     7
370
    15
100
AcDbSpline
210
0.0
220
0.0
230
1.0
 70
     8
 71
     3
 72
    16
 73
    12
 74
     0
 42
0.00000001
 43
0.00000001
 12
1.0
 22
0.0
 32
0.0
 13
1.0
 23
0.0
 33
0.0
 40
0.0
 40
0.0
 40
0.0
 40
0.0
 40
0.25
 40
0.25
 40
0.5
 40
0.5
 40
0.625
 40
0.625
 40
0.75
 40
0.75
 40
1.0
 40
1.0
 40
1.0
 40
1.0
 10
664.7426847921504
 20
335.748821939549
 30
0.0
 10
664.49870949562
 20
335.1512069532053
 30
0.0
 10
664.294015540129
 20
334.5389741760303
 30
0.0
 10
664.0141617678034
 20
333.3115178799196
 30
0.0
 10
663.9387531935124
 20
332.6944681223812
 30
0.0
 10
663.9388793327449
 20
331.7630635793766
 30
0.0
 10
663.9575707989386
 20
331.4516352664713
 30
0.0
 10
664.0317456559957
 20
330.8268844744567
 30
0.0
 10
664.0869219043163
 20
330.5163889522952
 30
0.0
 10
664.2982589443919
 20
329.5960165568197
 30
0.0
 10
664.5002220087615
 20
328.9942628121174
 30
0.0
 10
664.7426847921504
 20
328.4003527111995
 30
0.0
  0
SPLINE
  5
167
330
1F
100
AcDbEntity
  8
0
  6
Continuous
 62
     7
370
    15
100
AcDbSpline
210
0.0
220
0.0
230
1.0
 70
     8
 71
     3
 72
    10
 73
     6
 74
     0
 42
0.00000001
 43
0.00000001
 12
1.0
 22
0.0
 32
0.0
 13
1.0
 23
0.0
 33
0.0
 40
0.0
 40
0.0
 40
0.0
 40
0.0
 40
0.1326340636021749
 40
0.5655959040290758
 40
1.0
 40
1.0
 40
1.0
 40
1.0
 10
664.1312818264818
 20
329.1210368722491
 30
0.0
 10
664.1474241717395
 20
329.0886519895566
 30
0.0
 10
664.2162605182349
 20
328.9505520436915
 30
0.0
 10
664.418426512456
 20
328.7095606629809
 30
0.0
 10
664.6344789483
 20
328.5035362208984
 30
0.0
 10
664.7426847921506
 20
328.4003527111995
 30
0.0
  0
LINE
  5
168
330
1F
100
AcDbEntity
  8
0
  6
Continuous
 62
     7
370
    15
100
AcDbLine
 10
663.505824513
 20
330.1885483561
 30
0.0
 11
663.505824513
 21
346.6885483561
 31
0.0
  0
LINE
  5
169
330
1F
100
AcDbEntity
  8
0
  6
Continuous
 62
     7
370
    15
100
AcDbLine
 10
664.7426847922
 20
345.7870175844
 30
0.0
 11
672.6689642338
 21
345.7870175844
 31
0.0
  0
SPLINE
  5
16A
330
1F
100
AcDbEntity
  8
0
  6
Continuous
 62
     7
370
    15
100
AcDbSpline
210
0.0
220
0.0
230
1.0
 70
     8
 71
     3
 72
    16
 73
    12
 74
     0
 42
0.00000001
 43
0.00000001
 12
1.0
 22
0.0
 32
0.0
 13
1.0
 23
0.0
 33
0.0
 40
0.0
 40
0.0
 40
0.0
 40
0.0
 40
0.250000000000001
 40
0.250000000000001
 40
0.500000000000002
 40
0.500000000000002
 40
0.6250000000000014
 40
0.6250000000000014
 40
0.750000000000001
 40
0.750000000000001
 40
1.0
 40
1.0
 40
1.0
 40
1.0
 10
672.6689642337797
 20
345.7870175844027
 30
0.0
 10
672.9138857483621
 20
344.9674942240654
 30
0.0
 10
673.1157454683986
 20
344.1419958422878
 30
0.0
 10
673.3953867399956
 20
342.4737826639332
 30
0.0
 10
673.472245874724
 20
341.6309398777912
 30
0.0
 10
673.4730900358932
 20
340.3507959937738
 30
0.0
 10
673.4543009492231
 20
339.9220735678545
 30
0.0
 10
673.3810334571423
 20
339.0740153833782
 30
0.0
 10
673.3266294054789
 20
338.6528295151558
 30
0.0
 10
673.1165503471268
 20
337.3967705493978
 30
0.0
 10
672.9141910539596
 20
336.5693668723263
 30
0.0
 10
672.6689642337795
 20
335.7488219395489
 30
0.0
  0
LINE
  5
16B
330
1F
100
AcDbEntity
  8
0
  6
Continuous
 62
     7
370
    15
100
AcDbLine
 10
664.7426847922
 20
335.7488219395
 30
0.0
 11
672.6689642338
 21
335.7488219395
 31
0.0
  0
SPLINE
  5
16C
330
1F
100
AcDbEntity
  8
0
  6
Continuous
 62
     7
370
    15
100
AcDbSpline
210
0.0
220
0.0
230
1.0
 70
     8
 71
     3
 72
    10
 73
     6
 74
     0
 42
0.00000001
 43
0.00000001
 12
1.0
 22
0.0
 32
0.0
 13
1.0
 23
0.0
 33
0.0
 40
0.0
 40
0.0
 40
0.0
 40
0.0
 40
0.4879971273818774
 40
0.9778958559692618
 40
1.0
 40
1.0
 40
1.0
 40
1.0
 10
672.6689642337795
 20
328.4003527111995
 30
0.0
 10
672.7886906337826
 20
328.5163906726202
 30
0.0
 10
673.0286099772454
 20
328.7489187660074
 30
0.0
 10
673.2316904121346
 20
328.9903039799741
 30
0.0
 10
673.2846873414305
 20
329.1156318941319
 30
0.0
 10
673.2869753203092
 20
329.1210425400751
 30
0.0
  0
SPLINE
  5
16D
330
1F
100
AcDbEntity
  8
0
  6
Continuous
 62
     7
370
    15
100
AcDbSpline
210
0.0
220
0.0
230
1.0
 70
     8
 71
     3
 72
    16
 73
    12
 74
     0
 42
0.00000001
 43
0.00000001
 12
1.0
 22
0.0
 32
0.0
 13
1.0
 23
0.0
 33
0.0
 40
0.0
 40
0.0
 40
0.0
 40
0.0
 40
0.2499999999999972
 40
0.2499999999999972
 40
0.4999999999999944
 40
0.4999999999999944
 40
0.6249999999999958
 40
0.6249999999999958
 40
0.7499999999999972
 40
0.7499999999999972
 40
1.0
 40
1.0
 40
1.0
 40
1.0
 10
672.6689642337794
 20
335.7488219395489
 30
0.0
 10
672.9129395303098
 20
335.1512069532051
 30
0.0
 10
673.1176334858008
 20
334.5389741760303
 30
0.0
 10
673.3974872581263
 20
333.3115178799195
 30
0.0
 10
673.4728958324174
 20
332.6944681223812
 30
0.0
 10
673.4727696931847
 20
331.7630635793766
 30
0.0
 10
673.4540782269911
 20
331.4516352664713
 30
0.0
 10
673.379903369934
 20
330.8268844744567
 30
0.0
 10
673.3247271216134
 20
330.5163889522952
 30
0.0
 10
673.1133900815378
 20
329.5960165568197
 30
0.0
 10
672.9114270171683
 20
328.9942628121174
 30
0.0
 10
672.6689642337793
 20
328.4003527111995
 30
0.0
  0
SPLINE
  5
16E
330
1F
100
AcDbEntity
  8
0
  6
Continuous
 62
     7
370
    15
100
AcDbSpline
210
0.0
220
0.0
230
1.0
 70
     8
 71
     3
 72
    16
 73
    12
 74
     0
 42
0.00000001
 43
0.00000001
 12
1.0
 22
0.0
 32
0.0
 13
1.0
 23
0.0
 33
0.0
 40
0.0
 40
0.0
 40
0.0
 40
0.0
 40
0.2500000000000029
 40
0.2500000000000029
 40
0.5000000000000058
 40
0.5000000000000058
 40
0.6250000000000062
 40
0.6250000000000062
 40
0.7500000000000067
 40
0.7500000000000067
 40
1.0
 40
1.0
 40
1.0
 40
1.0
 10
672.6689642337797
 20
348.4767440009069
 30
0.0
 10
672.9138857483621
 20
348.2571533783261
 30
0.0
 10
673.1157454683986
 20
348.0359617535756
 30
0.0
 10
673.3953867399956
 20
347.5889653796326
 30
0.0
 10
673.472245874724
 20
347.3631263357394
 30
0.0
 10
673.4730900358932
 20
347.0201128158212
 30
0.0
 10
673.4543009492231
 20
346.9052369880191
 30
0.0
 10
673.3810334571422
 20
346.6780004823541
 30
0.0
 10
673.3266294054789
 20
346.5651440691004
 30
0.0
 10
673.1165503471268
 20
346.2285840835797
 30
0.0
 10
672.9141910539595
 20
346.0068819364938
 30
0.0
 10
672.6689642337795
 20
345.7870175844027
 30
0.0
  0
LINE
  5
16F
330
1F
100
AcDbEntity
  8
0
  6
Continuous
 62
     7
370
    15
100
AcDbLine
 10
664.7426847922
 20
662.4321548477
 30
0.0
 11
672.6689642338
 21
662.4321548477
 31
0.0
  0
LINE
  5
170
330
1F
100
AcDbEntity
  8
0
  6
Continuous
 62
     7
370
    15
100
AcDbLine
 10
664.7426847922
 20
328.4003527112
 30
0.0
 11
672.6689642338
 21
328.4003527112
 31
0.0
  0
LINE
  5
171
330
1F
100
AcDbEntity
  8
0
  6
Continuous
 62
     7
370
    15
100
AcDbLine
 10
664.7426847922
 20
642.355763558
 30
0.0
 11
672.6689642338
 21
642.355763558
 31
0.0
  0
LINE
  5
172
330
1F
100
AcDbEntity
  8
0
  6
Continuous
 62
     7
370
    15
100
AcDbLine
 10
664.7426847922
 20
348.4767440009
 30
0.0
 11
672.6689642338
 21
348.4767440009
 31
0.0
  0
LINE
  5
173
330
1F
100
AcDbEntity
  8
0
  6
Continuous
 62
     7
370
    15
100
AcDbLine
 10
628.405824513
 20
646.3939592029
 30
0.0
 11
628.405824513
 21
658.3939592029
 31
0.0
  0
LINE
  5
174
330
1F
100
AcDbEntity
  8
0
  6
Continuous
 62
     7
370
    15
100
AcDbLine
 10
628.405824513
 20
332.4385483561
 30
0.0
 11
628.405824513
 21
344.4385483561
 31
0.0
  0
LINE
  5
175
330
1F
100
AcDbEntity
  8
0
  6
Continuous
 62
     7
370
    15
100
AcDbLine
 10
673.905824513
 20
705.4162537795
 30
0.0
 11
673.905824513
 21
729.4162537795
 31
0.0
  0
LINE
  5
176
330
1F
100
AcDbEntity
  8
0
  6
Continuous
 62
     7
370
    15
100
AcDbLine
 10
673.905824513
 20
273.4162537795
 30
0.0
 11
673.905824513
 21
285.4162537795
 31
0.0
  0
LINE
  5
177
330
1F
100
AcDbEntity
  8
0
  6
Continuous
 62
     7
370
    15
100
AcDbLine
 10
673.905824513
 20
261.4162537795
 30
0.0
 11
673.905824513
 21
273.4162537795
 31
0.0
  0
SPLINE
  5
178
330
1F
100
AcDbEntity
  8
0
  6
Continuous
 62
     7
370
    15
100
AcDbSpline
210
0.0
220
0.0
230
1.0
 70
    24
 71
     3
 72
    13
 73
     9
 74
     0
 42
0.00000001
 43
0.00000001
 12
1.0
 22
0.0
 32
0.0
 13
1.0
 23
0.0
 33
0.0
 40
0.0
 40
0.0
 40
0.0
 40
0.0
 40
0.0192930798270538
 40
0.2756370783654157
 40
0.4555938976404357
 40
0.6360764926021827
 40
0.8178730688601168
 40
1.0
 40
1.0
 40
1.0
 40
1.0
 10
663.9428635462086
 20
708.4162537794682
 30
0.0
 10
663.941538954492
 20
708.4162537794681
 30
0.0
 10
663.9226147291184
 20
708.4162537794681
 30
0.0
 10
663.9861574115862
 20
708.4162537794682
 30
0.0
 10
664.1101025186106
 20
708.4162537794681
 30
0.0
 10
664.2773704236159
 20
708.4162537794682
 30
0.0
 10
664.4857408007225
 20
708.4162537794682
 30
0.0
 10
664.6569849788531
 20
708.4162537794681
 30
0.0
 10
664.7426847921503
 20
708.4162537794682
 30
0.0
  0
SPLINE
  5
179
330
1F
100
AcDbEntity
  8
0
  6
Continuous
 62
     7
370
    15
100
AcDbSpline
210
0.0
220
0.0
230
1.0
 70
    24
 71
     3
 72
    13
 73
     9
 74
     0
 42
0.00000001
 43
0.00000001
 12
1.0
 22
0.0
 32
0.0
 13
1.0
 23
0.0
 33
0.0
 40
0.0
 40
0.0
 40
0.0
 40
0.0
 40
0.1801848695528761
 40
0.3606599723616596
 40
0.5422568178830172
 40
0.7243575802013573
 40
0.9724830232639299
 40
1.0
 40
1.0
 40
1.0
 40
1.0
 10
664.7426847921506
 20
726.4162537794682
 30
0.0
 10
664.6578679911659
 20
726.4162537794681
 30
0.0
 10
664.4880977703094
 20
726.4162537794681
 30
0.0
 10
664.2799218980297
 20
726.416253779468
 30
0.0
 10
664.1114179338838
 20
726.4162537794682
 30
0.0
 10
663.987751974986
 20
726.4162537794681
 30
0.0
 10
663.9247682943912
 20
726.4162537794682
 30
0.0
 10
663.9425006648225
 20
726.4162537794681
 30
0.0
 10
663.9442708612422
 20
726.4162537794681
 30
0.0
  0
SPLINE
  5
17A
330
1F
100
AcDbEntity
  8
0
  6
Continuous
 62
     7
370
    15
100
AcDbSpline
210
0.0
220
0.0
230
1.0
 70
     8
 71
     3
 72
    16
 73
    12
 74
     0
 42
0.00000001
 43
0.00000001
 12
1.0
 22
0.0
 32
0.0
 13
1.0
 23
0.0
 33
0.0
 40
0.0
 40
0.0
 40
0.0
 40
0.0
 40
0.2500000000000001
 40
0.2500000000000001
 40
0.5000000000000001
 40
0.5000000000000001
 40
0.6250000000000001
 40
0.6250000000000001
 40
0.7500000000000002
 40
0.7500000000000002
 40
1.0
 40
1.0
 40
1.0
 40
1.0
 10
664.74268479215
 20
717.4162537794681
 30
0.0
 10
664.4977632775677
 20
718.1510183232152
 30
0.0
 10
664.2959035575311
 20
718.8911399246314
 30
0.0
 10
664.016262285934
 20
720.3868189426918
 30
0.0
 10
663.9394031512059
 20
721.1424911116404
 30
0.0
 10
663.9385589900365
 20
722.2902367188964
 30
0.0
 10
663.9573480767066
 20
722.6746187303442
 30
0.0
 10
664.0306155687875
 20
723.4349668975168
 30
0.0
 10
664.0850196204509
 20
723.812591816189
 30
0.0
 10
664.2950986788029
 20
724.9387434764842
 30
0.0
 10
664.4974579719702
 20
725.6805733189282
 30
0.0
 10
664.7426847921503
 20
726.4162537794682
 30
0.0
  0
SPLINE
  5
17B
330
1F
100
AcDbEntity
  8
0
  6
Continuous
 62
     7
370
    15
100
AcDbSpline
210
0.0
220
0.0
230
1.0
 70
     8
 71
     3
 72
    16
 73
    12
 74
     0
 42
0.00000001
 43
0.00000001
 12
1.0
 22
0.0
 32
0.0
 13
1.0
 23
0.0
 33
0.0
 40
0.0
 40
0.0
 40
0.0
 40
0.0
 40
0.2499999999999982
 40
0.2499999999999982
 40
0.4999999999999964
 40
0.4999999999999964
 40
0.6249999999999957
 40
0.6249999999999957
 40
0.7499999999999949
 40
0.7499999999999949
 40
1.0
 40
1.0
 40
1.0
 40
1.0
 10
664.74268479215
 20
708.4162537794681
 30
0.0
 10
664.4977632775677
 20
709.1510183232152
 30
0.0
 10
664.2959035575311
 20
709.8911399246315
 30
0.0
 10
664.0162622859341
 20
711.3868189426918
 30
0.0
 10
663.9394031512059
 20
712.1424911116405
 30
0.0
 10
663.9385589900365
 20
713.2902367188965
 30
0.0
 10
663.9573480767066
 20
713.674618730344
 30
0.0
 10
664.0306155687875
 20
714.4349668975168
 30
0.0
 10
664.0850196204509
 20
714.812591816189
 30
0.0
 10
664.2950986788029
 20
715.9387434764843
 30
0.0
 10
664.4974579719702
 20
716.6805733189282
 30
0.0
 10
664.7426847921503
 20
717.4162537794682
 30
0.0
  0
LINE
  5
17C
330
1F
100
AcDbEntity
  8
0
  6
Continuous
 62
     7
370
    15
100
AcDbLine
 10
663.505824513
 20
709.1662537795
 30
0.0
 11
663.505824513
 21
725.6662537795
 31
0.0
  0
LINE
  5
17D
330
1F
100
AcDbEntity
  8
0
  6
Continuous
 62
     7
370
    15
100
AcDbLine
 10
664.7426847922
 20
726.4162537795
 30
0.0
 11
672.6689642338
 21
726.4162537795
 31
0.0
  0
SPLINE
  5
17E
330
1F
100
AcDbEntity
  8
0
  6
Continuous
 62
     7
370
    15
100
AcDbSpline
210
0.0
220
0.0
230
1.0
 70
     8
 71
     3
 72
    16
 73
    12
 74
     0
 42
0.00000001
 43
0.00000001
 12
1.0
 22
0.0
 32
0.0
 13
1.0
 23
0.0
 33
0.0
 40
0.0
 40
0.0
 40
0.0
 40
0.0
 40
0.2499999999999982
 40
0.2499999999999982
 40
0.4999999999999964
 40
0.4999999999999964
 40
0.624999999999999
 40
0.624999999999999
 40
0.7500000000000016
 40
0.7500000000000016
 40
1.0
 40
1.0
 40
1.0
 40
1.0
 10
672.6689642337798
 20
726.4162537794682
 30
0.0
 10
672.9138857483621
 20
725.6814892357211
 30
0.0
 10
673.1157454683986
 20
724.9413676343048
 30
0.0
 10
673.3953867399956
 20
723.4456886162445
 30
0.0
 10
673.472245874724
 20
722.6900164472958
 30
0.0
 10
673.4730900358932
 20
721.5422708400398
 30
0.0
 10
673.4543009492231
 20
721.1578888285923
 30
0.0
 10
673.3810334571422
 20
720.3975406614194
 30
0.0
 10
673.3266294054788
 20
720.0199157427473
 30
0.0
 10
673.1165503471268
 20
718.8937640824521
 30
0.0
 10
672.9141910539596
 20
718.1519342400082
 30
0.0
 10
672.6689642337795
 20
717.4162537794682
 30
0.0
  0
LINE
  5
17F
330
1F
100
AcDbEntity
  8
0
  6
Continuous
 62
     7
370
    15
100
AcDbLine
 10
664.7426847922
 20
717.4162537795
 30
0.0
 11
672.6689642338
 21
717.4162537795
 31
0.0
  0
SPLINE
  5
180
330
1F
100
AcDbEntity
  8
0
  6
Continuous
 62
     7
370
    15
100
AcDbSpline
210
0.0
220
0.0
230
1.0
 70
     8
 71
     3
 72
    16
 73
    12
 74
     0
 42
0.00000001
 43
0.00000001
 12
1.0
 22
0.0
 32
0.0
 13
1.0
 23
0.0
 33
0.0
 40
0.0
 40
0.0
 40
0.0
 40
0.0
 40
0.2499999999999983
 40
0.2499999999999983
 40
0.4999999999999967
 40
0.4999999999999967
 40
0.6249999999999958
 40
0.6249999999999958
 40
0.749999999999995
 40
0.749999999999995
 40
1.0
 40
1.0
 40
1.0
 40
1.0
 10
672.6689642337797
 20
717.4162537794682
 30
0.0
 10
672.9138857483621
 20
716.681489235721
 30
0.0
 10
673.1157454683986
 20
715.9413676343047
 30
0.0
 10
673.3953867399956
 20
714.4456886162445
 30
0.0
 10
673.472245874724
 20
713.6900164472958
 30
0.0
 10
673.4730900358932
 20
712.5422708400397
 30
0.0
 10
673.4543009492231
 20
712.1578888285923
 30
0.0
 10
673.3810334571422
 20
711.3975406614194
 30
0.0
 10
673.3266294054788
 20
711.0199157427472
 30
0.0
 10
673.1165503471268
 20
709.8937640824521
 30
0.0
 10
672.9141910539595
 20
709.1519342400081
 30
0.0
 10
672.6689642337794
 20
708.4162537794681
 30
0.0
  0
LINE
  5
181
330
1F
100
AcDbEntity
  8
0
  6
Continuous
 62
     7
370
    15
100
AcDbLine
 10
664.7426847922
 20
708.4162537795
 30
0.0
 11
672.6689642338
 21
708.4162537795
 31
0.0
  0
SPLINE
  5
182
330
1F
100
AcDbEntity
  8
0
  6
Continuous
 62
     7
370
    15
100
AcDbSpline
210
0.0
220
0.0
230
1.0
 70
    24
 71
     3
 72
    13
 73
     9
 74
     0
 42
0.00000001
 43
0.00000001
 12
1.0
 22
0.0
 32
0.0
 13
1.0
 23
0.0
 33
0.0
 40
0.0
 40
0.0
 40
0.0
 40
0.0
 40
0.0192930798270481
 40
0.2756370783654096
 40
0.455593897640432
 40
0.6360764926021814
 40
0.8178730688601163
 40
1.0
 40
1.0
 40
1.0
 40
1.0
 10
673.468785479721
 20
726.4162537794681
 30
0.0
 10
673.4701100714376
 20
726.4162537794681
 30
0.0
 10
673.4890342968114
 20
726.4162537794683
 30
0.0
 10
673.4254916143437
 20
726.4162537794681
 30
0.0
 10
673.3015465073192
 20
726.4162537794681
 30
0.0
 10
673.1342786023138
 20
726.4162537794682
 30
0.0
 10
672.9259082252072
 20
726.4162537794681
 30
0.0
 10
672.7546640470767
 20
726.4162537794681
 30
0.0
 10
672.6689642337795
 20
726.4162537794682
 30
0.0
  0
SPLINE
  5
183
330
1F
100
AcDbEntity
  8
0
  6
Continuous
 62
     7
370
    15
100
AcDbSpline
210
0.0
220
0.0
230
1.0
 70
    24
 71
     3
 72
    13
 73
     9
 74
     0
 42
0.00000001
 43
0.00000001
 12
1.0
 22
0.0
 32
0.0
 13
1.0
 23
0.0
 33
0.0
 40
0.0
 40
0.0
 40
0.0
 40
0.0
 40
0.1801848695528835
 40
0.3606599723616728
 40
0.5422568178830355
 40
0.7243575802013807
 40
0.9724830232639634
 40
1.0
 40
1.0
 40
1.0
 40
1.0
 10
672.6689642337792
 20
708.4162537794682
 30
0.0
 10
672.753781034764
 20
708.4162537794682
 30
0.0
 10
672.9235512556203
 20
708.4162537794682
 30
0.0
 10
673.1317271279001
 20
708.4162537794682
 30
0.0
 10
673.3002310920457
 20
708.4162537794682
 30
0.0
 10
673.423897050944
 20
708.4162537794682
 30
0.0
 10
673.4868807315383
 20
708.4162537794682
 30
0.0
 10
673.4691483611072
 20
708.4162537794682
 30
0.0
 10
673.4673781646875
 20
708.4162537794682
 30
0.0
  0
SPLINE
  5
184
330
1F
100
AcDbEntity
  8
0
  6
Continuous
 62
     7
370
    15
100
AcDbSpline
210
0.0
220
0.0
230
1.0
 70
    24
 71
     3
 72
    11
 73
     7
 74
     0
 42
0.00000001
 43
0.00000001
 12
1.0
 22
0.0
 32
0.0
 13
1.0
 23
0.0
 33
0.0
 40
0.0
 40
0.0
 40
0.0
 40
0.0
 40
0.2663532736812277
 40
0.5149709078015431
 40
0.7648233920933278
 40
0.9999999999999999
 40
0.9999999999999999
 40
0.9999999999999999
 40
0.9999999999999999
 10
664.7426847921503
 20
282.416253779468
 30
0.0
 10
664.6193200967081
 20
282.4162537794681
 30
0.0
 10
664.3808051788153
 20
282.4162537794681
 30
0.0
 10
664.1293749000718
 20
282.4162537794681
 30
0.0
 10
663.9669285746719
 20
282.4162537794681
 30
0.0
 10
663.9507217619412
 20
282.4162537794681
 30
0.0
 10
663.9428635462086
 20
282.4162537794681
 30
0.0
  0
SPLINE
  5
185
330
1F
100
AcDbEntity
  8
0
  6
Continuous
 62
     7
370
    15
100
AcDbSpline
210
0.0
220
0.0
230
1.0
 70
     8
 71
     3
 72
    16
 73
    12
 74
     0
 42
0.00000001
 43
0.00000001
 12
1.0
 22
0.0
 32
0.0
 13
1.0
 23
0.0
 33
0.0
 40
0.0
 40
0.0
 40
0.0
 40
0.0
 40
0.2499999999999982
 40
0.2499999999999982
 40
0.4999999999999964
 40
0.4999999999999964
 40
0.6249999999999957
 40
0.6249999999999957
 40
0.7499999999999949
 40
0.7499999999999949
 40
1.0
 40
1.0
 40
1.0
 40
1.0
 10
664.74268479215
 20
273.416253779468
 30
0.0
 10
664.4977632775676
 20
274.1510183232152
 30
0.0
 10
664.2959035575311
 20
274.8911399246313
 30
0.0
 10
664.0162622859341
 20
276.3868189426917
 30
0.0
 10
663.9394031512059
 20
277.1424911116404
 30
0.0
 10
663.9385589900365
 20
278.2902367188963
 30
0.0
 10
663.9573480767066
 20
278.6746187303438
 30
0.0
 10
664.0306155687875
 20
279.4349668975167
 30
0.0
 10
664.0850196204509
 20
279.8125918161888
 30
0.0
 10
664.2950986788029
 20
280.9387434764841
 30
0.0
 10
664.4974579719701
 20
281.6805733189281
 30
0.0
 10
664.7426847921502
 20
282.4162537794681
 30
0.0
  0
SPLINE
  5
186
330
1F
100
AcDbEntity
  8
0
  6
Continuous
 62
     7
370
    15
100
AcDbSpline
210
0.0
220
0.0
230
1.0
 70
     8
 71
     3
 72
    16
 73
    12
 74
     0
 42
0.00000001
 43
0.00000001
 12
1.0
 22
0.0
 32
0.0
 13
1.0
 23
0.0
 33
0.0
 40
0.0
 40
0.0
 40
0.0
 40
0.0
 40
0.2500000000000015
 40
0.2500000000000015
 40
0.500000000000003
 40
0.500000000000003
 40
0.6250000000000039
 40
0.6250000000000039
 40
0.7500000000000048
 40
0.7500000000000048
 40
1.0
 40
1.0
 40
1.0
 40
1.0
 10
664.74268479215
 20
264.416253779468
 30
0.0
 10
664.4977632775677
 20
265.1510183232152
 30
0.0
 10
664.2959035575311
 20
265.8911399246313
 30
0.0
 10
664.0162622859341
 20
267.3868189426916
 30
0.0
 10
663.9394031512057
 20
268.1424911116404
 30
0.0
 10
663.9385589900365
 20
269.2902367188962
 30
0.0
 10
663.9573480767066
 20
269.6746187303438
 30
0.0
 10
664.0306155687874
 20
270.4349668975166
 30
0.0
 10
664.0850196204509
 20
270.8125918161888
 30
0.0
 10
664.2950986788029
 20
271.938743476484
 30
0.0
 10
664.4974579719702
 20
272.6805733189281
 30
0.0
 10
664.7426847921502
 20
273.416253779468
 30
0.0
  0
SPLINE
  5
187
330
1F
100
AcDbEntity
  8
0
  6
Continuous
 62
     7
370
    15
100
AcDbSpline
210
0.0
220
0.0
230
1.0
 70
    24
 71
     3
 72
    11
 73
     7
 74
     0
 42
0.00000001
 43
0.00000001
 12
1.0
 22
0.0
 32
0.0
 13
1.0
 23
0.0
 33
0.0
 40
0.0
 40
0.0
 40
0.0
 40
0.0
 40
0.2223364504636634
 40
0.4772513157091865
 40
0.7336453344712139
 40
1.0
 40
1.0
 40
1.0
 40
1.0
 10
663.9442708612422
 20
264.4162537794681
 30
0.0
 10
663.9505780377061
 20
264.4162537794681
 30
0.0
 10
663.964116565732
 20
264.4162537794682
 30
0.0
 10
664.1230864527193
 20
264.4162537794681
 30
0.0
 10
664.377216072593
 20
264.4162537794681
 30
0.0
 10
664.6193241467025
 20
264.416253779468
 30
0.0
 10
664.7426847921506
 20
264.416253779468
 30
0.0
  0
LINE
  5
188
330
1F
100
AcDbEntity
  8
0
  6
Continuous
 62
     7
370
    15
100
AcDbLine
 10
663.505824513
 20
265.1662537795
 30
0.0
 11
663.505824513
 21
281.6662537795
 31
0.0
  0
LINE
  5
189
330
1F
100
AcDbEntity
  8
0
  6
Continuous
 62
     7
370
    15
100
AcDbLine
 10
664.7426847922
 20
282.4162537795
 30
0.0
 11
672.6689642338
 21
282.4162537795
 31
0.0
  0
SPLINE
  5
18A
330
1F
100
AcDbEntity
  8
0
  6
Continuous
 62
     7
370
    15
100
AcDbSpline
210
0.0
220
0.0
230
1.0
 70
     8
 71
     3
 72
    16
 73
    12
 74
     0
 42
0.00000001
 43
0.00000001
 12
1.0
 22
0.0
 32
0.0
 13
1.0
 23
0.0
 33
0.0
 40
0.0
 40
0.0
 40
0.0
 40
0.0
 40
0.2500000000000034
 40
0.2500000000000034
 40
0.5000000000000069
 40
0.5000000000000069
 40
0.6250000000000051
 40
0.6250000000000051
 40
0.7500000000000034
 40
0.7500000000000034
 40
1.0
 40
1.0
 40
1.0
 40
1.0
 10
672.6689642337797
 20
282.4162537794681
 30
0.0
 10
672.9138857483621
 20
281.6814892357209
 30
0.0
 10
673.1157454683985
 20
280.9413676343048
 30
0.0
 10
673.3953867399956
 20
279.4456886162444
 30
0.0
 10
673.472245874724
 20
278.6900164472957
 30
0.0
 10
673.4730900358932
 20
277.5422708400397
 30
0.0
 10
673.454300949223
 20
277.1578888285921
 30
0.0
 10
673.3810334571422
 20
276.3975406614193
 30
0.0
 10
673.3266294054788
 20
276.0199157427472
 30
0.0
 10
673.1165503471268
 20
274.8937640824519
 30
0.0
 10
672.9141910539595
 20
274.151934240008
 30
0.0
 10
672.6689642337794
 20
273.416253779468
 30
0.0
  0
LINE
  5
18B
330
1F
100
AcDbEntity
  8
0
  6
Continuous
 62
     7
370
    15
100
AcDbLine
 10
664.7426847922
 20
273.4162537795
 30
0.0
 11
672.6689642338
 21
273.4162537795
 31
0.0
  0
SPLINE
  5
18C
330
1F
100
AcDbEntity
  8
0
  6
Continuous
 62
     7
370
    15
100
AcDbSpline
210
0.0
220
0.0
230
1.0
 70
     8
 71
     3
 72
    16
 73
    12
 74
     0
 42
0.00000001
 43
0.00000001
 12
1.0
 22
0.0
 32
0.0
 13
1.0
 23
0.0
 33
0.0
 40
0.0
 40
0.0
 40
0.0
 40
0.0
 40
0.2500000000000017
 40
0.2500000000000017
 40
0.5000000000000034
 40
0.5000000000000034
 40
0.6250000000000043
 40
0.6250000000000043
 40
0.7500000000000051
 40
0.7500000000000051
 40
1.0
 40
1.0
 40
1.0
 40
1.0
 10
672.6689642337798
 20
273.416253779468
 30
0.0
 10
672.9138857483621
 20
272.6814892357208
 30
0.0
 10
673.1157454683986
 20
271.9413676343046
 30
0.0
 10
673.3953867399956
 20
270.4456886162444
 30
0.0
 10
673.472245874724
 20
269.6900164472958
 30
0.0
 10
673.4730900358932
 20
268.5422708400398
 30
0.0
 10
673.4543009492231
 20
268.1578888285921
 30
0.0
 10
673.3810334571423
 20
267.3975406614193
 30
0.0
 10
673.3266294054789
 20
267.0199157427473
 30
0.0
 10
673.1165503471269
 20
265.893764082452
 30
0.0
 10
672.9141910539596
 20
265.1519342400081
 30
0.0
 10
672.6689642337795
 20
264.416253779468
 30
0.0
  0
LINE
  5
18D
330
1F
100
AcDbEntity
  8
0
  6
Continuous
 62
     7
370
    15
100
AcDbLine
 10
664.7426847922
 20
264.4162537795
 30
0.0
 11
672.6689642338
 21
264.4162537795
 31
0.0
  0
SPLINE
  5
18E
330
1F
100
AcDbEntity
  8
0
  6
Continuous
 62
     7
370
    15
100
AcDbSpline
210
0.0
220
0.0
230
1.0
 70
    24
 71
     3
 72
    11
 73
     7
 74
     0
 42
0.00000001
 43
0.00000001
 12
1.0
 22
0.0
 32
0.0
 13
1.0
 23
0.0
 33
0.0
 40
0.0
 40
0.0
 40
0.0
 40
0.0
 40
0.2663532736812411
 40
0.5149709078015736
 40
0.7648233920933748
 40
1.0
 40
1.0
 40
1.0
 40
1.0
 10
672.6689642337795
 20
264.416253779468
 30
0.0
 10
672.7923289292218
 20
264.416253779468
 30
0.0
 10
673.0308438471145
 20
264.4162537794681
 30
0.0
 10
673.282274125858
 20
264.4162537794681
 30
0.0
 10
673.4447204512578
 20
264.4162537794681
 30
0.0
 10
673.4609272639885
 20
264.4162537794681
 30
0.0
 10
673.468785479721
 20
264.4162537794681
 30
0.0
  0
SPLINE
  5
18F
330
1F
100
AcDbEntity
  8
0
  6
Continuous
 62
     7
370
    15
100
AcDbSpline
210
0.0
220
0.0
230
1.0
 70
    24
 71
     3
 72
    11
 73
     7
 74
     0
 42
0.00000001
 43
0.00000001
 12
1.0
 22
0.0
 32
0.0
 13
1.0
 23
0.0
 33
0.0
 40
0.0
 40
0.0
 40
0.0
 40
0.0
 40
0.2223364504636791
 40
0.4772513157091974
 40
0.7336453344712194
 40
1.0
 40
1.0
 40
1.0
 40
1.0
 10
673.4673781646875
 20
282.4162537794681
 30
0.0
 10
673.4610709882237
 20
282.4162537794682
 30
0.0
 10
673.4475324601977
 20
282.4162537794681
 30
0.0
 10
673.2885625732105
 20
282.4162537794681
 30
0.0
 10
673.0344329533367
 20
282.4162537794681
 30
0.0
 10
672.7923248792273
 20
282.4162537794681
 30
0.0
 10
672.6689642337792
 20
282.416253779468
 30
0.0
  0
LINE
  5
190
330
1F
100
AcDbEntity
  8
0
  6
Continuous
 62
     7
370
    15
100
AcDbLine
 10
628.405824513
 20
711.4162537795
 30
0.0
 11
628.405824513
 21
723.4162537795
 31
0.0
  0
LINE
  5
191
330
1F
100
AcDbEntity
  8
0
  6
Continuous
 62
     7
370
    15
100
AcDbLine
 10
628.405824513
 20
267.4162537795
 30
0.0
 11
628.405824513
 21
279.4162537795
 31
0.0
  0
LINE
  5
192
330
1F
100
AcDbEntity
  8
0
  6
Continuous
 62
     7
370
    15
100
AcDbLine
 10
679.6568309909
 20
490.189390253
 30
0.0
 11
679.6568309909
 21
731.4162537795
 31
0.0
  0
LINE
  5
193
330
1F
100
AcDbEntity
  8
0
  6
Continuous
 62
     7
370
    15
100
AcDbLine
 10
679.6568309909
 20
259.4162537795
 30
0.0
 11
679.6568309909
 21
490.189390253
 31
0.0
  0
LINE
  5
194
330
1F
100
AcDbEntity
  8
0
  6
Continuous
 62
     7
370
    15
100
AcDbLine
 10
682.6454150852
 20
490.2500425287
 30
0.0
 11
682.6454150852
 21
728.6777210077
 31
0.0
  0
LINE
  5
195
330
1F
100
AcDbEntity
  8
0
  6
Continuous
 62
     7
370
    15
100
AcDbLine
 10
682.6454150852
 20
262.1547865512
 30
0.0
 11
682.6454150852
 21
490.2500425287
 31
0.0
  0
LINE
  5
196
330
1F
100
AcDbEntity
  8
0
  6
Continuous
 62
     7
370
    15
100
AcDbLine
 10
684.0676881974
 20
658.3939592029
 30
0.0
 11
684.0676881974
 21
712.3961818646
 31
0.0
  0
LINE
  5
197
330
1F
100
AcDbEntity
  8
0
  6
Continuous
 62
     7
370
    15
100
AcDbLine
 10
684.0676881974
 20
501.4162537795
 30
0.0
 11
684.0676881974
 21
646.3939592029
 31
0.0
  0
LINE
  5
198
330
1F
100
AcDbEntity
  8
0
  6
Continuous
 62
     7
370
    15
100
AcDbLine
 10
684.0676881974
 20
344.4385483561
 30
0.0
 11
684.0676881974
 21
489.4162537795
 31
0.0
  0
LINE
  5
199
330
1F
100
AcDbEntity
  8
0
  6
Continuous
 62
     7
370
    15
100
AcDbLine
 10
684.0676881974
 20
278.4363256943
 30
0.0
 11
684.0676881974
 21
332.4385483561
 31
0.0
  0
LINE
  5
19A
330
1F
100
AcDbEntity
  8
0
  6
Continuous
 62
     7
370
    15
100
AcDbLine
 10
688.7869819066
 20
501.4162537795
 30
0.0
 11
688.7869819066
 21
646.3939592029
 31
0.0
  0
LINE
  5
19B
330
1F
100
AcDbEntity
  8
0
  6
Continuous
 62
     7
370
    15
100
AcDbLine
 10
688.7869819066
 20
658.3939592029
 30
0.0
 11
688.7869819066
 21
707.8636959868
 31
0.0
  0
LINE
  5
19C
330
1F
100
AcDbEntity
  8
0
  6
Continuous
 62
     7
370
    15
100
AcDbLine
 10
688.7869819066
 20
282.9688115721
 30
0.0
 11
688.7869819066
 21
332.4385483561
 31
0.0
  0
LINE
  5
19D
330
1F
100
AcDbEntity
  8
0
  6
Continuous
 62
     7
370
    15
100
AcDbLine
 10
688.7869819066
 20
344.4385483561
 30
0.0
 11
688.7869819066
 21
489.4162537795
 31
0.0
  0
LINE
  5
19E
330
1F
100
AcDbEntity
  8
0
  6
Continuous
 62
     7
370
    15
100
AcDbLine
 10
714.0366644036
 20
501.4162537795
 30
0.0
 11
714.0366644036
 21
646.3939592029
 31
0.0
  0
LINE
  5
19F
330
1F
100
AcDbEntity
  8
0
  6
Continuous
 62
     7
370
    15
100
AcDbLine
 10
714.0366644036
 20
658.3939592029
 30
0.0
 11
714.0366644036
 21
706.5404161996
 31
0.0
  0
LINE
  5
1A0
330
1F
100
AcDbEntity
  8
0
  6
Continuous
 62
     7
370
    15
100
AcDbLine
 10
714.0366644036
 20
284.2920913594
 30
0.0
 11
714.0366644036
 21
332.4385483561
 31
0.0
  0
LINE
  5
1A1
330
1F
100
AcDbEntity
  8
0
  6
Continuous
 62
     7
370
    15
100
AcDbLine
 10
714.0366644036
 20
344.4385483561
 30
0.0
 11
714.0366644036
 21
489.4162537795
 31
0.0
  0
LINE
  5
1A2
330
1F
100
AcDbEntity
  8
FORMAT
  6
CENTERX2
370
     0
100
AcDbLine
 10
620.2298389049
 20
495.4162537795
 30
0.0
 11
808.405824513
 21
495.4162537795
 31
0.0
  0
LINE
  5
1A3
330
1F
100
AcDbEntity
  8
0
  6
Continuous
 62
     7
370
    15
100
AcDbLine
 10
527.8432271542
 20
-60.7990778677
 30
0.0
 11
527.8432271542
 21
-35.7990778677
 31
0.0
  0
LINE
  5
1A4
330
1F
100
AcDbEntity
  8
0
  6
Continuous
 62
     7
370
    15
100
AcDbLine
 10
7.8432271542
 20
-35.7990778677
 30
0.0
 11
7.8432271542
 21
-60.7990778677
 31
0.0
  0
ARC
  5
1A5
330
1F
100
AcDbEntity
  8
0
  6
Continuous
 62
     7
370
    15
100
AcDbCircle
 10
34.8432271542
 20
65.9499156544
 30
0.0
 40
3.000000000000032
100
AcDbArc
 50
180.0
 51
265.0
  0
ARC
  5
1A6
330
1F
100
AcDbEntity
  8
0
  6
Continuous
 62
     7
370
    15
100
AcDbCircle
 10
500.8432271542
 20
65.9499156544
 30
0.0
 40
3.000000000000114
100
AcDbArc
 50
275.0
 51
0.0
  0
LINE
  5
1A7
330
1F
100
AcDbEntity
  8
0
  6
Continuous
 62
     7
370
    15
100
AcDbLine
 10
31.8432271542
 20
69.2009221323
 30
0.0
 11
31.8432271542
 21
65.9499156544
 31
0.0
  0
LINE
  5
1A8
330
1F
100
AcDbEntity
  8
0
  6
Continuous
 62
     7
370
    15
100
AcDbLine
 10
503.8432271542
 20
65.9499156544
 30
0.0
 11
503.8432271542
 21
69.2009221323
 31
0.0
  0
LINE
  5
1A9
330
1F
100
AcDbEntity
  8
0
  6
Continuous
 62
     7
370
    15
100
AcDbLine
 10
255.8432271542
 20
71.7009221323
 30
0.0
 11
255.8432271542
 21
69.2009221323
 31
0.0
  0
LINE
  5
1AA
330
1F
100
AcDbEntity
  8
0
  6
Continuous
 62
     7
370
    15
100
AcDbLine
 10
279.8432271542
 20
69.2009221323
 30
0.0
 11
279.8432271542
 21
71.7009221323
 31
0.0
  0
LINE
  5
1AB
330
1F
100
AcDbEntity
  8
0
  6
Continuous
 62
     7
370
    15
100
AcDbLine
 10
34.581759926
 20
62.9613315601
 30
0.0
 11
39.8481283387
 21
62.5005840261
 31
0.0
  0
LINE
  5
1AC
330
1F
100
AcDbEntity
  8
0
  6
Continuous
 62
     7
370
    15
100
AcDbLine
 10
495.8383259698
 20
62.5005840261
 30
0.0
 11
501.1046943825
 21
62.9613315601
 31
0.0
  0
LINE
  5
1AD
330
1F
100
AcDbEntity
  8
0
  6
Continuous
 62
     7
370
    15
100
AcDbLine
 10
278.2355319997
 20
80.8640618531
 30
0.0
 11
276.0932271542
 21
82.1009221323
 31
0.0
  0
LINE
  5
1AE
330
1F
100
AcDbEntity
  8
0
  6
Continuous
 62
     7
370
    15
100
AcDbLine
 10
259.5932271542
 20
82.1009221323
 30
0.0
 11
257.4509223088
 21
80.8640618531
 31
0.0
  0
LINE
  5
1AF
330
1F
100
AcDbEntity
  8
0
  6
Continuous
 62
     7
370
    15
100
AcDbLine
 10
257.4509223088
 20
72.9377824115
 30
0.0
 11
259.5932271542
 21
71.7009221323
 31
0.0
  0
LINE
  5
1B0
330
1F
100
AcDbEntity
  8
0
  6
Continuous
 62
     7
370
    15
100
AcDbLine
 10
276.0932271542
 20
71.7009221323
 30
0.0
 11
278.2355319997
 21
72.9377824115
 31
0.0
  0
LINE
  5
1B1
330
1F
100
AcDbEntity
  8
0
  6
Continuous
 62
     7
370
    15
100
AcDbLine
 10
273.8432271542
 20
82.1009221323
 30
0.0
 11
273.8432271542
 21
117.2009221323
 31
0.0
  0
LINE
  5
1B2
330
1F
100
AcDbEntity
  8
0
  6
Continuous
 62
     7
370
    15
100
AcDbLine
 10
261.8432271542
 20
117.2009221323
 30
0.0
 11
261.8432271542
 21
82.1009221323
 31
0.0
  0
LINE
  5
1B3
330
1F
100
AcDbEntity
  8
0
  6
Continuous
 62
     7
370
    15
100
AcDbLine
 10
273.8432271542
 20
-35.7990778677
 30
0.0
 11
273.8432271542
 21
61.9831714963
 31
0.0
  0
LINE
  5
1B4
330
1F
100
AcDbEntity
  8
0
  6
Continuous
 62
     7
370
    15
100
AcDbLine
 10
261.8432271542
 20
61.9831736562
 30
0.0
 11
261.8432271542
 21
-35.7990778677
 31
0.0
  0
ARC
  5
1B5
330
1F
100
AcDbEntity
  8
0
  6
Continuous
 62
     7
370
    15
100
AcDbCircle
 10
50.4026372731
 20
56.5580849575
 30
0.0
 40
5.000000000000003
100
AcDbArc
 50
3.0
 51
73.2730725328
  0
ARC
  5
1B6
330
1F
100
AcDbEntity
  8
0
  6
Continuous
 62
     7
370
    15
100
AcDbCircle
 10
485.2838170354
 20
56.5580849575
 30
0.0
 40
4.999999999999998
100
AcDbArc
 50
106.7225882972
 51
177.0
  0
LINE
  5
1B7
330
1F
100
AcDbEntity
  8
0
  6
Continuous
 62
     7
370
    15
100
AcDbLine
 10
55.3957849469
 20
56.8197647387
 30
0.0
 11
56.7190647341
 21
31.5700822417
 31
0.0
  0
LINE
  5
1B8
330
1F
100
AcDbEntity
  8
0
  6
Continuous
 62
     7
370
    15
100
AcDbLine
 10
478.9673895743
 20
31.5700822417
 30
0.0
 11
480.2906693616
 21
56.8197647387
 31
0.0
  0
ARC
  5
1B9
330
1F
100
AcDbEntity
  8
0
  6
Continuous
 62
     7
370
    15
100
AcDbCircle
 10
59.215638571
 20
31.7009221323
 30
0.0
 40
2.500000000000012
100
AcDbArc
 50
183.0
 51
270.0
  0
ARC
  5
1BA
330
1F
100
AcDbEntity
  8
0
  6
Continuous
 62
     7
370
    15
100
AcDbCircle
 10
476.4708157375
 20
31.7009221323
 30
0.0
 40
2.500000000000019
100
AcDbArc
 50
270.0
 51
357.0
  0
LINE
  5
1BB
330
1F
100
AcDbEntity
  8
0
  6
Continuous
 62
     7
370
    15
100
AcDbLine
 10
456.8432271542
 20
-35.7990778677
 30
0.0
 11
456.8432271542
 21
29.2009221323
 31
0.0
  0
LINE
  5
1BC
330
1F
100
AcDbEntity
  8
0
  6
Continuous
 62
     7
370
    15
100
AcDbLine
 10
78.8432271542
 20
29.2009221323
 30
0.0
 11
78.8432271542
 21
-35.7990778677
 31
0.0
  0
LINE
  5
1BD
330
1F
100
AcDbEntity
  8
0
  6
Continuous
 62
     7
370
    15
100
AcDbLine
 10
412.8209325777
 20
71.7009221323
 30
0.0
 11
412.8209325777
 21
69.2009221323
 31
0.0
  0
LINE
  5
1BE
330
1F
100
AcDbEntity
  8
0
  6
Continuous
 62
     7
370
    15
100
AcDbLine
 10
436.8209325777
 20
69.2009221323
 30
0.0
 11
436.8209325777
 21
71.7009221323
 31
0.0
  0
LINE
  5
1BF
330
1F
100
AcDbEntity
  8
0
  6
Continuous
 62
     7
370
    15
100
AcDbLine
 10
98.8655217308
 20
71.7009221323
 30
0.0
 11
98.8655217308
 21
69.2009221323
 31
0.0
  0
LINE
  5
1C0
330
1F
100
AcDbEntity
  8
0
  6
Continuous
 62
     7
370
    15
100
AcDbLine
 10
122.8655217308
 20
69.2009221323
 30
0.0
 11
122.8655217308
 21
71.7009221323
 31
0.0
  0
LINE
  5
1C1
330
1F
100
AcDbEntity
  8
0
  6
Continuous
 62
     7
370
    15
100
AcDbLine
 10
434.1395315006
 20
81.4839662565
 30
0.0
 11
433.0709325777
 21
82.1009221323
 31
0.0
  0
LINE
  5
1C2
330
1F
100
AcDbEntity
  8
0
  6
Continuous
 62
     7
370
    15
100
AcDbLine
 10
416.5709325777
 20
82.1009221323
 30
0.0
 11
415.5023336547
 21
81.4839662565
 31
0.0
  0
LINE
  5
1C3
330
1F
100
AcDbEntity
  8
0
  6
Continuous
 62
     7
370
    15
100
AcDbLine
 10
415.4994680036
 20
72.3195324926
 30
0.0
 11
416.5709325777
 21
71.7009221323
 31
0.0
  0
LINE
  5
1C4
330
1F
100
AcDbEntity
  8
0
  6
Continuous
 62
     7
370
    15
100
AcDbLine
 10
433.0709325777
 20
71.7009221323
 30
0.0
 11
434.1423971518
 21
72.3195324926
 31
0.0
  0
LINE
  5
1C5
330
1F
100
AcDbEntity
  8
0
  6
Continuous
 62
     7
370
    15
100
AcDbLine
 10
120.1869863049
 20
81.4823117721
 30
0.0
 11
119.1155217308
 21
82.1009221323
 31
0.0
  0
LINE
  5
1C6
330
1F
100
AcDbEntity
  8
0
  6
Continuous
 62
     7
370
    15
100
AcDbLine
 10
102.6155217308
 20
82.1009221323
 30
0.0
 11
101.5440571567
 21
81.4823117721
 31
0.0
  0
LINE
  5
1C7
330
1F
100
AcDbEntity
  8
0
  6
Continuous
 62
     7
370
    15
100
AcDbLine
 10
101.5469228079
 20
72.3178780082
 30
0.0
 11
102.6155217308
 21
71.7009221323
 31
0.0
  0
LINE
  5
1C8
330
1F
100
AcDbEntity
  8
0
  6
Continuous
 62
     7
370
    15
100
AcDbLine
 10
119.1155217308
 20
71.7009221323
 30
0.0
 11
120.1841206538
 21
72.3178780082
 31
0.0
  0
LINE
  5
1C9
330
1F
100
AcDbEntity
  8
0
  6
Continuous
 62
     7
370
    15
100
AcDbLine
 10
430.8209325777
 20
82.1009221323
 30
0.0
 11
430.8209325777
 21
117.2009221323
 31
0.0
  0
LINE
  5
1CA
330
1F
100
AcDbEntity
  8
0
  6
Continuous
 62
     7
370
    15
100
AcDbLine
 10
418.8209325777
 20
117.2009221323
 30
0.0
 11
418.8209325777
 21
82.1009221323
 31
0.0
  0
LINE
  5
1CB
330
1F
100
AcDbEntity
  8
0
  6
Continuous
 62
     7
370
    15
100
AcDbLine
 10
430.8209325777
 20
-35.7990778677
 30
0.0
 11
430.8209325777
 21
62.3506695749
 31
0.0
  0
LINE
  5
1CC
330
1F
100
AcDbEntity
  8
0
  6
Continuous
 62
     7
370
    15
100
AcDbLine
 10
418.8209325777
 20
61.6094342469
 30
0.0
 11
418.8209325777
 21
-35.7990778677
 31
0.0
  0
LINE
  5
1CD
330
1F
100
AcDbEntity
  8
0
  6
Continuous
 62
     7
370
    15
100
AcDbLine
 10
116.8655217308
 20
82.1009221323
 30
0.0
 11
116.8655217308
 21
117.2009221323
 31
0.0
  0
LINE
  5
1CE
330
1F
100
AcDbEntity
  8
0
  6
Continuous
 62
     7
370
    15
100
AcDbLine
 10
104.8655217308
 20
117.2009221323
 30
0.0
 11
104.8655217308
 21
82.1009221323
 31
0.0
  0
LINE
  5
1CF
330
1F
100
AcDbEntity
  8
0
  6
Continuous
 62
     7
370
    15
100
AcDbLine
 10
116.8655217308
 20
-35.7990778677
 30
0.0
 11
116.8655217308
 21
61.6088060593
 31
0.0
  0
LINE
  5
1D0
330
1F
100
AcDbEntity
  8
0
  6
Continuous
 62
     7
370
    15
100
AcDbLine
 10
104.8655217308
 20
62.3504193774
 30
0.0
 11
104.8655217308
 21
-35.7990778677
 31
0.0
  0
LINE
  5
1D1
330
1F
100
AcDbEntity
  8
0
  6
Continuous
 62
     7
370
    15
100
AcDbLine
 10
477.8432271542
 20
71.7009221323
 30
0.0
 11
477.8432271542
 21
69.2009221323
 31
0.0
  0
LINE
  5
1D2
330
1F
100
AcDbEntity
  8
0
  6
Continuous
 62
     7
370
    15
100
AcDbLine
 10
501.8432271542
 20
69.2009221323
 30
0.0
 11
501.8432271542
 21
71.7009221323
 31
0.0
  0
LINE
  5
1D3
330
1F
100
AcDbEntity
  8
0
  6
Continuous
 62
     7
370
    15
100
AcDbLine
 10
33.8432271542
 20
71.7009221323
 30
0.0
 11
33.8432271542
 21
69.2009221323
 31
0.0
  0
LINE
  5
1D4
330
1F
100
AcDbEntity
  8
0
  6
Continuous
 62
     7
370
    15
100
AcDbLine
 10
57.8432271542
 20
69.2009221323
 30
0.0
 11
57.8432271542
 21
71.7009221323
 31
0.0
  0
LINE
  5
1D5
330
1F
100
AcDbEntity
  8
0
  6
Continuous
 62
     7
370
    15
100
AcDbLine
 10
498.8432271542
 20
81.6679094304
 30
0.0
 11
498.0932271542
 21
82.1009221323
 31
0.0
  0
LINE
  5
1D6
330
1F
100
AcDbEntity
  8
0
  6
Continuous
 62
     7
370
    15
100
AcDbLine
 10
481.5932271542
 20
82.1009221323
 30
0.0
 11
480.8432271542
 21
81.6679094304
 31
0.0
  0
LINE
  5
1D7
330
1F
100
AcDbEntity
  8
0
  6
Continuous
 62
     7
370
    15
100
AcDbLine
 10
480.8432271542
 20
72.1339348342
 30
0.0
 11
481.5932271542
 21
71.7009221323
 31
0.0
  0
LINE
  5
1D8
330
1F
100
AcDbEntity
  8
0
  6
Continuous
 62
     7
370
    15
100
AcDbLine
 10
498.0932271542
 20
71.7009221323
 30
0.0
 11
498.8432271542
 21
72.1339348342
 31
0.0
  0
LINE
  5
1D9
330
1F
100
AcDbEntity
  8
0
  6
Continuous
 62
     7
370
    15
100
AcDbLine
 10
54.8432271542
 20
81.6679094304
 30
0.0
 11
54.0932271542
 21
82.1009221323
 31
0.0
  0
LINE
  5
1DA
330
1F
100
AcDbEntity
  8
0
  6
Continuous
 62
     7
370
    15
100
AcDbLine
 10
37.5932271542
 20
82.1009221323
 30
0.0
 11
36.8432271542
 21
81.6679094304
 31
0.0
  0
LINE
  5
1DB
330
1F
100
AcDbEntity
  8
0
  6
Continuous
 62
     7
370
    15
100
AcDbLine
 10
36.8432271542
 20
72.1339348342
 30
0.0
 11
37.5932271542
 21
71.7009221323
 31
0.0
  0
LINE
  5
1DC
330
1F
100
AcDbEntity
  8
0
  6
Continuous
 62
     7
370
    15
100
AcDbLine
 10
54.0932271542
 20
71.7009221323
 30
0.0
 11
54.8432271542
 21
72.1339348342
 31
0.0
  0
LINE
  5
1DD
330
1F
100
AcDbEntity
  8
0
  6
Continuous
 62
     7
370
    15
100
AcDbLine
 10
495.8432271542
 20
82.1009221323
 30
0.0
 11
495.8432271542
 21
117.2009221323
 31
0.0
  0
LINE
  5
1DE
330
1F
100
AcDbEntity
  8
0
  6
Continuous
 62
     7
370
    15
100
AcDbLine
 10
483.8432271542
 20
117.2009221323
 30
0.0
 11
483.8432271542
 21
82.1009221323
 31
0.0
  0
LINE
  5
1DF
330
1F
100
AcDbEntity
  8
0
  6
Continuous
 62
     7
370
    15
100
AcDbLine
 10
495.8432271542
 20
-35.7990778677
 30
0.0
 11
495.8432271542
 21
62.5010128241
 31
0.0
  0
LINE
  5
1E0
330
1F
100
AcDbEntity
  8
0
  6
Continuous
 62
     7
370
    15
100
AcDbLine
 10
483.8432271542
 20
61.34605956
 30
0.0
 11
483.8432271542
 21
-35.7990778677
 31
0.0
  0
LINE
  5
1E1
330
1F
100
AcDbEntity
  8
0
  6
Continuous
 62
     7
370
    15
100
AcDbLine
 10
51.8432271542
 20
82.1009221323
 30
0.0
 11
51.8432271542
 21
117.2009221323
 31
0.0
  0
LINE
  5
1E2
330
1F
100
AcDbEntity
  8
0
  6
Continuous
 62
     7
370
    15
100
AcDbLine
 10
39.8432271542
 20
117.2009221323
 30
0.0
 11
39.8432271542
 21
82.1009221323
 31
0.0
  0
LINE
  5
1E3
330
1F
100
AcDbEntity
  8
0
  6
Continuous
 62
     7
370
    15
100
AcDbLine
 10
51.8432271542
 20
-35.7990778677
 30
0.0
 11
51.8432271542
 21
61.3465836491
 31
0.0
  0
LINE
  5
1E4
330
1F
100
AcDbEntity
  8
0
  6
Continuous
 62
     7
370
    15
100
AcDbLine
 10
39.8432271542
 20
62.5010128241
 30
0.0
 11
39.8432271542
 21
-35.7990778677
 31
0.0
  0
LINE
  5
1E5
330
1F
100
AcDbEntity
  8
0
  6
Continuous
 62
     7
370
    15
100
AcDbLine
 10
434.1423971518
 20
81.4823117721
 30
0.0
 11
434.1395315006
 21
81.4839662565
 31
0.0
  0
LINE
  5
1E6
330
1F
100
AcDbEntity
  8
0
  6
Continuous
 62
     7
370
    15
100
AcDbLine
 10
101.5440571567
 20
72.3195324926
 30
0.0
 11
101.5469228079
 21
72.3178780082
 31
0.0
  0
LINE
  5
1E7
330
1F
100
AcDbEntity
  8
0
  6
Continuous
 62
     7
370
    15
100
AcDbLine
 10
7.8432271542
 20
-60.7990778677
 30
0.0
 11
527.8432271542
 21
-60.7990778677
 31
0.0
  0
LINE
  5
1E8
330
1F
100
AcDbEntity
  8
0
  6
Continuous
 62
     7
370
    15
100
AcDbLine
 10
7.8432271542
 20
-35.7990778677
 30
0.0
 11
527.8432271542
 21
-35.7990778677
 31
0.0
  0
LINE
  5
1E9
330
1F
100
AcDbEntity
  8
0
  6
Continuous
 62
     7
370
    15
100
AcDbLine
 10
31.8432271542
 20
69.2009221323
 30
0.0
 11
503.8432271542
 21
69.2009221323
 31
0.0
  0
LINE
  5
1EA
330
1F
100
AcDbEntity
  8
0
  6
Continuous
 62
     7
370
    15
100
AcDbLine
 10
255.8432271542
 20
71.7009221323
 30
0.0
 11
279.8432271542
 21
71.7009221323
 31
0.0
  0
SPLINE
  5
1EB
330
1F
100
AcDbEntity
  8
0
  6
Continuous
 62
     7
370
    15
100
AcDbSpline
210
0.0
220
0.0
230
1.0
 70
     8
 71
     3
 72
    38
 73
    34
 74
     0
 42
0.00000001
 43
0.00000001
 12
1.0
 22
0.0
 32
0.0
 13
1.0
 23
0.0
 33
0.0
 40
0.0
 40
0.0
 40
0.0
 40
0.0
 40
0.0211928376930967
 40
0.0545629821153201
 40
0.0867144877412217
 40
0.1193242195380013
 40
0.1521665753394474
 40
0.1854866767050704
 40
0.2176684167591204
 40
0.2503072646387982
 40
0.283178039483525
 40
0.316524966245925
 40
0.3487979982543087
 40
0.3815287320385603
 40
0.4144916620668417
 40
0.4479313142336659
 40
0.4803199144517173
 40
0.5129323811699721
 40
0.5462500484450523
 40
0.5798110644248317
 40
0.612291269631471
 40
0.6449965695915798
 40
0.6784117969456696
 40
0.7120723796831148
 40
0.7445791697097038
 40
0.7773120517112804
 40
0.8107589162395399
 40
0.84445291460886
 40
0.8769061804880878
 40
0.9095858417525412
 40
0.9429809824439362
 40
0.9766239751419773
 40
1.0
 40
1.0
 40
1.0
 40
1.0
 10
495.838324990408
 20
62.50059522081618
 30
0.0
 10
495.838539231095
 20
62.5006134750715
 30
0.0
 10
495.8390908141789
 20
62.50066047239302
 30
0.0
 10
495.791251413104
 20
62.49658501427882
 30
0.0
 10
495.7016214551448
 20
62.488947011483
 30
0.0
 10
495.5701304417487
 20
62.47773653456928
 30
0.0
 10
495.3969195971578
 20
62.46295949789612
 30
0.0
 10
495.1847200174372
 20
62.44484118581146
 30
0.0
 10
494.9354268523975
 20
62.42353444607482
 30
0.0
 10
494.6519841958435
 20
62.39928137817076
 30
0.0
 10
494.3311395624506
 20
62.37179211606544
 30
0.0
 10
493.9795261056635
 20
62.34162244355383
 30
0.0
 10
493.5993680204008
 20
62.30895148066234
 30
0.0
 10
493.1946419004674
 20
62.27410995028827
 30
0.0
 10
492.7613695227882
 20
62.23674250336551
 30
0.0
 10
492.3087861268805
 20
62.1976330459845
 30
0.0
 10
491.8405360089334
 20
62.15708727101683
 30
0.0
 10
491.3590279406044
 20
62.11530645552939
 30
0.0
 10
490.860988076975
 20
62.07199690746354
 30
0.0
 10
490.3562847914381
 20
62.02800853351354
 30
0.0
 10
489.8511377419828
 20
61.9838814975055
 30
0.0
 10
489.3466765308653
 20
61.93971482338468
 30
0.0
 10
488.8396959629534
 20
61.89522572271003
 30
0.0
 10
488.3409694417624
 20
61.851359667069
 30
0.0
 10
487.8563677236982
 20
61.8086400543127
 30
0.0
 10
487.3866608095234
 20
61.76714346641408
 30
0.0
 10
486.9288837428718
 20
61.726614145185
 30
0.0
 10
486.4935152623855
 20
61.68798811331505
 30
0.0
 10
486.0853895209484
 20
61.65170803941246
 30
0.0
 10
485.7045650806435
 20
61.61779314849508
 30
0.0
 10
485.3494103811123
 20
61.58610927148774
 30
0.0
 10
485.0550793888547
 20
61.55981069509305
 30
0.0
 10
484.8905905503233
 20
61.5450924648545
 30
0.0
 10
484.8231552393835
 20
61.53905844794806
 30
0.0
  0
SPLINE
  5
1EC
330
1F
100
AcDbEntity
  8
0
  6
Continuous
 62
     7
370
    15
100
AcDbSpline
210
0.0
220
0.0
230
1.0
 70
     8
 71
     3
 72
    45
 73
    41
 74
     0
 42
0.00000001
 43
0.00000001
 12
1.0
 22
0.0
 32
0.0
 13
1.0
 23
0.0
 33
0.0
 40
0.0
 40
0.0
 40
0.0
 40
0.0
 40
0.0016334679930993
 40
0.0281412184096864
 40
0.0546489141489912
 40
0.0819322986328557
 40
0.1092156293375291
 40
0.1356282790576329
 40
0.1620408932532341
 40
0.1892251422643942
 40
0.2164093688372654
 40
0.2427501446401556
 40
0.2690909181176396
 40
0.2961982169140087
 40
0.3233055329338005
 40
0.3496266709372617
 40
0.3759478402426908
 40
0.403031477683247
 40
0.4301151643708514
 40
0.456476385192039
 40
0.4828376582371807
 40
0.5099599861233101
 40
0.5370823752665939
 40
0.5635272795435848
 40
0.5899722357550302
 40
0.617180039497024
 40
0.6443878912508384
 40
0.6709261529881
 40
0.697464444140683
 40
0.7247699442896193
 40
0.7520754577527826
 40
0.7786771992002721
 40
0.8052789332311545
 40
0.8326531176394941
 40
0.8600272723549814
 40
0.8866333030528429
 40
0.9132392906832862
 40
0.9406216162755733
 40
0.968003880076907
 40
1.0
 40
1.0
 40
1.0
 40
1.0
 10
430.8196866255103
 20
62.3506695748659
 30
0.0
 10
430.820098497389
 20
62.3513172630986
 30
0.0
 10
430.8271941837125
 20
62.36247556928804
 30
0.0
 10
430.8013584880178
 20
62.38173398737837
 30
0.0
 10
430.7397390085412
 20
62.40833749482985
 30
0.0
 10
430.6298921912146
 20
62.431846659637
 30
0.0
 10
430.4794142037192
 20
62.45217833852355
 30
0.0
 10
430.2898539420705
 20
62.46895285812368
 30
0.0
 10
430.0626722974134
 20
62.48237764208336
 30
0.0
 10
429.7955812191562
 20
62.4923879488206
 30
0.0
 10
429.4928836199263
 20
62.49876738072115
 30
0.0
 10
429.1602290575609
 20
62.50147036196546
 30
0.0
 10
428.7979512380671
 20
62.50064075604474
 30
0.0
 10
428.4037659628277
 20
62.49615508809578
 30
0.0
 10
427.984041590568
 20
62.48804034401586
 30
0.0
 10
427.546163279815
 20
62.47648047437207
 30
0.0
 10
427.0897327859882
 20
62.46156330259345
 30
0.0
 10
426.6128368854651
 20
62.4431253211113
 30
0.0
 10
426.1230190355424
 20
62.42141283777001
 30
0.0
 10
425.6285828490352
 20
62.39681669751241
 30
0.0
 10
425.1284886293346
 20
62.36936160676186
 30
0.0
 10
424.6215475766567
 20
62.33888278255662
 30
0.0
 10
424.1156695766088
 20
62.3058085984122
 30
0.0
 10
423.6192258825255
 20
62.27070155465482
 30
0.0
 10
423.1307103778445
 20
62.23352765376959
 30
0.0
 10
422.649725994126
 20
62.19415141983886
 30
0.0
 10
422.183906034027
 20
62.15314954306102
 30
0.0
 10
421.7408176151741
 20
62.11120712054289
 30
0.0
 10
421.3186809420588
 20
62.06824261570272
 30
0.0
 10
420.9177235625542
 20
62.02415994060166
 30
0.0
 10
420.5446799590161
 20
61.97964919760901
 30
0.0
 10
420.205455014836
 20
61.93545168299445
 30
0.0
 10
419.8981592254143
 20
61.89144966910512
 30
0.0
 10
419.6234632172984
 20
61.84758145418835
 30
0.0
 10
419.3863945565037
 20
61.80459167948277
 30
0.0
 10
419.190647498927
 20
61.7632057535078
 30
0.0
 10
419.0336271001003
 20
61.72323344989128
 30
0.0
 10
418.9192370557239
 20
61.68481176405403
 30
0.0
 10
418.8339796457848
 20
61.64554538743433
 30
0.0
 10
418.8354446617071
 20
61.62207909133018
 30
0.0
 10
418.8362340874577
 20
61.60943424690693
 30
0.0
  0
SPLINE
  5
1ED
330
1F
100
AcDbEntity
  8
0
  6
Continuous
 62
     7
370
    15
100
AcDbSpline
210
0.0
220
0.0
230
1.0
 70
     8
 71
     3
 72
    46
 73
    42
 74
     0
 42
0.00000001
 43
0.00000001
 12
1.0
 22
0.0
 32
0.0
 13
1.0
 23
0.0
 33
0.0
 40
0.0
 40
0.0
 40
0.0
 40
0.0
 40
0.006640937966332
 40
0.0331569869606244
 40
0.0598571020518212
 40
0.0871380999324609
 40
0.1146200025869593
 40
0.1411272565917252
 40
0.1678191408821045
 40
0.1950942797318893
 40
0.2225713778511002
 40
0.2490118528066946
 40
0.2756368476130011
 40
0.3028449225756765
 40
0.3302549460588668
 40
0.3567901520185925
 40
0.3833253147344428
 40
0.4102417476056557
 40
0.4375532931045551
 40
0.46400608316933
 40
0.4904588610760227
 40
0.5172905310082389
 40
0.5445145118578396
 40
0.570931128583226
 40
0.5973477685791737
 40
0.62414116971288
 40
0.6513243245115872
 40
0.6777651385561699
 40
0.7042060017081728
 40
0.7310225876228692
 40
0.7582276270762803
 40
0.7847431584206396
 40
0.8112587448804632
 40
0.8381505126978969
 40
0.8654311992507746
 40
0.8918544181893896
 40
0.9184602715582693
 40
0.9456414405809032
 40
0.9730211379764647
 40
0.9995190899585898
 40
1.0
 40
1.0
 40
1.0
 40
1.0
 10
273.8391583066081
 20
61.98317149631226
 30
0.0
 10
273.8403936209918
 20
61.98681464389778
 30
0.0
 10
273.8465613194589
 20
62.00500421254026
 30
0.0
 10
273.8154643023937
 20
62.03773212526165
 30
0.0
 10
273.744809057326
 20
62.08128595656938
 30
0.0
 10
273.6272175445033
 20
62.12456453650749
 30
0.0
 10
273.4686549336088
 20
62.16662958769306
 30
0.0
 10
273.2707987291188
 20
62.20700327511047
 30
0.0
 10
273.0353480171622
 20
62.24564347325597
 30
0.0
 10
272.7595038342224
 20
62.28280868455774
 30
0.0
 10
272.448530365277
 20
62.3176346253773
 30
0.0
 10
272.1071276325184
 20
62.3497652471145
 30
0.0
 10
271.7368857512381
 20
62.37920847652884
 30
0.0
 10
271.3340085918376
 20
62.40615616128538
 30
0.0
 10
270.9059825983633
 20
62.42999858495806
 30
0.0
 10
270.4594869139495
 20
62.45045554537371
 30
0.0
 10
269.997387637891
 20
62.46755634053267
 30
0.0
 10
269.5153119023207
 20
62.48140107085988
 30
0.0
 10
269.0215690500114
 20
62.49168140597068
 30
0.0
 10
268.5222595718686
 20
62.49831837060304
 30
0.0
 10
268.0211916760832
 20
62.50138909429688
 30
0.0
 10
267.5139807739894
 20
62.5008597572322
 30
0.0
 10
267.0093471091638
 20
62.49666721976681
 30
0.0
 10
266.5133392068959
 20
62.48889531917137
 30
0.0
 10
266.0292523369571
 20
62.47771029113186
 30
0.0
 10
265.5533963454955
 20
62.46295696722852
 30
0.0
 10
265.093838013589
 20
62.44480098280118
 30
0.0
 10
264.6559537150633
 20
62.4234762612269
 30
0.0
 10
264.242223267534
 20
62.39921915903997
 30
0.0
 10
263.8500884842941
 20
62.37179148713003
 30
0.0
 10
263.4862282516793
 20
62.34155351535372
 30
0.0
 10
263.1548193592681
 20
62.30886881388811
 30
0.0
 10
262.8573190483585
 20
62.27402463788449
 30
0.0
 10
262.5923906151239
 20
62.23674223639463
 30
0.0
 10
262.3654412771812
 20
62.1976331148248
 30
0.0
 10
262.1780227035227
 20
62.15708725483371
 30
0.0
 10
262.0307244877017
 20
62.11530645184046
 30
0.0
 10
261.9218752394056
 20
62.07199693972149
 30
0.0
 10
261.8612662403072
 20
62.02800840909707
 30
0.0
 10
261.8365431795974
 20
61.99823341439598
 30
0.0
 10
261.8434750071391
 20
61.98343740158059
 30
0.0
 10
261.8435985700036
 20
61.98317365616651
 30
0.0
  0
SPLINE
  5
1EE
330
1F
100
AcDbEntity
  8
0
  6
Continuous
 62
     7
370
    15
100
AcDbSpline
210
0.0
220
0.0
230
1.0
 70
     8
 71
     3
 72
    45
 73
    41
 74
     0
 42
0.00000001
 43
0.00000001
 12
1.0
 22
0.0
 32
0.0
 13
1.0
 23
0.0
 33
0.0
 40
0.0
 40
0.0
 40
0.0
 40
0.0
 40
0.0167824216589744
 40
0.0439259311423572
 40
0.0710695028567304
 40
0.0975522773435887
 40
0.1240350981142273
 40
0.1512820483836826
 40
0.1785290336223496
 40
0.2051012038623707
 40
0.2316733873339145
 40
0.2590151307884228
 40
0.2863568672803387
 40
0.3129684434560392
 40
0.3395799949042183
 40
0.3669660707380392
 40
0.3943521014828635
 40
0.4209374778653226
 40
0.4475228033235826
 40
0.4748849919251006
 40
0.5022471175044864
 40
0.5287543442588951
 40
0.555261516337102
 40
0.5825443618360923
 40
0.609827153556952
 40
0.6362392814935952
 40
0.6626513739064398
 40
0.6898350858911514
 40
0.7170187754380174
 40
0.7433590308773019
 40
0.7696992839912314
 40
0.7968060472812889
 40
0.823912827794432
 40
0.8502334458222105
 40
0.8765540951513356
 40
0.9036371975529855
 40
0.9307203492007139
 40
0.9570810492543529
 40
0.9834418015309192
 40
1.0
 40
1.0
 40
1.0
 40
1.0
 10
116.8607309359649
 20
61.60880605934386
 30
0.0
 10
116.8610033593866
 20
61.61543877649438
 30
0.0
 10
116.8617163942934
 20
61.63279910045481
 30
0.0
 10
116.814538419529
 20
61.66374834397337
 30
0.0
 10
116.7248882477295
 20
61.70074842788512
 30
0.0
 10
116.592752471609
 20
61.73947901432771
 30
0.0
 10
116.4212459871143
 20
61.77984113031592
 30
0.0
 10
116.2081738213254
 20
61.82196578634272
 30
0.0
 10
115.9564711891169
 20
61.86519834848362
 30
0.0
 10
115.67063944959
 20
61.90880738953094
 30
0.0
 10
115.3510078280254
 20
61.95288614672462
 30
0.0
 10
114.9959466208364
 20
61.99750517835573
 30
0.0
 10
114.6107889611363
 20
62.04194164778205
 30
0.0
 10
114.202285926553
 20
62.08545923464263
 30
0.0
 10
113.7701708285586
 20
62.12819979060342
 30
0.0
 10
113.3127513797525
 20
62.17022353420047
 30
0.0
 10
112.837589306798
 20
62.21080339897924
 30
0.0
 10
112.3528867590749
 20
62.24928810318234
 30
0.0
 10
111.8577921636892
 20
62.28585403361299
 30
0.0
 10
111.3505351096079
 20
62.32054672758748
 30
0.0
 10
110.8400784455255
 20
62.35272989452205
 30
0.0
 10
110.3350675790529
 20
62.38191321140843
 30
0.0
 10
109.8340966354003
 20
62.40828790123384
 30
0.0
 10
109.3355351186742
 20
62.43186012424649
 30
0.0
 10
108.848497632584
 20
62.4521748588471
 30
0.0
 10
108.3810072578575
 20
62.46895377676853
 30
0.0
 10
107.9312238747037
 20
62.48237738790232
 30
0.0
 10
107.4980549155761
 20
62.49238801767852
 30
0.0
 10
107.0894680614277
 20
62.49876736337215
 30
0.0
 10
106.7119433725796
 20
62.50147036483607
 30
0.0
 10
106.3634350618989
 20
62.50064076171465
 30
0.0
 10
106.0437175787439
 20
62.49615506160293
 30
0.0
 10
105.7586514676521
 20
62.48804044285322
 30
0.0
 10
105.5125235543646
 20
62.47648011719624
 30
0.0
 10
105.3033264369061
 20
62.46156465342963
 30
0.0
 10
105.1319066621708
 20
62.44312011661826
 30
0.0
 10
105.0009266227666
 20
62.42143202422854
 30
0.0
 10
104.9143914203942
 20
62.39674722046713
 30
0.0
 10
104.8689741089428
 20
62.37321277362427
 30
0.0
 10
104.8702375004176
 20
62.35676496699401
 30
0.0
 10
104.8707249188289
 20
62.35041937741566
 30
0.0
  0
SPLINE
  5
1EF
330
1F
100
AcDbEntity
  8
0
  6
Continuous
 62
     7
370
    15
100
AcDbSpline
210
0.0
220
0.0
230
1.0
 70
     8
 71
     3
 72
    38
 73
    34
 74
     0
 42
0.00000001
 43
0.00000001
 12
1.0
 22
0.0
 32
0.0
 13
1.0
 23
0.0
 33
0.0
 40
0.0
 40
0.0
 40
0.0
 40
0.0
 40
0.0322857649795079
 40
0.0647957880742158
 40
0.0980118624705692
 40
0.1314713409808446
 40
0.163819638224717
 40
0.1963917422804313
 40
0.229668550764022
 40
0.263188384427039
 40
0.2956229204847179
 40
0.3282818369815272
 40
0.3616479296566472
 40
0.3952582137999827
 40
0.4277605441497886
 40
0.4604884954844213
 40
0.4939284701043116
 40
0.5276147058972079
 40
0.5601062556946383
 40
0.5928241180372317
 40
0.6262569108874558
 40
0.6599372574698921
 40
0.6923469521343398
 40
0.7249828239771902
 40
0.7583334125512865
 40
0.7919315416820024
 40
0.824225753944942
 40
0.8569833095677619
 40
0.8899764147323678
 40
0.9234538334217087
 40
0.955648403208914
 40
0.9883035941140769
 40
0.9999999999999999
 40
0.9999999999999999
 40
0.9999999999999999
 40
0.9999999999999999
 10
50.86329906911396
 20
61.53905844794806
 30
0.0
 10
50.76929133006377
 20
61.5474693756069
 30
0.0
 10
50.58062287073814
 20
61.56434965353855
 30
0.0
 10
50.2530885791847
 20
61.59360343584691
 30
0.0
 10
49.89279775452157
 20
61.62573299532306
 30
0.0
 10
49.5032837190775
 20
61.66040667651711
 30
0.0
 10
49.0907625188744
 20
61.69705971736609
 30
0.0
 10
48.65645917800554
 20
61.73557296951763
 30
0.0
 10
48.19698328349992
 20
61.7762343467842
 30
0.0
 10
47.72121015895092
 20
61.81824647498588
 30
0.0
 10
47.23521995356423
 20
61.86106611791438
 30
0.0
 10
46.74031107169959
 20
61.90457486255006
 30
0.0
 10
46.23306748069306
 20
61.94906649177445
 30
0.0
 10
45.7237874743264
 20
61.99363311397691
 30
0.0
 10
45.21866786390311
 20
62.03773473668425
 30
0.0
 10
44.71874511608168
 20
62.08128523789478
 30
0.0
 10
44.220824665447
 20
62.12456473265473
 30
0.0
 10
43.73580976613447
 20
62.16662953703734
 30
0.0
 10
43.2693122363853
 20
62.20700328866514
 30
0.0
 10
42.82195340144634
 20
62.24564346916167
 30
0.0
 10
42.3908393990379
 20
62.28280868707012
 30
0.0
 10
41.98611387335574
 20
62.3176346195597
 30
0.0
 10
41.61207814959494
 20
62.34976526710691
 30
0.0
 10
41.26879858721558
 20
62.3792084007865
 30
0.0
 10
40.95416038198138
 20
62.40615645166042
 30
0.0
 10
40.67608696901848
 20
62.42994200031939
 30
0.0
 10
40.43647323823363
 20
62.45041509775706
 30
0.0
 10
40.23602778730545
 20
62.46752546469408
 30
0.0
 10
40.07347164921973
 20
62.48139072349412
 30
0.0
 10
39.9525628372645
 20
62.49169729751299
 30
0.0
 10
39.8766741869577
 20
62.49816358735335
 30
0.0
 10
39.84182133247591
 20
62.50113258375391
 30
0.0
 10
39.84681293290993
 20
62.50070736067358
 30
0.0
 10
39.84812931808931
 20
62.50059522081618
 30
0.0
  0
SPLINE
  5
1F0
330
1F
100
AcDbEntity
  8
0
  6
Continuous
 62
     7
370
    15
100
AcDbSpline
210
0.0
220
0.0
230
1.0
 70
     8
 71
     3
 72
    16
 73
    12
 74
     0
 42
0.00000001
 43
0.00000001
 12
1.0
 22
0.0
 32
0.0
 13
1.0
 23
0.0
 33
0.0
 40
0.0
 40
0.0
 40
0.0
 40
0.0
 40
0.2499999999999999
 40
0.2499999999999999
 40
0.4999999999999998
 40
0.4999999999999998
 40
0.6249999999999998
 40
0.6249999999999998
 40
0.7499999999999999
 40
0.7499999999999999
 40
1.0
 40
1.0
 40
1.0
 40
1.0
 10
273.0393795769545
 20
80.86406185314931
 30
0.0
 10
273.4635960840779
 20
81.10898336773171
 30
0.0
 10
273.8909054898887
 20
81.31084308776825
 30
0.0
 10
274.754436173587
 20
81.59048435936526
 30
0.0
 10
275.1907237037486
 20
81.66734349409359
 30
0.0
 10
275.8533749390591
 20
81.66818765526281
 30
0.0
 10
276.07529799684
 20
81.64939856859276
 30
0.0
 10
276.5142852158351
 20
81.57613107651191
 30
0.0
 10
276.7323070642831
 20
81.52172702484852
 30
0.0
 10
277.382491028503
 20
81.3116479664965
 30
0.0
 10
277.8107866877309
 20
81.10928867332922
 30
0.0
 10
278.2355319996612
 20
80.86406185314917
 30
0.0
  0
SPLINE
  5
1F1
330
1F
100
AcDbEntity
  8
0
  6
Continuous
 62
     7
370
    15
100
AcDbSpline
210
0.0
220
0.0
230
1.0
 70
     8
 71
     3
 72
    16
 73
    12
 74
     0
 42
0.00000001
 43
0.00000001
 12
1.0
 22
0.0
 32
0.0
 13
1.0
 23
0.0
 33
0.0
 40
0.0
 40
0.0
 40
0.0
 40
0.0
 40
0.25
 40
0.25
 40
0.5
 40
0.5
 40
0.625
 40
0.625
 40
0.75
 40
0.75
 40
1.0
 40
1.0
 40
1.0
 40
1.0
 10
273.0393795769546
 20
80.86406185314897
 30
0.0
 10
272.1942243581898
 20
81.10803714967942
 30
0.0
 10
271.3283964613797
 20
81.31273110517044
 30
0.0
 10
269.5925111201997
 20
81.59258487749592
 30
0.0
 10
268.7198709844299
 20
81.667993451787
 30
0.0
 10
267.4026660476567
 20
81.66786731255436
 30
0.0
 10
266.9622399038391
 20
81.64917584636073
 30
0.0
 10
266.0787088606689
 20
81.57500098930369
 30
0.0
 10
265.6396018821717
 20
81.51982474098291
 30
0.0
 10
264.3379987580566
 20
81.30848770090736
 30
0.0
 10
263.4869904510897
 20
81.10652463653788
 30
0.0
 10
262.6470747315412
 20
80.86406185314894
 30
0.0
  0
SPLINE
  5
1F2
330
1F
100
AcDbEntity
  8
0
  6
Continuous
 62
     7
370
    15
100
AcDbSpline
210
0.0
220
0.0
230
1.0
 70
     8
 71
     3
 72
    16
 73
    12
 74
     0
 42
0.00000001
 43
0.00000001
 12
1.0
 22
0.0
 32
0.0
 13
1.0
 23
0.0
 33
0.0
 40
0.0
 40
0.0
 40
0.0
 40
0.0
 40
0.2500000000000001
 40
0.2500000000000001
 40
0.5000000000000001
 40
0.5000000000000001
 40
0.6250000000000001
 40
0.6250000000000001
 40
0.7500000000000002
 40
0.7500000000000002
 40
1.0
 40
1.0
 40
1.0
 40
1.0
 10
257.4509223088347
 20
80.86406185314932
 30
0.0
 10
257.8751388159582
 20
81.10898336773168
 30
0.0
 10
258.3024482217688
 20
81.31084308776825
 30
0.0
 10
259.1659789054672
 20
81.59048435936529
 30
0.0
 10
259.6022664356288
 20
81.66734349409359
 30
0.0
 10
260.2649176709393
 20
81.66818765526281
 30
0.0
 10
260.4868407287202
 20
81.64939856859276
 30
0.0
 10
260.9258279477152
 20
81.57613107651186
 30
0.0
 10
261.1438497961633
 20
81.52172702484849
 30
0.0
 10
261.7940337603831
 20
81.31164796649644
 30
0.0
 10
262.2223294196111
 20
81.1092886733291
 30
0.0
 10
262.6470747315414
 20
80.86406185314911
 30
0.0
  0
LINE
  5
1F3
330
1F
100
AcDbEntity
  8
0
  6
Continuous
 62
     7
370
    15
100
AcDbLine
 10
259.5932271542
 20
82.1009221323
 30
0.0
 11
276.0932271542
 21
82.1009221323
 31
0.0
  0
LINE
  5
1F4
330
1F
100
AcDbEntity
  8
0
  6
Continuous
 62
     7
370
    15
100
AcDbLine
 10
273.039379577
 20
80.8640618531
 30
0.0
 11
273.039379577
 21
72.9377824115
 31
0.0
  0
SPLINE
  5
1F5
330
1F
100
AcDbEntity
  8
0
  6
Continuous
 62
     7
370
    15
100
AcDbSpline
210
0.0
220
0.0
230
1.0
 70
     8
 71
     3
 72
    16
 73
    12
 74
     0
 42
0.00000001
 43
0.00000001
 12
1.0
 22
0.0
 32
0.0
 13
1.0
 23
0.0
 33
0.0
 40
0.0
 40
0.0
 40
0.0
 40
0.0
 40
0.25
 40
0.25
 40
0.5
 40
0.5
 40
0.625
 40
0.625
 40
0.75
 40
0.75
 40
1.0
 40
1.0
 40
1.0
 40
1.0
 10
273.0393795769545
 20
72.93778241151998
 30
0.0
 10
272.1942243581897
 20
72.69380711498953
 30
0.0
 10
271.3283964613796
 20
72.48911315949859
 30
0.0
 10
269.5925111201996
 20
72.209259387173
 30
0.0
 10
268.7198709844299
 20
72.13385081288195
 30
0.0
 10
267.4026660476567
 20
72.13397695211472
 30
0.0
 10
266.9622399038391
 20
72.15266841830827
 30
0.0
 10
266.0787088606688
 20
72.22684327536528
 30
0.0
 10
265.6396018821718
 20
72.28201952368603
 30
0.0
 10
264.3379987580567
 20
72.4933565637616
 30
0.0
 10
263.4869904510898
 20
72.69531962813107
 30
0.0
 10
262.6470747315414
 20
72.93778241152
 30
0.0
  0
LINE
  5
1F6
330
1F
100
AcDbEntity
  8
0
  6
Continuous
 62
     7
370
    15
100
AcDbLine
 10
262.6470747315
 20
80.8640618531
 30
0.0
 11
262.6470747315
 21
72.9377824115
 31
0.0
  0
LINE
  5
1F7
330
1F
100
AcDbEntity
  8
0
  6
Continuous
 62
     7
370
    15
100
AcDbLine
 10
278.2355319997
 20
80.8640618531
 30
0.0
 11
278.2355319997
 21
72.9377824115
 31
0.0
  0
SPLINE
  5
1F8
330
1F
100
AcDbEntity
  8
0
  6
Continuous
 62
     7
370
    15
100
AcDbSpline
210
0.0
220
0.0
230
1.0
 70
     8
 71
     3
 72
    16
 73
    12
 74
     0
 42
0.00000001
 43
0.00000001
 12
1.0
 22
0.0
 32
0.0
 13
1.0
 23
0.0
 33
0.0
 40
0.0
 40
0.0
 40
0.0
 40
0.0
 40
0.2499999999999983
 40
0.2499999999999983
 40
0.4999999999999967
 40
0.4999999999999967
 40
0.6249999999999958
 40
0.6249999999999958
 40
0.749999999999995
 40
0.749999999999995
 40
1.0
 40
1.0
 40
1.0
 40
1.0
 10
278.2355319996612
 20
72.93778241151968
 30
0.0
 10
277.8113154925378
 20
72.69286089693726
 30
0.0
 10
277.3840060867271
 20
72.49100117690072
 30
0.0
 10
276.5204754030287
 20
72.21135990530368
 30
0.0
 10
276.0841878728671
 20
72.13450077057536
 30
0.0
 10
275.4215366375566
 20
72.1336566094062
 30
0.0
 10
275.1996135797758
 20
72.15244569607621
 30
0.0
 10
274.7606263607806
 20
72.22571318815709
 30
0.0
 10
274.5426045123326
 20
72.28011723982046
 30
0.0
 10
273.8924205481127
 20
72.4901962981725
 30
0.0
 10
273.4641248888848
 20
72.69255559133987
 30
0.0
 10
273.0393795769545
 20
72.93778241151983
 30
0.0
  0
SPLINE
  5
1F9
330
1F
100
AcDbEntity
  8
0
  6
Continuous
 62
     7
370
    15
100
AcDbSpline
210
0.0
220
0.0
230
1.0
 70
     8
 71
     3
 72
    16
 73
    12
 74
     0
 42
0.00000001
 43
0.00000001
 12
1.0
 22
0.0
 32
0.0
 13
1.0
 23
0.0
 33
0.0
 40
0.0
 40
0.0
 40
0.0
 40
0.0
 40
0.2499999999999982
 40
0.2499999999999982
 40
0.4999999999999964
 40
0.4999999999999964
 40
0.624999999999999
 40
0.624999999999999
 40
0.7500000000000016
 40
0.7500000000000016
 40
1.0
 40
1.0
 40
1.0
 40
1.0
 10
262.6470747315413
 20
72.93778241151965
 30
0.0
 10
262.2228582244178
 20
72.69286089693723
 30
0.0
 10
261.7955488186072
 20
72.49100117690075
 30
0.0
 10
260.9320181349088
 20
72.21135990530368
 30
0.0
 10
260.4957306047472
 20
72.13450077057533
 30
0.0
 10
259.8330793694368
 20
72.13365660940617
 30
0.0
 10
259.6111563116559
 20
72.15244569607624
 30
0.0
 10
259.1721690926608
 20
72.22571318815717
 30
0.0
 10
258.9541472442127
 20
72.28011723982048
 30
0.0
 10
258.303963279993
 20
72.49019629817256
 30
0.0
 10
257.875667620765
 20
72.69255559133984
 30
0.0
 10
257.4509223088347
 20
72.93778241151983
 30
0.0
  0
LINE
  5
1FA
330
1F
100
AcDbEntity
  8
0
  6
Continuous
 62
     7
370
    15
100
AcDbLine
 10
257.4509223088
 20
80.8640618531
 30
0.0
 11
257.4509223088
 21
72.9377824115
 31
0.0
  0
LINE
  5
1FB
330
1F
100
AcDbEntity
  8
0
  6
Continuous
 62
     7
370
    15
100
AcDbLine
 10
261.8432271542
 20
117.2009221323
 30
0.0
 11
273.8432271542
 21
117.2009221323
 31
0.0
  0
SPLINE
  5
1FC
330
1F
100
AcDbEntity
  8
0
  6
Continuous
 62
     7
370
    15
100
AcDbSpline
210
0.0
220
0.0
230
1.0
 70
     8
 71
     3
 72
    15
 73
    11
 74
     0
 42
0.00000001
 43
0.00000001
 12
1.0
 22
0.0
 32
0.0
 13
1.0
 23
0.0
 33
0.0
 40
0.0
 40
0.0
 40
0.0
 40
0.0
 40
0.0125669924379154
 40
0.1607098399900499
 40
0.298449408496091
 40
0.4371306173202173
 40
0.5786826347355257
 40
0.7211981291785131
 40
0.8601360503729403
 40
0.9999999999999999
 40
0.9999999999999999
 40
0.9999999999999999
 40
0.9999999999999999
 10
51.84151990294777
 20
61.34658405214385
 30
0.0
 10
51.84207985634836
 20
61.34641205430125
 30
0.0
 10
51.8492406803773
 20
61.34421250290499
 30
0.0
 10
51.82238763156285
 20
61.35253436958934
 30
0.0
 10
51.76028474109767
 20
61.37113699337789
 30
0.0
 10
51.65662072872093
 20
61.40016543522947
 30
0.0
 10
51.51470948965351
 20
61.43591772146718
 30
0.0
 10
51.33377011026763
 20
61.47439617510066
 30
0.0
 10
51.11965406496777
 20
61.51178048742766
 30
0.0
 10
50.94893974116199
 20
61.52994568280263
 30
0.0
 10
50.86329906911396
 20
61.53905844794806
 30
0.0
  0
SPLINE
  5
1FD
330
1F
100
AcDbEntity
  8
0
  6
Continuous
 62
     7
370
    15
100
AcDbSpline
210
0.0
220
0.0
230
1.0
 70
     8
 71
     3
 72
    14
 73
    10
 74
     0
 42
0.00000001
 43
0.00000001
 12
1.0
 22
0.0
 32
0.0
 13
1.0
 23
0.0
 33
0.0
 40
0.0
 40
0.0
 40
0.0
 40
0.0
 40
0.142298512928359
 40
0.285607419865147
 40
0.4319889209321146
 40
0.5794320305516121
 40
0.722004804240526
 40
0.8656164843685167
 40
0.9999999999999999
 40
0.9999999999999999
 40
0.9999999999999999
 40
0.9999999999999999
 10
484.8231552393835
 20
61.53905844794806
 30
0.0
 10
484.736088694513
 20
61.52976640456411
 30
0.0
 10
484.5613373866794
 20
61.51111633941904
 30
0.0
 10
484.3430135358241
 20
61.47257960909936
 30
0.0
 10
484.1585241557777
 20
61.43287546996716
 30
0.0
 10
484.0153615805696
 20
61.3962867272487
 30
0.0
 10
483.9147959904252
 20
61.3678357671557
 30
0.0
 10
483.853586874589
 20
61.3492859941993
 30
0.0
 10
483.8477550317025
 20
61.34746485533643
 30
0.0
 10
483.8449359054671
 20
61.34658451263056
 30
0.0
  0
LINE
  5
1FE
330
1F
100
AcDbEntity
  8
0
  6
Continuous
 62
     7
370
    15
100
AcDbLine
 10
59.215638571
 20
29.2009221323
 30
0.0
 11
104.8655217308
 21
29.2009221323
 31
0.0
  0
LINE
  5
1FF
330
1F
100
AcDbEntity
  8
0
  6
Continuous
 62
     7
370
    15
100
AcDbLine
 10
116.8655217308
 20
29.2009221323
 30
0.0
 11
261.8432271542
 21
29.2009221323
 31
0.0
  0
LINE
  5
200
330
1F
100
AcDbEntity
  8
0
  6
Continuous
 62
     7
370
    15
100
AcDbLine
 10
273.8432271542
 20
29.2009221323
 30
0.0
 11
418.8209325777
 21
29.2009221323
 31
0.0
  0
LINE
  5
201
330
1F
100
AcDbEntity
  8
0
  6
Continuous
 62
     7
370
    15
100
AcDbLine
 10
430.8209325777
 20
29.2009221323
 30
0.0
 11
476.4708157375
 21
29.2009221323
 31
0.0
  0
LINE
  5
202
330
1F
100
AcDbEntity
  8
0
  6
Continuous
 62
     7
370
    15
100
AcDbLine
 10
412.8209325777
 20
71.7009221323
 30
0.0
 11
436.8209325777
 21
71.7009221323
 31
0.0
  0
LINE
  5
203
330
1F
100
AcDbEntity
  8
0
  6
Continuous
 62
     7
370
    15
100
AcDbLine
 10
119.3508031051
 20
71.7009221323
 30
0.0
 11
122.8655217308
 21
71.7009221323
 31
0.0
  0
LINE
  5
204
330
1F
100
AcDbEntity
  8
0
  6
Continuous
 62
     7
370
    15
100
AcDbLine
 10
98.8655217308
 20
71.7009221323
 30
0.0
 11
119.3508031051
 21
71.7009221323
 31
0.0
  0
SPLINE
  5
205
330
1F
100
AcDbEntity
  8
0
  6
Continuous
 62
     7
370
    15
100
AcDbSpline
210
0.0
220
0.0
230
1.0
 70
     8
 71
     3
 72
    10
 73
     6
 74
     0
 42
0.00000001
 43
0.00000001
 12
1.0
 22
0.0
 32
0.0
 13
1.0
 23
0.0
 33
0.0
 40
0.0
 40
0.0
 40
0.0
 40
0.0
 40
0.487997127381828
 40
0.9778958559691813
 40
1.0
 40
1.0
 40
1.0
 40
1.0
 10
434.8591282225158
 20
80.86406185314874
 30
0.0
 10
434.7430902610949
 20
80.9837882531521
 30
0.0
 10
434.5105621677077
 20
81.22370759661536
 30
0.0
 10
434.2691769537417
 20
81.42678803150395
 30
0.0
 10
434.1438490395834
 20
81.47978496080026
 30
0.0
 10
434.1384383936401
 20
81.48207293967887
 30
0.0
  0
SPLINE
  5
206
330
1F
100
AcDbEntity
  8
0
  6
Continuous
 62
     7
370
    15
100
AcDbSpline
210
0.0
220
0.0
230
1.0
 70
     8
 71
     3
 72
    16
 73
    12
 74
     0
 42
0.00000001
 43
0.00000001
 12
1.0
 22
0.0
 32
0.0
 13
1.0
 23
0.0
 33
0.0
 40
0.0
 40
0.0
 40
0.0
 40
0.0
 40
0.2499999999999944
 40
0.2499999999999944
 40
0.4999999999999889
 40
0.4999999999999889
 40
0.6249999999999917
 40
0.6249999999999917
 40
0.7499999999999944
 40
0.7499999999999944
 40
1.0
 40
1.0
 40
1.0
 40
1.0
 10
434.8591282225157
 20
80.86406185314897
 30
0.0
 10
434.2615132361719
 20
81.10803714967942
 30
0.0
 10
433.6492804589971
 20
81.31273110517044
 30
0.0
 10
432.4218241628863
 20
81.59258487749592
 30
0.0
 10
431.8047744053479
 20
81.667993451787
 30
0.0
 10
430.8733698623432
 20
81.66786731255434
 30
0.0
 10
430.561941549438
 20
81.64917584636079
 30
0.0
 10
429.9371907574234
 20
81.57500098930372
 30
0.0
 10
429.6266952352618
 20
81.51982474098294
 30
0.0
 10
428.7063228397864
 20
81.30848770090742
 30
0.0
 10
428.104569095084
 20
81.10652463653796
 30
0.0
 10
427.5106589941661
 20
80.86406185314894
 30
0.0
  0
SPLINE
  5
207
330
1F
100
AcDbEntity
  8
0
  6
Continuous
 62
     7
370
    15
100
AcDbSpline
210
0.0
220
0.0
230
1.0
 70
     8
 71
     3
 72
    16
 73
    12
 74
     0
 42
0.00000001
 43
0.00000001
 12
1.0
 22
0.0
 32
0.0
 13
1.0
 23
0.0
 33
0.0
 40
0.0
 40
0.0
 40
0.0
 40
0.0
 40
0.2499999999999991
 40
0.2499999999999991
 40
0.4999999999999982
 40
0.4999999999999982
 40
0.6250000000000006
 40
0.6250000000000006
 40
0.7500000000000029
 40
0.7500000000000029
 40
1.0
 40
1.0
 40
1.0
 40
1.0
 10
417.4724633493124
 20
80.86406185314932
 30
0.0
 10
418.2919867096498
 20
81.10898336773174
 30
0.0
 10
419.1174850914273
 20
81.31084308776822
 30
0.0
 10
420.785698269782
 20
81.59048435936529
 30
0.0
 10
421.628541055924
 20
81.66734349409367
 30
0.0
 10
422.9086849399415
 20
81.66818765526281
 30
0.0
 10
423.3374073658607
 20
81.64939856859273
 30
0.0
 10
424.185465550337
 20
81.57613107651191
 30
0.0
 10
424.6066514185595
 20
81.52172702484857
 30
0.0
 10
425.8627103843174
 20
81.31164796649652
 30
0.0
 10
426.6901140613889
 20
81.1092886733291
 30
0.0
 10
427.5106589941663
 20
80.86406185314911
 30
0.0
  0
SPLINE
  5
208
330
1F
100
AcDbEntity
  8
0
  6
Continuous
 62
     7
370
    15
100
AcDbSpline
210
0.0
220
0.0
230
1.0
 70
     8
 71
     3
 72
    16
 73
    12
 74
     0
 42
0.00000001
 43
0.00000001
 12
1.0
 22
0.0
 32
0.0
 13
1.0
 23
0.0
 33
0.0
 40
0.0
 40
0.0
 40
0.0
 40
0.0
 40
0.250000000000001
 40
0.250000000000001
 40
0.500000000000002
 40
0.500000000000002
 40
0.6250000000000014
 40
0.6250000000000014
 40
0.750000000000001
 40
0.750000000000001
 40
1.0
 40
1.0
 40
1.0
 40
1.0
 10
414.7827369328083
 20
80.86406185314932
 30
0.0
 10
415.0023275553891
 20
81.10898336773174
 30
0.0
 10
415.2235191801396
 20
81.31084308776822
 30
0.0
 10
415.6705155540827
 20
81.59048435936529
 30
0.0
 10
415.8963545979759
 20
81.66734349409364
 30
0.0
 10
416.2393681178939
 20
81.66818765526283
 30
0.0
 10
416.3542439456961
 20
81.64939856859273
 30
0.0
 10
416.5814804513612
 20
81.57613107651186
 30
0.0
 10
416.6943368646147
 20
81.52172702484852
 30
0.0
 10
417.0308968501354
 20
81.31164796649644
 30
0.0
 10
417.2525989972214
 20
81.1092886733291
 30
0.0
 10
417.4724633493125
 20
80.86406185314911
 30
0.0
  0
LINE
  5
209
330
1F
100
AcDbEntity
  8
0
  6
Continuous
 62
     7
370
    15
100
AcDbLine
 10
416.5709325777
 20
82.1009221323
 30
0.0
 11
433.0709325777
 21
82.1009221323
 31
0.0
  0
LINE
  5
20A
330
1F
100
AcDbEntity
  8
0
  6
Continuous
 62
     7
370
    15
100
AcDbLine
 10
427.5106589942
 20
80.8640618531
 30
0.0
 11
427.5106589942
 21
72.9377824115
 31
0.0
  0
SPLINE
  5
20B
330
1F
100
AcDbEntity
  8
0
  6
Continuous
 62
     7
370
    15
100
AcDbSpline
210
0.0
220
0.0
230
1.0
 70
     8
 71
     3
 72
    16
 73
    12
 74
     0
 42
0.00000001
 43
0.00000001
 12
1.0
 22
0.0
 32
0.0
 13
1.0
 23
0.0
 33
0.0
 40
0.0
 40
0.0
 40
0.0
 40
0.0
 40
0.2500000000000048
 40
0.2500000000000048
 40
0.5000000000000095
 40
0.5000000000000095
 40
0.6250000000000071
 40
0.6250000000000071
 40
0.7500000000000048
 40
0.7500000000000048
 40
1.0
 40
1.0
 40
1.0
 40
1.0
 10
427.5106589941662
 20
72.93778241151965
 30
0.0
 10
426.6911356338289
 20
72.69286089693729
 30
0.0
 10
425.8656372520513
 20
72.49100117690075
 30
0.0
 10
424.1974240736967
 20
72.21135990530368
 30
0.0
 10
423.3545812875547
 20
72.13450077057539
 30
0.0
 10
422.0744374035373
 20
72.13365660940617
 30
0.0
 10
421.6457149776181
 20
72.15244569607624
 30
0.0
 10
420.7976567931417
 20
72.22571318815712
 30
0.0
 10
420.3764709249193
 20
72.28011723982043
 30
0.0
 10
419.1204119591613
 20
72.49019629817248
 30
0.0
 10
418.2930082820899
 20
72.69255559133981
 30
0.0
 10
417.4724633493125
 20
72.93778241151983
 30
0.0
  0
LINE
  5
20C
330
1F
100
AcDbEntity
  8
0
  6
Continuous
 62
     7
370
    15
100
AcDbLine
 10
417.4724633493
 20
80.8640618531
 30
0.0
 11
417.4724633493
 21
72.9377824115
 31
0.0
  0
SPLINE
  5
20D
330
1F
100
AcDbEntity
  8
0
  6
Continuous
 62
     7
370
    15
100
AcDbSpline
210
0.0
220
0.0
230
1.0
 70
     8
 71
     3
 72
    16
 73
    12
 74
     0
 42
0.00000001
 43
0.00000001
 12
1.0
 22
0.0
 32
0.0
 13
1.0
 23
0.0
 33
0.0
 40
0.0
 40
0.0
 40
0.0
 40
0.0
 40
0.25
 40
0.25
 40
0.5
 40
0.5
 40
0.625
 40
0.625
 40
0.75
 40
0.75
 40
1.0
 40
1.0
 40
1.0
 40
1.0
 10
434.8591282225157
 20
72.93778241151998
 30
0.0
 10
434.2615132361718
 20
72.69380711498953
 30
0.0
 10
433.649280458997
 20
72.48911315949859
 30
0.0
 10
432.4218241628862
 20
72.209259387173
 30
0.0
 10
431.8047744053479
 20
72.13385081288195
 30
0.0
 10
430.8733698623432
 20
72.13397695211472
 30
0.0
 10
430.561941549438
 20
72.15266841830827
 30
0.0
 10
429.9371907574234
 20
72.22684327536528
 30
0.0
 10
429.6266952352618
 20
72.28201952368603
 30
0.0
 10
428.7063228397865
 20
72.4933565637616
 30
0.0
 10
428.104569095084
 20
72.69531962813107
 30
0.0
 10
427.5106589941662
 20
72.93778241152
 30
0.0
  0
SPLINE
  5
20E
330
1F
100
AcDbEntity
  8
0
  6
Continuous
 62
     7
370
    15
100
AcDbSpline
210
0.0
220
0.0
230
1.0
 70
     8
 71
     3
 72
    10
 73
     6
 74
     0
 42
0.00000001
 43
0.00000001
 12
1.0
 22
0.0
 32
0.0
 13
1.0
 23
0.0
 33
0.0
 40
0.0
 40
0.0
 40
0.0
 40
0.0
 40
0.1326340636021864
 40
0.5655959040290794
 40
1.0
 40
1.0
 40
1.0
 40
1.0
 10
434.1384440614662
 20
72.32637944585142
 30
0.0
 10
434.1708289441586
 20
72.34252179110916
 30
0.0
 10
434.3089288900237
 20
72.4113581376046
 30
0.0
 10
434.5499202707342
 20
72.61352413182583
 30
0.0
 10
434.7559447128169
 20
72.82957656766949
 30
0.0
 10
434.8591282225158
 20
72.93778241151986
 30
0.0
  0
SPLINE
  5
20F
330
1F
100
AcDbEntity
  8
0
  6
Continuous
 62
     7
370
    15
100
AcDbSpline
210
0.0
220
0.0
230
1.0
 70
     8
 71
     3
 72
    16
 73
    12
 74
     0
 42
0.00000001
 43
0.00000001
 12
1.0
 22
0.0
 32
0.0
 13
1.0
 23
0.0
 33
0.0
 40
0.0
 40
0.0
 40
0.0
 40
0.0
 40
0.250000000000001
 40
0.250000000000001
 40
0.500000000000002
 40
0.500000000000002
 40
0.6250000000000014
 40
0.6250000000000014
 40
0.750000000000001
 40
0.750000000000001
 40
1.0
 40
1.0
 40
1.0
 40
1.0
 10
417.4724633493125
 20
72.93778241151968
 30
0.0
 10
417.2528727267317
 20
72.69286089693732
 30
0.0
 10
417.0316811019811
 20
72.49100117690081
 30
0.0
 10
416.584684728038
 20
72.21135990530365
 30
0.0
 10
416.358845684145
 20
72.13450077057536
 30
0.0
 10
416.0158321642269
 20
72.13365660940617
 30
0.0
 10
415.9009563364246
 20
72.15244569607627
 30
0.0
 10
415.6737198307596
 20
72.22571318815717
 30
0.0
 10
415.560863417506
 20
72.28011723982048
 30
0.0
 10
415.2243034319853
 20
72.49019629817256
 30
0.0
 10
415.0026012848995
 20
72.6925555913399
 30
0.0
 10
414.7827369328083
 20
72.93778241151989
 30
0.0
  0
LINE
  5
210
330
1F
100
AcDbEntity
  8
0
  6
Continuous
 62
     7
370
    15
100
AcDbLine
 10
118.2139909592
 20
80.8640618531
 30
0.0
 11
118.2139909592
 21
72.9377824115
 31
0.0
  0
SPLINE
  5
211
330
1F
100
AcDbEntity
  8
0
  6
Continuous
 62
     7
370
    15
100
AcDbSpline
210
0.0
220
0.0
230
1.0
 70
     8
 71
     3
 72
    16
 73
    12
 74
     0
 42
0.00000001
 43
0.00000001
 12
1.0
 22
0.0
 32
0.0
 13
1.0
 23
0.0
 33
0.0
 40
0.0
 40
0.0
 40
0.0
 40
0.0
 40
0.250000000000001
 40
0.250000000000001
 40
0.500000000000002
 40
0.500000000000002
 40
0.6250000000000014
 40
0.6250000000000014
 40
0.750000000000001
 40
0.750000000000001
 40
1.0
 40
1.0
 40
1.0
 40
1.0
 10
118.2139909591839
 20
72.93778241151965
 30
0.0
 10
117.3944675988465
 20
72.69286089693726
 30
0.0
 10
116.568969217069
 20
72.49100117690075
 30
0.0
 10
114.9007560387143
 20
72.21135990530365
 30
0.0
 10
114.0579132525724
 20
72.13450077057533
 30
0.0
 10
112.7777693685549
 20
72.1336566094062
 30
0.0
 10
112.3490469426357
 20
72.15244569607621
 30
0.0
 10
111.5009887581594
 20
72.22571318815712
 30
0.0
 10
111.0798028899369
 20
72.28011723982043
 30
0.0
 10
109.823743924179
 20
72.4901962981725
 30
0.0
 10
108.9963402471075
 20
72.69255559133984
 30
0.0
 10
108.1757953143301
 20
72.93778241151983
 30
0.0
  0
LINE
  5
212
330
1F
100
AcDbEntity
  8
0
  6
Continuous
 62
     7
370
    15
100
AcDbLine
 10
108.1757953143
 20
80.8640618531
 30
0.0
 11
108.1757953143
 21
72.9377824115
 31
0.0
  0
SPLINE
  5
213
330
1F
100
AcDbEntity
  8
0
  6
Continuous
 62
     7
370
    15
100
AcDbSpline
210
0.0
220
0.0
230
1.0
 70
     8
 71
     3
 72
    16
 73
    12
 74
     0
 42
0.00000001
 43
0.00000001
 12
1.0
 22
0.0
 32
0.0
 13
1.0
 23
0.0
 33
0.0
 40
0.0
 40
0.0
 40
0.0
 40
0.0
 40
0.2499999999999943
 40
0.2499999999999943
 40
0.4999999999999887
 40
0.4999999999999887
 40
0.6249999999999896
 40
0.6249999999999896
 40
0.7499999999999906
 40
0.7499999999999906
 40
1.0
 40
1.0
 40
1.0
 40
1.0
 10
108.17579531433
 20
80.86406185314931
 30
0.0
 10
108.9953186746674
 20
81.10898336773168
 30
0.0
 10
109.8208170564449
 20
81.31084308776825
 30
0.0
 10
111.4890302347996
 20
81.59048435936529
 30
0.0
 10
112.3318730209415
 20
81.66734349409364
 30
0.0
 10
113.612016904959
 20
81.66818765526283
 30
0.0
 10
114.0407393308782
 20
81.64939856859279
 30
0.0
 10
114.8887975153545
 20
81.57613107651188
 30
0.0
 10
115.3099833835771
 20
81.52172702484857
 30
0.0
 10
116.566042349335
 20
81.31164796649655
 30
0.0
 10
117.3934460264065
 20
81.10928867332913
 30
0.0
 10
118.2139909591838
 20
80.86406185314917
 30
0.0
  0
SPLINE
  5
214
330
1F
100
AcDbEntity
  8
0
  6
Continuous
 62
     7
370
    15
100
AcDbSpline
210
0.0
220
0.0
230
1.0
 70
     8
 71
     3
 72
    16
 73
    12
 74
     0
 42
0.00000001
 43
0.00000001
 12
1.0
 22
0.0
 32
0.0
 13
1.0
 23
0.0
 33
0.0
 40
0.0
 40
0.0
 40
0.0
 40
0.0
 40
0.25
 40
0.25
 40
0.5
 40
0.5
 40
0.625
 40
0.625
 40
0.75
 40
0.75
 40
1.0
 40
1.0
 40
1.0
 40
1.0
 10
118.2139909591838
 20
80.86406185314931
 30
0.0
 10
118.4335815817646
 20
81.10898336773168
 30
0.0
 10
118.6547732065151
 20
81.31084308776825
 30
0.0
 10
119.1017695804582
 20
81.59048435936526
 30
0.0
 10
119.3276086243515
 20
81.66734349409364
 30
0.0
 10
119.6706221442695
 20
81.66818765526281
 30
0.0
 10
119.7854979720717
 20
81.6493985685927
 30
0.0
 10
120.0127344777367
 20
81.57613107651194
 30
0.0
 10
120.1255908909904
 20
81.52172702484857
 30
0.0
 10
120.4621508765111
 20
81.31164796649647
 30
0.0
 10
120.6838530235969
 20
81.10928867332919
 30
0.0
 10
120.9037173756881
 20
80.86406185314917
 30
0.0
  0
SPLINE
  5
215
330
1F
100
AcDbEntity
  8
0
  6
Continuous
 62
     7
370
    15
100
AcDbSpline
210
0.0
220
0.0
230
1.0
 70
     8
 71
     3
 72
    16
 73
    12
 74
     0
 42
0.00000001
 43
0.00000001
 12
1.0
 22
0.0
 32
0.0
 13
1.0
 23
0.0
 33
0.0
 40
0.0
 40
0.0
 40
0.0
 40
0.0
 40
0.2499999999999972
 40
0.2499999999999972
 40
0.4999999999999944
 40
0.4999999999999944
 40
0.6249999999999958
 40
0.6249999999999958
 40
0.7499999999999972
 40
0.7499999999999972
 40
1.0
 40
1.0
 40
1.0
 40
1.0
 10
108.1757953143302
 20
80.86406185314897
 30
0.0
 10
107.5781803279864
 20
81.10803714967942
 30
0.0
 10
106.9659475508115
 20
81.31273110517041
 30
0.0
 10
105.7384912547007
 20
81.59258487749595
 30
0.0
 10
105.1214414971624
 20
81.667993451787
 30
0.0
 10
104.1900369541577
 20
81.66786731255436
 30
0.0
 10
103.8786086412524
 20
81.64917584636076
 30
0.0
 10
103.2538578492379
 20
81.57500098930366
 30
0.0
 10
102.9433623270763
 20
81.51982474098294
 30
0.0
 10
102.0229899316008
 20
81.30848770090745
 30
0.0
 10
101.4212361868985
 20
81.10652463653788
 30
0.0
 10
100.8273260859806
 20
80.86406185314894
 30
0.0
  0
SPLINE
  5
216
330
1F
100
AcDbEntity
  8
0
  6
Continuous
 62
     7
370
    15
100
AcDbSpline
210
0.0
220
0.0
230
1.0
 70
     8
 71
     3
 72
    10
 73
     6
 74
     0
 42
0.00000001
 43
0.00000001
 12
1.0
 22
0.0
 32
0.0
 13
1.0
 23
0.0
 33
0.0
 40
0.0
 40
0.0
 40
0.0
 40
0.0
 40
0.1326340636021832
 40
0.5655959040290743
 40
1.0
 40
1.0
 40
1.0
 40
1.0
 10
101.5480102470302
 20
81.47546481881758
 30
0.0
 10
101.5156253643378
 20
81.45932247355982
 30
0.0
 10
101.3775254184726
 20
81.39048612706438
 30
0.0
 10
101.1365340377621
 20
81.18832013284329
 30
0.0
 10
100.9305095956795
 20
80.9722676969993
 30
0.0
 10
100.8273260859806
 20
80.86406185314874
 30
0.0
  0
LINE
  5
217
330
1F
100
AcDbEntity
  8
0
  6
Continuous
 62
     7
370
    15
100
AcDbLine
 10
102.6155217308
 20
82.1009221323
 30
0.0
 11
119.1155217308
 21
82.1009221323
 31
0.0
  0
SPLINE
  5
218
330
1F
100
AcDbEntity
  8
0
  6
Continuous
 62
     7
370
    15
100
AcDbSpline
210
0.0
220
0.0
230
1.0
 70
     8
 71
     3
 72
    10
 73
     6
 74
     0
 42
0.00000001
 43
0.00000001
 12
1.0
 22
0.0
 32
0.0
 13
1.0
 23
0.0
 33
0.0
 40
0.0
 40
0.0
 40
0.0
 40
0.0
 40
0.4879971273818717
 40
0.9778958559692595
 40
1.0
 40
1.0
 40
1.0
 40
1.0
 10
100.8273260859806
 20
72.93778241151983
 30
0.0
 10
100.9433640474014
 20
72.81805601151672
 30
0.0
 10
101.1758921407887
 20
72.57813666805386
 30
0.0
 10
101.4172773547549
 20
72.37505623316471
 30
0.0
 10
101.5426052689131
 20
72.3220593038688
 30
0.0
 10
101.5480159148562
 20
72.31977132499017
 30
0.0
  0
SPLINE
  5
219
330
1F
100
AcDbEntity
  8
0
  6
Continuous
 62
     7
370
    15
100
AcDbSpline
210
0.0
220
0.0
230
1.0
 70
     8
 71
     3
 72
    16
 73
    12
 74
     0
 42
0.00000001
 43
0.00000001
 12
1.0
 22
0.0
 32
0.0
 13
1.0
 23
0.0
 33
0.0
 40
0.0
 40
0.0
 40
0.0
 40
0.0
 40
0.25
 40
0.25
 40
0.5
 40
0.5
 40
0.625
 40
0.625
 40
0.75
 40
0.75
 40
1.0
 40
1.0
 40
1.0
 40
1.0
 10
108.1757953143301
 20
72.93778241151998
 30
0.0
 10
107.5781803279863
 20
72.69380711498953
 30
0.0
 10
106.9659475508115
 20
72.48911315949859
 30
0.0
 10
105.7384912547008
 20
72.209259387173
 30
0.0
 10
105.1214414971624
 20
72.13385081288195
 30
0.0
 10
104.1900369541577
 20
72.13397695211472
 30
0.0
 10
103.8786086412524
 20
72.15266841830827
 30
0.0
 10
103.2538578492379
 20
72.22684327536528
 30
0.0
 10
102.9433623270763
 20
72.28201952368603
 30
0.0
 10
102.0229899316009
 20
72.4933565637616
 30
0.0
 10
101.4212361868986
 20
72.69531962813107
 30
0.0
 10
100.8273260859807
 20
72.93778241152
 30
0.0
  0
SPLINE
  5
21A
330
1F
100
AcDbEntity
  8
0
  6
Continuous
 62
     7
370
    15
100
AcDbSpline
210
0.0
220
0.0
230
1.0
 70
     8
 71
     3
 72
    16
 73
    12
 74
     0
 42
0.00000001
 43
0.00000001
 12
1.0
 22
0.0
 32
0.0
 13
1.0
 23
0.0
 33
0.0
 40
0.0
 40
0.0
 40
0.0
 40
0.0
 40
0.2499999999999991
 40
0.2499999999999991
 40
0.4999999999999982
 40
0.4999999999999982
 40
0.6249999999999968
 40
0.6249999999999968
 40
0.7499999999999953
 40
0.7499999999999953
 40
1.0
 40
1.0
 40
1.0
 40
1.0
 10
120.9037173756881
 20
72.9377824115197
 30
0.0
 10
120.6841267531072
 20
72.69286089693729
 30
0.0
 10
120.4629351283567
 20
72.49100117690078
 30
0.0
 10
120.0159387544136
 20
72.21135990530368
 30
0.0
 10
119.7900997105205
 20
72.13450077057539
 30
0.0
 10
119.4470861906024
 20
72.1336566094062
 30
0.0
 10
119.3322103628002
 20
72.15244569607633
 30
0.0
 10
119.1049738571352
 20
72.22571318815717
 30
0.0
 10
118.9921174438816
 20
72.28011723982043
 30
0.0
 10
118.6555574583608
 20
72.4901962981725
 30
0.0
 10
118.433855311275
 20
72.69255559133987
 30
0.0
 10
118.2139909591838
 20
72.93778241151986
 30
0.0
  0
LINE
  5
21B
330
1F
100
AcDbEntity
  8
0
  6
Continuous
 62
     7
370
    15
100
AcDbLine
 10
434.8591282225
 20
80.8640618531
 30
0.0
 11
434.8591282225
 21
72.9377824115
 31
0.0
  0
LINE
  5
21C
330
1F
100
AcDbEntity
  8
0
  6
Continuous
 62
     7
370
    15
100
AcDbLine
 10
100.827326086
 20
80.8640618531
 30
0.0
 11
100.827326086
 21
72.9377824115
 31
0.0
  0
LINE
  5
21D
330
1F
100
AcDbEntity
  8
0
  6
Continuous
 62
     7
370
    15
100
AcDbLine
 10
414.7827369328
 20
80.8640618531
 30
0.0
 11
414.7827369328
 21
72.9377824115
 31
0.0
  0
LINE
  5
21E
330
1F
100
AcDbEntity
  8
0
  6
Continuous
 62
     7
370
    15
100
AcDbLine
 10
120.9037173757
 20
80.8640618531
 30
0.0
 11
120.9037173757
 21
72.9377824115
 31
0.0
  0
LINE
  5
21F
330
1F
100
AcDbEntity
  8
0
  6
Continuous
 62
     7
370
    15
100
AcDbLine
 10
418.8209325777
 20
117.2009221323
 30
0.0
 11
430.8209325777
 21
117.2009221323
 31
0.0
  0
LINE
  5
220
330
1F
100
AcDbEntity
  8
0
  6
Continuous
 62
     7
370
    15
100
AcDbLine
 10
104.8655217308
 20
117.2009221323
 30
0.0
 11
116.8655217308
 21
117.2009221323
 31
0.0
  0
LINE
  5
221
330
1F
100
AcDbEntity
  8
0
  6
Continuous
 62
     7
370
    15
100
AcDbLine
 10
477.8432271542
 20
71.7009221323
 30
0.0
 11
501.8432271542
 21
71.7009221323
 31
0.0
  0
LINE
  5
222
330
1F
100
AcDbEntity
  8
0
  6
Continuous
 62
     7
370
    15
100
AcDbLine
 10
45.8432271542
 20
71.7009221323
 30
0.0
 11
57.8432271542
 21
71.7009221323
 31
0.0
  0
LINE
  5
223
330
1F
100
AcDbEntity
  8
0
  6
Continuous
 62
     7
370
    15
100
AcDbLine
 10
33.8432271542
 20
71.7009221323
 30
0.0
 11
45.8432271542
 21
71.7009221323
 31
0.0
  0
SPLINE
  5
224
330
1F
100
AcDbEntity
  8
0
  6
Continuous
 62
     7
370
    15
100
AcDbSpline
210
0.0
220
0.0
230
1.0
 70
    24
 71
     3
 72
    13
 73
     9
 74
     0
 42
0.00000001
 43
0.00000001
 12
1.0
 22
0.0
 32
0.0
 13
1.0
 23
0.0
 33
0.0
 40
0.0
 40
0.0
 40
0.0
 40
0.0
 40
0.0192930798270603
 40
0.2756370783654199
 40
0.4555938976404386
 40
0.6360764926021846
 40
0.8178730688601175
 40
1.0
 40
1.0
 40
1.0
 40
1.0
 10
480.8432271542488
 20
81.66388309909065
 30
0.0
 10
480.8432271542488
 20
81.66520769080734
 30
0.0
 10
480.843227154249
 20
81.6841319161813
 30
0.0
 10
480.8432271542487
 20
81.6205892337131
 30
0.0
 10
480.8432271542488
 20
81.49664412668882
 30
0.0
 10
480.8432271542488
 20
81.32937622168339
 30
0.0
 10
480.8432271542488
 20
81.12100584457676
 30
0.0
 10
480.8432271542488
 20
80.9497616664463
 30
0.0
 10
480.8432271542488
 20
80.86406185314908
 30
0.0
  0
SPLINE
  5
225
330
1F
100
AcDbEntity
  8
0
  6
Continuous
 62
     7
370
    15
100
AcDbSpline
210
0.0
220
0.0
230
1.0
 70
    24
 71
     3
 72
    13
 73
     9
 74
     0
 42
0.00000001
 43
0.00000001
 12
1.0
 22
0.0
 32
0.0
 13
1.0
 23
0.0
 33
0.0
 40
0.0
 40
0.0
 40
0.0
 40
0.0
 40
0.1801848695528775
 40
0.3606599723616611
 40
0.5422568178830196
 40
0.7243575802013618
 40
0.972483023263936
 40
1.0
 40
1.0
 40
1.0
 40
1.0
 10
498.8432271542488
 20
80.86406185314873
 30
0.0
 10
498.8432271542488
 20
80.94887865413351
 30
0.0
 10
498.8432271542487
 20
81.11864887499003
 30
0.0
 10
498.8432271542487
 20
81.32682474726975
 30
0.0
 10
498.8432271542488
 20
81.49532871141547
 30
0.0
 10
498.8432271542487
 20
81.6189946703134
 30
0.0
 10
498.8432271542488
 20
81.68197835090817
 30
0.0
 10
498.8432271542487
 20
81.66424598047679
 30
0.0
 10
498.8432271542488
 20
81.66247578405715
 30
0.0
  0
SPLINE
  5
226
330
1F
100
AcDbEntity
  8
0
  6
Continuous
 62
     7
370
    15
100
AcDbSpline
210
0.0
220
0.0
230
1.0
 70
     8
 71
     3
 72
    16
 73
    12
 74
     0
 42
0.00000001
 43
0.00000001
 12
1.0
 22
0.0
 32
0.0
 13
1.0
 23
0.0
 33
0.0
 40
0.0
 40
0.0
 40
0.0
 40
0.0
 40
0.2500000000000034
 40
0.2500000000000034
 40
0.5000000000000069
 40
0.5000000000000069
 40
0.6250000000000051
 40
0.6250000000000051
 40
0.7500000000000034
 40
0.7500000000000034
 40
1.0
 40
1.0
 40
1.0
 40
1.0
 10
489.8432271542487
 20
80.86406185314932
 30
0.0
 10
490.5779916979959
 20
81.10898336773174
 30
0.0
 10
491.3181132994121
 20
81.31084308776822
 30
0.0
 10
492.8137923174723
 20
81.59048435936529
 30
0.0
 10
493.5694644864211
 20
81.66734349409367
 30
0.0
 10
494.7172100936771
 20
81.66818765526286
 30
0.0
 10
495.1015921051246
 20
81.64939856859279
 30
0.0
 10
495.8619402722975
 20
81.57613107651191
 30
0.0
 10
496.2395651909696
 20
81.52172702484852
 30
0.0
 10
497.3657168512648
 20
81.31164796649647
 30
0.0
 10
498.1075466937088
 20
81.10928867332913
 30
0.0
 10
498.8432271542488
 20
80.86406185314911
 30
0.0
  0
SPLINE
  5
227
330
1F
100
AcDbEntity
  8
0
  6
Continuous
 62
     7
370
    15
100
AcDbSpline
210
0.0
220
0.0
230
1.0
 70
     8
 71
     3
 72
    16
 73
    12
 74
     0
 42
0.00000001
 43
0.00000001
 12
1.0
 22
0.0
 32
0.0
 13
1.0
 23
0.0
 33
0.0
 40
0.0
 40
0.0
 40
0.0
 40
0.0
 40
0.2500000000000017
 40
0.2500000000000017
 40
0.5000000000000034
 40
0.5000000000000034
 40
0.6250000000000043
 40
0.6250000000000043
 40
0.7500000000000051
 40
0.7500000000000051
 40
1.0
 40
1.0
 40
1.0
 40
1.0
 10
480.8432271542488
 20
80.86406185314935
 30
0.0
 10
481.577991697996
 20
81.10898336773177
 30
0.0
 10
482.3181132994121
 20
81.31084308776828
 30
0.0
 10
483.8137923174723
 20
81.59048435936535
 30
0.0
 10
484.5694644864211
 20
81.66734349409359
 30
0.0
 10
485.7172100936771
 20
81.66818765526281
 30
0.0
 10
486.1015921051246
 20
81.64939856859276
 30
0.0
 10
486.8619402722975
 20
81.57613107651191
 30
0.0
 10
487.2395651909696
 20
81.52172702484852
 30
0.0
 10
488.3657168512648
 20
81.31164796649647
 30
0.0
 10
489.1075466937088
 20
81.10928867332913
 30
0.0
 10
489.8432271542488
 20
80.86406185314914
 30
0.0
  0
LINE
  5
228
330
1F
100
AcDbEntity
  8
0
  6
Continuous
 62
     7
370
    15
100
AcDbLine
 10
481.5932271542
 20
82.1009221323
 30
0.0
 11
498.0932271542
 21
82.1009221323
 31
0.0
  0
LINE
  5
229
330
1F
100
AcDbEntity
  8
0
  6
Continuous
 62
     7
370
    15
100
AcDbLine
 10
489.8432271542
 20
80.8640618531
 30
0.0
 11
489.8432271542
 21
72.9377824115
 31
0.0
  0
SPLINE
  5
22A
330
1F
100
AcDbEntity
  8
0
  6
Continuous
 62
     7
370
    15
100
AcDbSpline
210
0.0
220
0.0
230
1.0
 70
     8
 71
     3
 72
    16
 73
    12
 74
     0
 42
0.00000001
 43
0.00000001
 12
1.0
 22
0.0
 32
0.0
 13
1.0
 23
0.0
 33
0.0
 40
0.0
 40
0.0
 40
0.0
 40
0.0
 40
0.2500000000000017
 40
0.2500000000000017
 40
0.5000000000000034
 40
0.5000000000000034
 40
0.6250000000000043
 40
0.6250000000000043
 40
0.7500000000000051
 40
0.7500000000000051
 40
1.0
 40
1.0
 40
1.0
 40
1.0
 10
489.8432271542488
 20
72.93778241151968
 30
0.0
 10
489.1084626105016
 20
72.69286089693729
 30
0.0
 10
488.3683410090854
 20
72.49100117690078
 30
0.0
 10
486.8726619910251
 20
72.2113599053038
 30
0.0
 10
486.1169898220764
 20
72.13450077057539
 30
0.0
 10
484.9692442148204
 20
72.1336566094062
 30
0.0
 10
484.5848622033729
 20
72.1524456960763
 30
0.0
 10
483.8245140362001
 20
72.22571318815717
 30
0.0
 10
483.4468891175279
 20
72.28011723982048
 30
0.0
 10
482.3207374572326
 20
72.4901962981725
 30
0.0
 10
481.5789076147887
 20
72.6925555913399
 30
0.0
 10
480.8432271542487
 20
72.93778241151989
 30
0.0
  0
LINE
  5
22B
330
1F
100
AcDbEntity
  8
0
  6
Continuous
 62
     7
370
    15
100
AcDbLine
 10
480.8432271542
 20
80.8640618531
 30
0.0
 11
480.8432271542
 21
72.9377824115
 31
0.0
  0
LINE
  5
22C
330
1F
100
AcDbEntity
  8
0
  6
Continuous
 62
     7
370
    15
100
AcDbLine
 10
498.8432271542
 20
80.8640618531
 30
0.0
 11
498.8432271542
 21
72.9377824115
 31
0.0
  0
SPLINE
  5
22D
330
1F
100
AcDbEntity
  8
0
  6
Continuous
 62
     7
370
    15
100
AcDbSpline
210
0.0
220
0.0
230
1.0
 70
     8
 71
     3
 72
    16
 73
    12
 74
     0
 42
0.00000001
 43
0.00000001
 12
1.0
 22
0.0
 32
0.0
 13
1.0
 23
0.0
 33
0.0
 40
0.0
 40
0.0
 40
0.0
 40
0.0
 40
0.2499999999999983
 40
0.2499999999999983
 40
0.4999999999999966
 40
0.4999999999999966
 40
0.6249999999999957
 40
0.6249999999999957
 40
0.7499999999999949
 40
0.7499999999999949
 40
1.0
 40
1.0
 40
1.0
 40
1.0
 10
498.8432271542488
 20
72.93778241151965
 30
0.0
 10
498.1084626105016
 20
72.69286089693729
 30
0.0
 10
497.3683410090854
 20
72.49100117690078
 30
0.0
 10
495.8726619910252
 20
72.21135990530368
 30
0.0
 10
495.1169898220764
 20
72.13450077057536
 30
0.0
 10
493.9692442148205
 20
72.13365660940617
 30
0.0
 10
493.5848622033728
 20
72.15244569607624
 30
0.0
 10
492.8245140362
 20
72.22571318815712
 30
0.0
 10
492.446889117528
 20
72.28011723982048
 30
0.0
 10
491.3207374572327
 20
72.4901962981725
 30
0.0
 10
490.5789076147888
 20
72.69255559133987
 30
0.0
 10
489.8432271542488
 20
72.93778241151983
 30
0.0
  0
SPLINE
  5
22E
330
1F
100
AcDbEntity
  8
0
  6
Continuous
 62
     7
370
    15
100
AcDbSpline
210
0.0
220
0.0
230
1.0
 70
    24
 71
     3
 72
    13
 73
     9
 74
     0
 42
0.00000001
 43
0.00000001
 12
1.0
 22
0.0
 32
0.0
 13
1.0
 23
0.0
 33
0.0
 40
0.0
 40
0.0
 40
0.0
 40
0.0
 40
0.0192930798270425
 40
0.2756370783654051
 40
0.4555938976404283
 40
0.6360764926021789
 40
0.8178730688601147
 40
1.0
 40
1.0
 40
1.0
 40
1.0
 10
498.8432271542487
 20
72.13796116557829
 30
0.0
 10
498.8432271542488
 20
72.13663657386167
 30
0.0
 10
498.8432271542489
 20
72.11771234848811
 30
0.0
 10
498.8432271542487
 20
72.18125503095553
 30
0.0
 10
498.8432271542488
 20
72.3052001379803
 30
0.0
 10
498.8432271542487
 20
72.4724680429855
 30
0.0
 10
498.8432271542488
 20
72.6808384200923
 30
0.0
 10
498.8432271542488
 20
72.85208259822264
 30
0.0
 10
498.8432271542488
 20
72.93778241151983
 30
0.0
  0
SPLINE
  5
22F
330
1F
100
AcDbEntity
  8
0
  6
Continuous
 62
     7
370
    15
100
AcDbSpline
210
0.0
220
0.0
230
1.0
 70
    24
 71
     3
 72
    13
 73
     9
 74
     0
 42
0.00000001
 43
0.00000001
 12
1.0
 22
0.0
 32
0.0
 13
1.0
 23
0.0
 33
0.0
 40
0.0
 40
0.0
 40
0.0
 40
0.0
 40
0.180184869552883
 40
0.3606599723616714
 40
0.5422568178830329
 40
0.7243575802013763
 40
0.9724830232639574
 40
1.0
 40
1.0
 40
1.0
 40
1.0
 10
480.8432271542488
 20
72.93778241152017
 30
0.0
 10
480.8432271542488
 20
72.8529656105354
 30
0.0
 10
480.8432271542487
 20
72.68319538967903
 30
0.0
 10
480.8432271542488
 20
72.47501951739919
 30
0.0
 10
480.8432271542487
 20
72.30651555325363
 30
0.0
 10
480.8432271542488
 20
72.18284959435543
 30
0.0
 10
480.8432271542486
 20
72.11986591376078
 30
0.0
 10
480.8432271542488
 20
72.13759828419224
 30
0.0
 10
480.8432271542488
 20
72.13936848061185
 30
0.0
  0
SPLINE
  5
230
330
1F
100
AcDbEntity
  8
0
  6
Continuous
 62
     7
370
    15
100
AcDbSpline
210
0.0
220
0.0
230
1.0
 70
    24
 71
     3
 72
    11
 73
     7
 74
     0
 42
0.00000001
 43
0.00000001
 12
1.0
 22
0.0
 32
0.0
 13
1.0
 23
0.0
 33
0.0
 40
0.0
 40
0.0
 40
0.0
 40
0.0
 40
0.2663532736812292
 40
0.5149709078015466
 40
0.7648233920933329
 40
1.0
 40
1.0
 40
1.0
 40
1.0
 10
54.84322715424869
 20
80.86406185314905
 30
0.0
 10
54.84322715424869
 20
80.98742654859133
 30
0.0
 10
54.84322715424872
 20
81.22594146648412
 30
0.0
 10
54.84322715424877
 20
81.47737174522761
 30
0.0
 10
54.84322715424872
 20
81.63981807062741
 30
0.0
 10
54.84322715424877
 20
81.65602488335823
 30
0.0
 10
54.84322715424874
 20
81.66388309909068
 30
0.0
  0
SPLINE
  5
231
330
1F
100
AcDbEntity
  8
0
  6
Continuous
 62
     7
370
    15
100
AcDbSpline
210
0.0
220
0.0
230
1.0
 70
     8
 71
     3
 72
    16
 73
    12
 74
     0
 42
0.00000001
 43
0.00000001
 12
1.0
 22
0.0
 32
0.0
 13
1.0
 23
0.0
 33
0.0
 40
0.0
 40
0.0
 40
0.0
 40
0.0
 40
0.2500000000000018
 40
0.2500000000000018
 40
0.5000000000000036
 40
0.5000000000000036
 40
0.6250000000000043
 40
0.6250000000000043
 40
0.7500000000000051
 40
0.7500000000000051
 40
1.0
 40
1.0
 40
1.0
 40
1.0
 10
45.8432271542486
 20
80.86406185314931
 30
0.0
 10
46.57799169799581
 20
81.10898336773168
 30
0.0
 10
47.31811329941196
 20
81.31084308776822
 30
0.0
 10
48.81379231747232
 20
81.59048435936529
 30
0.0
 10
49.56946448642097
 20
81.66734349409364
 30
0.0
 10
50.717210093677
 20
81.66818765526281
 30
0.0
 10
51.10159210512452
 20
81.6493985685927
 30
0.0
 10
51.86194027229743
 20
81.57613107651191
 30
0.0
 10
52.23956519096951
 20
81.52172702484852
 30
0.0
 10
53.36571685126484
 20
81.31164796649641
 30
0.0
 10
54.10754669370871
 20
81.10928867332922
 30
0.0
 10
54.84322715424872
 20
80.86406185314917
 30
0.0
  0
SPLINE
  5
232
330
1F
100
AcDbEntity
  8
0
  6
Continuous
 62
     7
370
    15
100
AcDbSpline
210
0.0
220
0.0
230
1.0
 70
     8
 71
     3
 72
    16
 73
    12
 74
     0
 42
0.00000001
 43
0.00000001
 12
1.0
 22
0.0
 32
0.0
 13
1.0
 23
0.0
 33
0.0
 40
0.0
 40
0.0
 40
0.0
 40
0.0
 40
0.2499999999999999
 40
0.2499999999999999
 40
0.4999999999999998
 40
0.4999999999999998
 40
0.6249999999999998
 40
0.6249999999999998
 40
0.7499999999999997
 40
0.7499999999999997
 40
1.0
 40
1.0
 40
1.0
 40
1.0
 10
36.84322715424862
 20
80.86406185314931
 30
0.0
 10
37.57799169799583
 20
81.10898336773171
 30
0.0
 10
38.31811329941201
 20
81.31084308776825
 30
0.0
 10
39.81379231747228
 20
81.59048435936526
 30
0.0
 10
40.56946448642093
 20
81.66734349409359
 30
0.0
 10
41.71721009367693
 20
81.66818765526283
 30
0.0
 10
42.10159210512446
 20
81.64939856859276
 30
0.0
 10
42.86194027229731
 20
81.57613107651194
 30
0.0
 10
43.23956519096942
 20
81.52172702484857
 30
0.0
 10
44.3657168512647
 20
81.31164796649652
 30
0.0
 10
45.10754669370876
 20
81.10928867332916
 30
0.0
 10
45.84322715424868
 20
80.86406185314917
 30
0.0
  0
SPLINE
  5
233
330
1F
100
AcDbEntity
  8
0
  6
Continuous
 62
     7
370
    15
100
AcDbSpline
210
0.0
220
0.0
230
1.0
 70
    24
 71
     3
 72
    11
 73
     7
 74
     0
 42
0.00000001
 43
0.00000001
 12
1.0
 22
0.0
 32
0.0
 13
1.0
 23
0.0
 33
0.0
 40
0.0
 40
0.0
 40
0.0
 40
0.0
 40
0.2223364504636689
 40
0.4772513157091898
 40
0.7336453344712155
 40
1.0
 40
1.0
 40
1.0
 40
1.0
 10
36.84322715424876
 20
81.66247578405715
 30
0.0
 10
36.84322715424873
 20
81.65616860759333
 30
0.0
 10
36.8432271542487
 20
81.64263007956747
 30
0.0
 10
36.84322715424876
 20
81.48366019258
 30
0.0
 10
36.8432271542487
 20
81.22953057270637
 30
0.0
 10
36.84322715424867
 20
80.98742249859684
 30
0.0
 10
36.84322715424867
 20
80.86406185314873
 30
0.0
  0
LINE
  5
234
330
1F
100
AcDbEntity
  8
0
  6
Continuous
 62
     7
370
    15
100
AcDbLine
 10
37.5932271542
 20
82.1009221323
 30
0.0
 11
54.0932271542
 21
82.1009221323
 31
0.0
  0
LINE
  5
235
330
1F
100
AcDbEntity
  8
0
  6
Continuous
 62
     7
370
    15
100
AcDbLine
 10
54.8432271542
 20
80.8640618531
 30
0.0
 11
54.8432271542
 21
72.9377824115
 31
0.0
  0
SPLINE
  5
236
330
1F
100
AcDbEntity
  8
0
  6
Continuous
 62
     7
370
    15
100
AcDbSpline
210
0.0
220
0.0
230
1.0
 70
     8
 71
     3
 72
    16
 73
    12
 74
     0
 42
0.00000001
 43
0.00000001
 12
1.0
 22
0.0
 32
0.0
 13
1.0
 23
0.0
 33
0.0
 40
0.0
 40
0.0
 40
0.0
 40
0.0
 40
0.25
 40
0.25
 40
0.5
 40
0.5
 40
0.625
 40
0.625
 40
0.75
 40
0.75
 40
1.0
 40
1.0
 40
1.0
 40
1.0
 10
54.84322715424874
 20
72.9377824115197
 30
0.0
 10
54.10846261050156
 20
72.69286089693729
 30
0.0
 10
53.36834100908536
 20
72.49100117690081
 30
0.0
 10
51.87266199102505
 20
72.21135990530365
 30
0.0
 10
51.11698982207638
 20
72.13450077057536
 30
0.0
 10
49.96924421482032
 20
72.13365660940623
 30
0.0
 10
49.58486220337285
 20
72.15244569607627
 30
0.0
 10
48.8245140362
 20
72.22571318815712
 30
0.0
 10
48.44688911752784
 20
72.28011723982046
 30
0.0
 10
47.3207374572325
 20
72.49019629817259
 30
0.0
 10
46.57890761478864
 20
72.6925555913399
 30
0.0
 10
45.8432271542486
 20
72.93778241151989
 30
0.0
  0
LINE
  5
237
330
1F
100
AcDbEntity
  8
0
  6
Continuous
 62
     7
370
    15
100
AcDbLine
 10
45.8432271542
 20
80.8640618531
 30
0.0
 11
45.8432271542
 21
72.9377824115
 31
0.0
  0
SPLINE
  5
238
330
1F
100
AcDbEntity
  8
0
  6
Continuous
 62
     7
370
    15
100
AcDbSpline
210
0.0
220
0.0
230
1.0
 70
     8
 71
     3
 72
    16
 73
    12
 74
     0
 42
0.00000001
 43
0.00000001
 12
1.0
 22
0.0
 32
0.0
 13
1.0
 23
0.0
 33
0.0
 40
0.0
 40
0.0
 40
0.0
 40
0.0
 40
0.2499999999999983
 40
0.2499999999999983
 40
0.4999999999999967
 40
0.4999999999999967
 40
0.6249999999999958
 40
0.6249999999999958
 40
0.749999999999995
 40
0.749999999999995
 40
1.0
 40
1.0
 40
1.0
 40
1.0
 10
45.84322715424868
 20
72.93778241151965
 30
0.0
 10
45.10846261050153
 20
72.69286089693723
 30
0.0
 10
44.36834100908535
 20
72.49100117690075
 30
0.0
 10
42.87266199102508
 20
72.21135990530368
 30
0.0
 10
42.11698982207637
 20
72.13450077057536
 30
0.0
 10
40.96924421482037
 20
72.1336566094062
 30
0.0
 10
40.58486220337287
 20
72.15244569607621
 30
0.0
 10
39.82451403620008
 20
72.22571318815709
 30
0.0
 10
39.44688911752786
 20
72.28011723982046
 30
0.0
 10
38.3207374572326
 20
72.4901962981725
 30
0.0
 10
37.57890761478858
 20
72.69255559133987
 30
0.0
 10
36.84322715424867
 20
72.93778241151983
 30
0.0
  0
LINE
  5
239
330
1F
100
AcDbEntity
  8
0
  6
Continuous
 62
     7
370
    15
100
AcDbLine
 10
36.8432271542
 20
80.8640618531
 30
0.0
 11
36.8432271542
 21
72.9377824115
 31
0.0
  0
SPLINE
  5
23A
330
1F
100
AcDbEntity
  8
0
  6
Continuous
 62
     7
370
    15
100
AcDbSpline
210
0.0
220
0.0
230
1.0
 70
    24
 71
     3
 72
    11
 73
     7
 74
     0
 42
0.00000001
 43
0.00000001
 12
1.0
 22
0.0
 32
0.0
 13
1.0
 23
0.0
 33
0.0
 40
0.0
 40
0.0
 40
0.0
 40
0.0
 40
0.2663532736812396
 40
0.5149709078015703
 40
0.7648233920933685
 40
1.0
 40
1.0
 40
1.0
 40
1.0
 10
36.84322715424867
 20
72.93778241151983
 30
0.0
 10
36.84322715424867
 20
72.81441771607761
 30
0.0
 10
36.8432271542487
 20
72.57590279818484
 30
0.0
 10
36.84322715424867
 20
72.3244725194414
 30
0.0
 10
36.84322715424867
 20
72.16202619404159
 30
0.0
 10
36.84322715424873
 20
72.14581938131074
 30
0.0
 10
36.84322715424876
 20
72.13796116557832
 30
0.0
  0
SPLINE
  5
23B
330
1F
100
AcDbEntity
  8
0
  6
Continuous
 62
     7
370
    15
100
AcDbSpline
210
0.0
220
0.0
230
1.0
 70
    24
 71
     3
 72
    11
 73
     7
 74
     0
 42
0.00000001
 43
0.00000001
 12
1.0
 22
0.0
 32
0.0
 13
1.0
 23
0.0
 33
0.0
 40
0.0
 40
0.0
 40
0.0
 40
0.0
 40
0.2223364504636747
 40
0.4772513157091943
 40
0.7336453344712177
 40
1.0
 40
1.0
 40
1.0
 40
1.0
 10
54.84322715424872
 20
72.13936848061188
 30
0.0
 10
54.84322715424874
 20
72.1456756570757
 30
0.0
 10
54.84322715424874
 20
72.15921418510156
 30
0.0
 10
54.84322715424877
 20
72.31818407208897
 30
0.0
 10
54.84322715424861
 20
72.57231369196263
 30
0.0
 10
54.84322715424869
 20
72.8144217660721
 30
0.0
 10
54.84322715424869
 20
72.93778241152017
 30
0.0
  0
LINE
  5
23C
330
1F
100
AcDbEntity
  8
0
  6
Continuous
 62
     7
370
    15
100
AcDbLine
 10
483.8432271542
 20
117.2009221323
 30
0.0
 11
495.8432271542
 21
117.2009221323
 31
0.0
  0
LINE
  5
23D
330
1F
100
AcDbEntity
  8
0
  6
Continuous
 62
     7
370
    15
100
AcDbLine
 10
39.8432271542
 20
117.2009221323
 30
0.0
 11
51.8432271542
 21
117.2009221323
 31
0.0
  0
LINE
  5
23E
330
1F
100
AcDbEntity
  8
0
  6
Continuous
 62
     7
370
    15
100
AcDbLine
 10
34.581759926
 20
62.9613315601
 30
0.0
 11
501.1046943825
 21
62.9613315601
 31
0.0
  0
LINE
  5
23F
330
1F
100
AcDbEntity
  8
0
  6
Continuous
 62
     7
370
    15
100
AcDbLine
 10
31.8432271542
 20
65.9499156544
 30
0.0
 11
503.8432271542
 21
65.9499156544
 31
0.0
  0
LINE
  5
240
330
1F
100
AcDbEntity
  8
0
  6
Continuous
 62
     7
370
    15
100
AcDbLine
 10
430.8209325777
 20
61.5390584479
 30
0.0
 11
484.8231552394
 21
61.5390584479
 31
0.0
  0
LINE
  5
241
330
1F
100
AcDbEntity
  8
0
  6
Continuous
 62
     7
370
    15
100
AcDbLine
 10
273.8432271542
 20
61.5390584479
 30
0.0
 11
418.8209325777
 21
61.5390584479
 31
0.0
  0
LINE
  5
242
330
1F
100
AcDbEntity
  8
0
  6
Continuous
 62
     7
370
    15
100
AcDbLine
 10
116.8655217308
 20
61.5390584479
 30
0.0
 11
261.8432271542
 21
61.5390584479
 31
0.0
  0
LINE
  5
243
330
1F
100
AcDbEntity
  8
0
  6
Continuous
 62
     7
370
    15
100
AcDbLine
 10
50.8632990691
 20
61.5390584479
 30
0.0
 11
104.8655217308
 21
61.5390584479
 31
0.0
  0
LINE
  5
244
330
1F
100
AcDbEntity
  8
0
  6
Continuous
 62
     7
370
    15
100
AcDbLine
 10
55.3957849469
 20
56.8197647387
 30
0.0
 11
104.8655217308
 21
56.8197647387
 31
0.0
  0
LINE
  5
245
330
1F
100
AcDbEntity
  8
0
  6
Continuous
 62
     7
370
    15
100
AcDbLine
 10
116.8655217308
 20
56.8197647387
 30
0.0
 11
261.8432271542
 21
56.8197647387
 31
0.0
  0
LINE
  5
246
330
1F
100
AcDbEntity
  8
0
  6
Continuous
 62
     7
370
    15
100
AcDbLine
 10
273.8432271542
 20
56.8197647387
 30
0.0
 11
418.8209325777
 21
56.8197647387
 31
0.0
  0
LINE
  5
247
330
1F
100
AcDbEntity
  8
0
  6
Continuous
 62
     7
370
    15
100
AcDbLine
 10
430.8209325777
 20
56.8197647387
 30
0.0
 11
480.2906693616
 21
56.8197647387
 31
0.0
  0
LINE
  5
248
330
1F
100
AcDbEntity
  8
0
  6
Continuous
 62
     7
370
    15
100
AcDbLine
 10
56.7190647341
 20
31.5700822417
 30
0.0
 11
104.8655217308
 21
31.5700822417
 31
0.0
  0
LINE
  5
249
330
1F
100
AcDbEntity
  8
0
  6
Continuous
 62
     7
370
    15
100
AcDbLine
 10
116.8655217308
 20
31.5700822417
 30
0.0
 11
261.8432271542
 21
31.5700822417
 31
0.0
  0
LINE
  5
24A
330
1F
100
AcDbEntity
  8
0
  6
Continuous
 62
     7
370
    15
100
AcDbLine
 10
273.8432271542
 20
31.5700822417
 30
0.0
 11
418.8209325777
 21
31.5700822417
 31
0.0
  0
LINE
  5
24B
330
1F
100
AcDbEntity
  8
0
  6
Continuous
 62
     7
370
    15
100
AcDbLine
 10
430.8209325777
 20
31.5700822417
 30
0.0
 11
478.9673895743
 21
31.5700822417
 31
0.0
  0
LINE
  5
24C
330
1F
100
AcDbEntity
  8
FORMAT
  6
CENTERX2
370
     0
100
AcDbLine
 10
267.8432271542
 20
124.620982498
 30
0.0
 11
267.8432271542
 21
-62.7990778677
 31
0.0
  0
ENDSEC
  0
SECTION
  2
OBJECTS
  0
DICTIONARY
  5
C
330
0
100
AcDbDictionary
281
     1
  3
ACAD_GROUP
350
D
  3
ACAD_LAYOUT
350
1A
  3
ACAD_MLINESTYLE
350
17
  3
ACAD_PLOTSETTINGS
350
19
  3
ACAD_PLOTSTYLENAME
350
E
  0
DICTIONARY
  5
D
102
{ACAD_REACTORS
330
C
102
}
330
C
100
AcDbDictionary
281
     1
  0
DICTIONARY
  5
1A
102
{ACAD_REACTORS
330
C
102
}
330
C
100
AcDbDictionary
281
     1
  3
Layout1
350
1E
  3
Layout2
350
26
  3
Model
350
22
  0
DICTIONARY
  5
17
102
{ACAD_REACTORS
330
C
102
}
330
C
100
AcDbDictionary
281
     1
  3
Standard
350
18
  0
DICTIONARY
  5
19
102
{ACAD_REACTORS
330
C
102
}
330
C
100
AcDbDictionary
281
     1
  0
ACDBDICTIONARYWDFLT
  5
E
102
{ACAD_REACTORS
330
C
102
}
330
C
100
AcDbDictionary
281
     1
  3
Normal
350
F
100
AcDbDictionaryWithDefault
340
F
  0
LAYOUT
  5
1E
102
{ACAD_REACTORS
330
1A
102
}
330
1A
100
AcDbPlotSettings
  1

  2
none_device
  4

  6

 40
0.0
 41
0.0
 42
0.0
 43
0.0
 44
0.0
 45
0.0
 46
0.0
 47
0.0
 48
0.0
 49
0.0
140
0.0
141
0.0
142
1.0
143
1.0
 70
   688
 72
     0
 73
     0
 74
     5
  7

 75
    16
147
1.0
148
0.0
149
0.0
100
AcDbLayout
  1
Layout1
 70
     1
 71
     1
 10
0.0
 20
0.0
 11
420.0
 21
297.0
 12
0.0
 22
0.0
 32
0.0
 14
1.0000000000E+20
 24
1.0000000000E+20
 34
1.0000000000E+20
 15
-1.0000000000E+20
 25
-1.0000000000E+20
 35
-1.0000000000E+20
146
0.0
 13
0.0
 23
0.0
 33
0.0
 16
1.0
 26
0.0
 36
0.0
 17
0.0
 27
1.0
 37
0.0
 76
     0
330
1B
  0
LAYOUT
  5
26
102
{ACAD_REACTORS
330
1A
102
}
330
1A
100
AcDbPlotSettings
  1

  2
none_device
  4

  6

 40
0.0
 41
0.0
 42
0.0
 43
0.0
 44
0.0
 45
0.0
 46
0.0
 47
0.0
 48
0.0
 49
0.0
140
0.0
141
0.0
142
1.0
143
1.0
 70
   688
 72
     0
 73
     0
 74
     5
  7

 75
    16
147
1.0
148
0.0
149
0.0
100
AcDbLayout
  1
Layout2
 70
     1
 71
     2
 10
0.0
 20
0.0
 11
0.0
 21
0.0
 12
0.0
 22
0.0
 32
0.0
 14
0.0
 24
0.0
 34
0.0
 15
0.0
 25
0.0
 35
0.0
146
0.0
 13
0.0
 23
0.0
 33
0.0
 16
1.0
 26
0.0
 36
0.0
 17
0.0
 27
1.0
 37
0.0
 76
     0
330
23
  0
LAYOUT
  5
22
102
{ACAD_REACTORS
330
1A
102
}
330
1A
100
AcDbPlotSettings
  1

  2
none_device
  4

  6

 40
0.0
 41
0.0
 42
0.0
 43
0.0
 44
0.0
 45
0.0
 46
0.0
 47
0.0
 48
0.0
 49
0.0
140
0.0
141
0.0
142
1.0
143
1.0
 70
  1712
 72
     0
 73
     0
 74
     0
  7

 75
     0
147
1.0
148
0.0
149
0.0
100
AcDbLayout
  1
Model
 70
     1
 71
     0
 10
0.0
 20
0.0
 11
841.0
 21
594.0
 12
0.0
 22
0.0
 32
0.0
 14
0.0
 24
0.0
 34
0.0
 15
841.0
 25
594.0
 35
0.0
146
0.0
 13
0.0
 23
0.0
 33
0.0
 16
1.0
 26
0.0
 36
0.0
 17
0.0
 27
1.0
 37
0.0
 76
     0
330
1F
331
29
  0
MLINESTYLE
  5
18
102
{ACAD_REACTORS
330
17
102
}
330
17
100
AcDbMlineStyle
  2
Standard
 70
     0
  3

 62
   256
 51
90.0
 52
90.0
 71
     2
 49
0.5
 62
   256
  6
BYLAYER
 49
-0.5
 62
   256
  6
BYLAYER
  0
ACDBPLACEHOLDER
  5
F
102
{ACAD_REACTORS
330
E
102
}
330
E
  0
ENDSEC
  0
EOF
