  0
SECTION
  2
HEADER
  9
$ACADVER
  1
AC1015
  9
$ACADMAINTVER
 70
     6
  9
$DWGCODEPAGE
  3
ANSI_1252
  9
$INSBASE
 10
0.0
 20
0.0
 30
0.0
  9
$EXTMIN
 10
0.0
 20
0.0
 30
0.0
  9
$EXTMAX
 10
841.0
 20
594.0
 30
0.0
  9
$LIMMIN
 10
0.0
 20
0.0
  9
$LIMMAX
 10
841.0
 20
594.0
  9
$ORTHOMODE
 70
     0
  9
$REGENMODE
 70
     1
  9
$FILLMODE
 70
     1
  9
$QTEXTMODE
 70
     0
  9
$MIRRTEXT
 70
     1
  9
$LTSCALE
 40
1.0
  9
$ATTMODE
 70
     1
  9
$TEXTSIZE
 40
2.5
  9
$TRACEWID
 40
1.0
  9
$TEXTSTYLE
  7
Standard
  9
$CLAYER
  8
0
  9
$CELTYPE
  6
ByLayer
  9
$CECOLOR
 62
   256
  9
$CELTSCALE
 40
1.0
  9
$DISPSILH
 70
     0
  9
$DIMSCALE
 40
1.0
  9
$DIMASZ
 40
2.5
  9
$DIMEXO
 40
1.0
  9
$DIMDLI
 40
3.75
  9
$DIMRND
 40
0.0
  9
$DIMDLE
 40
0.0
  9
$DIMEXE
 40
1.0
  9
$DIMTP
 40
0.0
  9
$DIMTM
 40
0.0
  9
$DIMTXT
 40
2.5
  9
$DIMCEN
 40
2.5
  9
$DIMTSZ
 40
0.0
  9
$DIMTOL
 70
     0
  9
$DIMLIM
 70
     0
  9
$DIMTIH
 70
     1
  9
$DIMTOH
 70
     1
  9
$DIMSE1
 70
     0
  9
$DIMSE2
 70
     0
  9
$DIMTAD
 70
     1
  9
$DIMZIN
 70
     0
  9
$DIMBLK
  1

  9
$DIMASO
 70
     1
  9
$DIMSHO
 70
     1
  9
$DIMPOST
  1

  9
$DIMAPOST
  1

  9
$DIMALT
 70
     0
  9
$DIMALTD
 70
     3
  9
$DIMALTF
 40
0.0393700787
  9
$DIMLFAC
 40
1.0
  9
$DIMTOFL
 70
     1
  9
$DIMTVP
 40
0.0
  9
$DIMTIX
 70
     0
  9
$DIMSOXD
 70
     0
  9
$DIMSAH
 70
     0
  9
$DIMBLK1
  1

  9
$DIMBLK2
  1

  9
$DIMSTYLE
  2
ISO-25
  9
$DIMCLRD
 70
     0
  9
$DIMCLRE
 70
     0
  9
$DIMCLRT
 70
     0
  9
$DIMTFAC
 40
1.0
  9
$DIMGAP
 40
1.524
  9
$DIMJUST
 70
     0
  9
$DIMSD1
 70
     0
  9
$DIMSD2
 70
     0
  9
$DIMTOLJ
 70
     0
  9
$DIMTZIN
 70
     0
  9
$DIMALTZ
 70
     0
  9
$DIMALTTZ
 70
     0
  9
$DIMUPT
 70
     0
  9
$DIMDEC
 70
     2
  9
$DIMTDEC
 70
     2
  9
$DIMALTU
 70
     2
  9
$DIMALTTD
 70
     3
  9
$DIMTXSTY
  7
Standard
  9
$DIMAUNIT
 70
     0
  9
$DIMADEC
 70
     2
  9
$DIMALTRND
 40
0.0
  9
$DIMAZIN
 70
     0
  9
$DIMDSEP
 70
    44
  9
$DIMATFIT
 70
     3
  9
$DIMFRAC
 70
     0
  9
$DIMLDRBLK
  1

  9
$DIMLUNIT
 70
     2
  9
$DIMLWD
 70
    -2
  9
$DIMLWE
 70
    -2
  9
$DIMTMOVE
 70
     0
  9
$LUNITS
 70
     2
  9
$LUPREC
 70
     2
  9
$SKETCHINC
 40
1.0
  9
$FILLETRAD
 40
10.0
  9
$AUNITS
 70
     0
  9
$AUPREC
 70
     2
  9
$MENU
  1
.
  9
$ELEVATION
 40
0.0
  9
$PELEVATION
 40
0.0
  9
$THICKNESS
 40
0.0
  9
$LIMCHECK
 70
     0
  9
$CHAMFERA
 40
10.0
  9
$CHAMFERB
 40
10.0
  9
$CHAMFERC
 40
20.0
  9
$CHAMFERD
 40
0.0
  9
$SKPOLY
 70
     0
  9
$TDCREATE
 40
2457189.492373067
  9
$TDUCREATE
 40
2457189.159039734
  9
$TDUPDATE
 40
2457189.492373796
  9
$TDUUPDATE
 40
2457189.159040463
  9
$TDINDWG
 40
0.0000000116
  9
$TDUSRTIMER
 40
0.0000000116
  9
$USRTIMER
 70
     1
  9
$ANGBASE
 50
0.0
  9
$ANGDIR
 70
     0
  9
$PDMODE
 70
     0
  9
$PDSIZE
 40
-1.0
  9
$PLINEWID
 40
0.0
  9
$SPLFRAME
 70
     0
  9
$SPLINETYPE
 70
     6
  9
$SPLINESEGS
 70
     8
  9
$HANDSEED
  5
24D
  9
$SURFTAB1
 70
     6
  9
$SURFTAB2
 70
     6
  9
$SURFTYPE
 70
     6
  9
$SURFU
 70
     6
  9
$SURFV
 70
     6
  9
$UCSBASE
  2

  9
$UCSNAME
  2

  9
$UCSORG
 10
0.0
 20
0.0
 30
0.0
  9
$UCSXDIR
 10
1.0
 20
0.0
 30
0.0
  9
$UCSYDIR
 10
0.0
 20
1.0
 30
0.0
  9
$UCSORTHOREF
  2

  9
$UCSORTHOVIEW
 70
     0
  9
$UCSORGTOP
 10
0.0
 20
0.0
 30
0.0
  9
$UCSORGBOTTOM
 10
0.0
 20
0.0
 30
0.0
  9
$UCSORGLEFT
 10
0.0
 20
0.0
 30
0.0
  9
$UCSORGRIGHT
 10
0.0
 20
0.0
 30
0.0
  9
$UCSORGFRONT
 10
0.0
 20
0.0
 30
0.0
  9
$UCSORGBACK
 10
0.0
 20
0.0
 30
0.0
  9
$PUCSBASE
  2

  9
$PUCSNAME
  2

  9
$PUCSORG
 10
0.0
 20
0.0
 30
0.0
  9
$PUCSXDIR
 10
1.0
 20
0.0
 30
0.0
  9
$PUCSYDIR
 10
0.0
 20
1.0
 30
0.0
  9
$PUCSORTHOREF
  2

  9
$PUCSORTHOVIEW
 70
     0
  9
$PUCSORGTOP
 10
0.0
 20
0.0
 30
0.0
  9
$PUCSORGBOTTOM
 10
0.0
 20
0.0
 30
0.0
  9
$PUCSORGLEFT
 10
0.0
 20
0.0
 30
0.0
  9
$PUCSORGRIGHT
 10
0.0
 20
0.0
 30
0.0
  9
$PUCSORGFRONT
 10
0.0
 20
0.0
 30
0.0
  9
$PUCSORGBACK
 10
0.0
 20
0.0
 30
0.0
  9
$USERI1
 70
     0
  9
$USERI2
 70
     0
  9
$USERI3
 70
     0
  9
$USERI4
 70
     0
  9
$USERI5
 70
     0
  9
$USERR1
 40
0.0
  9
$USERR2
 40
0.0
  9
$USERR3
 40
0.0
  9
$USERR4
 40
0.0
  9
$USERR5
 40
0.0
  9
$WORLDVIEW
 70
     1
  9
$SHADEDGE
 70
     3
  9
$SHADEDIF
 70
    70
  9
$TILEMODE
 70
     1
  9
$MAXACTVP
 70
    64
  9
$PINSBASE
 10
0.0
 20
0.0
 30
0.0
  9
$PLIMCHECK
 70
     0
  9
$PEXTMIN
 10
1.0000000000E+20
 20
1.0000000000E+20
 30
1.0000000000E+20
  9
$PEXTMAX
 10
-1.0000000000E+20
 20
-1.0000000000E+20
 30
-1.0000000000E+20
  9
$PLIMMIN
 10
0.0
 20
0.0
  9
$PLIMMAX
 10
420.0
 20
297.0
  9
$UNITMODE
 70
     0
  9
$VISRETAIN
 70
     1
  9
$PLINEGEN
 70
     0
  9
$PSLTSCALE
 70
     1
  9
$TREEDEPTH
 70
  3020
  9
$CMLSTYLE
  2
Standard
  9
$CMLJUST
 70
     0
  9
$CMLSCALE
 40
20.0
  9
$PROXYGRAPHICS
 70
     1
  9
$MEASUREMENT
 70
     1
  9
$CELWEIGHT
370
    -1
  9
$ENDCAPS
280
     0
  9
$JOINSTYLE
280
     0
  9
$LWDISPLAY
290
     1
  9
$INSUNITS
 70
     4
  9
$HYPERLINKBASE
  1

  9
$STYLESHEET
  1

  9
$XEDIT
290
     1
  9
$CEPSNTYPE
380
     0
  9
$PSTYLEMODE
290
     1
  9
$FINGERPRINTGUID
  2
{DBA28F32-2BDF-4ECB-9E26-348DF94FF69C}
  9
$VERSIONGUID
  2
{FAEB1C32-E019-11D5-929B-00C0DF256EC4}
  9
$EXTNAMES
290
     1
  9
$PSVPSCALE
 40
0.0
  9
$OLESTARTUP
290
     0
  0
ENDSEC
  0
SECTION
  2
CLASSES
  0
CLASS
  1
ACDBDICTIONARYWDFLT
  2
AcDbDictionaryWithDefault
  3
ObjectDBX Classes
 90
        0
280
     0
281
     0
  0
CLASS
  1
VISUALSTYLE
  2
AcDbVisualStyle
  3
ObjectDBX Classes
 90
     4095
280
     0
281
     0
  0
CLASS
  1
MATERIAL
  2
AcDbMaterial
  3
ObjectDBX Classes
 90
     1153
280
     0
281
     0
  0
CLASS
  1
ACDBPLACEHOLDER
  2
AcDbPlaceHolder
  3
ObjectDBX Classes
 90
        0
280
     0
281
     0
  0
CLASS
  1
LAYOUT
  2
AcDbLayout
  3
ObjectDBX Classes
 90
        0
280
     0
281
     0
  0
ENDSEC
  0
SECTION
  2
TABLES
  0
TABLE
  2
VPORT
  5
8
330
0
100
AcDbSymbolTable
 70
     1
  0
VPORT
  5
29
330
8
100
AcDbSymbolTableRecord
100
AcDbViewportTableRecord
  2
*Active
 70
     0
 10
0.0
 20
0.0
 11
1.0
 21
1.0
 12
420.5
 22
297.0
 13
0.0
 23
0.0
 14
10.0
 24
10.0
 15
10.0
 25
10.0
 16
0.0
 26
0.0
 36
1.0
 17
0.0
 27
0.0
 37
0.0
 40
594.0
 41
1.4158249158
 42
50.0
 43
0.0
 44
0.0
 50
0.0
 51
0.0
 71
     0
 72
  2000
 73
     1
 74
     3
 75
     0
 76
     0
 77
     0
 78
     0
281
     0
 65
     1
110
0.0
120
0.0
130
0.0
111
1.0
121
0.0
131
0.0
112
0.0
122
1.0
132
0.0
 79
     0
146
0.0
  0
ENDTAB
  0
TABLE
  2
LTYPE
  5
5
330
0
100
AcDbSymbolTable
 70
     6
  0
LTYPE
  5
14
330
5
100
AcDbSymbolTableRecord
100
AcDbLinetypeTableRecord
  2
ByBlock
 70
     0
  3

 72
    65
 73
     0
 40
0.0
  0
LTYPE
  5
15
330
5
100
AcDbSymbolTableRecord
100
AcDbLinetypeTableRecord
  2
ByLayer
 70
     0
  3

 72
    65
 73
     0
 40
0.0
  0
LTYPE
  5
16
330
5
100
AcDbSymbolTableRecord
100
AcDbLinetypeTableRecord
  2
Continuous
 70
     0
  3
Solid line
 72
    65
 73
     0
 40
0.0
  0
LTYPE
  5
3F
330
5
100
AcDbSymbolTableRecord
100
AcDbLinetypeTableRecord
  2
HIDDEN
 70
     0
  3
Hidden __ __ __ __ __ __ __ __ __ __ __ __ __ __
 72
    65
 73
     2
 40
1.905
 49
1.27
 74
     0
 49
-0.635
 74
     0
  0
LTYPE
  5
40
330
5
100
AcDbSymbolTableRecord
100
AcDbLinetypeTableRecord
  2
PHANTOM
 70
     0
  3
Phantom ______  __  __  ______  __  __  ______
 72
    65
 73
     6
 40
12.7
 49
6.35
 74
     0
 49
-1.27
 74
     0
 49
1.27
 74
     0
 49
-1.27
 74
     0
 49
1.27
 74
     0
 49
-1.27
 74
     0
  0
LTYPE
  5
41
330
5
100
AcDbSymbolTableRecord
100
AcDbLinetypeTableRecord
  2
CENTER
 70
     0
  3
Center ____ _ ____ _ ____ _ ____ _ ____ _ ____
 72
    65
 73
     4
 40
10.16
 49
6.35
 74
     0
 49
-1.27
 74
     0
 49
1.27
 74
     0
 49
-1.27
 74
     0
  0
LTYPE
  5
42
330
5
100
AcDbSymbolTableRecord
100
AcDbLinetypeTableRecord
  2
CENTERX2
 70
     0
  3
Center (2x) ________  __  ________  __  _____
 72
    65
 73
     4
 40
20.32
 49
12.7
 74
     0
 49
-2.54
 74
     0
 49
2.54
 74
     0
 49
-2.54
 74
     0
  0
LTYPE
  5
43
330
5
100
AcDbSymbolTableRecord
100
AcDbLinetypeTableRecord
  2
DOT2
 70
     0
  3
Dot (.5x) ........................................
 72
    65
 73
     2
 40
0.635
 49
0.0
 74
     0
 49
-0.635
 74
     0
  0
ENDTAB
  0
TABLE
  2
LAYER
  5
2
330
0
100
AcDbSymbolTable
 70
     3
  0
LAYER
  5
10
330
2
100
AcDbSymbolTableRecord
100
AcDbLayerTableRecord
  2
0
 70
     0
 62
     7
  6
Continuous
370
    -3
390
F
  0
LAYER
  5
44
330
2
100
AcDbSymbolTableRecord
100
AcDbLayerTableRecord
  2
FORMAT
 70
     0
 62
     7
  6
Continuous
370
    -3
390
F
  0
LAYER
  5
45
330
2
100
AcDbSymbolTableRecord
100
AcDbLayerTableRecord
  2
PROTOTYPE
 70
     0
 62
     7
  6
Continuous
370
    -3
390
F
  0
ENDTAB
  0
TABLE
  2
STYLE
  5
3
330
0
100
AcDbSymbolTable
 70
     1
  0
STYLE
  5
11
330
3
100
AcDbSymbolTableRecord
100
AcDbTextStyleTableRecord
  2
Standard
 70
     0
 40
0.0
 41
1.0
 50
0.0
 71
     0
 42
2.5
  3
txt
  4

  0
ENDTAB
  0
TABLE
  2
VIEW
  5
6
330
0
100
AcDbSymbolTable
 70
     0
  0
ENDTAB
  0
TABLE
  2
UCS
  5
7
330
0
100
AcDbSymbolTable
 70
     0
  0
ENDTAB
  0
TABLE
  2
APPID
  5
9
330
0
100
AcDbSymbolTable
 70
     1
  0
APPID
  5
12
330
9
100
AcDbSymbolTableRecord
100
AcDbRegAppTableRecord
  2
ACAD
 70
     0
  0
ENDTAB
  0
TABLE
  2
DIMSTYLE
  5
A
330
0
100
AcDbSymbolTable
 70
     1
100
AcDbDimStyleTable
  0
DIMSTYLE
105
27
330
A
100
AcDbSymbolTableRecord
100
AcDbDimStyleTableRecord
  2
ISO-25
 70
     0
 41
2.5
 42
0.625
 43
3.75
 44
1.25
 73
     0
 74
     0
 77
     1
 78
     8
140
2.5
141
2.5
143
0.0393700787
147
0.625
171
     3
172
     1
178
     0
271
     2
272
     2
274
     3
278
    44
283
     0
284
     8
340
11
  0
ENDTAB
  0
TABLE
  2
BLOCK_RECORD
  5
1
330
0
100
AcDbSymbolTable
 70
     2
  0
BLOCK_RECORD
  5
1F
330
1
100
AcDbSymbolTableRecord
100
AcDbBlockTableRecord
  2
*Model_Space
340
22
  0
BLOCK_RECORD
  5
1B
330
1
100
AcDbSymbolTableRecord
100
AcDbBlockTableRecord
  2
*Paper_Space
340
1E
  0
BLOCK_RECORD
  5
23
330
1
100
AcDbSymbolTableRecord
100
AcDbBlockTableRecord
  2
*Paper_Space0
340
26
  0
BLOCK_RECORD
  5
78
330
1
100
AcDbSymbolTableRecord
100
AcDbBlockTableRecord
  2
SW_CENTERMARKSYMBOL_0
340
0
102
{BLKREFS
331
F3
102
}
  0
ENDTAB
  0
ENDSEC
  0
SECTION
  2
BLOCKS
  0
BLOCK
  5
20
330
1F
100
AcDbEntity
  8
0
100
AcDbBlockBegin
  2
*Model_Space
 70
     0
 10
0.0
 20
0.0
 30
0.0
  3
*Model_Space
  1

  0
ENDBLK
  5
21
330
1F
100
AcDbEntity
  8
0
100
AcDbBlockEnd
  0
BLOCK
  5
1C
330
1B
100
AcDbEntity
 67
     1
  8
0
100
AcDbBlockBegin
  2
*Paper_Space
 70
     0
 10
0.0
 20
0.0
 30
0.0
  3
*Paper_Space
  1

  0
ENDBLK
  5
1D
330
1B
100
AcDbEntity
 67
     1
  8
0
100
AcDbBlockEnd
  0
BLOCK
  5
24
330
23
100
AcDbEntity
  8
0
100
AcDbBlockBegin
  2
*Paper_Space0
 70
     0
 10
0.0
 20
0.0
 30
0.0
  3
*Paper_Space0
  1

  0
ENDBLK
  5
25
330
23
100
AcDbEntity
  8
0
100
AcDbBlockEnd
  0
BLOCK
  5
79
330
78
100
AcDbEntity
  8
0
100
AcDbBlockBegin
  2
SW_CENTERMARKSYMBOL_0
 70
     0
 10
0.0
 20
0.0
 30
0.0
  3
SW_CENTERMARKSYMBOL_0
  1

  0
ARC
  5
7B
330
78
100
AcDbEntity
  8
FORMAT
 62
     0
100
AcDbCircle
 10
-51.2112095292
 20
-257.4561361058
 30
0.0
 40
262.5000000000007
100
AcDbArc
 50
78.75
 51
79.2956740906
  0
ARC
  5
7C
330
78
100
AcDbEntity
  8
FORMAT
 62
     0
100
AcDbCircle
 10
-51.2112095292
 20
-257.4561361058
 30
0.0
 40
262.5000000000007
100
AcDbArc
 50
78.2043259094
 51
78.75
  0
ARC
  5
7D
330
78
100
AcDbEntity
  8
FORMAT
 62
     0
100
AcDbCircle
 10
-51.2112095292
 20
-257.4561361058
 30
0.0
 40
262.5000000000007
100
AcDbArc
 50
56.25
 51
56.7956740906
  0
ARC
  5
7E
330
78
100
AcDbEntity
  8
FORMAT
 62
     0
100
AcDbCircle
 10
-51.2112095292
 20
-257.4561361058
 30
0.0
 40
262.5000000000007
100
AcDbArc
 50
55.7043259094
 51
56.25
  0
ARC
  5
7F
330
78
100
AcDbEntity
  8
FORMAT
 62
     0
100
AcDbCircle
 10
-51.2112095292
 20
-257.4561361058
 30
0.0
 40
262.5000000000007
100
AcDbArc
 50
33.75
 51
34.2956740906
  0
ARC
  5
80
330
78
100
AcDbEntity
  8
FORMAT
 62
     0
100
AcDbCircle
 10
-51.2112095292
 20
-257.4561361058
 30
0.0
 40
262.5000000000007
100
AcDbArc
 50
33.2043259094
 51
33.75
  0
ARC
  5
81
330
78
100
AcDbEntity
  8
FORMAT
 62
     0
100
AcDbCircle
 10
-51.2112095292
 20
-257.4561361058
 30
0.0
 40
262.5000000000006
100
AcDbArc
 50
11.25
 51
11.7956740906
  0
ARC
  5
82
330
78
100
AcDbEntity
  8
FORMAT
 62
     0
100
AcDbCircle
 10
-51.2112095292
 20
-257.4561361058
 30
0.0
 40
262.5000000000006
100
AcDbArc
 50
10.7043259094
 51
11.25
  0
ARC
  5
83
330
78
100
AcDbEntity
  8
FORMAT
 62
     0
100
AcDbCircle
 10
-51.2112095292
 20
-257.4561361058
 30
0.0
 40
262.5000000000007
100
AcDbArc
 50
348.75
 51
349.2956740906
  0
ARC
  5
84
330
78
100
AcDbEntity
  8
FORMAT
 62
     0
100
AcDbCircle
 10
-51.2112095292
 20
-257.4561361058
 30
0.0
 40
262.5000000000008
100
AcDbArc
 50
348.2043259094
 51
348.75
  0
ARC
  5
85
330
78
100
AcDbEntity
  8
FORMAT
 62
     0
100
AcDbCircle
 10
-51.2112095292
 20
-257.4561361058
 30
0.0
 40
262.5000000000008
100
AcDbArc
 50
326.25
 51
326.7956740906
  0
ARC
  5
86
330
78
100
AcDbEntity
  8
FORMAT
 62
     0
100
AcDbCircle
 10
-51.2112095292
 20
-257.4561361058
 30
0.0
 40
262.5000000000008
100
AcDbArc
 50
325.7043259094
 51
326.25
  0
ARC
  5
87
330
78
100
AcDbEntity
  8
FORMAT
 62
     0
100
AcDbCircle
 10
-51.2112095292
 20
-257.4561361058
 30
0.0
 40
262.5000000000008
100
AcDbArc
 50
303.75
 51
304.2956740906
  0
ARC
  5
88
330
78
100
AcDbEntity
  8
FORMAT
 62
     0
100
AcDbCircle
 10
-51.2112095292
 20
-257.4561361058
 30
0.0
 40
262.5000000000008
100
AcDbArc
 50
303.2043259094
 51
303.75
  0
ARC
  5
89
330
78
100
AcDbEntity
  8
FORMAT
 62
     0
100
AcDbCircle
 10
-51.2112095292
 20
-257.4561361058
 30
0.0
 40
262.5000000000007
100
AcDbArc
 50
281.25
 51
281.7956740906
  0
ARC
  5
8A
330
78
100
AcDbEntity
  8
FORMAT
 62
     0
100
AcDbCircle
 10
-51.2112095292
 20
-257.4561361058
 30
0.0
 40
262.5000000000007
100
AcDbArc
 50
280.7043259094
 51
281.25
  0
ARC
  5
8B
330
78
100
AcDbEntity
  8
FORMAT
 62
     0
100
AcDbCircle
 10
-51.2112095292
 20
-257.4561361058
 30
0.0
 40
262.5000000000009
100
AcDbArc
 50
258.75
 51
259.2956740906
  0
ARC
  5
8C
330
78
100
AcDbEntity
  8
FORMAT
 62
     0
100
AcDbCircle
 10
-51.2112095292
 20
-257.4561361058
 30
0.0
 40
262.5000000000009
100
AcDbArc
 50
258.2043259094
 51
258.75
  0
ARC
  5
8D
330
78
100
AcDbEntity
  8
FORMAT
 62
     0
100
AcDbCircle
 10
-51.2112095292
 20
-257.4561361058
 30
0.0
 40
262.5000000000008
100
AcDbArc
 50
236.25
 51
236.7956740906
  0
ARC
  5
8E
330
78
100
AcDbEntity
  8
FORMAT
 62
     0
100
AcDbCircle
 10
-51.2112095292
 20
-257.4561361058
 30
0.0
 40
262.5000000000008
100
AcDbArc
 50
235.7043259094
 51
236.25
  0
ARC
  5
8F
330
78
100
AcDbEntity
  8
FORMAT
 62
     0
100
AcDbCircle
 10
-51.2112095292
 20
-257.4561361058
 30
0.0
 40
262.5000000000007
100
AcDbArc
 50
213.75
 51
214.2956740906
  0
ARC
  5
90
330
78
100
AcDbEntity
  8
FORMAT
 62
     0
100
AcDbCircle
 10
-51.2112095292
 20
-257.4561361058
 30
0.0
 40
262.5000000000007
100
AcDbArc
 50
213.2043259094
 51
213.75
  0
ARC
  5
91
330
78
100
AcDbEntity
  8
FORMAT
 62
     0
100
AcDbCircle
 10
-51.2112095292
 20
-257.4561361058
 30
0.0
 40
262.5000000000007
100
AcDbArc
 50
191.25
 51
191.7956740906
  0
ARC
  5
92
330
78
100
AcDbEntity
  8
FORMAT
 62
     0
100
AcDbCircle
 10
-51.2112095292
 20
-257.4561361058
 30
0.0
 40
262.5000000000007
100
AcDbArc
 50
190.7043259094
 51
191.25
  0
ARC
  5
93
330
78
100
AcDbEntity
  8
FORMAT
 62
     0
100
AcDbCircle
 10
-51.2112095292
 20
-257.4561361058
 30
0.0
 40
262.5000000000008
100
AcDbArc
 50
168.75
 51
169.2956740906
  0
ARC
  5
94
330
78
100
AcDbEntity
  8
FORMAT
 62
     0
100
AcDbCircle
 10
-51.2112095292
 20
-257.4561361058
 30
0.0
 40
262.5000000000008
100
AcDbArc
 50
168.2043259094
 51
168.75
  0
ARC
  5
95
330
78
100
AcDbEntity
  8
FORMAT
 62
     0
100
AcDbCircle
 10
-51.2112095292
 20
-257.4561361058
 30
0.0
 40
262.5000000000007
100
AcDbArc
 50
146.25
 51
146.7956740906
  0
ARC
  5
96
330
78
100
AcDbEntity
  8
FORMAT
 62
     0
100
AcDbCircle
 10
-51.2112095292
 20
-257.4561361058
 30
0.0
 40
262.5000000000007
100
AcDbArc
 50
145.7043259094
 51
146.25
  0
ARC
  5
97
330
78
100
AcDbEntity
  8
FORMAT
 62
     0
100
AcDbCircle
 10
-51.2112095292
 20
-257.4561361058
 30
0.0
 40
262.5000000000007
100
AcDbArc
 50
123.75
 51
124.2956740906
  0
ARC
  5
98
330
78
100
AcDbEntity
  8
FORMAT
 62
     0
100
AcDbCircle
 10
-51.2112095292
 20
-257.4561361058
 30
0.0
 40
262.5000000000007
100
AcDbArc
 50
123.2043259094
 51
123.75
  0
ARC
  5
99
330
78
100
AcDbEntity
  8
FORMAT
 62
     0
100
AcDbCircle
 10
-51.2112095292
 20
-257.4561361058
 30
0.0
 40
262.5000000000007
100
AcDbArc
 50
101.25
 51
101.7956740906
  0
ARC
  5
9A
330
78
100
AcDbEntity
  8
FORMAT
 62
     0
100
AcDbCircle
 10
-51.2112095292
 20
-257.4561361058
 30
0.0
 40
262.5000000000007
100
AcDbArc
 50
100.7043259094
 51
101.25
  0
ARC
  5
9B
330
78
100
AcDbEntity
  8
FORMAT
 62
     0
100
AcDbCircle
 10
-51.2112095292
 20
-257.4561361058
 30
0.0
 40
262.5000000000008
100
AcDbArc
 50
34.8413481812
 51
55.1586518188
  0
ARC
  5
9C
330
78
100
AcDbEntity
  8
FORMAT
 62
     0
100
AcDbCircle
 10
-51.2112095292
 20
-257.4561361058
 30
0.0
 40
262.5000000000007
100
AcDbArc
 50
57.3413481812
 51
77.6586518188
  0
ARC
  5
9D
330
78
100
AcDbEntity
  8
FORMAT
 62
     0
100
AcDbCircle
 10
-51.2112095292
 20
-257.4561361058
 30
0.0
 40
262.5000000000007
100
AcDbArc
 50
12.3413481812
 51
32.6586518188
  0
ARC
  5
9E
330
78
100
AcDbEntity
  8
FORMAT
 62
     0
100
AcDbCircle
 10
-51.2112095292
 20
-257.4561361058
 30
0.0
 40
262.5000000000007
100
AcDbArc
 50
349.8413481812
 51
10.1586518188
  0
ARC
  5
9F
330
78
100
AcDbEntity
  8
FORMAT
 62
     0
100
AcDbCircle
 10
-51.2112095292
 20
-257.4561361058
 30
0.0
 40
262.5000000000008
100
AcDbArc
 50
327.3413481812
 51
347.6586518188
  0
ARC
  5
A0
330
78
100
AcDbEntity
  8
FORMAT
 62
     0
100
AcDbCircle
 10
-51.2112095292
 20
-257.4561361058
 30
0.0
 40
262.5000000000008
100
AcDbArc
 50
304.8413481812
 51
325.1586518188
  0
ARC
  5
A1
330
78
100
AcDbEntity
  8
FORMAT
 62
     0
100
AcDbCircle
 10
-51.2112095292
 20
-257.4561361058
 30
0.0
 40
262.5000000000007
100
AcDbArc
 50
282.3413481812
 51
302.6586518188
  0
ARC
  5
A2
330
78
100
AcDbEntity
  8
FORMAT
 62
     0
100
AcDbCircle
 10
-51.2112095292
 20
-257.4561361058
 30
0.0
 40
262.5000000000007
100
AcDbArc
 50
259.8413481812
 51
280.1586518188
  0
ARC
  5
A3
330
78
100
AcDbEntity
  8
FORMAT
 62
     0
100
AcDbCircle
 10
-51.2112095292
 20
-257.4561361058
 30
0.0
 40
262.5000000000008
100
AcDbArc
 50
237.3413481812
 51
257.6586518188
  0
ARC
  5
A4
330
78
100
AcDbEntity
  8
FORMAT
 62
     0
100
AcDbCircle
 10
-51.2112095292
 20
-257.4561361058
 30
0.0
 40
262.5000000000007
100
AcDbArc
 50
214.8413481812
 51
235.1586518188
  0
ARC
  5
A5
330
78
100
AcDbEntity
  8
FORMAT
 62
     0
100
AcDbCircle
 10
-51.2112095292
 20
-257.4561361058
 30
0.0
 40
262.5000000000007
100
AcDbArc
 50
192.3413481812
 51
212.6586518188
  0
ARC
  5
A6
330
78
100
AcDbEntity
  8
FORMAT
 62
     0
100
AcDbCircle
 10
-51.2112095292
 20
-257.4561361058
 30
0.0
 40
262.5000000000007
100
AcDbArc
 50
169.8413481812
 51
190.1586518188
  0
ARC
  5
A7
330
78
100
AcDbEntity
  8
FORMAT
 62
     0
100
AcDbCircle
 10
-51.2112095292
 20
-257.4561361058
 30
0.0
 40
262.5000000000007
100
AcDbArc
 50
147.3413481812
 51
167.6586518188
  0
ARC
  5
A8
330
78
100
AcDbEntity
  8
FORMAT
 62
     0
100
AcDbCircle
 10
-51.2112095292
 20
-257.4561361058
 30
0.0
 40
262.5000000000007
100
AcDbArc
 50
124.8413481812
 51
145.1586518188
  0
ARC
  5
A9
330
78
100
AcDbEntity
  8
FORMAT
 62
     0
100
AcDbCircle
 10
-51.2112095292
 20
-257.4561361058
 30
0.0
 40
262.5000000000007
100
AcDbArc
 50
79.8413481812
 51
100.1586518188
  0
ARC
  5
AA
330
78
100
AcDbEntity
  8
FORMAT
 62
     0
100
AcDbCircle
 10
-51.2112095292
 20
-257.4561361058
 30
0.0
 40
262.5000000000007
100
AcDbArc
 50
102.3413481812
 51
122.6586518188
  0
LINE
  5
AB
330
78
100
AcDbEntity
  8
FORMAT
 62
     0
100
AcDbLine
 10
0.0
 20
0.0
 30
0.0
 11
0.487725805
 21
2.451963201
 31
0.0
  0
LINE
  5
AC
330
78
100
AcDbEntity
  8
FORMAT
 62
     0
100
AcDbLine
 10
0.0
 20
0.0
 30
0.0
 11
-0.487725805
 21
-2.451963201
 31
0.0
  0
LINE
  5
AD
330
78
100
AcDbEntity
  8
FORMAT
 62
     0
100
AcDbLine
 10
0.9754516101
 20
4.903926402
 30
0.0
 11
3.5116257963
 21
17.6541350473
 31
0.0
  0
LINE
  5
AE
330
78
100
AcDbEntity
  8
FORMAT
 62
     0
100
AcDbLine
 10
-0.9754516101
 20
-4.903926402
 30
0.0
 11
-3.5116257963
 21
-17.6541350473
 31
0.0
  0
LINE
  5
AF
330
78
100
AcDbEntity
  8
FORMAT
 62
     0
100
AcDbLine
 10
94.6259766384
 20
-39.1953628764
 30
0.0
 11
96.014902221
 21
-37.1166888457
 31
0.0
  0
LINE
  5
B0
330
78
100
AcDbEntity
  8
FORMAT
 62
     0
100
AcDbLine
 10
94.6259766384
 20
-39.1953628764
 30
0.0
 11
93.2370510559
 21
-41.2740369072
 31
0.0
  0
LINE
  5
B1
330
78
100
AcDbEntity
  8
FORMAT
 62
     0
100
AcDbLine
 10
97.4038278035
 20
-35.0380148149
 30
0.0
 11
104.6262408328
 21
-24.228909855
 31
0.0
  0
LINE
  5
B2
330
78
100
AcDbEntity
  8
FORMAT
 62
     0
100
AcDbLine
 10
91.8481254733
 20
-43.3527109379
 30
0.0
 11
84.6257124441
 21
-54.1618158979
 31
0.0
  0
LINE
  5
B3
330
78
100
AcDbEntity
  8
FORMAT
 62
     0
100
AcDbLine
 10
167.0495637002
 20
-111.6189499382
 30
0.0
 11
169.1282377309
 21
-110.2300243557
 31
0.0
  0
LINE
  5
B4
330
78
100
AcDbEntity
  8
FORMAT
 62
     0
100
AcDbLine
 10
167.0495637002
 20
-111.6189499382
 30
0.0
 11
164.9708896694
 21
-113.0078755208
 31
0.0
  0
LINE
  5
B5
330
78
100
AcDbEntity
  8
FORMAT
 62
     0
100
AcDbLine
 10
171.2069117617
 20
-108.8410987731
 30
0.0
 11
182.0160167216
 21
-101.6186857439
 31
0.0
  0
LINE
  5
B6
330
78
100
AcDbEntity
  8
FORMAT
 62
     0
100
AcDbLine
 10
162.8922156387
 20
-114.3968011033
 30
0.0
 11
152.0831106787
 21
-121.6192141326
 31
0.0
  0
LINE
  5
B7
330
78
100
AcDbEntity
  8
FORMAT
 62
     0
100
AcDbLine
 10
-51.2112095292
 20
-257.4561361058
 30
0.0
 11
-51.2112095292
 21
-254.9561361058
 31
0.0
  0
LINE
  5
B8
330
78
100
AcDbEntity
  8
FORMAT
 62
     0
100
AcDbLine
 10
-51.2112095292
 20
-257.4561361058
 30
0.0
 11
-53.7112095292
 21
-257.4561361058
 31
0.0
  0
LINE
  5
B9
330
78
100
AcDbEntity
  8
FORMAT
 62
     0
100
AcDbLine
 10
-51.2112095292
 20
-257.4561361058
 30
0.0
 11
-51.2112095292
 21
-259.9561361058
 31
0.0
  0
LINE
  5
BA
330
78
100
AcDbEntity
  8
FORMAT
 62
     0
100
AcDbLine
 10
-51.2112095292
 20
-257.4561361058
 30
0.0
 11
-48.7112095292
 21
-257.4561361058
 31
0.0
  0
LINE
  5
BB
330
78
100
AcDbEntity
  8
FORMAT
 62
     0
100
AcDbLine
 10
-51.2112095292
 20
-252.4561361058
 30
0.0
 11
-51.2112095292
 21
38.8522259161
 31
0.0
  0
LINE
  5
BC
330
78
100
AcDbEntity
  8
FORMAT
 62
     0
100
AcDbLine
 10
-56.2112095292
 20
-257.4561361058
 30
0.0
 11
-347.3207495759
 21
-257.4561361058
 31
0.0
  0
LINE
  5
BD
330
78
100
AcDbEntity
  8
FORMAT
 62
     0
100
AcDbLine
 10
-51.2112095292
 20
-262.4561361058
 30
0.0
 11
-51.2112095292
 21
-554.1197646994
 31
0.0
  0
LINE
  5
BE
330
78
100
AcDbEntity
  8
FORMAT
 62
     0
100
AcDbLine
 10
-46.2112095292
 20
-257.4561361058
 30
0.0
 11
244.7070181247
 21
-257.4561361058
 31
0.0
  0
LINE
  5
BF
330
78
100
AcDbEntity
  8
FORMAT
 62
     0
100
AcDbLine
 10
206.2449265766
 20
-206.2449265766
 30
0.0
 11
208.6968897776
 21
-205.7572007716
 31
0.0
  0
LINE
  5
C0
330
78
100
AcDbEntity
  8
FORMAT
 62
     0
100
AcDbLine
 10
206.2449265766
 20
-206.2449265766
 30
0.0
 11
203.7929633756
 21
-206.7326523817
 31
0.0
  0
LINE
  5
C1
330
78
100
AcDbEntity
  8
FORMAT
 62
     0
100
AcDbLine
 10
211.1488529786
 20
-205.2694749665
 30
0.0
 11
223.8990616239
 21
-202.7333007803
 31
0.0
  0
LINE
  5
C2
330
78
100
AcDbEntity
  8
FORMAT
 62
     0
100
AcDbLine
 10
201.3410001746
 20
-207.2203781867
 30
0.0
 11
188.5907915293
 21
-209.7565523729
 31
0.0
  0
LINE
  5
C3
330
78
100
AcDbEntity
  8
FORMAT
 62
     0
100
AcDbLine
 10
206.2449265766
 20
-308.6673456351
 30
0.0
 11
208.6968897776
 21
-309.1550714401
 31
0.0
  0
LINE
  5
C4
330
78
100
AcDbEntity
  8
FORMAT
 62
     0
100
AcDbLine
 10
206.2449265766
 20
-308.6673456351
 30
0.0
 11
203.7929633756
 21
-308.17961983
 31
0.0
  0
LINE
  5
C5
330
78
100
AcDbEntity
  8
FORMAT
 62
     0
100
AcDbLine
 10
211.1488529786
 20
-309.6427972452
 30
0.0
 11
223.8990616239
 21
-312.1789714314
 31
0.0
  0
LINE
  5
C6
330
78
100
AcDbEntity
  8
FORMAT
 62
     0
100
AcDbLine
 10
201.3410001746
 20
-307.691894025
 30
0.0
 11
188.5907915293
 21
-305.1557198388
 31
0.0
  0
LINE
  5
C7
330
78
100
AcDbEntity
  8
FORMAT
 62
     0
100
AcDbLine
 10
167.0495637002
 20
-403.2933222735
 30
0.0
 11
169.1282377309
 21
-404.682247856
 31
0.0
  0
LINE
  5
C8
330
78
100
AcDbEntity
  8
FORMAT
 62
     0
100
AcDbLine
 10
167.0495637002
 20
-403.2933222735
 30
0.0
 11
164.9708896694
 21
-401.904396691
 31
0.0
  0
LINE
  5
C9
330
78
100
AcDbEntity
  8
FORMAT
 62
     0
100
AcDbLine
 10
171.2069117617
 20
-406.0711734386
 30
0.0
 11
182.0160167216
 21
-413.2935864679
 31
0.0
  0
LINE
  5
CA
330
78
100
AcDbEntity
  8
FORMAT
 62
     0
100
AcDbLine
 10
162.8922156387
 20
-400.5154711084
 30
0.0
 11
152.0831106787
 21
-393.2930580791
 31
0.0
  0
LINE
  5
CB
330
78
100
AcDbEntity
  8
FORMAT
 62
     0
100
AcDbLine
 10
94.6259766384
 20
-475.7169093353
 30
0.0
 11
96.0149022209
 21
-477.795583366
 31
0.0
  0
LINE
  5
CC
330
78
100
AcDbEntity
  8
FORMAT
 62
     0
100
AcDbLine
 10
94.6259766384
 20
-475.7169093353
 30
0.0
 11
93.2370510558
 21
-473.6382353045
 31
0.0
  0
LINE
  5
CD
330
78
100
AcDbEntity
  8
FORMAT
 62
     0
100
AcDbLine
 10
97.4038278035
 20
-479.8742573968
 30
0.0
 11
104.6262408327
 21
-490.6833623567
 31
0.0
  0
LINE
  5
CE
330
78
100
AcDbEntity
  8
FORMAT
 62
     0
100
AcDbLine
 10
91.8481254733
 20
-471.5595612738
 30
0.0
 11
84.625712444
 21
-460.7504563138
 31
0.0
  0
LINE
  5
CF
330
78
100
AcDbEntity
  8
FORMAT
 62
     0
100
AcDbLine
 10
0.0
 20
-514.9122722117
 30
0.0
 11
0.487725805
 21
-517.3642354127
 31
0.0
  0
LINE
  5
D0
330
78
100
AcDbEntity
  8
FORMAT
 62
     0
100
AcDbLine
 10
0.0
 20
-514.9122722117
 30
0.0
 11
-0.4877258051
 21
-512.4603090107
 31
0.0
  0
LINE
  5
D1
330
78
100
AcDbEntity
  8
FORMAT
 62
     0
100
AcDbLine
 10
0.9754516101
 20
-519.8161986137
 30
0.0
 11
3.5116257963
 21
-532.566407259
 31
0.0
  0
LINE
  5
D2
330
78
100
AcDbEntity
  8
FORMAT
 62
     0
100
AcDbLine
 10
-0.9754516101
 20
-510.0083458097
 30
0.0
 11
-3.5116257963
 21
-497.2581371644
 31
0.0
  0
LINE
  5
D3
330
78
100
AcDbEntity
  8
FORMAT
 62
     0
100
AcDbLine
 10
-102.4224190585
 20
-514.9122722117
 30
0.0
 11
-102.9101448635
 21
-517.3642354127
 31
0.0
  0
LINE
  5
D4
330
78
100
AcDbEntity
  8
FORMAT
 62
     0
100
AcDbLine
 10
-102.4224190585
 20
-514.9122722117
 30
0.0
 11
-101.9346932534
 21
-512.4603090107
 31
0.0
  0
LINE
  5
D5
330
78
100
AcDbEntity
  8
FORMAT
 62
     0
100
AcDbLine
 10
-103.3978706686
 20
-519.8161986137
 30
0.0
 11
-105.9340448548
 21
-532.566407259
 31
0.0
  0
LINE
  5
D6
330
78
100
AcDbEntity
  8
FORMAT
 62
     0
100
AcDbLine
 10
-101.4469674484
 20
-510.0083458097
 30
0.0
 11
-98.9107932622
 21
-497.2581371644
 31
0.0
  0
LINE
  5
D7
330
78
100
AcDbEntity
  8
FORMAT
 62
     0
100
AcDbLine
 10
-197.0483956969
 20
-475.7169093353
 30
0.0
 11
-198.4373212794
 21
-477.795583366
 31
0.0
  0
LINE
  5
D8
330
78
100
AcDbEntity
  8
FORMAT
 62
     0
100
AcDbLine
 10
-197.0483956969
 20
-475.7169093353
 30
0.0
 11
-195.6594701143
 21
-473.6382353045
 31
0.0
  0
LINE
  5
D9
330
78
100
AcDbEntity
  8
FORMAT
 62
     0
100
AcDbLine
 10
-199.826246862
 20
-479.8742573968
 30
0.0
 11
-207.0486598912
 21
-490.6833623567
 31
0.0
  0
LINE
  5
DA
330
78
100
AcDbEntity
  8
FORMAT
 62
     0
100
AcDbLine
 10
-194.2705445318
 20
-471.5595612737
 30
0.0
 11
-187.0481315025
 21
-460.7504563138
 31
0.0
  0
LINE
  5
DB
330
78
100
AcDbEntity
  8
FORMAT
 62
     0
100
AcDbLine
 10
-269.4719827587
 20
-403.2933222735
 30
0.0
 11
-271.5506567894
 21
-404.682247856
 31
0.0
  0
LINE
  5
DC
330
78
100
AcDbEntity
  8
FORMAT
 62
     0
100
AcDbLine
 10
-269.4719827587
 20
-403.2933222735
 30
0.0
 11
-267.3933087279
 21
-401.9043966909
 31
0.0
  0
LINE
  5
DD
330
78
100
AcDbEntity
  8
FORMAT
 62
     0
100
AcDbLine
 10
-273.6293308202
 20
-406.0711734386
 30
0.0
 11
-284.4384357801
 21
-413.2935864678
 31
0.0
  0
LINE
  5
DE
330
78
100
AcDbEntity
  8
FORMAT
 62
     0
100
AcDbLine
 10
-265.3146346972
 20
-400.5154711084
 30
0.0
 11
-254.5055297372
 21
-393.2930580791
 31
0.0
  0
LINE
  5
DF
330
78
100
AcDbEntity
  8
FORMAT
 62
     0
100
AcDbLine
 10
-308.6673456351
 20
-308.6673456351
 30
0.0
 11
-311.1193088361
 21
-309.1550714401
 31
0.0
  0
LINE
  5
E0
330
78
100
AcDbEntity
  8
FORMAT
 62
     0
100
AcDbLine
 10
-308.6673456351
 20
-308.6673456351
 30
0.0
 11
-306.2153824341
 21
-308.17961983
 31
0.0
  0
LINE
  5
E1
330
78
100
AcDbEntity
  8
FORMAT
 62
     0
100
AcDbLine
 10
-313.5712720371
 20
-309.6427972452
 30
0.0
 11
-326.3214806824
 21
-312.1789714314
 31
0.0
  0
LINE
  5
E2
330
78
100
AcDbEntity
  8
FORMAT
 62
     0
100
AcDbLine
 10
-303.7634192331
 20
-307.691894025
 30
0.0
 11
-291.0132105878
 21
-305.1557198388
 31
0.0
  0
LINE
  5
E3
330
78
100
AcDbEntity
  8
FORMAT
 62
     0
100
AcDbLine
 10
-308.6673456351
 20
-206.2449265766
 30
0.0
 11
-311.1193088361
 21
-205.7572007716
 31
0.0
  0
LINE
  5
E4
330
78
100
AcDbEntity
  8
FORMAT
 62
     0
100
AcDbLine
 10
-308.6673456351
 20
-206.2449265766
 30
0.0
 11
-306.2153824341
 21
-206.7326523816
 31
0.0
  0
LINE
  5
E5
330
78
100
AcDbEntity
  8
FORMAT
 62
     0
100
AcDbLine
 10
-313.5712720371
 20
-205.2694749665
 30
0.0
 11
-326.3214806823
 21
-202.7333007803
 31
0.0
  0
LINE
  5
E6
330
78
100
AcDbEntity
  8
FORMAT
 62
     0
100
AcDbLine
 10
-303.7634192331
 20
-207.2203781867
 30
0.0
 11
-291.0132105878
 21
-209.7565523729
 31
0.0
  0
LINE
  5
E7
330
78
100
AcDbEntity
  8
FORMAT
 62
     0
100
AcDbLine
 10
-269.4719827587
 20
-111.6189499382
 30
0.0
 11
-271.5506567894
 21
-110.2300243556
 31
0.0
  0
LINE
  5
E8
330
78
100
AcDbEntity
  8
FORMAT
 62
     0
100
AcDbLine
 10
-269.4719827587
 20
-111.6189499382
 30
0.0
 11
-267.3933087279
 21
-113.0078755207
 31
0.0
  0
LINE
  5
E9
330
78
100
AcDbEntity
  8
FORMAT
 62
     0
100
AcDbLine
 10
-273.6293308202
 20
-108.8410987731
 30
0.0
 11
-284.4384357801
 21
-101.6186857438
 31
0.0
  0
LINE
  5
EA
330
78
100
AcDbEntity
  8
FORMAT
 62
     0
100
AcDbLine
 10
-265.3146346971
 20
-114.3968011033
 30
0.0
 11
-254.5055297372
 21
-121.6192141325
 31
0.0
  0
LINE
  5
EB
330
78
100
AcDbEntity
  8
FORMAT
 62
     0
100
AcDbLine
 10
-197.0483956969
 20
-39.1953628764
 30
0.0
 11
-198.4373212794
 21
-37.1166888457
 31
0.0
  0
LINE
  5
EC
330
78
100
AcDbEntity
  8
FORMAT
 62
     0
100
AcDbLine
 10
-197.0483956969
 20
-39.1953628764
 30
0.0
 11
-195.6594701143
 21
-41.2740369072
 31
0.0
  0
LINE
  5
ED
330
78
100
AcDbEntity
  8
FORMAT
 62
     0
100
AcDbLine
 10
-199.826246862
 20
-35.0380148149
 30
0.0
 11
-207.0486598912
 21
-24.228909855
 31
0.0
  0
LINE
  5
EE
330
78
100
AcDbEntity
  8
FORMAT
 62
     0
100
AcDbLine
 10
-194.2705445318
 20
-43.3527109379
 30
0.0
 11
-187.0481315025
 21
-54.1618158979
 31
0.0
  0
LINE
  5
EF
330
78
100
AcDbEntity
  8
FORMAT
 62
     0
100
AcDbLine
 10
-102.4224190585
 20
0.0
 30
0.0
 11
-102.9101448635
 21
2.451963201
 31
0.0
  0
LINE
  5
F0
330
78
100
AcDbEntity
  8
FORMAT
 62
     0
100
AcDbLine
 10
-102.4224190585
 20
0.0
 30
0.0
 11
-101.9346932534
 21
-2.451963201
 31
0.0
  0
LINE
  5
F1
330
78
100
AcDbEntity
  8
FORMAT
 62
     0
100
AcDbLine
 10
-103.3978706685
 20
4.903926402
 30
0.0
 11
-105.9340448548
 21
17.6541350473
 31
0.0
  0
LINE
  5
F2
330
78
100
AcDbEntity
  8
FORMAT
 62
     0
100
AcDbLine
 10
-101.4469674484
 20
-4.903926402
 30
0.0
 11
-98.9107932622
 21
-17.6541350473
 31
0.0
  0
ENDBLK
  5
7A
330
78
100
AcDbEntity
  8
0
100
AcDbBlockEnd
  0
ENDSEC
  0
SECTION
  2
ENTITIES
  0
CIRCLE
  5
46
330
1F
100
AcDbEntity
  8
0
  6
Continuous
 62
     7
370
    15
100
AcDbCircle
 10
326.8251590286
 20
745.5585525085
 30
0.0
 40
15.5
  0
CIRCLE
  5
47
330
1F
100
AcDbEntity
  8
0
  6
Continuous
 62
     7
370
    15
100
AcDbCircle
 10
493.8747227288
 20
633.9396025703
 30
0.0
 40
15.50000000000006
  0
CIRCLE
  5
48
330
1F
100
AcDbEntity
  8
0
  6
Continuous
 62
     7
370
    15
100
AcDbCircle
 10
493.8747227287
 20
342.265230235
 30
0.0
 40
15.50000000000006
  0
CIRCLE
  5
49
330
1F
100
AcDbEntity
  8
0
  6
Continuous
 62
     7
370
    15
100
AcDbCircle
 10
326.8251590286
 20
230.6462802968
 30
0.0
 40
15.5
  0
CIRCLE
  5
4A
330
1F
100
AcDbEntity
  8
0
  6
Continuous
 62
     7
370
    15
100
AcDbCircle
 10
129.7767633317
 20
269.8416431732
 30
0.0
 40
15.49999999999999
  0
CIRCLE
  5
4B
330
1F
100
AcDbEntity
  8
0
  6
Continuous
 62
     7
370
    15
100
AcDbCircle
 10
18.1578133935
 20
436.8912068734
 30
0.0
 40
15.50000000000001
  0
CIRCLE
  5
4C
330
1F
100
AcDbEntity
  8
0
  6
Continuous
 62
     7
370
    15
100
AcDbCircle
 10
57.3531762699
 20
633.9396025703
 30
0.0
 40
15.50000000000001
  0
CIRCLE
  5
4D
330
1F
100
AcDbEntity
  8
0
  6
Continuous
 62
     7
370
    15
100
AcDbCircle
 10
533.0700856052
 20
539.3136259319
 30
0.0
 40
15.5
  0
CIRCLE
  5
4E
330
1F
100
AcDbEntity
  8
0
  6
Continuous
 62
     7
370
    15
100
AcDbCircle
 10
275.6139494993
 20
488.1024164026
 30
0.0
 40
200.0
  0
CIRCLE
  5
4F
330
1F
100
AcDbEntity
  8
0
  6
Continuous
 62
     7
370
    15
100
AcDbCircle
 10
275.6139494993
 20
488.1024164026
 30
0.0
 40
290.0
  0
CIRCLE
  5
50
330
1F
100
AcDbEntity
  8
0
  6
Continuous
 62
     7
370
    15
100
AcDbCircle
 10
224.4027399701
 20
745.5585525085
 30
0.0
 40
15.49999999999997
  0
CIRCLE
  5
51
330
1F
100
AcDbEntity
  8
0
  6
Continuous
 62
     7
370
    15
100
AcDbCircle
 10
129.7767633317
 20
706.3631896321
 30
0.0
 40
15.5
  0
CIRCLE
  5
52
330
1F
100
AcDbEntity
  8
0
  6
Continuous
 62
     7
370
    15
100
AcDbCircle
 10
18.1578133935
 20
539.3136259319
 30
0.0
 40
15.50000000000001
  0
CIRCLE
  5
53
330
1F
100
AcDbEntity
  8
0
  6
Continuous
 62
     7
370
    15
100
AcDbCircle
 10
57.3531762699
 20
342.265230235
 30
0.0
 40
15.50000000000001
  0
CIRCLE
  5
54
330
1F
100
AcDbEntity
  8
0
  6
Continuous
 62
     7
370
    15
100
AcDbCircle
 10
224.4027399701
 20
230.6462802968
 30
0.0
 40
15.5
  0
CIRCLE
  5
55
330
1F
100
AcDbEntity
  8
0
  6
Continuous
 62
     7
370
    15
100
AcDbCircle
 10
421.451135667
 20
269.8416431732
 30
0.0
 40
15.50000000000006
  0
CIRCLE
  5
56
330
1F
100
AcDbEntity
  8
0
  6
Continuous
 62
     7
370
    15
100
AcDbCircle
 10
533.0700856052
 20
436.8912068734
 30
0.0
 40
15.5
  0
CIRCLE
  5
57
330
1F
100
AcDbEntity
  8
0
  6
Continuous
 62
     7
370
    15
100
AcDbCircle
 10
421.451135667
 20
706.3631896321
 30
0.0
 40
15.50000000000006
  0
ARC
  5
58
330
1F
100
AcDbEntity
  8
0
  6
Continuous
 62
     7
370
    15
100
AcDbCircle
 10
275.6139494993
 20
488.1024164026
 30
0.0
 40
261.0
100
AcDbArc
 50
165.372548788
 51
172.127451212
  0
ARC
  5
59
330
1F
100
AcDbEntity
  8
0
  6
Continuous
 62
     7
370
    15
100
AcDbCircle
 10
275.6139494993
 20
488.1024164026
 30
0.0
 40
261.0000000000001
100
AcDbArc
 50
142.872548788
 51
149.627451212
  0
ARC
  5
5A
330
1F
100
AcDbEntity
  8
0
  6
Continuous
 62
     7
370
    15
100
AcDbCircle
 10
275.6139494993
 20
488.1024164026
 30
0.0
 40
261.0000000000001
100
AcDbArc
 50
120.372548788
 51
127.127451212
  0
ARC
  5
5B
330
1F
100
AcDbEntity
  8
0
  6
Continuous
 62
     7
370
    15
100
AcDbCircle
 10
275.6139494993
 20
488.1024164026
 30
0.0
 40
261.0000000000001
100
AcDbArc
 50
97.872548788
 51
104.627451212
  0
ARC
  5
5C
330
1F
100
AcDbEntity
  8
0
  6
Continuous
 62
     7
370
    15
100
AcDbCircle
 10
275.6139494993
 20
488.1024164026
 30
0.0
 40
261.0
100
AcDbArc
 50
75.372548788
 51
82.127451212
  0
ARC
  5
5D
330
1F
100
AcDbEntity
  8
0
  6
Continuous
 62
     7
370
    15
100
AcDbCircle
 10
275.6139494993
 20
488.1024164026
 30
0.0
 40
261.0000000000001
100
AcDbArc
 50
52.872548788
 51
59.627451212
  0
ARC
  5
5E
330
1F
100
AcDbEntity
  8
0
  6
Continuous
 62
     7
370
    15
100
AcDbCircle
 10
275.6139494993
 20
488.1024164026
 30
0.0
 40
261.0
100
AcDbArc
 50
30.372548788
 51
37.127451212
  0
ARC
  5
5F
330
1F
100
AcDbEntity
  8
0
  6
Continuous
 62
     7
370
    15
100
AcDbCircle
 10
275.6139494993
 20
488.1024164026
 30
0.0
 40
261.0
100
AcDbArc
 50
7.872548788
 51
14.627451212
  0
ARC
  5
60
330
1F
100
AcDbEntity
  8
0
  6
Continuous
 62
     7
370
    15
100
AcDbCircle
 10
275.6139494993
 20
488.1024164026
 30
0.0
 40
261.0
100
AcDbArc
 50
345.372548788
 51
352.127451212
  0
ARC
  5
61
330
1F
100
AcDbEntity
  8
0
  6
Continuous
 62
     7
370
    15
100
AcDbCircle
 10
275.6139494993
 20
488.1024164026
 30
0.0
 40
261.0
100
AcDbArc
 50
322.872548788
 51
329.627451212
  0
ARC
  5
62
330
1F
100
AcDbEntity
  8
0
  6
Continuous
 62
     7
370
    15
100
AcDbCircle
 10
275.6139494993
 20
488.1024164026
 30
0.0
 40
261.0
100
AcDbArc
 50
300.372548788
 51
307.127451212
  0
ARC
  5
63
330
1F
100
AcDbEntity
  8
0
  6
Continuous
 62
     7
370
    15
100
AcDbCircle
 10
275.6139494993
 20
488.1024164026
 30
0.0
 40
261.0
100
AcDbArc
 50
277.872548788
 51
284.627451212
  0
ARC
  5
64
330
1F
100
AcDbEntity
  8
0
  6
Continuous
 62
     7
370
    15
100
AcDbCircle
 10
275.6139494993
 20
488.1024164026
 30
0.0
 40
261.0000000000001
100
AcDbArc
 50
255.372548788
 51
262.127451212
  0
ARC
  5
65
330
1F
100
AcDbEntity
  8
0
  6
Continuous
 62
     7
370
    15
100
AcDbCircle
 10
275.6139494993
 20
488.1024164026
 30
0.0
 40
261.0
100
AcDbArc
 50
232.872548788
 51
239.627451212
  0
ARC
  5
66
330
1F
100
AcDbEntity
  8
0
  6
Continuous
 62
     7
370
    15
100
AcDbCircle
 10
275.6139494993
 20
488.1024164026
 30
0.0
 40
261.0000000000001
100
AcDbArc
 50
210.372548788
 51
217.127451212
  0
ARC
  5
67
330
1F
100
AcDbEntity
  8
0
  6
Continuous
 62
     7
370
    15
100
AcDbCircle
 10
275.6139494993
 20
488.1024164026
 30
0.0
 40
261.0
100
AcDbArc
 50
187.872548788
 51
194.627451212
  0
ARC
  5
68
330
1F
100
AcDbEntity
  8
0
  6
Continuous
 62
     7
370
     0
100
AcDbCircle
 10
275.6139494993
 20
488.1024164026
 30
0.0
 40
258.261467228243
100
AcDbArc
 50
165.4687264008
 51
172.0312735992
  0
ARC
  5
69
330
1F
100
AcDbEntity
  8
0
  6
Continuous
 62
     7
370
     0
100
AcDbCircle
 10
275.6139494993
 20
488.1024164026
 30
0.0
 40
258.261467228243
100
AcDbArc
 50
142.9687264008
 51
149.5312735992
  0
ARC
  5
6A
330
1F
100
AcDbEntity
  8
0
  6
Continuous
 62
     7
370
     0
100
AcDbCircle
 10
275.6139494993
 20
488.1024164026
 30
0.0
 40
258.2614672282429
100
AcDbArc
 50
120.4687264008
 51
127.0312735992
  0
ARC
  5
6B
330
1F
100
AcDbEntity
  8
0
  6
Continuous
 62
     7
370
     0
100
AcDbCircle
 10
275.6139494993
 20
488.1024164026
 30
0.0
 40
258.2614672282429
100
AcDbArc
 50
97.9687264008
 51
104.5312735992
  0
ARC
  5
6C
330
1F
100
AcDbEntity
  8
0
  6
Continuous
 62
     7
370
     0
100
AcDbCircle
 10
275.6139494993
 20
488.1024164026
 30
0.0
 40
258.261467228243
100
AcDbArc
 50
75.4687264008
 51
82.0312735992
  0
ARC
  5
6D
330
1F
100
AcDbEntity
  8
0
  6
Continuous
 62
     7
370
     0
100
AcDbCircle
 10
275.6139494993
 20
488.1024164026
 30
0.0
 40
258.2614672282429
100
AcDbArc
 50
52.9687264008
 51
59.5312735992
  0
ARC
  5
6E
330
1F
100
AcDbEntity
  8
0
  6
Continuous
 62
     7
370
     0
100
AcDbCircle
 10
275.6139494993
 20
488.1024164026
 30
0.0
 40
258.261467228243
100
AcDbArc
 50
30.4687264008
 51
37.0312735992
  0
ARC
  5
6F
330
1F
100
AcDbEntity
  8
0
  6
Continuous
 62
     7
370
     0
100
AcDbCircle
 10
275.6139494993
 20
488.1024164026
 30
0.0
 40
258.2614672282429
100
AcDbArc
 50
7.9687264008
 51
14.5312735992
  0
ARC
  5
70
330
1F
100
AcDbEntity
  8
0
  6
Continuous
 62
     7
370
     0
100
AcDbCircle
 10
275.6139494993
 20
488.1024164026
 30
0.0
 40
258.261467228243
100
AcDbArc
 50
345.4687264008
 51
352.0312735992
  0
ARC
  5
71
330
1F
100
AcDbEntity
  8
0
  6
Continuous
 62
     7
370
     0
100
AcDbCircle
 10
275.6139494993
 20
488.1024164026
 30
0.0
 40
258.261467228243
100
AcDbArc
 50
322.9687264008
 51
329.5312735992
  0
ARC
  5
72
330
1F
100
AcDbEntity
  8
0
  6
Continuous
 62
     7
370
     0
100
AcDbCircle
 10
275.6139494993
 20
488.1024164026
 30
0.0
 40
258.261467228243
100
AcDbArc
 50
300.4687264008
 51
307.0312735992
  0
ARC
  5
73
330
1F
100
AcDbEntity
  8
0
  6
Continuous
 62
     7
370
     0
100
AcDbCircle
 10
275.6139494993
 20
488.1024164026
 30
0.0
 40
258.2614672282429
100
AcDbArc
 50
277.9687264008
 51
284.5312735992
  0
ARC
  5
74
330
1F
100
AcDbEntity
  8
0
  6
Continuous
 62
     7
370
     0
100
AcDbCircle
 10
275.6139494993
 20
488.1024164026
 30
0.0
 40
258.261467228243
100
AcDbArc
 50
255.4687264008
 51
262.0312735992
  0
ARC
  5
75
330
1F
100
AcDbEntity
  8
0
  6
Continuous
 62
     7
370
     0
100
AcDbCircle
 10
275.6139494993
 20
488.1024164026
 30
0.0
 40
258.261467228243
100
AcDbArc
 50
232.9687264008
 51
239.5312735992
  0
ARC
  5
76
330
1F
100
AcDbEntity
  8
0
  6
Continuous
 62
     7
370
     0
100
AcDbCircle
 10
275.6139494993
 20
488.1024164026
 30
0.0
 40
258.261467228243
100
AcDbArc
 50
210.4687264008
 51
217.0312735992
  0
ARC
  5
77
330
1F
100
AcDbEntity
  8
0
  6
Continuous
 62
     7
370
     0
100
AcDbCircle
 10
275.6139494993
 20
488.1024164026
 30
0.0
 40
258.261467228243
100
AcDbArc
 50
187.9687264008
 51
194.5312735992
  0
INSERT
  5
F3
330
1F
100
AcDbEntity
  8
FORMAT
100
AcDbBlockReference
  2
SW_CENTERMARKSYMBOL_0
 10
326.8251590286
 20
745.5585525085
 30
0.0
  0
LINE
  5
F4
330
1F
100
AcDbEntity
  8
0
  6
Continuous
 62
     7
370
    15
100
AcDbLine
 10
850.4825230834
 20
778.1024164026
 30
0.0
 11
825.4825230834
 21
778.1024164026
 31
0.0
  0
LINE
  5
F5
330
1F
100
AcDbEntity
  8
0
  6
Continuous
 62
     7
370
    15
100
AcDbLine
 10
825.4825230834
 20
198.1024164026
 30
0.0
 11
850.4825230834
 21
198.1024164026
 31
0.0
  0
LINE
  5
F6
330
1F
100
AcDbEntity
  8
0
  6
Continuous
 62
     7
370
    15
100
AcDbLine
 10
720.4825230834
 20
227.1024164026
 30
0.0
 11
723.7335295614
 21
227.1024164026
 31
0.0
  0
LINE
  5
F7
330
1F
100
AcDbEntity
  8
0
  6
Continuous
 62
     7
370
    15
100
AcDbLine
 10
723.7335295614
 20
749.1024164026
 30
0.0
 11
720.4825230834
 21
749.1024164026
 31
0.0
  0
ARC
  5
F8
330
1F
100
AcDbEntity
  8
0
  6
Continuous
 62
     7
370
    15
100
AcDbCircle
 10
723.7335295614
 20
230.1024164026
 30
0.0
 40
3.0
100
AcDbArc
 50
270.0
 51
355.0
  0
ARC
  5
F9
330
1F
100
AcDbEntity
  8
0
  6
Continuous
 62
     7
370
    15
100
AcDbCircle
 10
723.7335295614
 20
746.1024164026
 30
0.0
 40
3.000000000000114
100
AcDbArc
 50
5.0
 51
90.0
  0
LINE
  5
FA
330
1F
100
AcDbEntity
  8
0
  6
Continuous
 62
     7
370
    15
100
AcDbLine
 10
717.9825230834
 20
476.1024164026
 30
0.0
 11
720.4825230834
 21
476.1024164026
 31
0.0
  0
LINE
  5
FB
330
1F
100
AcDbEntity
  8
0
  6
Continuous
 62
     7
370
    15
100
AcDbLine
 10
720.4825230834
 20
500.1024164026
 30
0.0
 11
717.9825230834
 21
500.1024164026
 31
0.0
  0
LINE
  5
FC
330
1F
100
AcDbEntity
  8
0
  6
Continuous
 62
     7
370
    15
100
AcDbLine
 10
726.7221136557
 20
229.8409491744
 30
0.0
 11
727.1828649813
 21
235.1073609252
 31
0.0
  0
LINE
  5
FD
330
1F
100
AcDbEntity
  8
0
  6
Continuous
 62
     7
370
    15
100
AcDbLine
 10
727.1828649813
 20
741.0974718801
 30
0.0
 11
726.7221136557
 21
746.3638836309
 31
0.0
  0
LINE
  5
FE
330
1F
100
AcDbEntity
  8
0
  6
Continuous
 62
     7
370
    15
100
AcDbLine
 10
708.8193833626
 20
498.4947212481
 30
0.0
 11
707.5825230834
 21
496.3524164026
 31
0.0
  0
LINE
  5
FF
330
1F
100
AcDbEntity
  8
0
  6
Continuous
 62
     7
370
    15
100
AcDbLine
 10
707.5825230834
 20
479.8524164026
 30
0.0
 11
708.8193833626
 21
477.7101115572
 31
0.0
  0
LINE
  5
100
330
1F
100
AcDbEntity
  8
0
  6
Continuous
 62
     7
370
    15
100
AcDbLine
 10
716.7456628043
 20
477.7101115572
 30
0.0
 11
717.9825230834
 21
479.8524164026
 31
0.0
  0
LINE
  5
101
330
1F
100
AcDbEntity
  8
0
  6
Continuous
 62
     7
370
    15
100
AcDbLine
 10
717.9825230834
 20
496.3524164026
 30
0.0
 11
716.7456628043
 21
498.4947212481
 31
0.0
  0
LINE
  5
102
330
1F
100
AcDbEntity
  8
0
  6
Continuous
 62
     7
370
    15
100
AcDbLine
 10
707.5825230834
 20
494.1024164026
 30
0.0
 11
672.4825230834
 21
494.1024164026
 31
0.0
  0
LINE
  5
103
330
1F
100
AcDbEntity
  8
0
  6
Continuous
 62
     7
370
    15
100
AcDbLine
 10
672.4825230834
 20
482.1024164026
 30
0.0
 11
707.5825230834
 21
482.1024164026
 31
0.0
  0
LINE
  5
104
330
1F
100
AcDbEntity
  8
0
  6
Continuous
 62
     7
370
    15
100
AcDbLine
 10
825.4825230834
 20
494.1024164026
 30
0.0
 11
727.7009906707
 21
494.1024164026
 31
0.0
  0
LINE
  5
105
330
1F
100
AcDbEntity
  8
0
  6
Continuous
 62
     7
370
    15
100
AcDbLine
 10
727.7009893448
 20
482.1024164026
 30
0.0
 11
825.4825230834
 21
482.1024164026
 31
0.0
  0
ARC
  5
106
330
1F
100
AcDbEntity
  8
0
  6
Continuous
 62
     7
370
    15
100
AcDbCircle
 10
733.1253602583
 20
245.6618265215
 30
0.0
 40
4.99999999999998
100
AcDbArc
 50
93.0
 51
163.2715184381
  0
ARC
  5
107
330
1F
100
AcDbEntity
  8
0
  6
Continuous
 62
     7
370
    15
100
AcDbCircle
 10
733.1253602583
 20
730.5430062838
 30
0.0
 40
4.999999999999968
100
AcDbArc
 50
196.7256176722
 51
267.0
  0
LINE
  5
108
330
1F
100
AcDbEntity
  8
0
  6
Continuous
 62
     7
370
    15
100
AcDbLine
 10
732.8636804771
 20
250.6549741953
 30
0.0
 11
758.1133629741
 21
251.9782539825
 31
0.0
  0
LINE
  5
109
330
1F
100
AcDbEntity
  8
0
  6
Continuous
 62
     7
370
    15
100
AcDbLine
 10
758.1133629741
 20
724.2265788227
 30
0.0
 11
732.8636804771
 21
725.54985861
 31
0.0
  0
ARC
  5
10A
330
1F
100
AcDbEntity
  8
0
  6
Continuous
 62
     7
370
    15
100
AcDbCircle
 10
757.9825230834
 20
254.4748278194
 30
0.0
 40
2.5
100
AcDbArc
 50
273.0
 51
0.0
  0
ARC
  5
10B
330
1F
100
AcDbEntity
  8
0
  6
Continuous
 62
     7
370
    15
100
AcDbCircle
 10
757.9825230834
 20
721.7300049859
 30
0.0
 40
2.500000000000021
100
AcDbArc
 50
0.0
 51
87.0
  0
LINE
  5
10C
330
1F
100
AcDbEntity
  8
0
  6
Continuous
 62
     7
370
    15
100
AcDbLine
 10
825.4825230834
 20
702.1024164026
 30
0.0
 11
760.4825230834
 21
702.1024164026
 31
0.0
  0
LINE
  5
10D
330
1F
100
AcDbEntity
  8
0
  6
Continuous
 62
     7
370
    15
100
AcDbLine
 10
760.4825230834
 20
274.1024164026
 30
0.0
 11
825.4825230834
 21
274.1024164026
 31
0.0
  0
LINE
  5
10E
330
1F
100
AcDbEntity
  8
0
  6
Continuous
 62
     7
370
    15
100
AcDbLine
 10
717.9825230834
 20
650.7577913557
 30
0.0
 11
720.4825230834
 21
650.7577913557
 31
0.0
  0
LINE
  5
10F
330
1F
100
AcDbEntity
  8
0
  6
Continuous
 62
     7
370
    15
100
AcDbLine
 10
720.4825230834
 20
674.7577913557
 30
0.0
 11
717.9825230834
 21
674.7577913557
 31
0.0
  0
LINE
  5
110
330
1F
100
AcDbEntity
  8
0
  6
Continuous
 62
     7
370
    15
100
AcDbLine
 10
717.9825230834
 20
301.4470414496
 30
0.0
 11
720.4825230834
 21
301.4470414496
 31
0.0
  0
LINE
  5
111
330
1F
100
AcDbEntity
  8
0
  6
Continuous
 62
     7
370
    15
100
AcDbLine
 10
720.4825230834
 20
325.4470414496
 30
0.0
 11
717.9825230834
 21
325.4470414496
 31
0.0
  0
LINE
  5
112
330
1F
100
AcDbEntity
  8
0
  6
Continuous
 62
     7
370
    15
100
AcDbLine
 10
708.1994789593
 20
672.0763902787
 30
0.0
 11
707.5825230834
 21
671.0077913557
 31
0.0
  0
LINE
  5
113
330
1F
100
AcDbEntity
  8
0
  6
Continuous
 62
     7
370
    15
100
AcDbLine
 10
707.5825230834
 20
654.5077913557
 30
0.0
 11
708.1994789593
 21
653.4391924328
 31
0.0
  0
LINE
  5
114
330
1F
100
AcDbEntity
  8
0
  6
Continuous
 62
     7
370
    15
100
AcDbLine
 10
717.3639127232
 20
653.4363267816
 30
0.0
 11
717.9825230834
 21
654.5077913557
 31
0.0
  0
LINE
  5
115
330
1F
100
AcDbEntity
  8
0
  6
Continuous
 62
     7
370
    15
100
AcDbLine
 10
717.9825230834
 20
671.0077913557
 30
0.0
 11
717.3639127232
 21
672.0792559298
 31
0.0
  0
LINE
  5
116
330
1F
100
AcDbEntity
  8
0
  6
Continuous
 62
     7
370
    15
100
AcDbLine
 10
708.2011334437
 20
322.7685060237
 30
0.0
 11
707.5825230834
 21
321.6970414496
 31
0.0
  0
LINE
  5
117
330
1F
100
AcDbEntity
  8
0
  6
Continuous
 62
     7
370
    15
100
AcDbLine
 10
707.5825230834
 20
305.1970414496
 30
0.0
 11
708.2011334437
 21
304.1255768755
 31
0.0
  0
LINE
  5
118
330
1F
100
AcDbEntity
  8
0
  6
Continuous
 62
     7
370
    15
100
AcDbLine
 10
717.3655672076
 20
304.1284425266
 30
0.0
 11
717.9825230834
 21
305.1970414496
 31
0.0
  0
LINE
  5
119
330
1F
100
AcDbEntity
  8
0
  6
Continuous
 62
     7
370
    15
100
AcDbLine
 10
717.9825230834
 20
321.6970414496
 30
0.0
 11
717.3655672076
 21
322.7656403725
 31
0.0
  0
LINE
  5
11A
330
1F
100
AcDbEntity
  8
0
  6
Continuous
 62
     7
370
    15
100
AcDbLine
 10
707.5825230834
 20
668.7577913557
 30
0.0
 11
672.4825230834
 21
668.7577913557
 31
0.0
  0
LINE
  5
11B
330
1F
100
AcDbEntity
  8
0
  6
Continuous
 62
     7
370
    15
100
AcDbLine
 10
672.4825230834
 20
656.7577913557
 30
0.0
 11
707.5825230834
 21
656.7577913557
 31
0.0
  0
LINE
  5
11C
330
1F
100
AcDbEntity
  8
0
  6
Continuous
 62
     7
370
    15
100
AcDbLine
 10
825.4825230834
 20
668.7577913557
 30
0.0
 11
727.333146313
 21
668.7577913557
 31
0.0
  0
LINE
  5
11D
330
1F
100
AcDbEntity
  8
0
  6
Continuous
 62
     7
370
    15
100
AcDbLine
 10
728.0743396729
 20
656.7577913557
 30
0.0
 11
825.4825230834
 21
656.7577913557
 31
0.0
  0
LINE
  5
11E
330
1F
100
AcDbEntity
  8
0
  6
Continuous
 62
     7
370
    15
100
AcDbLine
 10
707.5825230834
 20
319.4470414496
 30
0.0
 11
672.4825230834
 21
319.4470414496
 31
0.0
  0
LINE
  5
11F
330
1F
100
AcDbEntity
  8
0
  6
Continuous
 62
     7
370
    15
100
AcDbLine
 10
672.4825230834
 20
307.4470414496
 30
0.0
 11
707.5825230834
 21
307.4470414496
 31
0.0
  0
LINE
  5
120
330
1F
100
AcDbEntity
  8
0
  6
Continuous
 62
     7
370
    15
100
AcDbLine
 10
825.4825230834
 20
319.4470414496
 30
0.0
 11
728.075256628
 21
319.4470414496
 31
0.0
  0
LINE
  5
121
330
1F
100
AcDbEntity
  8
0
  6
Continuous
 62
     7
370
    15
100
AcDbLine
 10
727.3332112443
 20
307.4470414496
 30
0.0
 11
825.4825230834
 21
307.4470414496
 31
0.0
  0
LINE
  5
122
330
1F
100
AcDbEntity
  8
0
  6
Continuous
 62
     7
370
    15
100
AcDbLine
 10
717.9825230834
 20
723.1024164026
 30
0.0
 11
720.4825230834
 21
723.1024164026
 31
0.0
  0
LINE
  5
123
330
1F
100
AcDbEntity
  8
0
  6
Continuous
 62
     7
370
    15
100
AcDbLine
 10
720.4825230834
 20
747.1024164026
 30
0.0
 11
717.9825230834
 21
747.1024164026
 31
0.0
  0
LINE
  5
124
330
1F
100
AcDbEntity
  8
0
  6
Continuous
 62
     7
370
    15
100
AcDbLine
 10
717.9825230834
 20
229.1024164026
 30
0.0
 11
720.4825230834
 21
229.1024164026
 31
0.0
  0
LINE
  5
125
330
1F
100
AcDbEntity
  8
0
  6
Continuous
 62
     7
370
    15
100
AcDbLine
 10
720.4825230834
 20
253.1024164026
 30
0.0
 11
717.9825230834
 21
253.1024164026
 31
0.0
  0
LINE
  5
126
330
1F
100
AcDbEntity
  8
0
  6
Continuous
 62
     7
370
    15
100
AcDbLine
 10
708.0155357853
 20
744.1024164026
 30
0.0
 11
707.5825230834
 21
743.3524164026
 31
0.0
  0
LINE
  5
127
330
1F
100
AcDbEntity
  8
0
  6
Continuous
 62
     7
370
    15
100
AcDbLine
 10
707.5825230834
 20
726.8524164026
 30
0.0
 11
708.0155357853
 21
726.1024164026
 31
0.0
  0
LINE
  5
128
330
1F
100
AcDbEntity
  8
0
  6
Continuous
 62
     7
370
    15
100
AcDbLine
 10
717.5495103816
 20
726.1024164026
 30
0.0
 11
717.9825230834
 21
726.8524164026
 31
0.0
  0
LINE
  5
129
330
1F
100
AcDbEntity
  8
0
  6
Continuous
 62
     7
370
    15
100
AcDbLine
 10
717.9825230834
 20
743.3524164026
 30
0.0
 11
717.5495103816
 21
744.1024164026
 31
0.0
  0
LINE
  5
12A
330
1F
100
AcDbEntity
  8
0
  6
Continuous
 62
     7
370
    15
100
AcDbLine
 10
708.0155357853
 20
250.1024164026
 30
0.0
 11
707.5825230834
 21
249.3524164026
 31
0.0
  0
LINE
  5
12B
330
1F
100
AcDbEntity
  8
0
  6
Continuous
 62
     7
370
    15
100
AcDbLine
 10
707.5825230834
 20
232.8524164026
 30
0.0
 11
708.0155357853
 21
232.1024164026
 31
0.0
  0
LINE
  5
12C
330
1F
100
AcDbEntity
  8
0
  6
Continuous
 62
     7
370
    15
100
AcDbLine
 10
717.5495103816
 20
232.1024164026
 30
0.0
 11
717.9825230834
 21
232.8524164026
 31
0.0
  0
LINE
  5
12D
330
1F
100
AcDbEntity
  8
0
  6
Continuous
 62
     7
370
    15
100
AcDbLine
 10
717.9825230834
 20
249.3524164026
 30
0.0
 11
717.5495103816
 21
250.1024164026
 31
0.0
  0
LINE
  5
12E
330
1F
100
AcDbEntity
  8
0
  6
Continuous
 62
     7
370
    15
100
AcDbLine
 10
707.5825230834
 20
741.1024164026
 30
0.0
 11
672.4825230834
 21
741.1024164026
 31
0.0
  0
LINE
  5
12F
330
1F
100
AcDbEntity
  8
0
  6
Continuous
 62
     7
370
    15
100
AcDbLine
 10
672.4825230834
 20
729.1024164026
 30
0.0
 11
707.5825230834
 21
729.1024164026
 31
0.0
  0
LINE
  5
130
330
1F
100
AcDbEntity
  8
0
  6
Continuous
 62
     7
370
    15
100
AcDbLine
 10
825.4825230834
 20
741.1024164026
 30
0.0
 11
727.1824323917
 21
741.1024164026
 31
0.0
  0
LINE
  5
131
330
1F
100
AcDbEntity
  8
0
  6
Continuous
 62
     7
370
    15
100
AcDbLine
 10
728.3369124011
 20
729.1024164026
 30
0.0
 11
825.4825230834
 21
729.1024164026
 31
0.0
  0
LINE
  5
132
330
1F
100
AcDbEntity
  8
0
  6
Continuous
 62
     7
370
    15
100
AcDbLine
 10
707.5825230834
 20
247.1024164026
 30
0.0
 11
672.4825230834
 21
247.1024164026
 31
0.0
  0
LINE
  5
133
330
1F
100
AcDbEntity
  8
0
  6
Continuous
 62
     7
370
    15
100
AcDbLine
 10
672.4825230834
 20
235.1024164026
 30
0.0
 11
707.5825230834
 21
235.1024164026
 31
0.0
  0
LINE
  5
134
330
1F
100
AcDbEntity
  8
0
  6
Continuous
 62
     7
370
    15
100
AcDbLine
 10
825.4825230834
 20
247.1024164026
 30
0.0
 11
728.3369124011
 21
247.1024164026
 31
0.0
  0
LINE
  5
135
330
1F
100
AcDbEntity
  8
0
  6
Continuous
 62
     7
370
    15
100
AcDbLine
 10
727.1824323917
 20
235.1024164026
 30
0.0
 11
825.4825230834
 21
235.1024164026
 31
0.0
  0
LINE
  5
136
330
1F
100
AcDbEntity
  8
0
  6
Continuous
 62
     7
370
    15
100
AcDbLine
 10
708.2011334437
 20
672.0792559298
 30
0.0
 11
708.1994789593
 21
672.0763902787
 31
0.0
  0
LINE
  5
137
330
1F
100
AcDbEntity
  8
0
  6
Continuous
 62
     7
370
    15
100
AcDbLine
 10
717.3639127232
 20
304.1255768755
 30
0.0
 11
717.3655672076
 21
304.1284425266
 31
0.0
  0
LINE
  5
138
330
1F
100
AcDbEntity
  8
0
  6
Continuous
 62
     7
370
    15
100
AcDbLine
 10
850.4825230834
 20
488.1024164026
 30
0.0
 11
850.4825230834
 21
778.1024164026
 31
0.0
  0
LINE
  5
139
330
1F
100
AcDbEntity
  8
0
  6
Continuous
 62
     7
370
    15
100
AcDbLine
 10
850.4825230834
 20
198.1024164026
 30
0.0
 11
850.4825230834
 21
488.1024164026
 31
0.0
  0
LINE
  5
13A
330
1F
100
AcDbEntity
  8
0
  6
Continuous
 62
     7
370
    15
100
AcDbLine
 10
825.4825230834
 20
488.1024164026
 30
0.0
 11
825.4825230834
 21
778.1024164026
 31
0.0
  0
LINE
  5
13B
330
1F
100
AcDbEntity
  8
0
  6
Continuous
 62
     7
370
    15
100
AcDbLine
 10
825.4825230834
 20
198.1024164026
 30
0.0
 11
825.4825230834
 21
488.1024164026
 31
0.0
  0
LINE
  5
13C
330
1F
100
AcDbEntity
  8
0
  6
Continuous
 62
     7
370
    15
100
AcDbLine
 10
720.4825230834
 20
488.1024164026
 30
0.0
 11
720.4825230834
 21
749.1024164026
 31
0.0
  0
LINE
  5
13D
330
1F
100
AcDbEntity
  8
0
  6
Continuous
 62
     7
370
    15
100
AcDbLine
 10
720.4825230834
 20
227.1024164026
 30
0.0
 11
720.4825230834
 21
488.1024164026
 31
0.0
  0
LINE
  5
13E
330
1F
100
AcDbEntity
  8
0
  6
Continuous
 62
     7
370
    15
100
AcDbLine
 10
717.9825230834
 20
476.1024164026
 30
0.0
 11
717.9825230834
 21
500.1024164026
 31
0.0
  0
SPLINE
  5
13F
330
1F
100
AcDbEntity
  8
0
  6
Continuous
 62
     7
370
    15
100
AcDbSpline
210
0.0
220
0.0
230
1.0
 70
     8
 71
     3
 72
    38
 73
    34
 74
     0
 42
0.00000001
 43
0.00000001
 12
1.0
 22
0.0
 32
0.0
 13
1.0
 23
0.0
 33
0.0
 40
0.0
 40
0.0
 40
0.0
 40
0.0
 40
0.0214940342253646
 40
0.0548736822450152
 40
0.0870341746618672
 40
0.1194177955022014
 40
0.1525045296710534
 40
0.1858339176517103
 40
0.2180250400706989
 40
0.2504388355246342
 40
0.2835537137855909
 40
0.3169103140713578
 40
0.3491934239320924
 40
0.3816995159321029
 40
0.414907567069232
 40
0.4483576302519112
 40
0.4807567520348226
 40
0.5133798141289525
 40
0.5467083146428102
 40
0.5802802485652727
 40
0.6127707629528838
 40
0.6454864507404026
 40
0.678912323627095
 40
0.7125836450665041
 40
0.745099991307137
 40
0.7778425037173227
 40
0.8112992389235961
 40
0.8450031932720663
 40
0.8774653291335082
 40
0.910153923824005
 40
0.9435581953578412
 40
0.9772103855072867
 40
1.0
 40
1.0
 40
1.0
 40
1.0
 10
727.1828548039288
 20
741.0974709896532
 30
0.0
 10
727.1828388551595
 20
741.0976576693876
 30
0.0
 10
727.1827981383873
 20
741.0981342576499
 30
0.0
 10
727.1869256317132
 20
741.0498129480596
 30
0.0
 10
727.1945976070697
 20
740.9600212854383
 30
0.0
 10
727.205855073198
 20
740.8283208225212
 30
0.0
 10
727.2206878324678
 20
740.6548956338638
 30
0.0
 10
727.2389230951625
 20
740.4418492171618
 30
0.0
 10
727.2602567543603
 20
740.1928284478143
 30
0.0
 10
727.2845792214137
 20
739.909211672467
 30
0.0
 10
727.3121418846549
 20
739.58819018839
 30
0.0
 10
727.3424661416784
 20
739.2354737762503
 30
0.0
 10
727.3751397488692
 20
738.855977714348
 30
0.0
 10
727.4100496415491
 20
738.4511272050555
 30
0.0
 10
727.4474832513383
 20
738.017726074903
 30
0.0
 10
727.4867509379079
 20
737.563895555684
 30
0.0
 10
727.5273533538134
 20
737.0954996452807
 30
0.0
 10
727.5691812070364
 20
736.6138724643873
 30
0.0
 10
727.6125272897877
 20
736.1157417319502
 30
0.0
 10
727.6565398918498
 20
735.610979784972
 30
0.0
 10
727.7006783295321
 20
735.1058064328545
 30
0.0
 10
727.7448435696599
 20
734.6013506589501
 30
0.0
 10
727.7893181376619
 20
734.0944067921811
 30
0.0
 10
727.8331563433716
 20
733.5957526145112
 30
0.0
 10
727.8758357977653
 20
733.1112575538293
 30
0.0
 10
727.9172808862727
 20
732.6416905448746
 30
0.0
 10
727.9577478884669
 20
732.1840844182492
 30
0.0
 10
727.9963026038157
 20
731.7489185864039
 30
0.0
 10
728.032504705735
 20
731.3410231729007
 30
0.0
 10
728.0663363140119
 20
730.960457879117
 30
0.0
 10
728.0979334447535
 20
730.6055803230837
 30
0.0
 10
728.1239777001081
 20
730.3134756093915
 30
0.0
 10
728.1385164351938
 20
730.1506196698964
 30
0.0
 10
728.1443867678297
 20
730.0848630183775
 30
0.0
  0
SPLINE
  5
140
330
1F
100
AcDbEntity
  8
0
  6
Continuous
 62
     7
370
    15
100
AcDbSpline
210
0.0
220
0.0
230
1.0
 70
     8
 71
     3
 72
    36
 73
    32
 74
     0
 42
0.00000001
 43
0.00000001
 12
1.0
 22
0.0
 32
0.0
 13
1.0
 23
0.0
 33
0.0
 40
0.0
 40
0.0
 40
0.0
 40
0.0
 40
0.0016344154991658
 40
0.0374573270954554
 40
0.073395036415377
 40
0.1092173451761183
 40
0.1449103817332217
 40
0.1807177276525668
 40
0.2164104384224408
 40
0.2520037641927683
 40
0.2877108058054106
 40
0.3233042098669035
 40
0.3588685664093876
 40
0.3945461876988052
 40
0.4301109880699632
 40
0.4657282845687648
 40
0.5014587161358408
 40
0.5370766402906268
 40
0.5728073123357733
 40
0.6086513615283311
 40
0.6443825868231714
 40
0.6802408531672468
 40
0.7162130183145841
 40
0.7520715218283861
 40
0.7880174594532017
 40
0.8240778904990604
 40
0.8600236252859871
 40
0.8959770476022857
 40
0.9320453776883821
 40
0.9679982246364712
 40
1.0
 40
1.0
 40
1.0
 40
1.0
 10
727.3331463129853
 20
668.7561120566584
 30
0.0
 10
727.3324886885449
 20
668.7566686531133
 30
0.0
 10
727.3174173350355
 20
668.7694246600632
 30
0.0
 10
727.2922279566467
 20
668.7226832396389
 30
0.0
 10
727.2584704139059
 20
668.6122728793102
 30
0.0
 10
727.2307949889369
 20
668.4197138456726
 30
0.0
 10
727.2090611901986
 20
668.1562781676062
 30
0.0
 10
727.1934744600235
 20
667.8251884769568
 30
0.0
 10
727.1841502160786
 20
667.4312604599606
 30
0.0
 10
727.1814234256752
 20
666.9773476516624
 30
0.0
 10
727.1850735526381
 20
666.4715994334025
 30
0.0
 10
727.1950544903742
 20
665.9198369361235
 30
0.0
 10
727.2114619270083
 20
665.3277051635969
 30
0.0
 10
727.2338688802712
 20
664.704198279921
 30
0.0
 10
727.2620364352521
 20
664.0563504899449
 30
0.0
 10
727.2958288378491
 20
663.391759186821
 30
0.0
 10
727.3346513187905
 20
662.7193958151099
 30
0.0
 10
727.3780862508207
 20
662.0469347831537
 30
0.0
 10
727.4257712546454
 20
661.3831810000133
 30
0.0
 10
727.4769906830726
 20
660.7362240856294
 30
0.0
 10
727.5311631323251
 20
660.1137463964677
 30
0.0
 10
727.5877197011922
 20
659.5248680070532
 30
0.0
 10
727.6458814905438
 20
658.9759735020009
 30
0.0
 10
727.7049408410983
 20
658.4739073059158
 30
0.0
 10
727.7641659831548
 20
658.0271046743253
 30
0.0
 10
727.8227977622965
 20
657.6393772630719
 30
0.0
 10
727.8800586236563
 20
657.3160752591824
 30
0.0
 10
727.935206466555
 20
657.0626523437119
 30
0.0
 10
727.9873186410152
 20
656.8844024419069
 30
0.0
 10
728.034933464338
 20
656.7711937522308
 30
0.0
 10
728.0617234856016
 20
656.772959007857
 30
0.0
 10
728.074339672894
 20
656.7737903172233
 30
0.0
  0
SPLINE
  5
141
330
1F
100
AcDbEntity
  8
0
  6
Continuous
 62
     7
370
    15
100
AcDbSpline
210
0.0
220
0.0
230
1.0
 70
     8
 71
     3
 72
    46
 73
    42
 74
     0
 42
0.00000001
 43
0.00000001
 12
1.0
 22
0.0
 32
0.0
 13
1.0
 23
0.0
 33
0.0
 40
0.0
 40
0.0
 40
0.0
 40
0.0
 40
0.0068830976424975
 40
0.0333988887947485
 40
0.0600987404372467
 40
0.0873794533978997
 40
0.1148610622400413
 40
0.1413684166168593
 40
0.1680604001602878
 40
0.1953356351163523
 40
0.2228128286662899
 40
0.249253503966133
 40
0.2758787028183606
 40
0.3030869979812342
 40
0.3304972492596746
 40
0.3568434276990102
 40
0.3836636391850572
 40
0.4104838120180361
 40
0.4377953009378274
 40
0.4640597861926885
 40
0.4907954257382719
 40
0.5175310619894086
 40
0.5447545492782132
 40
0.5709837280879012
 40
0.5976815055315418
 40
0.6243793156881217
 40
0.6515618123250217
 40
0.6778159720893712
 40
0.7045375206471072
 40
0.7312591243842501
 40
0.7584638145997586
 40
0.7847929966935704
 40
0.8115901774875657
 40
0.8383874133884602
 40
0.8656683292725147
 40
0.892092127375666
 40
0.9186985647988125
 40
0.9458803376431447
 40
0.9732606478207944
 40
0.9997589831213082
 40
1.0
 40
1.0
 40
1.0
 40
1.0
 10
727.7009906707075
 20
494.0982483625202
 30
0.0
 10
727.6972146648214
 20
494.0995050396859
 30
0.0
 10
727.6788923327515
 20
494.1056028205236
 30
0.0
 10
727.6460248592948
 20
494.0742105823314
 30
0.0
 10
727.6024573391089
 20
494.0031349636296
 30
0.0
 10
727.5591576763532
 20
493.8851787509286
 30
0.0
 10
727.5170658351847
 20
493.7262468945452
 30
0.0
 10
727.4766606899414
 20
493.5280389215543
 30
0.0
 10
727.4379855560526
 20
493.292248784608
 30
0.0
 10
727.4007828250903
 20
493.0160776029668
 30
0.0
 10
727.3659187235459
 20
492.7047963030294
 30
0.0
 10
727.333750943782
 20
492.3631084200449
 30
0.0
 10
727.304273032247
 20
491.9926022385552
 30
0.0
 10
727.2772932474695
 20
491.5894863254337
 30
0.0
 10
727.253482303506
 20
491.162228838075
 30
0.0
 10
727.2329624854378
 20
490.7151433333285
 30
0.0
 10
727.2158561310121
 20
490.2528399652606
 30
0.0
 10
727.2019725964791
 20
489.7695326349495
 30
0.0
 10
727.1917383867426
 20
489.2774220984098
 30
0.0
 10
727.1850868318128
 20
488.7775122779158
 30
0.0
 10
727.1820480200752
 20
488.2764009269809
 30
0.0
 10
727.1826099768607
 20
487.7680278161056
 30
0.0
 10
727.1868361042402
 20
487.2652133376403
 30
0.0
 10
727.194647999872
 20
486.7686575670565
 30
0.0
 10
727.205900737318
 20
486.2846892025172
 30
0.0
 10
727.2207530990954
 20
485.8078653387126
 30
0.0
 10
727.2389233601574
 20
485.3501045289446
 30
0.0
 10
727.2603318390701
 20
484.9117773872065
 30
0.0
 10
727.284676801863
 20
484.4983042067616
 30
0.0
 10
727.3122482069616
 20
484.1054915579997
 30
0.0
 10
727.3424667417852
 20
483.743204294155
 30
0.0
 10
727.3752554785877
 20
483.4115007037183
 30
0.0
 10
727.4101825131559
 20
483.1143633835047
 30
0.0
 10
727.4476214481622
 20
482.8491251876405
 30
0.0
 10
727.4867511846228
 20
482.622800794361
 30
0.0
 10
727.5273533021914
 20
482.4357214410463
 30
0.0
 10
727.5691811678014
 20
482.2887862832071
 30
0.0
 10
727.612527505612
 20
482.1802889195751
 30
0.0
 10
727.6565390741808
 20
482.1201249092104
 30
0.0
 10
727.6861932813947
 20
482.0956010037974
 30
0.0
 10
727.7008571708379
 20
482.1025416901958
 30
0.0
 10
727.700989344753
 20
482.1026042505212
 30
0.0
  0
SPLINE
  5
142
330
1F
100
AcDbEntity
  8
0
  6
Continuous
 62
     7
370
    15
100
AcDbSpline
210
0.0
220
0.0
230
1.0
 70
     8
 71
     3
 72
    35
 73
    31
 74
     0
 42
0.00000001
 43
0.00000001
 12
1.0
 22
0.0
 32
0.0
 13
1.0
 23
0.0
 33
0.0
 40
0.0
 40
0.0
 40
0.0
 40
0.0
 40
0.0354279037633529
 40
0.0710748697244477
 40
0.1068560647447092
 40
0.1427507867010296
 40
0.1785324348965743
 40
0.2144362230377342
 40
0.25045416833188
 40
0.286357999196544
 40
0.3223180564583661
 40
0.3583928303809586
 40
0.3943525086655291
 40
0.4302797517548044
 40
0.4663219562087474
 40
0.5022485712979711
 40
0.5380709613385709
 40
0.5740081474314292
 40
0.6098299346452594
 40
0.6455224515375596
 40
0.6813292761278407
 40
0.717021467237654
 40
0.7526142747948975
 40
0.7883207965388301
 40
0.8239136823860979
 40
0.8594775211372673
 40
0.8951546229863167
 40
0.9307189055596975
 40
0.9663356834964166
 40
1.0
 40
1.0
 40
1.0
 40
1.0
 10
728.0752566279572
 20
319.4462247929806
 30
0.0
 10
728.0608137679828
 20
319.4391467964775
 30
0.0
 10
728.0318387431556
 20
319.4249470379275
 30
0.0
 10
727.9830325229392
 20
319.3097023709766
 30
0.0
 10
727.9308345536243
 20
319.1239491209661
 30
0.0
 10
727.8757611229528
 20
318.8658300289649
 30
0.0
 10
727.8186057491079
 20
318.5402254044857
 30
0.0
 10
727.7600229119481
 20
318.1482162010565
 30
0.0
 10
727.7008090118475
 20
317.6969714894521
 30
0.0
 10
727.6417104999947
 20
317.1920644612823
 30
0.0
 10
727.5835103194448
 20
316.6380849836418
 30
0.0
 10
727.526903034898
 20
316.0436781451893
 30
0.0
 10
727.4726056940224
 20
315.4164742282594
 30
0.0
 10
727.4214012908707
 20
314.7635552942604
 30
0.0
 10
727.3738081119956
 20
314.0941601611459
 30
0.0
 10
727.3304103397439
 20
313.4168469903062
 30
0.0
 10
727.2918992774346
 20
312.7403028058415
 30
0.0
 10
727.25855829724
 20
312.0731523668685
 30
0.0
 10
727.230771569042
 20
311.423633667951
 30
0.0
 10
727.2090674805758
 20
310.8009358060912
 30
0.0
 10
727.1934727722294
 20
310.2119734746021
 30
0.0
 10
727.1841506881102
 20
309.6636650546015
 30
0.0
 10
727.18142321751
 20
309.1646282739932
 30
0.0
 10
727.185073912878
 20
308.7193255037725
 30
0.0
 10
727.1950532624177
 20
308.3327258205554
 30
0.0
 10
727.2114664824213
 20
308.0121392481377
 30
0.0
 10
727.2338518492136
 20
307.7586352803355
 30
0.0
 10
727.2620998031315
 20
307.5771092697294
 30
0.0
 10
727.2949445309968
 20
307.4669492923642
 30
0.0
 10
727.3206975952313
 20
307.4552535671523
 30
0.0
 10
727.3332112443348
 20
307.4495705074597
 30
0.0
  0
SPLINE
  5
143
330
1F
100
AcDbEntity
  8
0
  6
Continuous
 62
     7
370
    15
100
AcDbSpline
210
0.0
220
0.0
230
1.0
 70
     8
 71
     3
 72
    38
 73
    34
 74
     0
 42
0.00000001
 43
0.00000001
 12
1.0
 22
0.0
 32
0.0
 13
1.0
 23
0.0
 33
0.0
 40
0.0
 40
0.0
 40
0.0
 40
0.0
 40
0.0322950721039374
 40
0.0648144624704481
 40
0.0980400982900911
 40
0.1315092073050719
 40
0.1638669037841878
 40
0.1964484746006336
 40
0.2297349633153738
 40
0.2632645508757224
 40
0.2957083311684428
 40
0.3283765540805089
 40
0.3617521446467217
 40
0.3953719907334987
 40
0.4278838394141795
 40
0.4606213704730535
 40
0.4940711139329046
 40
0.527767182175674
 40
0.560268686259631
 40
0.5929965699938281
 40
0.6264395966993036
 40
0.6601302512129095
 40
0.6925499979754155
 40
0.725195994891224
 40
0.7585569446028619
 40
0.7921655190838963
 40
0.824469400262306
 40
0.8569986631705374
 40
0.8902397731478588
 40
0.92372725198286
 40
0.9559309665685922
 40
0.9883588513987945
 40
0.9999999999999999
 40
0.9999999999999999
 40
0.9999999999999999
 40
0.9999999999999999
 10
728.1443867678297
 20
246.1199697869203
 30
0.0
 10
728.1359858151226
 20
246.025858280003
 30
0.0
 10
728.1191255575517
 20
245.836981577282
 30
0.0
 10
728.0899075246009
 20
245.5091570257224
 30
0.0
 10
728.0578162061327
 20
245.1485936707934
 30
0.0
 10
728.0231815749045
 20
244.7588322899947
 30
0.0
 10
727.9865664046946
 20
244.3460908364304
 30
0.0
 10
727.9480886128811
 20
243.9115942950396
 30
0.0
 10
727.9074593776826
 20
243.451952056854
 30
0.0
 10
727.8654744194376
 20
242.9760446289341
 30
0.0
 10
727.8226759693249
 20
242.4899534217232
 30
0.0
 10
727.7791819653022
 20
241.9949765975634
 30
0.0
 10
727.7346980904982
 20
241.4876975348243
 30
0.0
 10
727.6901316034217
 20
240.9784146380888
 30
0.0
 10
727.646022698575
 20
240.4733238964293
 30
0.0
 10
727.602457933745
 20
239.9734609889598
 30
0.0
 10
727.5591575140694
 20
239.4756338781962
 30
0.0
 10
727.5170658770589
 20
238.9907420882301
 30
0.0
 10
727.4766606788672
 20
238.5243950886878
 30
0.0
 10
727.4379855589024
 20
238.0772132791044
 30
0.0
 10
727.4007828250733
 20
237.6463070309234
 30
0.0
 10
727.36591872073
 20
237.2418153997134
 30
0.0
 10
727.3337509545916
 20
236.8680361903364
 30
0.0
 10
727.3042729909616
 20
236.5250346637845
 30
0.0
 10
727.2772934058394
 20
236.2106994280101
 30
0.0
 10
727.2534817177778
 20
235.9329488477938
 30
0.0
 10
727.2330384901609
 20
235.6942508436749
 30
0.0
 10
727.2159042188817
 20
235.4940195474945
 30
0.0
 10
727.2020224279214
 20
235.3316823838681
 30
0.0
 10
727.191695595005
 20
235.2108503944512
 30
0.0
 10
727.1852628254609
 20
235.1355542114003
 30
0.0
 10
727.1823075317383
 20
235.1009546121584
 30
0.0
 10
727.1827404464333
 20
235.1060229722737
 30
0.0
 10
727.1828548039288
 20
235.1073618156445
 30
0.0
  0
LINE
  5
144
330
1F
100
AcDbEntity
  8
0
  6
Continuous
 62
     7
370
    15
100
AcDbLine
 10
708.8193833626
 20
493.2985688254
 30
0.0
 11
716.7456628043
 21
493.2985688254
 31
0.0
  0
SPLINE
  5
145
330
1F
100
AcDbEntity
  8
0
  6
Continuous
 62
     7
370
    15
100
AcDbSpline
210
0.0
220
0.0
230
1.0
 70
     8
 71
     3
 72
    16
 73
    12
 74
     0
 42
0.00000001
 43
0.00000001
 12
1.0
 22
0.0
 32
0.0
 13
1.0
 23
0.0
 33
0.0
 40
0.0
 40
0.0
 40
0.0
 40
0.0
 40
0.2500000000000001
 40
0.2500000000000001
 40
0.5000000000000001
 40
0.5000000000000001
 40
0.6250000000000001
 40
0.6250000000000001
 40
0.7500000000000002
 40
0.7500000000000002
 40
1.0
 40
1.0
 40
1.0
 40
1.0
 10
716.7456628042577
 20
493.2985688253536
 30
0.0
 10
716.989638100788
 20
492.4534136065889
 30
0.0
 10
717.1943320562791
 20
491.5875857097788
 30
0.0
 10
717.4741858286046
 20
489.8517003685988
 30
0.0
 10
717.5495944028958
 20
488.979060232829
 30
0.0
 10
717.5494682636629
 20
487.6618552960559
 30
0.0
 10
717.5307767974695
 20
487.2214291522383
 30
0.0
 10
717.4566019404124
 20
486.337898109068
 30
0.0
 10
717.4014256920916
 20
485.898791130571
 30
0.0
 10
717.1900886520161
 20
484.5971880064558
 30
0.0
 10
716.9881255876467
 20
483.7461796994889
 30
0.0
 10
716.7456628042577
 20
482.9062639799405
 30
0.0
  0
LINE
  5
146
330
1F
100
AcDbEntity
  8
0
  6
Continuous
 62
     7
370
    15
100
AcDbLine
 10
708.8193833626
 20
482.9062639799
 30
0.0
 11
716.7456628043
 21
482.9062639799
 31
0.0
  0
SPLINE
  5
147
330
1F
100
AcDbEntity
  8
0
  6
Continuous
 62
     7
370
    15
100
AcDbSpline
210
0.0
220
0.0
230
1.0
 70
     8
 71
     3
 72
    16
 73
    12
 74
     0
 42
0.00000001
 43
0.00000001
 12
1.0
 22
0.0
 32
0.0
 13
1.0
 23
0.0
 33
0.0
 40
0.0
 40
0.0
 40
0.0
 40
0.0
 40
0.25
 40
0.25
 40
0.5
 40
0.5
 40
0.625
 40
0.625
 40
0.75
 40
0.75
 40
1.0
 40
1.0
 40
1.0
 40
1.0
 10
708.8193833626287
 20
493.2985688253538
 30
0.0
 10
708.5754080660984
 20
492.453413606589
 30
0.0
 10
708.3707141106073
 20
491.5875857097789
 30
0.0
 10
708.0908603382818
 20
489.8517003685988
 30
0.0
 10
708.0154517639908
 20
488.9790602328291
 30
0.0
 10
708.0155779032233
 20
487.6618552960559
 30
0.0
 10
708.034269369417
 20
487.2214291522383
 30
0.0
 10
708.108444226474
 20
486.337898109068
 30
0.0
 10
708.1636204747947
 20
485.8987911305709
 30
0.0
 10
708.3749575148703
 20
484.5971880064557
 30
0.0
 10
708.5769205792399
 20
483.7461796994888
 30
0.0
 10
708.8193833626287
 20
482.9062639799404
 30
0.0
  0
LINE
  5
148
330
1F
100
AcDbEntity
  8
0
  6
Continuous
 62
     7
370
    15
100
AcDbLine
 10
708.8193833626
 20
498.4947212481
 30
0.0
 11
716.7456628043
 21
498.4947212481
 31
0.0
  0
SPLINE
  5
149
330
1F
100
AcDbEntity
  8
0
  6
Continuous
 62
     7
370
    15
100
AcDbSpline
210
0.0
220
0.0
230
1.0
 70
     8
 71
     3
 72
    16
 73
    12
 74
     0
 42
0.00000001
 43
0.00000001
 12
1.0
 22
0.0
 32
0.0
 13
1.0
 23
0.0
 33
0.0
 40
0.0
 40
0.0
 40
0.0
 40
0.0
 40
0.2499999999999933
 40
0.2499999999999933
 40
0.4999999999999867
 40
0.4999999999999867
 40
0.62499999999999
 40
0.62499999999999
 40
0.7499999999999933
 40
0.7499999999999933
 40
1.0
 40
1.0
 40
1.0
 40
1.0
 10
716.7456628042581
 20
498.4947212480604
 30
0.0
 10
716.9905843188404
 20
498.070504740937
 30
0.0
 10
717.1924440388769
 20
497.6431953351263
 30
0.0
 10
717.472085310474
 20
496.7796646514279
 30
0.0
 10
717.5489444452023
 20
496.3433771212663
 30
0.0
 10
717.5497886063715
 20
495.6807258859558
 30
0.0
 10
717.5309995197015
 20
495.458802828175
 30
0.0
 10
717.4577320276205
 20
495.0198156091798
 30
0.0
 10
717.4033279759573
 20
494.8017937607318
 30
0.0
 10
717.1932489176052
 20
494.1516097965119
 30
0.0
 10
716.9908896244378
 20
493.723314137284
 30
0.0
 10
716.7456628042579
 20
493.2985688253537
 30
0.0
  0
SPLINE
  5
14A
330
1F
100
AcDbEntity
  8
0
  6
Continuous
 62
     7
370
    15
100
AcDbSpline
210
0.0
220
0.0
230
1.0
 70
     8
 71
     3
 72
    16
 73
    12
 74
     0
 42
0.00000001
 43
0.00000001
 12
1.0
 22
0.0
 32
0.0
 13
1.0
 23
0.0
 33
0.0
 40
0.0
 40
0.0
 40
0.0
 40
0.0
 40
0.2500000000000069
 40
0.2500000000000069
 40
0.5000000000000139
 40
0.5000000000000139
 40
0.6250000000000104
 40
0.6250000000000104
 40
0.750000000000007
 40
0.750000000000007
 40
1.0
 40
1.0
 40
1.0
 40
1.0
 10
708.8193833626284
 20
493.2985688253536
 30
0.0
 10
708.574461848046
 20
493.7227853324771
 30
0.0
 10
708.3726021280095
 20
494.1500947382878
 30
0.0
 10
708.0929608564123
 20
495.0136254219862
 30
0.0
 10
708.0161017216841
 20
495.4499129521478
 30
0.0
 10
708.0152575605149
 20
496.1125641874583
 30
0.0
 10
708.0340466471849
 20
496.3344872452392
 30
0.0
 10
708.1073141392658
 20
496.7734744642343
 30
0.0
 10
708.1617181909293
 20
496.9914963126823
 30
0.0
 10
708.3717972492813
 20
497.6416802769022
 30
0.0
 10
708.5741565424485
 20
498.0699759361301
 30
0.0
 10
708.8193833626285
 20
498.4947212480604
 30
0.0
  0
SPLINE
  5
14B
330
1F
100
AcDbEntity
  8
0
  6
Continuous
 62
     7
370
    15
100
AcDbSpline
210
0.0
220
0.0
230
1.0
 70
     8
 71
     3
 72
    16
 73
    12
 74
     0
 42
0.00000001
 43
0.00000001
 12
1.0
 22
0.0
 32
0.0
 13
1.0
 23
0.0
 33
0.0
 40
0.0
 40
0.0
 40
0.0
 40
0.0
 40
0.2499999999999932
 40
0.2499999999999932
 40
0.4999999999999863
 40
0.4999999999999863
 40
0.6249999999999897
 40
0.6249999999999897
 40
0.749999999999993
 40
0.749999999999993
 40
1.0
 40
1.0
 40
1.0
 40
1.0
 10
708.8193833626284
 20
477.7101115572339
 30
0.0
 10
708.574461848046
 20
478.1343280643574
 30
0.0
 10
708.3726021280095
 20
478.561637470168
 30
0.0
 10
708.0929608564123
 20
479.4251681538664
 30
0.0
 10
708.0161017216841
 20
479.861455684028
 30
0.0
 10
708.015257560515
 20
480.5241069193385
 30
0.0
 10
708.034046647185
 20
480.7460299771193
 30
0.0
 10
708.1073141392659
 20
481.1850171961145
 30
0.0
 10
708.1617181909293
 20
481.4030390445625
 30
0.0
 10
708.3717972492813
 20
482.0532230087823
 30
0.0
 10
708.5741565424486
 20
482.4815186680102
 30
0.0
 10
708.8193833626286
 20
482.9062639799405
 30
0.0
  0
LINE
  5
14C
330
1F
100
AcDbEntity
  8
0
  6
Continuous
 62
     7
370
    15
100
AcDbLine
 10
707.5825230834
 20
479.8524164026
 30
0.0
 11
707.5825230834
 21
496.3524164026
 31
0.0
  0
SPLINE
  5
14D
330
1F
100
AcDbEntity
  8
0
  6
Continuous
 62
     7
370
    15
100
AcDbSpline
210
0.0
220
0.0
230
1.0
 70
     8
 71
     3
 72
    16
 73
    12
 74
     0
 42
0.00000001
 43
0.00000001
 12
1.0
 22
0.0
 32
0.0
 13
1.0
 23
0.0
 33
0.0
 40
0.0
 40
0.0
 40
0.0
 40
0.0
 40
0.2500000000000084
 40
0.2500000000000084
 40
0.5000000000000169
 40
0.5000000000000169
 40
0.6250000000000143
 40
0.6250000000000143
 40
0.7500000000000118
 40
0.7500000000000118
 40
1.0
 40
1.0
 40
1.0
 40
1.0
 10
716.7456628042581
 20
482.9062639799405
 30
0.0
 10
716.9905843188404
 20
482.4820474728171
 30
0.0
 10
717.1924440388769
 20
482.0547380670064
 30
0.0
 10
717.472085310474
 20
481.191207383308
 30
0.0
 10
717.5489444452023
 20
480.7549198531464
 30
0.0
 10
717.5497886063715
 20
480.0922686178359
 30
0.0
 10
717.5309995197015
 20
479.8703455600551
 30
0.0
 10
717.4577320276205
 20
479.43135834106
 30
0.0
 10
717.4033279759573
 20
479.2133364926119
 30
0.0
 10
717.1932489176052
 20
478.5631525283921
 30
0.0
 10
716.990889624438
 20
478.1348568691643
 30
0.0
 10
716.7456628042579
 20
477.7101115572339
 30
0.0
  0
LINE
  5
14E
330
1F
100
AcDbEntity
  8
0
  6
Continuous
 62
     7
370
    15
100
AcDbLine
 10
708.8193833626
 20
477.7101115572
 30
0.0
 11
716.7456628043
 21
477.7101115572
 31
0.0
  0
LINE
  5
14F
330
1F
100
AcDbEntity
  8
0
  6
Continuous
 62
     7
370
    15
100
AcDbLine
 10
672.4825230834
 20
482.1024164026
 30
0.0
 11
672.4825230834
 21
494.1024164026
 31
0.0
  0
SPLINE
  5
150
330
1F
100
AcDbEntity
  8
0
  6
Continuous
 62
     7
370
    15
100
AcDbSpline
210
0.0
220
0.0
230
1.0
 70
     8
 71
     3
 72
    15
 73
    11
 74
     0
 42
0.00000001
 43
0.00000001
 12
1.0
 22
0.0
 32
0.0
 13
1.0
 23
0.0
 33
0.0
 40
0.0
 40
0.0
 40
0.0
 40
0.0
 40
0.0112593134998982
 40
0.1592089101622126
 40
0.296799738860374
 40
0.4353316928044372
 40
0.5767336077069646
 40
0.7190987319347882
 40
0.8590747694073645
 40
1.0
 40
1.0
 40
1.0
 40
1.0
 10
728.3369120084566
 20
247.1008700615914
 30
0.0
 10
728.3370677185774
 20
247.1013784934867
 30
0.0
 10
728.3392694903497
 20
247.1085678206116
 30
0.0
 10
728.3310413475086
 20
247.0819413502846
 30
0.0
 10
728.3126007467695
 20
247.0202432508792
 30
0.0
 10
728.283705027941
 20
246.9168792186552
 30
0.0
 10
728.248059973545
 20
246.7752617380159
 30
0.0
 10
728.209524726536
 20
246.5940727723425
 30
0.0
 10
728.1719015180015
 20
246.3788347347178
 30
0.0
 10
728.1535789890984
 20
246.2064522686439
 30
0.0
 10
728.1443867678297
 20
246.1199697869203
 30
0.0
  0
SPLINE
  5
151
330
1F
100
AcDbEntity
  8
0
  6
Continuous
 62
     7
370
    15
100
AcDbSpline
210
0.0
220
0.0
230
1.0
 70
     8
 71
     3
 72
    14
 73
    10
 74
     0
 42
0.00000001
 43
0.00000001
 12
1.0
 22
0.0
 32
0.0
 13
1.0
 23
0.0
 33
0.0
 40
0.0
 40
0.0
 40
0.0
 40
0.0
 40
0.1421144093089488
 40
0.2852378388283104
 40
0.4314302481796893
 40
0.5786829203451336
 40
0.7210715385053755
 40
0.8644972894425363
 40
0.9999999999999999
 40
0.9999999999999999
 40
0.9999999999999999
 40
0.9999999999999999
 10
728.1443867678297
 20
730.0848630183775
 30
0.0
 10
728.1536667997807
 20
729.9976866626307
 30
0.0
 10
728.1722927524256
 20
729.8227149941628
 30
0.0
 10
728.21077269395
 20
729.604040413921
 30
0.0
 10
728.2504283484635
 20
729.4191856139631
 30
0.0
 10
728.2869901899139
 20
729.2756558570917
 30
0.0
 10
728.3154586528804
 20
729.17470057162
 30
0.0
 10
728.3341006468156
 20
729.1129928982518
 30
0.0
 10
728.3359925733264
 20
729.106916001881
 30
0.0
 10
728.3369116662329
 20
729.1039638616597
 30
0.0
  0
LINE
  5
152
330
1F
100
AcDbEntity
  8
0
  6
Continuous
 62
     7
370
    15
100
AcDbLine
 10
760.4825230834
 20
494.1024164026
 30
0.0
 11
760.4825230834
 21
656.7577913557
 31
0.0
  0
LINE
  5
153
330
1F
100
AcDbEntity
  8
0
  6
Continuous
 62
     7
370
    15
100
AcDbLine
 10
760.4825230834
 20
668.7577913557
 30
0.0
 11
760.4825230834
 21
721.7300049859
 31
0.0
  0
LINE
  5
154
330
1F
100
AcDbEntity
  8
0
  6
Continuous
 62
     7
370
    15
100
AcDbLine
 10
760.4825230834
 20
254.4748278194
 30
0.0
 11
760.4825230834
 21
307.4470414496
 31
0.0
  0
LINE
  5
155
330
1F
100
AcDbEntity
  8
0
  6
Continuous
 62
     7
370
    15
100
AcDbLine
 10
760.4825230834
 20
319.4470414496
 30
0.0
 11
760.4825230834
 21
482.1024164026
 31
0.0
  0
LINE
  5
156
330
1F
100
AcDbEntity
  8
0
  6
Continuous
 62
     7
370
    15
100
AcDbLine
 10
717.9825230834
 20
650.7577913557
 30
0.0
 11
717.9825230834
 21
674.7577913557
 31
0.0
  0
LINE
  5
157
330
1F
100
AcDbEntity
  8
0
  6
Continuous
 62
     7
370
    15
100
AcDbLine
 10
717.9825230834
 20
321.9323228238
 30
0.0
 11
717.9825230834
 21
325.4470414496
 31
0.0
  0
LINE
  5
158
330
1F
100
AcDbEntity
  8
0
  6
Continuous
 62
     7
370
    15
100
AcDbLine
 10
717.9825230834
 20
301.4470414496
 30
0.0
 11
717.9825230834
 21
321.9323228238
 31
0.0
  0
LINE
  5
159
330
1F
100
AcDbEntity
  8
0
  6
Continuous
 62
     7
370
    15
100
AcDbLine
 10
708.8193833626
 20
665.4475177722
 30
0.0
 11
716.7456628043
 21
665.4475177722
 31
0.0
  0
SPLINE
  5
15A
330
1F
100
AcDbEntity
  8
0
  6
Continuous
 62
     7
370
    15
100
AcDbSpline
210
0.0
220
0.0
230
1.0
 70
     8
 71
     3
 72
    16
 73
    12
 74
     0
 42
0.00000001
 43
0.00000001
 12
1.0
 22
0.0
 32
0.0
 13
1.0
 23
0.0
 33
0.0
 40
0.0
 40
0.0
 40
0.0
 40
0.0
 40
0.2500000000000038
 40
0.2500000000000038
 40
0.5000000000000075
 40
0.5000000000000075
 40
0.6250000000000057
 40
0.6250000000000057
 40
0.7500000000000038
 40
0.7500000000000038
 40
1.0
 40
1.0
 40
1.0
 40
1.0
 10
716.7456628042581
 20
665.4475177722294
 30
0.0
 10
716.9905843188404
 20
664.6279944118921
 30
0.0
 10
717.1924440388769
 20
663.8024960301145
 30
0.0
 10
717.4720853104741
 20
662.1342828517598
 30
0.0
 10
717.5489444452023
 20
661.291440065618
 30
0.0
 10
717.5497886063715
 20
660.0112961816005
 30
0.0
 10
717.5309995197015
 20
659.5825737556812
 30
0.0
 10
717.4577320276206
 20
658.7345155712048
 30
0.0
 10
717.4033279759573
 20
658.3133297029824
 30
0.0
 10
717.1932489176052
 20
657.0572707372244
 30
0.0
 10
716.990889624438
 20
656.229867060153
 30
0.0
 10
716.7456628042579
 20
655.4093221273757
 30
0.0
  0
LINE
  5
15B
330
1F
100
AcDbEntity
  8
0
  6
Continuous
 62
     7
370
    15
100
AcDbLine
 10
708.8193833626
 20
655.4093221274
 30
0.0
 11
716.7456628043
 21
655.4093221274
 31
0.0
  0
SPLINE
  5
15C
330
1F
100
AcDbEntity
  8
0
  6
Continuous
 62
     7
370
    15
100
AcDbSpline
210
0.0
220
0.0
230
1.0
 70
     8
 71
     3
 72
    16
 73
    12
 74
     0
 42
0.00000001
 43
0.00000001
 12
1.0
 22
0.0
 32
0.0
 13
1.0
 23
0.0
 33
0.0
 40
0.0
 40
0.0
 40
0.0
 40
0.0
 40
0.2499999999999991
 40
0.2499999999999991
 40
0.4999999999999982
 40
0.4999999999999982
 40
0.6249999999999968
 40
0.6249999999999968
 40
0.7499999999999953
 40
0.7499999999999953
 40
1.0
 40
1.0
 40
1.0
 40
1.0
 10
708.8193833626284
 20
655.4093221273756
 30
0.0
 10
708.574461848046
 20
656.228845487713
 30
0.0
 10
708.3726021280095
 20
657.0543438694906
 30
0.0
 10
708.0929608564123
 20
658.7225570478452
 30
0.0
 10
708.0161017216841
 20
659.5653998339872
 30
0.0
 10
708.0152575605149
 20
660.8455437180046
 30
0.0
 10
708.0340466471849
 20
661.2742661439238
 30
0.0
 10
708.1073141392658
 20
662.1223243284003
 30
0.0
 10
708.1617181909293
 20
662.5435101966227
 30
0.0
 10
708.3717972492813
 20
663.7995691623806
 30
0.0
 10
708.5741565424486
 20
664.626972839452
 30
0.0
 10
708.8193833626286
 20
665.4475177722294
 30
0.0
  0
SPLINE
  5
15D
330
1F
100
AcDbEntity
  8
0
  6
Continuous
 62
     7
370
    15
100
AcDbSpline
210
0.0
220
0.0
230
1.0
 70
     8
 71
     3
 72
    10
 73
     6
 74
     0
 42
0.00000001
 43
0.00000001
 12
1.0
 22
0.0
 32
0.0
 13
1.0
 23
0.0
 33
0.0
 40
0.0
 40
0.0
 40
0.0
 40
0.0
 40
0.4879971273818281
 40
0.9778958559691513
 40
1.0
 40
1.0
 40
1.0
 40
1.0
 10
708.819383362629
 20
672.7959870005789
 30
0.0
 10
708.6996569626256
 20
672.679949039158
 30
0.0
 10
708.4597376191624
 20
672.4474209457708
 30
0.0
 10
708.2566571842739
 20
672.2060357318047
 30
0.0
 10
708.2036602549775
 20
672.0807078176465
 30
0.0
 10
708.2013722760989
 20
672.0752971717033
 30
0.0
  0
SPLINE
  5
15E
330
1F
100
AcDbEntity
  8
0
  6
Continuous
 62
     7
370
    15
100
AcDbSpline
210
0.0
220
0.0
230
1.0
 70
     8
 71
     3
 72
    16
 73
    12
 74
     0
 42
0.00000001
 43
0.00000001
 12
1.0
 22
0.0
 32
0.0
 13
1.0
 23
0.0
 33
0.0
 40
0.0
 40
0.0
 40
0.0
 40
0.0
 40
0.2499999999999944
 40
0.2499999999999944
 40
0.4999999999999889
 40
0.4999999999999889
 40
0.6249999999999917
 40
0.6249999999999917
 40
0.7499999999999944
 40
0.7499999999999944
 40
1.0
 40
1.0
 40
1.0
 40
1.0
 10
708.8193833626287
 20
672.795987000579
 30
0.0
 10
708.5754080660984
 20
672.198372014235
 30
0.0
 10
708.3707141106073
 20
671.5861392370601
 30
0.0
 10
708.0908603382818
 20
670.3586829409494
 30
0.0
 10
708.0154517639908
 20
669.7416331834112
 30
0.0
 10
708.0155779032233
 20
668.8102286404064
 30
0.0
 10
708.034269369417
 20
668.4988003275012
 30
0.0
 10
708.108444226474
 20
667.8740495354866
 30
0.0
 10
708.1636204747947
 20
667.5635540133248
 30
0.0
 10
708.3749575148703
 20
666.6431816178496
 30
0.0
 10
708.5769205792399
 20
666.0414278731472
 30
0.0
 10
708.8193833626287
 20
665.4475177722292
 30
0.0
  0
SPLINE
  5
15F
330
1F
100
AcDbEntity
  8
0
  6
Continuous
 62
     7
370
    15
100
AcDbSpline
210
0.0
220
0.0
230
1.0
 70
     8
 71
     3
 72
    16
 73
    12
 74
     0
 42
0.00000001
 43
0.00000001
 12
1.0
 22
0.0
 32
0.0
 13
1.0
 23
0.0
 33
0.0
 40
0.0
 40
0.0
 40
0.0
 40
0.0
 40
0.250000000000001
 40
0.250000000000001
 40
0.500000000000002
 40
0.500000000000002
 40
0.6250000000000014
 40
0.6250000000000014
 40
0.750000000000001
 40
0.750000000000001
 40
1.0
 40
1.0
 40
1.0
 40
1.0
 10
708.8193833626284
 20
652.7195957108715
 30
0.0
 10
708.574461848046
 20
652.9391863334524
 30
0.0
 10
708.3726021280095
 20
653.1603779582028
 30
0.0
 10
708.0929608564123
 20
653.607374332146
 30
0.0
 10
708.0161017216841
 20
653.8332133760391
 30
0.0
 10
708.0152575605149
 20
654.1762268959573
 30
0.0
 10
708.0340466471849
 20
654.2911027237593
 30
0.0
 10
708.1073141392658
 20
654.5183392294243
 30
0.0
 10
708.1617181909293
 20
654.631195642678
 30
0.0
 10
708.3717972492813
 20
654.9677556281988
 30
0.0
 10
708.5741565424486
 20
655.1894577752845
 30
0.0
 10
708.8193833626286
 20
655.4093221273757
 30
0.0
  0
LINE
  5
160
330
1F
100
AcDbEntity
  8
0
  6
Continuous
 62
     7
370
    15
100
AcDbLine
 10
707.5825230834
 20
654.5077913557
 30
0.0
 11
707.5825230834
 21
671.0077913557
 31
0.0
  0
SPLINE
  5
161
330
1F
100
AcDbEntity
  8
0
  6
Continuous
 62
     7
370
    15
100
AcDbSpline
210
0.0
220
0.0
230
1.0
 70
     8
 71
     3
 72
    16
 73
    12
 74
     0
 42
0.00000001
 43
0.00000001
 12
1.0
 22
0.0
 32
0.0
 13
1.0
 23
0.0
 33
0.0
 40
0.0
 40
0.0
 40
0.0
 40
0.0
 40
0.2499999999999972
 40
0.2499999999999972
 40
0.4999999999999944
 40
0.4999999999999944
 40
0.6249999999999958
 40
0.6249999999999958
 40
0.7499999999999972
 40
0.7499999999999972
 40
1.0
 40
1.0
 40
1.0
 40
1.0
 10
716.7456628042577
 20
672.7959870005789
 30
0.0
 10
716.9896381007882
 20
672.198372014235
 30
0.0
 10
717.1943320562791
 20
671.5861392370601
 30
0.0
 10
717.4741858286046
 20
670.3586829409495
 30
0.0
 10
717.5495944028958
 20
669.7416331834111
 30
0.0
 10
717.5494682636629
 20
668.8102286404065
 30
0.0
 10
717.5307767974695
 20
668.4988003275012
 30
0.0
 10
717.4566019404124
 20
667.8740495354866
 30
0.0
 10
717.4014256920917
 20
667.5635540133248
 30
0.0
 10
717.1900886520161
 20
666.6431816178497
 30
0.0
 10
716.9881255876467
 20
666.0414278731472
 30
0.0
 10
716.7456628042577
 20
665.4475177722293
 30
0.0
  0
SPLINE
  5
162
330
1F
100
AcDbEntity
  8
0
  6
Continuous
 62
     7
370
    15
100
AcDbSpline
210
0.0
220
0.0
230
1.0
 70
     8
 71
     3
 72
    10
 73
     6
 74
     0
 42
0.00000001
 43
0.00000001
 12
1.0
 22
0.0
 32
0.0
 13
1.0
 23
0.0
 33
0.0
 40
0.0
 40
0.0
 40
0.0
 40
0.0
 40
0.1326340636021948
 40
0.5655959040290757
 40
1.0
 40
1.0
 40
1.0
 40
1.0
 10
717.3570657699263
 20
672.0753028395294
 30
0.0
 10
717.3409234246686
 20
672.1076877222218
 30
0.0
 10
717.2720870781732
 20
672.2457876680869
 30
0.0
 10
717.0699210839518
 20
672.4867790487975
 30
0.0
 10
716.8538686481082
 20
672.69280349088
 30
0.0
 10
716.7456628042579
 20
672.7959870005789
 30
0.0
  0
SPLINE
  5
163
330
1F
100
AcDbEntity
  8
0
  6
Continuous
 62
     7
370
    15
100
AcDbSpline
210
0.0
220
0.0
230
1.0
 70
     8
 71
     3
 72
    16
 73
    12
 74
     0
 42
0.00000001
 43
0.00000001
 12
1.0
 22
0.0
 32
0.0
 13
1.0
 23
0.0
 33
0.0
 40
0.0
 40
0.0
 40
0.0
 40
0.0
 40
0.250000000000001
 40
0.250000000000001
 40
0.500000000000002
 40
0.500000000000002
 40
0.6250000000000014
 40
0.6250000000000014
 40
0.750000000000001
 40
0.750000000000001
 40
1.0
 40
1.0
 40
1.0
 40
1.0
 10
716.745662804258
 20
655.4093221273757
 30
0.0
 10
716.9905843188404
 20
655.1897315047947
 30
0.0
 10
717.1924440388768
 20
654.9685398800443
 30
0.0
 10
717.472085310474
 20
654.5215435061012
 30
0.0
 10
717.5489444452023
 20
654.295704462208
 30
0.0
 10
717.5497886063715
 20
653.95269094229
 30
0.0
 10
717.5309995197015
 20
653.8378151144879
 30
0.0
 10
717.4577320276205
 20
653.6105786088227
 30
0.0
 10
717.4033279759573
 20
653.4977221955693
 30
0.0
 10
717.1932489176052
 20
653.1611622100485
 30
0.0
 10
716.9908896244378
 20
652.9394600629627
 30
0.0
 10
716.7456628042579
 20
652.7195957108715
 30
0.0
  0
SPLINE
  5
164
330
1F
100
AcDbEntity
  8
0
  6
Continuous
 62
     7
370
    15
100
AcDbSpline
210
0.0
220
0.0
230
1.0
 70
     8
 71
     3
 72
    16
 73
    12
 74
     0
 42
0.00000001
 43
0.00000001
 12
1.0
 22
0.0
 32
0.0
 13
1.0
 23
0.0
 33
0.0
 40
0.0
 40
0.0
 40
0.0
 40
0.0
 40
0.2500000000000028
 40
0.2500000000000028
 40
0.5000000000000056
 40
0.5000000000000056
 40
0.6250000000000041
 40
0.6250000000000041
 40
0.7500000000000028
 40
0.7500000000000028
 40
1.0
 40
1.0
 40
1.0
 40
1.0
 10
708.8193833626284
 20
320.7955106779195
 30
0.0
 10
708.574461848046
 20
321.0151013005004
 30
0.0
 10
708.3726021280095
 20
321.2362929252509
 30
0.0
 10
708.0929608564123
 20
321.6832892991941
 30
0.0
 10
708.0161017216841
 20
321.9091283430872
 30
0.0
 10
708.0152575605149
 20
322.2521418630053
 30
0.0
 10
708.0340466471849
 20
322.3670176908075
 30
0.0
 10
708.1073141392658
 20
322.5942541964725
 30
0.0
 10
708.1617181909292
 20
322.7071106097261
 30
0.0
 10
708.3717972492813
 20
323.0436705952469
 30
0.0
 10
708.5741565424486
 20
323.2653727423328
 30
0.0
 10
708.8193833626286
 20
323.4852370944239
 30
0.0
  0
SPLINE
  5
165
330
1F
100
AcDbEntity
  8
0
  6
Continuous
 62
     7
370
    15
100
AcDbSpline
210
0.0
220
0.0
230
1.0
 70
     8
 71
     3
 72
    16
 73
    12
 74
     0
 42
0.00000001
 43
0.00000001
 12
1.0
 22
0.0
 32
0.0
 13
1.0
 23
0.0
 33
0.0
 40
0.0
 40
0.0
 40
0.0
 40
0.0
 40
0.2500000000000019
 40
0.2500000000000019
 40
0.5000000000000038
 40
0.5000000000000038
 40
0.6250000000000047
 40
0.6250000000000047
 40
0.7500000000000057
 40
0.7500000000000057
 40
1.0
 40
1.0
 40
1.0
 40
1.0
 10
708.8193833626284
 20
310.7573150330658
 30
0.0
 10
708.574461848046
 20
311.5768383934031
 30
0.0
 10
708.3726021280095
 20
312.4023367751807
 30
0.0
 10
708.0929608564123
 20
314.0705499535354
 30
0.0
 10
708.0161017216842
 20
314.9133927396773
 30
0.0
 10
708.0152575605149
 20
316.1935366236947
 30
0.0
 10
708.0340466471849
 20
316.6222590496139
 30
0.0
 10
708.1073141392658
 20
317.4703172340903
 30
0.0
 10
708.1617181909292
 20
317.8915031023128
 30
0.0
 10
708.3717972492813
 20
319.1475620680707
 30
0.0
 10
708.5741565424486
 20
319.9749657451422
 30
0.0
 10
708.8193833626286
 20
320.7955106779196
 30
0.0
  0
SPLINE
  5
166
330
1F
100
AcDbEntity
  8
0
  6
Continuous
 62
     7
370
    15
100
AcDbSpline
210
0.0
220
0.0
230
1.0
 70
     8
 71
     3
 72
    16
 73
    12
 74
     0
 42
0.00000001
 43
0.00000001
 12
1.0
 22
0.0
 32
0.0
 13
1.0
 23
0.0
 33
0.0
 40
0.0
 40
0.0
 40
0.0
 40
0.0
 40
0.2499999999999972
 40
0.2499999999999972
 40
0.4999999999999944
 40
0.4999999999999944
 40
0.6249999999999958
 40
0.6249999999999958
 40
0.7499999999999972
 40
0.7499999999999972
 40
1.0
 40
1.0
 40
1.0
 40
1.0
 10
708.8193833626287
 20
310.757315033066
 30
0.0
 10
708.5754080660984
 20
310.1597000467221
 30
0.0
 10
708.3707141106073
 20
309.5474672695472
 30
0.0
 10
708.0908603382817
 20
308.3200109734365
 30
0.0
 10
708.0154517639908
 20
307.7029612158982
 30
0.0
 10
708.0155779032233
 20
306.7715566728934
 30
0.0
 10
708.034269369417
 20
306.4601283599882
 30
0.0
 10
708.108444226474
 20
305.8353775679736
 30
0.0
 10
708.1636204747947
 20
305.5248820458121
 30
0.0
 10
708.3749575148702
 20
304.6045096503366
 30
0.0
 10
708.5769205792399
 20
304.0027559056343
 30
0.0
 10
708.8193833626287
 20
303.4088458047164
 30
0.0
  0
SPLINE
  5
167
330
1F
100
AcDbEntity
  8
0
  6
Continuous
 62
     7
370
    15
100
AcDbSpline
210
0.0
220
0.0
230
1.0
 70
     8
 71
     3
 72
    10
 73
     6
 74
     0
 42
0.00000001
 43
0.00000001
 12
1.0
 22
0.0
 32
0.0
 13
1.0
 23
0.0
 33
0.0
 40
0.0
 40
0.0
 40
0.0
 40
0.0
 40
0.1326340636021809
 40
0.5655959040290788
 40
1.0
 40
1.0
 40
1.0
 40
1.0
 10
708.2079803969601
 20
304.129529965766
 30
0.0
 10
708.2241227422179
 20
304.0971450830735
 30
0.0
 10
708.2929590887132
 20
303.9590451372085
 30
0.0
 10
708.4951250829344
 20
303.7180537564979
 30
0.0
 10
708.7111775187784
 20
303.5120293144153
 30
0.0
 10
708.819383362629
 20
303.4088458047164
 30
0.0
  0
LINE
  5
168
330
1F
100
AcDbEntity
  8
0
  6
Continuous
 62
     7
370
    15
100
AcDbLine
 10
707.5825230834
 20
305.1970414496
 30
0.0
 11
707.5825230834
 21
321.6970414496
 31
0.0
  0
LINE
  5
169
330
1F
100
AcDbEntity
  8
0
  6
Continuous
 62
     7
370
    15
100
AcDbLine
 10
708.8193833626
 20
320.7955106779
 30
0.0
 11
716.7456628043
 21
320.7955106779
 31
0.0
  0
SPLINE
  5
16A
330
1F
100
AcDbEntity
  8
0
  6
Continuous
 62
     7
370
    15
100
AcDbSpline
210
0.0
220
0.0
230
1.0
 70
     8
 71
     3
 72
    16
 73
    12
 74
     0
 42
0.00000001
 43
0.00000001
 12
1.0
 22
0.0
 32
0.0
 13
1.0
 23
0.0
 33
0.0
 40
0.0
 40
0.0
 40
0.0
 40
0.0
 40
0.25
 40
0.25
 40
0.5
 40
0.5
 40
0.625
 40
0.625
 40
0.75
 40
0.75
 40
1.0
 40
1.0
 40
1.0
 40
1.0
 10
716.745662804258
 20
320.7955106779197
 30
0.0
 10
716.9905843188404
 20
319.9759873175824
 30
0.0
 10
717.1924440388769
 20
319.1504889358047
 30
0.0
 10
717.472085310474
 20
317.4822757574501
 30
0.0
 10
717.5489444452023
 20
316.6394329713082
 30
0.0
 10
717.5497886063715
 20
315.3592890872907
 30
0.0
 10
717.5309995197015
 20
314.9305666613714
 30
0.0
 10
717.4577320276205
 20
314.0825084768951
 30
0.0
 10
717.4033279759573
 20
313.6613226086726
 30
0.0
 10
717.1932489176052
 20
312.4052636429147
 30
0.0
 10
716.990889624438
 20
311.5778599658433
 30
0.0
 10
716.7456628042579
 20
310.7573150330659
 30
0.0
  0
LINE
  5
16B
330
1F
100
AcDbEntity
  8
0
  6
Continuous
 62
     7
370
    15
100
AcDbLine
 10
708.8193833626
 20
310.7573150331
 30
0.0
 11
716.7456628043
 21
310.7573150331
 31
0.0
  0
SPLINE
  5
16C
330
1F
100
AcDbEntity
  8
0
  6
Continuous
 62
     7
370
    15
100
AcDbSpline
210
0.0
220
0.0
230
1.0
 70
     8
 71
     3
 72
    10
 73
     6
 74
     0
 42
0.00000001
 43
0.00000001
 12
1.0
 22
0.0
 32
0.0
 13
1.0
 23
0.0
 33
0.0
 40
0.0
 40
0.0
 40
0.0
 40
0.0
 40
0.4879971273818774
 40
0.9778958559692618
 40
1.0
 40
1.0
 40
1.0
 40
1.0
 10
716.7456628042579
 20
303.4088458047164
 30
0.0
 10
716.865389204261
 20
303.5248837661371
 30
0.0
 10
717.1053085477238
 20
303.7574118595241
 30
0.0
 10
717.308388982613
 20
303.9987970734915
 30
0.0
 10
717.3613859119089
 20
304.1241249876488
 30
0.0
 10
717.3636738907876
 20
304.129535633592
 30
0.0
  0
SPLINE
  5
16D
330
1F
100
AcDbEntity
  8
0
  6
Continuous
 62
     7
370
    15
100
AcDbSpline
210
0.0
220
0.0
230
1.0
 70
     8
 71
     3
 72
    16
 73
    12
 74
     0
 42
0.00000001
 43
0.00000001
 12
1.0
 22
0.0
 32
0.0
 13
1.0
 23
0.0
 33
0.0
 40
0.0
 40
0.0
 40
0.0
 40
0.0
 40
0.25
 40
0.25
 40
0.5
 40
0.5
 40
0.625
 40
0.625
 40
0.75
 40
0.75
 40
1.0
 40
1.0
 40
1.0
 40
1.0
 10
716.7456628042577
 20
310.7573150330659
 30
0.0
 10
716.9896381007882
 20
310.159700046722
 30
0.0
 10
717.1943320562791
 20
309.5474672695472
 30
0.0
 10
717.4741858286046
 20
308.3200109734365
 30
0.0
 10
717.5495944028958
 20
307.7029612158981
 30
0.0
 10
717.5494682636629
 20
306.7715566728934
 30
0.0
 10
717.5307767974695
 20
306.4601283599882
 30
0.0
 10
717.4566019404124
 20
305.8353775679736
 30
0.0
 10
717.4014256920916
 20
305.5248820458121
 30
0.0
 10
717.1900886520161
 20
304.6045096503367
 30
0.0
 10
716.9881255876467
 20
304.0027559056343
 30
0.0
 10
716.7456628042577
 20
303.4088458047165
 30
0.0
  0
SPLINE
  5
16E
330
1F
100
AcDbEntity
  8
0
  6
Continuous
 62
     7
370
    15
100
AcDbSpline
210
0.0
220
0.0
230
1.0
 70
     8
 71
     3
 72
    16
 73
    12
 74
     0
 42
0.00000001
 43
0.00000001
 12
1.0
 22
0.0
 32
0.0
 13
1.0
 23
0.0
 33
0.0
 40
0.0
 40
0.0
 40
0.0
 40
0.0
 40
0.249999999999999
 40
0.249999999999999
 40
0.499999999999998
 40
0.499999999999998
 40
0.6249999999999984
 40
0.6249999999999984
 40
0.749999999999999
 40
0.749999999999999
 40
1.0
 40
1.0
 40
1.0
 40
1.0
 10
716.745662804258
 20
323.4852370944239
 30
0.0
 10
716.9905843188404
 20
323.2656464718431
 30
0.0
 10
717.1924440388769
 20
323.0444548470925
 30
0.0
 10
717.472085310474
 20
322.5974584731495
 30
0.0
 10
717.5489444452023
 20
322.3716194292563
 30
0.0
 10
717.5497886063715
 20
322.0286059093381
 30
0.0
 10
717.5309995197015
 20
321.913730081536
 30
0.0
 10
717.4577320276205
 20
321.686493575871
 30
0.0
 10
717.4033279759573
 20
321.5736371626173
 30
0.0
 10
717.1932489176052
 20
321.2370771770966
 30
0.0
 10
716.9908896244378
 20
321.0153750300108
 30
0.0
 10
716.7456628042579
 20
320.7955106779195
 30
0.0
  0
LINE
  5
16F
330
1F
100
AcDbEntity
  8
0
  6
Continuous
 62
     7
370
    15
100
AcDbLine
 10
708.8193833626
 20
672.7959870006
 30
0.0
 11
716.7456628043
 21
672.7959870006
 31
0.0
  0
LINE
  5
170
330
1F
100
AcDbEntity
  8
0
  6
Continuous
 62
     7
370
    15
100
AcDbLine
 10
708.8193833626
 20
303.4088458047
 30
0.0
 11
716.7456628043
 21
303.4088458047
 31
0.0
  0
LINE
  5
171
330
1F
100
AcDbEntity
  8
0
  6
Continuous
 62
     7
370
    15
100
AcDbLine
 10
708.8193833626
 20
652.7195957109
 30
0.0
 11
716.7456628043
 21
652.7195957109
 31
0.0
  0
LINE
  5
172
330
1F
100
AcDbEntity
  8
0
  6
Continuous
 62
     7
370
    15
100
AcDbLine
 10
708.8193833626
 20
323.4852370944
 30
0.0
 11
716.7456628043
 21
323.4852370944
 31
0.0
  0
LINE
  5
173
330
1F
100
AcDbEntity
  8
0
  6
Continuous
 62
     7
370
    15
100
AcDbLine
 10
672.4825230834
 20
656.7577913557
 30
0.0
 11
672.4825230834
 21
668.7577913557
 31
0.0
  0
LINE
  5
174
330
1F
100
AcDbEntity
  8
0
  6
Continuous
 62
     7
370
    15
100
AcDbLine
 10
672.4825230834
 20
307.4470414496
 30
0.0
 11
672.4825230834
 21
319.4470414496
 31
0.0
  0
LINE
  5
175
330
1F
100
AcDbEntity
  8
0
  6
Continuous
 62
     7
370
    15
100
AcDbLine
 10
717.9825230834
 20
723.1024164026
 30
0.0
 11
717.9825230834
 21
747.1024164026
 31
0.0
  0
LINE
  5
176
330
1F
100
AcDbEntity
  8
0
  6
Continuous
 62
     7
370
    15
100
AcDbLine
 10
717.9825230834
 20
241.1024164026
 30
0.0
 11
717.9825230834
 21
253.1024164026
 31
0.0
  0
LINE
  5
177
330
1F
100
AcDbEntity
  8
0
  6
Continuous
 62
     7
370
    15
100
AcDbLine
 10
717.9825230834
 20
229.1024164026
 30
0.0
 11
717.9825230834
 21
241.1024164026
 31
0.0
  0
SPLINE
  5
178
330
1F
100
AcDbEntity
  8
0
  6
Continuous
 62
     7
370
    15
100
AcDbSpline
210
0.0
220
0.0
230
1.0
 70
    24
 71
     3
 72
    13
 73
     9
 74
     0
 42
0.00000001
 43
0.00000001
 12
1.0
 22
0.0
 32
0.0
 13
1.0
 23
0.0
 33
0.0
 40
0.0
 40
0.0
 40
0.0
 40
0.0
 40
0.0192897082778942
 40
0.2756345880952345
 40
0.4555920260395536
 40
0.6360752414781513
 40
0.8178724427302415
 40
1.0
 40
1.0
 40
1.0
 40
1.0
 10
708.019561458676
 20
726.1024164026489
 30
0.0
 10
708.0182371183162
 20
726.1024164026489
 30
0.0
 10
707.9993133479643
 20
726.1024164026488
 30
0.0
 10
708.0628561127984
 20
726.1024164026489
 30
0.0
 10
708.1868010593065
 20
726.1024164026489
 30
0.0
 10
708.3540690021101
 20
726.1024164026489
 30
0.0
 10
708.5624393691867
 20
726.1024164026489
 30
0.0
 10
708.7336835486597
 20
726.1024164026488
 30
0.0
 10
708.8193833626286
 20
726.1024164026489
 30
0.0
  0
SPLINE
  5
179
330
1F
100
AcDbEntity
  8
0
  6
Continuous
 62
     7
370
    15
100
AcDbSpline
210
0.0
220
0.0
230
1.0
 70
    24
 71
     3
 72
    13
 73
     9
 74
     0
 42
0.00000001
 43
0.00000001
 12
1.0
 22
0.0
 32
0.0
 13
1.0
 23
0.0
 33
0.0
 40
0.0
 40
0.0
 40
0.0
 40
0.0
 40
0.1801854371458045
 40
0.3606611084617651
 40
0.5422585260238553
 40
0.7243598619702966
 40
0.9724860866425942
 40
1.0
 40
1.0
 40
1.0
 40
1.0
 10
708.819383362629
 20
744.102416402649
 30
0.0
 10
708.7345665610676
 20
744.1024164026488
 30
0.0
 10
708.5647963390571
 20
744.1024164026488
 30
0.0
 10
708.3566204754615
 20
744.1024164026488
 30
0.0
 10
708.1881164780764
 20
744.1024164026489
 30
0.0
 10
708.0644506589663
 20
744.1024164026488
 30
0.0
 10
708.0014669319204
 20
744.102416402649
 30
0.0
 10
708.0191989122222
 20
744.1024164026488
 30
0.0
 10
708.0209688872816
 20
744.1024164026488
 30
0.0
  0
SPLINE
  5
17A
330
1F
100
AcDbEntity
  8
0
  6
Continuous
 62
     7
370
    15
100
AcDbSpline
210
0.0
220
0.0
230
1.0
 70
     8
 71
     3
 72
    16
 73
    12
 74
     0
 42
0.00000001
 43
0.00000001
 12
1.0
 22
0.0
 32
0.0
 13
1.0
 23
0.0
 33
0.0
 40
0.0
 40
0.0
 40
0.0
 40
0.0
 40
0.2500000000000069
 40
0.2500000000000069
 40
0.5000000000000138
 40
0.5000000000000138
 40
0.6250000000000103
 40
0.6250000000000103
 40
0.7500000000000069
 40
0.7500000000000069
 40
1.0
 40
1.0
 40
1.0
 40
1.0
 10
708.8193833626284
 20
735.1024164026488
 30
0.0
 10
708.5744618480461
 20
735.8371809463961
 30
0.0
 10
708.3726021280095
 20
736.5773025478122
 30
0.0
 10
708.0929608564123
 20
738.0729815658724
 30
0.0
 10
708.0161017216841
 20
738.8286537348213
 30
0.0
 10
708.0152575605149
 20
739.9763993420773
 30
0.0
 10
708.0340466471849
 20
740.3607813535249
 30
0.0
 10
708.1073141392659
 20
741.1211295206977
 30
0.0
 10
708.1617181909293
 20
741.4987544393697
 30
0.0
 10
708.3717972492813
 20
742.624906099665
 30
0.0
 10
708.5741565424486
 20
743.366735942109
 30
0.0
 10
708.8193833626286
 20
744.1024164026489
 30
0.0
  0
SPLINE
  5
17B
330
1F
100
AcDbEntity
  8
0
  6
Continuous
 62
     7
370
    15
100
AcDbSpline
210
0.0
220
0.0
230
1.0
 70
     8
 71
     3
 72
    16
 73
    12
 74
     0
 42
0.00000001
 43
0.00000001
 12
1.0
 22
0.0
 32
0.0
 13
1.0
 23
0.0
 33
0.0
 40
0.0
 40
0.0
 40
0.0
 40
0.0
 40
0.2499999999999982
 40
0.2499999999999982
 40
0.4999999999999964
 40
0.4999999999999964
 40
0.6249999999999957
 40
0.6249999999999957
 40
0.7499999999999949
 40
0.7499999999999949
 40
1.0
 40
1.0
 40
1.0
 40
1.0
 10
708.8193833626284
 20
726.1024164026488
 30
0.0
 10
708.5744618480461
 20
726.8371809463961
 30
0.0
 10
708.3726021280095
 20
727.5773025478122
 30
0.0
 10
708.0929608564124
 20
729.0729815658725
 30
0.0
 10
708.0161017216842
 20
729.8286537348212
 30
0.0
 10
708.0152575605149
 20
730.9763993420772
 30
0.0
 10
708.0340466471849
 20
731.3607813535248
 30
0.0
 10
708.1073141392658
 20
732.1211295206977
 30
0.0
 10
708.1617181909293
 20
732.4987544393697
 30
0.0
 10
708.3717972492813
 20
733.624906099665
 30
0.0
 10
708.5741565424486
 20
734.366735942109
 30
0.0
 10
708.8193833626286
 20
735.1024164026489
 30
0.0
  0
LINE
  5
17C
330
1F
100
AcDbEntity
  8
0
  6
Continuous
 62
     7
370
    15
100
AcDbLine
 10
707.5825230834
 20
726.8524164026
 30
0.0
 11
707.5825230834
 21
743.3524164026
 31
0.0
  0
LINE
  5
17D
330
1F
100
AcDbEntity
  8
0
  6
Continuous
 62
     7
370
    15
100
AcDbLine
 10
708.8193833626
 20
735.1024164026
 30
0.0
 11
716.7456628043
 21
735.1024164026
 31
0.0
  0
SPLINE
  5
17E
330
1F
100
AcDbEntity
  8
0
  6
Continuous
 62
     7
370
    15
100
AcDbSpline
210
0.0
220
0.0
230
1.0
 70
     8
 71
     3
 72
    16
 73
    12
 74
     0
 42
0.00000001
 43
0.00000001
 12
1.0
 22
0.0
 32
0.0
 13
1.0
 23
0.0
 33
0.0
 40
0.0
 40
0.0
 40
0.0
 40
0.0
 40
0.2499999999999983
 40
0.2499999999999983
 40
0.4999999999999967
 40
0.4999999999999967
 40
0.6249999999999958
 40
0.6249999999999958
 40
0.749999999999995
 40
0.749999999999995
 40
1.0
 40
1.0
 40
1.0
 40
1.0
 10
716.745662804258
 20
735.1024164026489
 30
0.0
 10
716.9905843188404
 20
734.3676518589016
 30
0.0
 10
717.1924440388768
 20
733.6275302574855
 30
0.0
 10
717.472085310474
 20
732.1318512394253
 30
0.0
 10
717.5489444452023
 20
731.3761790704766
 30
0.0
 10
717.5497886063715
 20
730.2284334632205
 30
0.0
 10
717.5309995197015
 20
729.844051451773
 30
0.0
 10
717.4577320276205
 20
729.0837032846001
 30
0.0
 10
717.4033279759572
 20
728.7060783659282
 30
0.0
 10
717.1932489176052
 20
727.5799267056328
 30
0.0
 10
716.9908896244378
 20
726.8380968631889
 30
0.0
 10
716.7456628042578
 20
726.1024164026488
 30
0.0
  0
LINE
  5
17F
330
1F
100
AcDbEntity
  8
0
  6
Continuous
 62
     7
370
    15
100
AcDbLine
 10
708.8193833626
 20
726.1024164026
 30
0.0
 11
716.7456628043
 21
726.1024164026
 31
0.0
  0
LINE
  5
180
330
1F
100
AcDbEntity
  8
0
  6
Continuous
 62
     7
370
    15
100
AcDbLine
 10
708.8193833626
 20
744.1024164026
 30
0.0
 11
716.7456628043
 21
744.1024164026
 31
0.0
  0
SPLINE
  5
181
330
1F
100
AcDbEntity
  8
0
  6
Continuous
 62
     7
370
    15
100
AcDbSpline
210
0.0
220
0.0
230
1.0
 70
     8
 71
     3
 72
    16
 73
    12
 74
     0
 42
0.00000001
 43
0.00000001
 12
1.0
 22
0.0
 32
0.0
 13
1.0
 23
0.0
 33
0.0
 40
0.0
 40
0.0
 40
0.0
 40
0.0
 40
0.2499999999999915
 40
0.2499999999999915
 40
0.499999999999983
 40
0.499999999999983
 40
0.6249999999999857
 40
0.6249999999999857
 40
0.7499999999999882
 40
0.7499999999999882
 40
1.0
 40
1.0
 40
1.0
 40
1.0
 10
716.745662804258
 20
744.1024164026489
 30
0.0
 10
716.9905843188404
 20
743.3676518589016
 30
0.0
 10
717.1924440388769
 20
742.6275302574854
 30
0.0
 10
717.4720853104741
 20
741.1318512394253
 30
0.0
 10
717.5489444452023
 20
740.3761790704766
 30
0.0
 10
717.5497886063715
 20
739.2284334632207
 30
0.0
 10
717.5309995197015
 20
738.844051451773
 30
0.0
 10
717.4577320276205
 20
738.0837032846001
 30
0.0
 10
717.4033279759572
 20
737.7060783659282
 30
0.0
 10
717.1932489176052
 20
736.5799267056328
 30
0.0
 10
716.990889624438
 20
735.8380968631889
 30
0.0
 10
716.7456628042579
 20
735.1024164026489
 30
0.0
  0
SPLINE
  5
182
330
1F
100
AcDbEntity
  8
0
  6
Continuous
 62
     7
370
    15
100
AcDbSpline
210
0.0
220
0.0
230
1.0
 70
    24
 71
     3
 72
    13
 73
     9
 74
     0
 42
0.00000001
 43
0.00000001
 12
1.0
 22
0.0
 32
0.0
 13
1.0
 23
0.0
 33
0.0
 40
0.0
 40
0.0
 40
0.0
 40
0.0
 40
0.0192897082778873
 40
0.2756345880952281
 40
0.4555920260395502
 40
0.6360752414781503
 40
0.8178724427302398
 40
1.0
 40
1.0
 40
1.0
 40
1.0
 10
717.5454847082104
 20
744.1024164026488
 30
0.0
 10
717.5468090485704
 20
744.1024164026488
 30
0.0
 10
717.5657328189222
 20
744.1024164026489
 30
0.0
 10
717.5021900540884
 20
744.1024164026488
 30
0.0
 10
717.3782451075799
 20
744.1024164026488
 30
0.0
 10
717.2109771647761
 20
744.102416402649
 30
0.0
 10
717.0026067976997
 20
744.1024164026488
 30
0.0
 10
716.8313626182269
 20
744.1024164026488
 30
0.0
 10
716.7456628042579
 20
744.1024164026489
 30
0.0
  0
SPLINE
  5
183
330
1F
100
AcDbEntity
  8
0
  6
Continuous
 62
     7
370
    15
100
AcDbSpline
210
0.0
220
0.0
230
1.0
 70
    24
 71
     3
 72
    13
 73
     9
 74
     0
 42
0.00000001
 43
0.00000001
 12
1.0
 22
0.0
 32
0.0
 13
1.0
 23
0.0
 33
0.0
 40
0.0
 40
0.0
 40
0.0
 40
0.0
 40
0.1801854371458099
 40
0.3606611084617774
 40
0.5422585260238736
 40
0.72435986197032
 40
0.9724860866426278
 40
0.9999999999999999
 40
0.9999999999999999
 40
0.9999999999999999
 40
0.9999999999999999
 10
716.7456628042576
 20
726.1024164026489
 30
0.0
 10
716.8304796058189
 20
726.1024164026488
 30
0.0
 10
717.0002498278293
 20
726.1024164026489
 30
0.0
 10
717.2084256914251
 20
726.1024164026488
 30
0.0
 10
717.3769296888099
 20
726.1024164026489
 30
0.0
 10
717.5005955079204
 20
726.1024164026489
 30
0.0
 10
717.563579234966
 20
726.1024164026488
 30
0.0
 10
717.5458472546643
 20
726.1024164026489
 30
0.0
 10
717.544077279605
 20
726.1024164026489
 30
0.0
  0
SPLINE
  5
184
330
1F
100
AcDbEntity
  8
0
  6
Continuous
 62
     7
370
    15
100
AcDbSpline
210
0.0
220
0.0
230
1.0
 70
    24
 71
     3
 72
    11
 73
     7
 74
     0
 42
0.00000001
 43
0.00000001
 12
1.0
 22
0.0
 32
0.0
 13
1.0
 23
0.0
 33
0.0
 40
0.0
 40
0.0
 40
0.0
 40
0.0
 40
0.2663523580043922
 40
0.5149691374199564
 40
0.7648207627617873
 40
1.0
 40
1.0
 40
1.0
 40
1.0
 10
708.8193833626286
 20
250.1024164026488
 30
0.0
 10
708.6960186716772
 20
250.1024164026489
 30
0.0
 10
708.457503762467
 20
250.1024164026489
 30
0.0
 10
708.2060734218238
 20
250.1024164026489
 30
0.0
 10
708.0436265635273
 20
250.1024164026487
 30
0.0
 10
708.0274197392033
 20
250.1024164026489
 30
0.0
 10
708.019561458676
 20
250.1024164026489
 30
0.0
  0
SPLINE
  5
185
330
1F
100
AcDbEntity
  8
0
  6
Continuous
 62
     7
370
    15
100
AcDbSpline
210
0.0
220
0.0
230
1.0
 70
     8
 71
     3
 72
    16
 73
    12
 74
     0
 42
0.00000001
 43
0.00000001
 12
1.0
 22
0.0
 32
0.0
 13
1.0
 23
0.0
 33
0.0
 40
0.0
 40
0.0
 40
0.0
 40
0.0
 40
0.2499999999999982
 40
0.2499999999999982
 40
0.4999999999999964
 40
0.4999999999999964
 40
0.6249999999999957
 40
0.6249999999999957
 40
0.7499999999999949
 40
0.7499999999999949
 40
1.0
 40
1.0
 40
1.0
 40
1.0
 10
708.8193833626284
 20
241.1024164026487
 30
0.0
 10
708.574461848046
 20
241.8371809463958
 30
0.0
 10
708.3726021280095
 20
242.5773025478121
 30
0.0
 10
708.0929608564124
 20
244.0729815658724
 30
0.0
 10
708.0161017216842
 20
244.8286537348211
 30
0.0
 10
708.0152575605149
 20
245.976399342077
 30
0.0
 10
708.0340466471849
 20
246.3607813535246
 30
0.0
 10
708.1073141392658
 20
247.1211295206975
 30
0.0
 10
708.1617181909293
 20
247.4987544393695
 30
0.0
 10
708.3717972492813
 20
248.6249060996648
 30
0.0
 10
708.5741565424485
 20
249.3667359421088
 30
0.0
 10
708.8193833626285
 20
250.1024164026489
 30
0.0
  0
SPLINE
  5
186
330
1F
100
AcDbEntity
  8
0
  6
Continuous
 62
     7
370
    15
100
AcDbSpline
210
0.0
220
0.0
230
1.0
 70
     8
 71
     3
 72
    16
 73
    12
 74
     0
 42
0.00000001
 43
0.00000001
 12
1.0
 22
0.0
 32
0.0
 13
1.0
 23
0.0
 33
0.0
 40
0.0
 40
0.0
 40
0.0
 40
0.0
 40
0.2500000000000069
 40
0.2500000000000069
 40
0.5000000000000138
 40
0.5000000000000138
 40
0.6250000000000103
 40
0.6250000000000103
 40
0.7500000000000069
 40
0.7500000000000069
 40
1.0
 40
1.0
 40
1.0
 40
1.0
 10
708.8193833626284
 20
232.1024164026487
 30
0.0
 10
708.5744618480461
 20
232.8371809463959
 30
0.0
 10
708.3726021280095
 20
233.5773025478121
 30
0.0
 10
708.0929608564123
 20
235.0729815658723
 30
0.0
 10
708.0161017216841
 20
235.828653734821
 30
0.0
 10
708.0152575605149
 20
236.9763993420769
 30
0.0
 10
708.0340466471849
 20
237.3607813535246
 30
0.0
 10
708.1073141392658
 20
238.1211295206974
 30
0.0
 10
708.1617181909292
 20
238.4987544393695
 30
0.0
 10
708.3717972492813
 20
239.6249060996648
 30
0.0
 10
708.5741565424485
 20
240.3667359421087
 30
0.0
 10
708.8193833626285
 20
241.1024164026488
 30
0.0
  0
SPLINE
  5
187
330
1F
100
AcDbEntity
  8
0
  6
Continuous
 62
     7
370
    15
100
AcDbSpline
210
0.0
220
0.0
230
1.0
 70
    24
 71
     3
 72
    11
 73
     7
 74
     0
 42
0.00000001
 43
0.00000001
 12
1.0
 22
0.0
 32
0.0
 13
1.0
 23
0.0
 33
0.0
 40
0.0
 40
0.0
 40
0.0
 40
0.0
 40
0.2223389001464208
 40
0.4772529623961621
 40
0.7336461735029931
 40
1.0
 40
1.0
 40
1.0
 40
1.0
 10
708.0209688872816
 20
232.1024164026489
 30
0.0
 10
708.027276107178
 20
232.1024164026489
 30
0.0
 10
708.0408146259797
 20
232.1024164026489
 30
0.0
 10
708.1997849743682
 20
232.1024164026489
 30
0.0
 10
708.4539146558642
 20
232.102416402649
 30
0.0
 10
708.696022721499
 20
232.1024164026489
 30
0.0
 10
708.819383362629
 20
232.1024164026488
 30
0.0
  0
LINE
  5
188
330
1F
100
AcDbEntity
  8
0
  6
Continuous
 62
     7
370
    15
100
AcDbLine
 10
707.5825230834
 20
232.8524164026
 30
0.0
 11
707.5825230834
 21
249.3524164026
 31
0.0
  0
LINE
  5
189
330
1F
100
AcDbEntity
  8
0
  6
Continuous
 62
     7
370
    15
100
AcDbLine
 10
708.8193833626
 20
241.1024164026
 30
0.0
 11
716.7456628043
 21
241.1024164026
 31
0.0
  0
SPLINE
  5
18A
330
1F
100
AcDbEntity
  8
0
  6
Continuous
 62
     7
370
    15
100
AcDbSpline
210
0.0
220
0.0
230
1.0
 70
     8
 71
     3
 72
    16
 73
    12
 74
     0
 42
0.00000001
 43
0.00000001
 12
1.0
 22
0.0
 32
0.0
 13
1.0
 23
0.0
 33
0.0
 40
0.0
 40
0.0
 40
0.0
 40
0.0
 40
0.2500000000000069
 40
0.2500000000000069
 40
0.5000000000000138
 40
0.5000000000000138
 40
0.6250000000000103
 40
0.6250000000000103
 40
0.7500000000000069
 40
0.7500000000000069
 40
1.0
 40
1.0
 40
1.0
 40
1.0
 10
716.7456628042581
 20
241.1024164026488
 30
0.0
 10
716.9905843188404
 20
240.3676518589016
 30
0.0
 10
717.1924440388769
 20
239.6275302574855
 30
0.0
 10
717.472085310474
 20
238.1318512394253
 30
0.0
 10
717.5489444452023
 20
237.3761790704764
 30
0.0
 10
717.5497886063715
 20
236.2284334632204
 30
0.0
 10
717.5309995197015
 20
235.8440514517729
 30
0.0
 10
717.4577320276205
 20
235.0837032846
 30
0.0
 10
717.4033279759573
 20
234.7060783659279
 30
0.0
 10
717.1932489176052
 20
233.5799267056326
 30
0.0
 10
716.990889624438
 20
232.8380968631887
 30
0.0
 10
716.7456628042579
 20
232.1024164026488
 30
0.0
  0
LINE
  5
18B
330
1F
100
AcDbEntity
  8
0
  6
Continuous
 62
     7
370
    15
100
AcDbLine
 10
708.8193833626
 20
232.1024164026
 30
0.0
 11
716.7456628043
 21
232.1024164026
 31
0.0
  0
LINE
  5
18C
330
1F
100
AcDbEntity
  8
0
  6
Continuous
 62
     7
370
    15
100
AcDbLine
 10
708.8193833626
 20
250.1024164026
 30
0.0
 11
716.7456628043
 21
250.1024164026
 31
0.0
  0
SPLINE
  5
18D
330
1F
100
AcDbEntity
  8
0
  6
Continuous
 62
     7
370
    15
100
AcDbSpline
210
0.0
220
0.0
230
1.0
 70
     8
 71
     3
 72
    16
 73
    12
 74
     0
 42
0.00000001
 43
0.00000001
 12
1.0
 22
0.0
 32
0.0
 13
1.0
 23
0.0
 33
0.0
 40
0.0
 40
0.0
 40
0.0
 40
0.0
 40
0.2500000000000034
 40
0.2500000000000034
 40
0.5000000000000069
 40
0.5000000000000069
 40
0.6250000000000051
 40
0.6250000000000051
 40
0.7500000000000034
 40
0.7500000000000034
 40
1.0
 40
1.0
 40
1.0
 40
1.0
 10
716.745662804258
 20
250.1024164026489
 30
0.0
 10
716.9905843188404
 20
249.3676518589017
 30
0.0
 10
717.1924440388768
 20
248.6275302574855
 30
0.0
 10
717.472085310474
 20
247.1318512394251
 30
0.0
 10
717.5489444452023
 20
246.3761790704764
 30
0.0
 10
717.5497886063715
 20
245.2284334632204
 30
0.0
 10
717.5309995197014
 20
244.8440514517729
 30
0.0
 10
717.4577320276205
 20
244.0837032846001
 30
0.0
 10
717.4033279759572
 20
243.706078365928
 30
0.0
 10
717.1932489176052
 20
242.5799267056327
 30
0.0
 10
716.9908896244378
 20
241.8380968631887
 30
0.0
 10
716.7456628042578
 20
241.1024164026487
 30
0.0
  0
SPLINE
  5
18E
330
1F
100
AcDbEntity
  8
0
  6
Continuous
 62
     7
370
    15
100
AcDbSpline
210
0.0
220
0.0
230
1.0
 70
    24
 71
     3
 72
    11
 73
     7
 74
     0
 42
0.00000001
 43
0.00000001
 12
1.0
 22
0.0
 32
0.0
 13
1.0
 23
0.0
 33
0.0
 40
0.0
 40
0.0
 40
0.0
 40
0.0
 40
0.2663523580044056
 40
0.5149691374199872
 40
0.7648207627618344
 40
0.9999999999999999
 40
0.9999999999999999
 40
0.9999999999999999
 40
0.9999999999999999
 10
716.7456628042579
 20
232.1024164026488
 30
0.0
 10
716.8690274952094
 20
232.1024164026488
 30
0.0
 10
717.1075424044195
 20
232.1024164026488
 30
0.0
 10
717.3589727450626
 20
232.1024164026488
 30
0.0
 10
717.5214196033593
 20
232.1024164026489
 30
0.0
 10
717.537626427683
 20
232.1024164026488
 30
0.0
 10
717.5454847082103
 20
232.1024164026488
 30
0.0
  0
SPLINE
  5
18F
330
1F
100
AcDbEntity
  8
0
  6
Continuous
 62
     7
370
    15
100
AcDbSpline
210
0.0
220
0.0
230
1.0
 70
    24
 71
     3
 72
    11
 73
     7
 74
     0
 42
0.00000001
 43
0.00000001
 12
1.0
 22
0.0
 32
0.0
 13
1.0
 23
0.0
 33
0.0
 40
0.0
 40
0.0
 40
0.0
 40
0.0
 40
0.222338900146436
 40
0.4772529623961727
 40
0.7336461735029982
 40
1.0
 40
1.0
 40
1.0
 40
1.0
 10
717.5440772796048
 20
250.1024164026489
 30
0.0
 10
717.5377700597086
 20
250.1024164026489
 30
0.0
 10
717.5242315409067
 20
250.102416402649
 30
0.0
 10
717.3652611925181
 20
250.1024164026487
 30
0.0
 10
717.1111315110223
 20
250.1024164026489
 30
0.0
 10
716.8690234453875
 20
250.1024164026489
 30
0.0
 10
716.7456628042576
 20
250.1024164026488
 30
0.0
  0
LINE
  5
190
330
1F
100
AcDbEntity
  8
0
  6
Continuous
 62
     7
370
    15
100
AcDbLine
 10
672.4825230834
 20
729.1024164026
 30
0.0
 11
672.4825230834
 21
741.1024164026
 31
0.0
  0
LINE
  5
191
330
1F
100
AcDbEntity
  8
0
  6
Continuous
 62
     7
370
    15
100
AcDbLine
 10
672.4825230834
 20
235.1024164026
 30
0.0
 11
672.4825230834
 21
247.1024164026
 31
0.0
  0
LINE
  5
192
330
1F
100
AcDbEntity
  8
0
  6
Continuous
 62
     7
370
     0
100
AcDbLine
 10
723.7335295614
 20
488.1024164026
 30
0.0
 11
723.7335295614
 21
749.1024164026
 31
0.0
  0
LINE
  5
193
330
1F
100
AcDbEntity
  8
0
  6
Continuous
 62
     7
370
     0
100
AcDbLine
 10
723.7335295614
 20
227.1024164026
 30
0.0
 11
723.7335295614
 21
488.1024164026
 31
0.0
  0
LINE
  5
194
330
1F
100
AcDbEntity
  8
0
  6
Continuous
 62
     7
370
     0
100
AcDbLine
 10
726.7221136557
 20
488.1024164026
 30
0.0
 11
726.7221136557
 21
746.3638836309
 31
0.0
  0
LINE
  5
195
330
1F
100
AcDbEntity
  8
0
  6
Continuous
 62
     7
370
     0
100
AcDbLine
 10
726.7221136557
 20
229.8409491744
 30
0.0
 11
726.7221136557
 21
488.1024164026
 31
0.0
  0
LINE
  5
196
330
1F
100
AcDbEntity
  8
0
  6
Continuous
 62
     7
370
     0
100
AcDbLine
 10
728.1443867678
 20
668.7577913557
 30
0.0
 11
728.1443867678
 21
730.0848630184
 31
0.0
  0
LINE
  5
197
330
1F
100
AcDbEntity
  8
0
  6
Continuous
 62
     7
370
     0
100
AcDbLine
 10
728.1443867678
 20
494.1024164026
 30
0.0
 11
728.1443867678
 21
656.7577913557
 31
0.0
  0
LINE
  5
198
330
1F
100
AcDbEntity
  8
0
  6
Continuous
 62
     7
370
     0
100
AcDbLine
 10
728.1443867678
 20
319.4470414496
 30
0.0
 11
728.1443867678
 21
482.1024164026
 31
0.0
  0
LINE
  5
199
330
1F
100
AcDbEntity
  8
0
  6
Continuous
 62
     7
370
     0
100
AcDbLine
 10
728.1443867678
 20
246.1199697869
 30
0.0
 11
728.1443867678
 21
307.4470414496
 31
0.0
  0
LINE
  5
19A
330
1F
100
AcDbEntity
  8
0
  6
Continuous
 62
     7
370
     0
100
AcDbLine
 10
732.8636804771
 20
494.1024164026
 30
0.0
 11
732.8636804771
 21
656.7577913557
 31
0.0
  0
LINE
  5
19B
330
1F
100
AcDbEntity
  8
0
  6
Continuous
 62
     7
370
     0
100
AcDbLine
 10
732.8636804771
 20
668.7577913557
 30
0.0
 11
732.8636804771
 21
725.54985861
 31
0.0
  0
LINE
  5
19C
330
1F
100
AcDbEntity
  8
0
  6
Continuous
 62
     7
370
     0
100
AcDbLine
 10
732.8636804771
 20
250.6549741953
 30
0.0
 11
732.8636804771
 21
307.4470414496
 31
0.0
  0
LINE
  5
19D
330
1F
100
AcDbEntity
  8
0
  6
Continuous
 62
     7
370
     0
100
AcDbLine
 10
732.8636804771
 20
319.4470414496
 30
0.0
 11
732.8636804771
 21
482.1024164026
 31
0.0
  0
LINE
  5
19E
330
1F
100
AcDbEntity
  8
0
  6
Continuous
 62
     7
370
     0
100
AcDbLine
 10
758.1133629741
 20
494.1024164026
 30
0.0
 11
758.1133629741
 21
656.7577913557
 31
0.0
  0
LINE
  5
19F
330
1F
100
AcDbEntity
  8
0
  6
Continuous
 62
     7
370
     0
100
AcDbLine
 10
758.1133629741
 20
668.7577913557
 30
0.0
 11
758.1133629741
 21
724.2265788227
 31
0.0
  0
LINE
  5
1A0
330
1F
100
AcDbEntity
  8
0
  6
Continuous
 62
     7
370
     0
100
AcDbLine
 10
758.1133629741
 20
251.9782539826
 30
0.0
 11
758.1133629741
 21
307.4470414496
 31
0.0
  0
LINE
  5
1A1
330
1F
100
AcDbEntity
  8
0
  6
Continuous
 62
     7
370
     0
100
AcDbLine
 10
758.1133629741
 20
319.4470414496
 30
0.0
 11
758.1133629741
 21
482.1024164026
 31
0.0
  0
LINE
  5
1A2
330
1F
100
AcDbEntity
  8
FORMAT
  6
CENTERX2
370
     0
100
AcDbLine
 10
669.2059677048
 20
488.1024164026
 30
0.0
 11
852.4825230834
 21
488.1024164026
 31
0.0
  0
LINE
  5
1A3
330
1F
100
AcDbEntity
  8
0
  6
Continuous
 62
     7
370
    15
100
AcDbLine
 10
565.6139494993
 20
-96.3023071364
 30
0.0
 11
565.6139494993
 21
-71.3023071364
 31
0.0
  0
LINE
  5
1A4
330
1F
100
AcDbEntity
  8
0
  6
Continuous
 62
     7
370
    15
100
AcDbLine
 10
-14.3860505007
 20
-71.3023071364
 30
0.0
 11
-14.3860505007
 21
-96.3023071364
 31
0.0
  0
ARC
  5
1A5
330
1F
100
AcDbEntity
  8
0
  6
Continuous
 62
     7
370
    15
100
AcDbCircle
 10
17.6139494993
 20
30.4466863856
 30
0.0
 40
3.000000000000004
100
AcDbArc
 50
180.0
 51
265.0
  0
ARC
  5
1A6
330
1F
100
AcDbEntity
  8
0
  6
Continuous
 62
     7
370
    15
100
AcDbCircle
 10
533.6139494993
 20
30.4466863856
 30
0.0
 40
2.999999999999996
100
AcDbArc
 50
275.0
 51
0.0
  0
LINE
  5
1A7
330
1F
100
AcDbEntity
  8
0
  6
Continuous
 62
     7
370
    15
100
AcDbLine
 10
14.6139494993
 20
33.6976928636
 30
0.0
 11
14.6139494993
 21
30.4466863856
 31
0.0
  0
LINE
  5
1A8
330
1F
100
AcDbEntity
  8
0
  6
Continuous
 62
     7
370
    15
100
AcDbLine
 10
536.6139494993
 20
30.4466863856
 30
0.0
 11
536.6139494993
 21
33.6976928636
 31
0.0
  0
LINE
  5
1A9
330
1F
100
AcDbEntity
  8
0
  6
Continuous
 62
     7
370
    15
100
AcDbLine
 10
263.6139494993
 20
36.1976928636
 30
0.0
 11
263.6139494993
 21
33.6976928636
 31
0.0
  0
LINE
  5
1AA
330
1F
100
AcDbEntity
  8
0
  6
Continuous
 62
     7
370
    15
100
AcDbLine
 10
287.6139494993
 20
33.6976928636
 30
0.0
 11
287.6139494993
 21
36.1976928636
 31
0.0
  0
LINE
  5
1AB
330
1F
100
AcDbEntity
  8
0
  6
Continuous
 62
     7
370
    15
100
AcDbLine
 10
17.3524822711
 20
27.4581022914
 30
0.0
 11
22.6188940219
 21
26.9973509657
 31
0.0
  0
LINE
  5
1AC
330
1F
100
AcDbEntity
  8
0
  6
Continuous
 62
     7
370
    15
100
AcDbLine
 10
528.6090049767
 20
26.9973509657
 30
0.0
 11
533.8754167276
 21
27.4581022914
 31
0.0
  0
LINE
  5
1AD
330
1F
100
AcDbEntity
  8
0
  6
Continuous
 62
     7
370
    15
100
AcDbLine
 10
286.0062543448
 20
45.3608325844
 30
0.0
 11
283.8639494993
 21
46.5976928636
 31
0.0
  0
LINE
  5
1AE
330
1F
100
AcDbEntity
  8
0
  6
Continuous
 62
     7
370
    15
100
AcDbLine
 10
267.3639494993
 20
46.5976928636
 30
0.0
 11
265.2216446539
 21
45.3608325844
 31
0.0
  0
LINE
  5
1AF
330
1F
100
AcDbEntity
  8
0
  6
Continuous
 62
     7
370
    15
100
AcDbLine
 10
265.2216446539
 20
37.4345531428
 30
0.0
 11
267.3639494993
 21
36.1976928636
 31
0.0
  0
LINE
  5
1B0
330
1F
100
AcDbEntity
  8
0
  6
Continuous
 62
     7
370
    15
100
AcDbLine
 10
283.8639494993
 20
36.1976928636
 30
0.0
 11
286.0062543448
 21
37.4345531428
 31
0.0
  0
LINE
  5
1B1
330
1F
100
AcDbEntity
  8
0
  6
Continuous
 62
     7
370
    15
100
AcDbLine
 10
281.6139494993
 20
46.5976928636
 30
0.0
 11
281.6139494993
 21
81.6976928636
 31
0.0
  0
LINE
  5
1B2
330
1F
100
AcDbEntity
  8
0
  6
Continuous
 62
     7
370
    15
100
AcDbLine
 10
269.6139494993
 20
81.6976928636
 30
0.0
 11
269.6139494993
 21
46.5976928636
 31
0.0
  0
LINE
  5
1B3
330
1F
100
AcDbEntity
  8
0
  6
Continuous
 62
     7
370
    15
100
AcDbLine
 10
281.6139494993
 20
-71.3023071364
 30
0.0
 11
281.6139494993
 21
26.4792252286
 31
0.0
  0
LINE
  5
1B4
330
1F
100
AcDbEntity
  8
0
  6
Continuous
 62
     7
370
    15
100
AcDbLine
 10
269.6139494993
 20
26.4792264741
 30
0.0
 11
269.6139494993
 21
-71.3023071364
 31
0.0
  0
ARC
  5
1B5
330
1F
100
AcDbEntity
  8
0
  6
Continuous
 62
     7
370
    15
100
AcDbCircle
 10
33.1733596182
 20
21.0548556887
 30
0.0
 40
4.999999999999987
100
AcDbArc
 50
3.0
 51
73.2715184381
  0
ARC
  5
1B6
330
1F
100
AcDbEntity
  8
0
  6
Continuous
 62
     7
370
    15
100
AcDbCircle
 10
518.0545393805
 20
21.0548556887
 30
0.0
 40
5.000000000000039
100
AcDbArc
 50
106.7256176722
 51
177.0
  0
LINE
  5
1B7
330
1F
100
AcDbEntity
  8
0
  6
Continuous
 62
     7
370
    15
100
AcDbLine
 10
38.166507292
 20
21.3165354699
 30
0.0
 11
39.4897870792
 21
-3.933147027
 31
0.0
  0
LINE
  5
1B8
330
1F
100
AcDbEntity
  8
0
  6
Continuous
 62
     7
370
    15
100
AcDbLine
 10
511.7381119194
 20
-3.933147027
 30
0.0
 11
513.0613917067
 21
21.3165354699
 31
0.0
  0
ARC
  5
1B9
330
1F
100
AcDbEntity
  8
0
  6
Continuous
 62
     7
370
    15
100
AcDbCircle
 10
41.9863609161
 20
-3.8023071364
 30
0.0
 40
2.500000000000002
100
AcDbArc
 50
183.0
 51
270.0
  0
ARC
  5
1BA
330
1F
100
AcDbEntity
  8
0
  6
Continuous
 62
     7
370
    15
100
AcDbCircle
 10
509.2415380826
 20
-3.8023071364
 30
0.0
 40
2.500000000000002
100
AcDbArc
 50
270.0
 51
357.0
  0
LINE
  5
1BB
330
1F
100
AcDbEntity
  8
0
  6
Continuous
 62
     7
370
    15
100
AcDbLine
 10
489.6139494993
 20
-71.3023071364
 30
0.0
 11
489.6139494993
 21
-6.3023071364
 31
0.0
  0
LINE
  5
1BC
330
1F
100
AcDbEntity
  8
0
  6
Continuous
 62
     7
370
    15
100
AcDbLine
 10
61.6139494993
 20
-6.3023071364
 30
0.0
 11
61.6139494993
 21
-71.3023071364
 31
0.0
  0
LINE
  5
1BD
330
1F
100
AcDbEntity
  8
0
  6
Continuous
 62
     7
370
    15
100
AcDbLine
 10
438.2693244524
 20
36.1976928636
 30
0.0
 11
438.2693244524
 21
33.6976928636
 31
0.0
  0
LINE
  5
1BE
330
1F
100
AcDbEntity
  8
0
  6
Continuous
 62
     7
370
    15
100
AcDbLine
 10
462.2693244524
 20
33.6976928636
 30
0.0
 11
462.2693244524
 21
36.1976928636
 31
0.0
  0
LINE
  5
1BF
330
1F
100
AcDbEntity
  8
0
  6
Continuous
 62
     7
370
    15
100
AcDbLine
 10
88.9585745463
 20
36.1976928636
 30
0.0
 11
88.9585745463
 21
33.6976928636
 31
0.0
  0
LINE
  5
1C0
330
1F
100
AcDbEntity
  8
0
  6
Continuous
 62
     7
370
    15
100
AcDbLine
 10
112.9585745463
 20
33.6976928636
 30
0.0
 11
112.9585745463
 21
36.1976928636
 31
0.0
  0
LINE
  5
1C1
330
1F
100
AcDbEntity
  8
0
  6
Continuous
 62
     7
370
    15
100
AcDbLine
 10
459.5879233754
 20
45.9807369878
 30
0.0
 11
458.5193244524
 21
46.5976928636
 31
0.0
  0
LINE
  5
1C2
330
1F
100
AcDbEntity
  8
0
  6
Continuous
 62
     7
370
    15
100
AcDbLine
 10
442.0193244524
 20
46.5976928636
 30
0.0
 11
440.9507255295
 21
45.9807369877
 31
0.0
  0
LINE
  5
1C3
330
1F
100
AcDbEntity
  8
0
  6
Continuous
 62
     7
370
    15
100
AcDbLine
 10
440.9478598783
 20
36.8163032239
 30
0.0
 11
442.0193244524
 21
36.1976928636
 31
0.0
  0
LINE
  5
1C4
330
1F
100
AcDbEntity
  8
0
  6
Continuous
 62
     7
370
    15
100
AcDbLine
 10
458.5193244524
 20
36.1976928636
 30
0.0
 11
459.5907890265
 21
36.8163032239
 31
0.0
  0
LINE
  5
1C5
330
1F
100
AcDbEntity
  8
0
  6
Continuous
 62
     7
370
    15
100
AcDbLine
 10
110.2800391204
 20
45.9790825033
 30
0.0
 11
109.2085745463
 21
46.5976928636
 31
0.0
  0
LINE
  5
1C6
330
1F
100
AcDbEntity
  8
0
  6
Continuous
 62
     7
370
    15
100
AcDbLine
 10
92.7085745463
 20
46.5976928636
 30
0.0
 11
91.6371099722
 21
45.9790825033
 31
0.0
  0
LINE
  5
1C7
330
1F
100
AcDbEntity
  8
0
  6
Continuous
 62
     7
370
    15
100
AcDbLine
 10
91.6399756233
 20
36.8146487394
 30
0.0
 11
92.7085745463
 21
36.1976928636
 31
0.0
  0
LINE
  5
1C8
330
1F
100
AcDbEntity
  8
0
  6
Continuous
 62
     7
370
    15
100
AcDbLine
 10
109.2085745463
 20
36.1976928636
 30
0.0
 11
110.2771734692
 21
36.8146487394
 31
0.0
  0
LINE
  5
1C9
330
1F
100
AcDbEntity
  8
0
  6
Continuous
 62
     7
370
    15
100
AcDbLine
 10
456.2693244524
 20
46.5976928636
 30
0.0
 11
456.2693244524
 21
81.6976928636
 31
0.0
  0
LINE
  5
1CA
330
1F
100
AcDbEntity
  8
0
  6
Continuous
 62
     7
370
    15
100
AcDbLine
 10
444.2693244524
 20
81.6976928636
 30
0.0
 11
444.2693244524
 21
46.5976928636
 31
0.0
  0
LINE
  5
1CB
330
1F
100
AcDbEntity
  8
0
  6
Continuous
 62
     7
370
    15
100
AcDbLine
 10
456.2693244524
 20
-71.3023071364
 30
0.0
 11
456.2693244524
 21
26.847069634
 31
0.0
  0
LINE
  5
1CC
330
1F
100
AcDbEntity
  8
0
  6
Continuous
 62
     7
370
    15
100
AcDbLine
 10
444.2693244524
 20
26.1058762741
 30
0.0
 11
444.2693244524
 21
-71.3023071364
 31
0.0
  0
LINE
  5
1CD
330
1F
100
AcDbEntity
  8
0
  6
Continuous
 62
     7
370
    15
100
AcDbLine
 10
106.9585745463
 20
46.5976928636
 30
0.0
 11
106.9585745463
 21
81.6976928636
 31
0.0
  0
LINE
  5
1CE
330
1F
100
AcDbEntity
  8
0
  6
Continuous
 62
     7
370
    15
100
AcDbLine
 10
94.9585745463
 20
81.6976928636
 30
0.0
 11
94.9585745463
 21
46.5976928636
 31
0.0
  0
LINE
  5
1CF
330
1F
100
AcDbEntity
  8
0
  6
Continuous
 62
     7
370
    15
100
AcDbLine
 10
106.9585745463
 20
-71.3023071364
 30
0.0
 11
106.9585745463
 21
26.1049593191
 31
0.0
  0
LINE
  5
1D0
330
1F
100
AcDbEntity
  8
0
  6
Continuous
 62
     7
370
    15
100
AcDbLine
 10
94.9585745463
 20
26.8470047027
 30
0.0
 11
94.9585745463
 21
-71.3023071364
 31
0.0
  0
LINE
  5
1D1
330
1F
100
AcDbEntity
  8
0
  6
Continuous
 62
     7
370
    15
100
AcDbLine
 10
510.6139494993
 20
36.1976928636
 30
0.0
 11
510.6139494993
 21
33.6976928636
 31
0.0
  0
LINE
  5
1D2
330
1F
100
AcDbEntity
  8
0
  6
Continuous
 62
     7
370
    15
100
AcDbLine
 10
534.6139494993
 20
33.6976928636
 30
0.0
 11
534.6139494993
 21
36.1976928636
 31
0.0
  0
LINE
  5
1D3
330
1F
100
AcDbEntity
  8
0
  6
Continuous
 62
     7
370
    15
100
AcDbLine
 10
16.6139494993
 20
36.1976928636
 30
0.0
 11
16.6139494993
 21
33.6976928636
 31
0.0
  0
LINE
  5
1D4
330
1F
100
AcDbEntity
  8
0
  6
Continuous
 62
     7
370
    15
100
AcDbLine
 10
40.6139494993
 20
33.6976928636
 30
0.0
 11
40.6139494993
 21
36.1976928636
 31
0.0
  0
LINE
  5
1D5
330
1F
100
AcDbEntity
  8
0
  6
Continuous
 62
     7
370
    15
100
AcDbLine
 10
531.6139494993
 20
46.1646801617
 30
0.0
 11
530.8639494993
 21
46.5976928636
 31
0.0
  0
LINE
  5
1D6
330
1F
100
AcDbEntity
  8
0
  6
Continuous
 62
     7
370
    15
100
AcDbLine
 10
514.3639494993
 20
46.5976928636
 30
0.0
 11
513.6139494993
 21
46.1646801617
 31
0.0
  0
LINE
  5
1D7
330
1F
100
AcDbEntity
  8
0
  6
Continuous
 62
     7
370
    15
100
AcDbLine
 10
513.6139494993
 20
36.6307055655
 30
0.0
 11
514.3639494993
 21
36.1976928636
 31
0.0
  0
LINE
  5
1D8
330
1F
100
AcDbEntity
  8
0
  6
Continuous
 62
     7
370
    15
100
AcDbLine
 10
530.8639494993
 20
36.1976928636
 30
0.0
 11
531.6139494993
 21
36.6307055655
 31
0.0
  0
LINE
  5
1D9
330
1F
100
AcDbEntity
  8
0
  6
Continuous
 62
     7
370
    15
100
AcDbLine
 10
37.6139494993
 20
46.1646801617
 30
0.0
 11
36.8639494993
 21
46.5976928636
 31
0.0
  0
LINE
  5
1DA
330
1F
100
AcDbEntity
  8
0
  6
Continuous
 62
     7
370
    15
100
AcDbLine
 10
20.3639494993
 20
46.5976928636
 30
0.0
 11
19.6139494993
 21
46.1646801617
 31
0.0
  0
LINE
  5
1DB
330
1F
100
AcDbEntity
  8
0
  6
Continuous
 62
     7
370
    15
100
AcDbLine
 10
19.6139494993
 20
36.6307055655
 30
0.0
 11
20.3639494993
 21
36.1976928636
 31
0.0
  0
LINE
  5
1DC
330
1F
100
AcDbEntity
  8
0
  6
Continuous
 62
     7
370
    15
100
AcDbLine
 10
36.8639494993
 20
36.1976928636
 30
0.0
 11
37.6139494993
 21
36.6307055655
 31
0.0
  0
LINE
  5
1DD
330
1F
100
AcDbEntity
  8
0
  6
Continuous
 62
     7
370
    15
100
AcDbLine
 10
528.6139494993
 20
46.5976928636
 30
0.0
 11
528.6139494993
 21
81.6976928636
 31
0.0
  0
LINE
  5
1DE
330
1F
100
AcDbEntity
  8
0
  6
Continuous
 62
     7
370
    15
100
AcDbLine
 10
516.6139494993
 20
81.6976928636
 30
0.0
 11
516.6139494993
 21
46.5976928636
 31
0.0
  0
LINE
  5
1DF
330
1F
100
AcDbEntity
  8
0
  6
Continuous
 62
     7
370
    15
100
AcDbLine
 10
528.6139494993
 20
-71.3023071364
 30
0.0
 11
528.6139494993
 21
26.9977835554
 31
0.0
  0
LINE
  5
1E0
330
1F
100
AcDbEntity
  8
0
  6
Continuous
 62
     7
370
    15
100
AcDbLine
 10
516.6139494993
 20
25.8433035459
 30
0.0
 11
516.6139494993
 21
-71.3023071364
 31
0.0
  0
LINE
  5
1E1
330
1F
100
AcDbEntity
  8
0
  6
Continuous
 62
     7
370
    15
100
AcDbLine
 10
34.6139494993
 20
46.5976928636
 30
0.0
 11
34.6139494993
 21
81.6976928636
 31
0.0
  0
LINE
  5
1E2
330
1F
100
AcDbEntity
  8
0
  6
Continuous
 62
     7
370
    15
100
AcDbLine
 10
22.6139494993
 20
81.6976928636
 30
0.0
 11
22.6139494993
 21
46.5976928636
 31
0.0
  0
LINE
  5
1E3
330
1F
100
AcDbEntity
  8
0
  6
Continuous
 62
     7
370
    15
100
AcDbLine
 10
34.6139494993
 20
-71.3023071364
 30
0.0
 11
34.6139494993
 21
25.8433035459
 31
0.0
  0
LINE
  5
1E4
330
1F
100
AcDbEntity
  8
0
  6
Continuous
 62
     7
370
    15
100
AcDbLine
 10
22.6139494993
 20
26.9977835554
 30
0.0
 11
22.6139494993
 21
-71.3023071364
 31
0.0
  0
LINE
  5
1E5
330
1F
100
AcDbEntity
  8
0
  6
Continuous
 62
     7
370
    15
100
AcDbLine
 10
459.5907890265
 20
45.9790825033
 30
0.0
 11
459.5879233754
 21
45.9807369878
 31
0.0
  0
LINE
  5
1E6
330
1F
100
AcDbEntity
  8
0
  6
Continuous
 62
     7
370
    15
100
AcDbLine
 10
91.6371099722
 20
36.8163032239
 30
0.0
 11
91.6399756233
 21
36.8146487394
 31
0.0
  0
LINE
  5
1E7
330
1F
100
AcDbEntity
  8
0
  6
Continuous
 62
     7
370
    15
100
AcDbLine
 10
-14.3860505007
 20
-96.3023071364
 30
0.0
 11
565.6139494993
 21
-96.3023071364
 31
0.0
  0
LINE
  5
1E8
330
1F
100
AcDbEntity
  8
0
  6
Continuous
 62
     7
370
    15
100
AcDbLine
 10
-14.3860505007
 20
-71.3023071364
 30
0.0
 11
565.6139494993
 21
-71.3023071364
 31
0.0
  0
LINE
  5
1E9
330
1F
100
AcDbEntity
  8
0
  6
Continuous
 62
     7
370
    15
100
AcDbLine
 10
14.6139494993
 20
33.6976928636
 30
0.0
 11
536.6139494993
 21
33.6976928636
 31
0.0
  0
LINE
  5
1EA
330
1F
100
AcDbEntity
  8
0
  6
Continuous
 62
     7
370
    15
100
AcDbLine
 10
263.6139494993
 20
36.1976928636
 30
0.0
 11
287.6139494993
 21
36.1976928636
 31
0.0
  0
SPLINE
  5
1EB
330
1F
100
AcDbEntity
  8
0
  6
Continuous
 62
     7
370
    15
100
AcDbSpline
210
0.0
220
0.0
230
1.0
 70
     8
 71
     3
 72
    38
 73
    34
 74
     0
 42
0.00000001
 43
0.00000001
 12
1.0
 22
0.0
 32
0.0
 13
1.0
 23
0.0
 33
0.0
 40
0.0
 40
0.0
 40
0.0
 40
0.0
 40
0.0214940342253061
 40
0.0548736822449584
 40
0.0870341746618114
 40
0.1194177955021471
 40
0.1525045296710015
 40
0.1858339176516607
 40
0.2180250400706494
 40
0.2504388355245877
 40
0.2835537137855466
 40
0.3169103140713161
 40
0.3491934239320525
 40
0.3816995159320652
 40
0.4149075670691965
 40
0.4483576302518779
 40
0.4807567520347912
 40
0.513379814128925
 40
0.5467083146427846
 40
0.580280248565249
 40
0.6127707629528601
 40
0.6454864507403807
 40
0.678912323627075
 40
0.7125836450664859
 40
0.7450999913071207
 40
0.7778425037173081
 40
0.8112992389235832
 40
0.8450031932720552
 40
0.8774653291335008
 40
0.9101539238239994
 40
0.9435581953578375
 40
0.9772103855072845
 40
1.0
 40
1.0
 40
1.0
 40
1.0
 10
528.6090040863426
 20
26.99736114309068
 30
0.0
 10
528.6091907660768
 20
26.99737709185991
 30
0.0
 10
528.6096673543392
 20
26.99741780863209
 30
0.0
 10
528.5613460447491
 20
26.99329031530642
 30
0.0
 10
528.4715543821277
 20
26.98561833994964
 30
0.0
 10
528.3398539192106
 20
26.97436087382152
 30
0.0
 10
528.1664287305532
 20
26.9595281145517
 30
0.0
 10
527.9533823138513
 20
26.94129285185699
 30
0.0
 10
527.7043615445039
 20
26.91995919265923
 30
0.0
 10
527.4207447691563
 20
26.89563672560566
 30
0.0
 10
527.0997232850796
 20
26.86807406236462
 30
0.0
 10
526.7470068729397
 20
26.837749805341
 30
0.0
 10
526.3675108110375
 20
26.80507619815037
 30
0.0
 10
525.9626603017449
 20
26.77016630547034
 30
0.0
 10
525.5292591715926
 20
26.73273269568119
 30
0.0
 10
525.0754286523734
 20
26.69346500911149
 30
0.0
 10
524.6070327419703
 20
26.65286259320618
 30
0.0
 10
524.125405561077
 20
26.61103473998308
 30
0.0
 10
523.6272748286395
 20
26.56768865723173
 30
0.0
 10
523.1225128816612
 20
26.52367605516966
 30
0.0
 10
522.617339529544
 20
26.47953761748743
 30
0.0
 10
522.1128837556395
 20
26.43537237735952
 30
0.0
 10
521.6059398888706
 20
26.39089780935763
 30
0.0
 10
521.1072857112006
 20
26.34705960364787
 30
0.0
 10
520.6227906505187
 20
26.30438014925418
 30
0.0
 10
520.1532236415642
 20
26.26293506074669
 30
0.0
 10
519.6956175149386
 20
26.22246805855252
 30
0.0
 10
519.2604516830935
 20
26.18391334320369
 30
0.0
 10
518.8525562695901
 20
26.14771124128441
 30
0.0
 10
518.4719909758064
 20
26.11387963300758
 30
0.0
 10
518.1171134197731
 20
26.08228250226596
 30
0.0
 10
517.825008706081
 20
26.05623824691136
 30
0.0
 10
517.6621527665857
 20
26.04169951182561
 30
0.0
 10
517.5963961150669
 20
26.0358291791898
 30
0.0
  0
SPLINE
  5
1EC
330
1F
100
AcDbEntity
  8
0
  6
Continuous
 62
     7
370
    15
100
AcDbSpline
210
0.0
220
0.0
230
1.0
 70
     8
 71
     3
 72
    36
 73
    32
 74
     0
 42
0.00000001
 43
0.00000001
 12
1.0
 22
0.0
 32
0.0
 13
1.0
 23
0.0
 33
0.0
 40
0.0
 40
0.0
 40
0.0
 40
0.0
 40
0.0016344155407721
 40
0.0374573271370145
 40
0.0733950364568863
 40
0.1092173452175803
 40
0.144910381774638
 40
0.1807177276939349
 40
0.2164104384637618
 40
0.2520037642340612
 40
0.287710805846676
 40
0.3233042099081422
 40
0.3588685664506321
 40
0.3945461877400568
 40
0.4301109881112207
 40
0.4657282846100576
 40
0.5014587161771697
 40
0.5370766403319908
 40
0.5728073123771859
 40
0.6086513615697922
 40
0.6443825868646821
 40
0.6802408532088019
 40
0.7162130183561862
 40
0.7520715218700333
 40
0.788017459494871
 40
0.8240778905407485
 40
0.8600236253276955
 40
0.8959770476439791
 40
0.9320453777300627
 40
0.9679982246781363
 40
1.0
 40
1.0
 40
1.0
 40
1.0
 10
456.2676451533077
 20
26.84706963403173
 30
0.0
 10
456.2682017497759
 20
26.84772725848882
 30
0.0
 10
456.2809577567222
 20
26.862798612014
 30
0.0
 10
456.2342163362483
 20
26.88798799041518
 30
0.0
 10
456.1238059758177
 20
26.92174553314865
 30
0.0
 10
455.9312469420996
 20
26.94942095811145
 30
0.0
 10
455.6678112639509
 20
26.97115475684246
 30
0.0
 10
455.3367215732255
 20
26.98674148701037
 30
0.0
 10
454.9427935561583
 20
26.99606573094783
 30
0.0
 10
454.4888807477955
 20
26.99879252134371
 30
0.0
 10
453.9831325294782
 20
26.99514239437341
 30
0.0
 10
453.4313700321494
 20
26.98516145662985
 30
0.0
 10
452.8392382595813
 20
26.96875401998866
 30
0.0
 10
452.2157313758726
 20
26.94634706671882
 30
0.0
 10
451.5678835858727
 20
26.91817951173135
 30
0.0
 10
450.9032922827349
 20
26.8843871091283
 30
0.0
 10
450.230928911019
 20
26.84556462818111
 30
0.0
 10
449.5584678790678
 20
26.8021296961459
 30
0.0
 10
448.8947140959422
 20
26.75444469231675
 30
0.0
 10
448.2477571815826
 20
26.70322526388567
 30
0.0
 10
447.6252794924543
 20
26.64905281463002
 30
0.0
 10
447.0364011030824
 20
26.59249624576078
 30
0.0
 10
446.4875065980809
 20
26.53433445640753
 30
0.0
 10
445.9854404020547
 20
26.47527510585253
 30
0.0
 10
445.5386377705304
 20
26.4160499637962
 30
0.0
 10
445.1509103593495
 20
26.35741818465569
 30
0.0
 10
444.827608355538
 20
26.30015732329803
 30
0.0
 10
444.5741854401491
 20
26.24500948040205
 30
0.0
 10
444.3959355384324
 20
26.19289730594571
 30
0.0
 10
444.2827268488768
 20
26.14528248264576
 30
0.0
 10
444.2844921045325
 20
26.11849246140049
 30
0.0
 10
444.285323413912
 20
26.10587627412547
 30
0.0
  0
SPLINE
  5
1ED
330
1F
100
AcDbEntity
  8
0
  6
Continuous
 62
     7
370
    15
100
AcDbSpline
210
0.0
220
0.0
230
1.0
 70
     8
 71
     3
 72
    46
 73
    42
 74
     0
 42
0.00000001
 43
0.00000001
 12
1.0
 22
0.0
 32
0.0
 13
1.0
 23
0.0
 33
0.0
 40
0.0
 40
0.0
 40
0.0
 40
0.0
 40
0.006883131519058
 40
0.033490944889384
 40
0.0600987435565294
 40
0.087479896491409
 40
0.1148610134232543
 40
0.1414606891117404
 40
0.1680603190650375
 40
0.1954365364434458
 40
0.2228126929222927
 40
0.2493456413886712
 40
0.2758785335347336
 40
0.3031878082145139
 40
0.3304970236968638
 40
0.3569351142037823
 40
0.3833731618441106
 40
0.4105841730787232
 40
0.4377951516783568
 40
0.4641510397802425
 40
0.4905069158549777
 40
0.5176306932188323
 40
0.544754477258245
 40
0.5710746168718842
 40
0.5973947796365067
 40
0.6244782783212841
 40
0.6515618194563229
 40
0.6779067422381061
 40
0.7042517137292185
 40
0.7313577780094349
 40
0.7584639029958488
 40
0.7848839718170773
 40
0.811304095101342
 40
0.8384862707431927
 40
0.8656685004297059
 40
0.8921835847569752
 40
0.9186987063496744
 40
0.9459797115519485
 40
0.9732607406809748
 40
0.9998508819602703
 40
1.0
 40
1.0
 40
1.0
 40
1.0
 10
281.6097916765118
 20
26.47922522861007
 30
0.0
 10
281.6110447629612
 20
26.48300125675812
 30
0.0
 10
281.6171418496002
 20
26.50137410787348
 30
0.0
 10
281.5856254258643
 20
26.5342405238249
 30
0.0
 10
281.5144798991553
 20
26.5778625796764
 30
0.0
 10
281.3964641490635
 20
26.62110921004229
 30
0.0
 10
281.2373881258843
 20
26.66324943466604
 30
0.0
 10
281.0392561045254
 20
26.70359799094139
 30
0.0
 10
280.8032062444747
 20
26.7423227673966
 30
0.0
 10
280.5271769773573
 20
26.77947405470155
 30
0.0
 10
280.2155769778879
 20
26.8143792821831
 30
0.0
 10
279.8741780573506
 20
26.84649614478862
 30
0.0
 10
279.5032370258711
 20
26.87601312616048
 30
0.0
 10
279.1004506445171
 20
26.90294880136265
 30
0.0
 10
278.672739013811
 20
26.92678951377664
 30
0.0
 10
278.2277225690221
 20
26.94719439292166
 30
0.0
 10
277.76499930207
 20
26.96434902537688
 30
0.0
 10
277.2822009186897
 20
26.97821349575415
 30
0.0
 10
276.787781241382
 20
26.98850138266522
 30
0.0
 10
276.2902532527045
 20
26.99510326350318
 30
0.0
 10
275.7885627195824
 20
26.99817532791721
 30
0.0
 10
275.2807418743913
 20
26.99760989460616
 30
0.0
 10
274.7755536330806
 20
26.99336924988111
 30
0.0
 10
274.2814235867282
 20
26.98557756286606
 30
0.0
 10
273.7967830420784
 20
26.97433979612984
 30
0.0
 10
273.3204926292698
 20
26.95949967984237
 30
0.0
 10
272.8605582041459
 20
26.94124916089048
 30
0.0
 10
272.4244333769691
 20
26.91992776351275
 30
0.0
 10
272.0102698069773
 20
26.89557826765797
 30
0.0
 10
271.6179128658299
 20
26.8680333520884
 30
0.0
 10
271.253887657432
 20
26.83767765020682
 30
0.0
 10
270.9239256256537
 20
26.80503360222954
 30
0.0
 10
270.626154819488
 20
26.77008306461919
 30
0.0
 10
270.3612431401028
 20
26.7326820913694
 30
0.0
 10
270.1338102566114
 20
26.69337225261036
 30
0.0
 10
269.9471313446624
 20
26.65281309303813
 30
0.0
 10
269.7999797957175
 20
26.61093532326771
 30
0.0
 10
269.6917917019089
 20
26.56763311797457
 30
0.0
 10
269.6315117509553
 20
26.52357326478176
 30
0.0
 10
269.6071316196599
 20
26.4939719949044
 30
0.0
 10
269.614062519155
 20
26.47930825009427
 30
0.0
 10
269.6141011710165
 20
26.47922647412379
 30
0.0
  0
SPLINE
  5
1EE
330
1F
100
AcDbEntity
  8
0
  6
Continuous
 62
     7
370
    15
100
AcDbSpline
210
0.0
220
0.0
230
1.0
 70
     8
 71
     3
 72
    35
 73
    31
 74
     0
 42
0.00000001
 43
0.00000001
 12
1.0
 22
0.0
 32
0.0
 13
1.0
 23
0.0
 33
0.0
 40
0.0
 40
0.0
 40
0.0
 40
0.0
 40
0.035427903763353
 40
0.0710748697244464
 40
0.1068560647447089
 40
0.1427507867010286
 40
0.1785324348965734
 40
0.2144362230377329
 40
0.250454168331878
 40
0.2863579991965431
 40
0.3223180564583645
 40
0.3583928303809578
 40
0.3943525086655282
 40
0.4302797517548032
 40
0.4663219562087463
 40
0.50224857129797
 40
0.5380709613385699
 40
0.5740081474314299
 40
0.6098299346452584
 40
0.6455224515375586
 40
0.681329276127839
 40
0.7170214672376533
 40
0.7526142747948947
 40
0.7883207965388306
 40
0.8239136823860975
 40
0.8594775211372665
 40
0.8951546229863162
 40
0.9307189055596974
 40
0.9663356834964163
 40
1.0
 40
1.0
 40
1.0
 40
1.0
 10
106.9577578896707
 20
26.1049593190623
 30
0.0
 10
106.9506798931675
 20
26.11940217903662
 30
0.0
 10
106.9364801346176
 20
26.14837720386388
 30
0.0
 10
106.8212354676666
 20
26.19718342408028
 30
0.0
 10
106.6354822176563
 20
26.24938139339514
 30
0.0
 10
106.3773631256548
 20
26.30445482406665
 30
0.0
 10
106.0517585011757
 20
26.36161019791171
 30
0.0
 10
105.6597492977465
 20
26.42019303507131
 30
0.0
 10
105.2085045861422
 20
26.47940693517205
 30
0.0
 10
104.7035975579722
 20
26.53850544702474
 30
0.0
 10
104.1496180803318
 20
26.59670562757464
 30
0.0
 10
103.5552112418793
 20
26.65331291212132
 30
0.0
 10
102.9280073249494
 20
26.70761025299705
 30
0.0
 10
102.2750883909504
 20
26.75881465614879
 30
0.0
 10
101.6056932578359
 20
26.80640783502394
 30
0.0
 10
100.9283800869963
 20
26.84980560727554
 30
0.0
 10
100.2518359025315
 20
26.8883166695848
 30
0.0
 10
99.5846854635585
 20
26.92165764977941
 30
0.0
 10
98.93516676464101
 20
26.94944437797757
 30
0.0
 10
98.31246890278122
 20
26.97114846644358
 30
0.0
 10
97.72350657129206
 20
26.98674317479012
 30
0.0
 10
97.17519815129158
 20
26.99606525890928
 30
0.0
 10
96.67616137068322
 20
26.99879272950945
 30
0.0
 10
96.23085860046245
 20
26.99514203414143
 30
0.0
 10
95.84425891724551
 20
26.98516268460181
 30
0.0
 10
95.52367234482756
 20
26.96874946459817
 30
0.0
 10
95.27016837702557
 20
26.94636409780579
 30
0.0
 10
95.08864236641945
 20
26.91811614388796
 30
0.0
 10
94.97848238905426
 20
26.88527141602276
 30
0.0
 10
94.96678666384231
 20
26.85951835178815
 30
0.0
 10
94.96110360414973
 20
26.84700470268467
 30
0.0
  0
SPLINE
  5
1EF
330
1F
100
AcDbEntity
  8
0
  6
Continuous
 62
     7
370
    15
100
AcDbSpline
210
0.0
220
0.0
230
1.0
 70
     8
 71
     3
 72
    38
 73
    34
 74
     0
 42
0.00000001
 43
0.00000001
 12
1.0
 22
0.0
 32
0.0
 13
1.0
 23
0.0
 33
0.0
 40
0.0
 40
0.0
 40
0.0
 40
0.0
 40
0.032295072103936
 40
0.0648144624704449
 40
0.0980400982900858
 40
0.1315092073050627
 40
0.163866903784177
 40
0.196448474600621
 40
0.2297349633153576
 40
0.2632645508757044
 40
0.295708331168423
 40
0.3283765540804872
 40
0.3617521446467
 40
0.3953719907334752
 40
0.4278838394141524
 40
0.4606213704730263
 40
0.4940711139328755
 40
0.5277671821756447
 40
0.5602686862596
 40
0.5929965699937952
 40
0.6264395966992685
 40
0.6601302512128681
 40
0.692549997975372
 40
0.7251959948911788
 40
0.758556944602817
 40
0.7921655190838518
 40
0.8244694002622597
 40
0.8569986631704892
 40
0.8902397731478087
 40
0.9237272519828073
 40
0.9559309665685374
 40
0.9883588513987378
 40
1.0
 40
1.0
 40
1.0
 40
1.0
 10
33.63150288360969
 20
26.0358291791898
 30
0.0
 10
33.53739137669243
 20
26.04423013189683
 30
0.0
 10
33.34851467397137
 20
26.06109038946777
 30
0.0
 10
33.02069012241182
 20
26.09030842241861
 30
0.0
 10
32.66012676748276
 20
26.12239974088688
 30
0.0
 10
32.27036538668426
 20
26.1570343721149
 30
0.0
 10
31.85762393311975
 20
26.19364954232482
 30
0.0
 10
31.42312739172915
 20
26.23212733413842
 30
0.0
 10
30.96348515354344
 20
26.27275656933695
 30
0.0
 10
30.4875777256235
 20
26.3147415275819
 30
0.0
 10
30.00148651841275
 20
26.35753997769449
 30
0.0
 10
29.50650969425286
 20
26.40103398171724
 30
0.0
 10
28.99923063151383
 20
26.44551785652115
 30
0.0
 10
28.48994773477828
 20
26.4900843435977
 30
0.0
 10
27.98485699311881
 20
26.53419324844446
 30
0.0
 10
27.48499408564925
 20
26.57775801327442
 30
0.0
 10
26.98716697488574
 20
26.62105843295004
 30
0.0
 10
26.50227518491963
 20
26.66315006996052
 30
0.0
 10
26.03592818537728
 20
26.7035552681523
 30
0.0
 10
25.58874637579384
 20
26.74223038811704
 30
0.0
 10
25.15784012761285
 20
26.77943312194614
 30
0.0
 10
24.75334849640287
 20
26.81429722628943
 30
0.0
 10
24.37956928702589
 20
26.84646499242792
 30
0.0
 10
24.03656776047397
 20
26.87594295605779
 30
0.0
 10
23.72223252469963
 20
26.90292254118003
 30
0.0
 10
23.44448194448318
 20
26.92673422924169
 30
0.0
 10
23.20578394036438
 20
26.94717745685847
 30
0.0
 10
23.00555264418391
 20
26.96431172813771
 30
0.0
 10
22.8432154805574
 20
26.9781935190981
 30
0.0
 10
22.72238349114064
 20
26.98852035201445
 30
0.0
 10
22.64708730808962
 20
26.99495312155852
 30
0.0
 10
22.61248770884799
 20
26.99790841528113
 30
0.0
 10
22.6175560689631
 20
26.99747550058623
 30
0.0
 10
22.61889491233388
 20
26.99736114309068
 30
0.0
  0
SPLINE
  5
1F0
330
1F
100
AcDbEntity
  8
0
  6
Continuous
 62
     7
370
    15
100
AcDbSpline
210
0.0
220
0.0
230
1.0
 70
     8
 71
     3
 72
    16
 73
    12
 74
     0
 42
0.00000001
 43
0.00000001
 12
1.0
 22
0.0
 32
0.0
 13
1.0
 23
0.0
 33
0.0
 40
0.0
 40
0.0
 40
0.0
 40
0.0
 40
0.2500000000000069
 40
0.2500000000000069
 40
0.5000000000000139
 40
0.5000000000000139
 40
0.6250000000000104
 40
0.6250000000000104
 40
0.750000000000007
 40
0.750000000000007
 40
1.0
 40
1.0
 40
1.0
 40
1.0
 10
280.810101922044
 20
45.36083258439105
 30
0.0
 10
281.2343184291674
 20
45.60575409897346
 30
0.0
 10
281.6616278349781
 20
45.80761381900997
 30
0.0
 10
282.5251585186765
 20
46.0872550906071
 30
0.0
 10
282.9614460488382
 20
46.1641142253354
 30
0.0
 10
283.6240972841486
 20
46.16495838650459
 30
0.0
 10
283.8460203419295
 20
46.14616929983453
 30
0.0
 10
284.2850075609246
 20
46.07290180775364
 30
0.0
 10
284.5030294093726
 20
46.01849775609026
 30
0.0
 10
285.1532133735925
 20
45.80841869773822
 30
0.0
 10
285.5815090328203
 20
45.60605940457094
 30
0.0
 10
286.0062543447507
 20
45.36083258439091
 30
0.0
  0
SPLINE
  5
1F1
330
1F
100
AcDbEntity
  8
0
  6
Continuous
 62
     7
370
    15
100
AcDbSpline
210
0.0
220
0.0
230
1.0
 70
     8
 71
     3
 72
    16
 73
    12
 74
     0
 42
0.00000001
 43
0.00000001
 12
1.0
 22
0.0
 32
0.0
 13
1.0
 23
0.0
 33
0.0
 40
0.0
 40
0.0
 40
0.0
 40
0.0
 40
0.25
 40
0.25
 40
0.5
 40
0.5
 40
0.625
 40
0.625
 40
0.75
 40
0.75
 40
1.0
 40
1.0
 40
1.0
 40
1.0
 10
280.8101019220442
 20
45.36083258439069
 30
0.0
 10
279.9649467032793
 20
45.60480788092119
 30
0.0
 10
279.0991188064692
 20
45.80950183641217
 30
0.0
 10
277.3632334652891
 20
46.08935560873761
 30
0.0
 10
276.4905933295194
 20
46.16476418302873
 30
0.0
 10
275.1733883927462
 20
46.16463804379603
 30
0.0
 10
274.7329622489286
 20
46.14594657760249
 30
0.0
 10
273.8494312057583
 20
46.07177172054544
 30
0.0
 10
273.4103242272612
 20
46.01659547222467
 30
0.0
 10
272.1087211031461
 20
45.80525843214917
 30
0.0
 10
271.2577127961791
 20
45.60329536777963
 30
0.0
 10
270.4177970766307
 20
45.36083258439066
 30
0.0
  0
SPLINE
  5
1F2
330
1F
100
AcDbEntity
  8
0
  6
Continuous
 62
     7
370
    15
100
AcDbSpline
210
0.0
220
0.0
230
1.0
 70
     8
 71
     3
 72
    16
 73
    12
 74
     0
 42
0.00000001
 43
0.00000001
 12
1.0
 22
0.0
 32
0.0
 13
1.0
 23
0.0
 33
0.0
 40
0.0
 40
0.0
 40
0.0
 40
0.0
 40
0.2500000000000069
 40
0.2500000000000069
 40
0.5000000000000138
 40
0.5000000000000138
 40
0.6250000000000103
 40
0.6250000000000103
 40
0.7500000000000069
 40
0.7500000000000069
 40
1.0
 40
1.0
 40
1.0
 40
1.0
 10
265.2216446539242
 20
45.36083258439108
 30
0.0
 10
265.6458611610476
 20
45.60575409897344
 30
0.0
 10
266.0731705668583
 20
45.80761381900999
 30
0.0
 10
266.9367012505567
 20
46.08725509060702
 30
0.0
 10
267.3729887807183
 20
46.16411422533537
 30
0.0
 10
268.0356400160288
 20
46.16495838650462
 30
0.0
 10
268.2575630738096
 20
46.1461692998345
 30
0.0
 10
268.6965502928048
 20
46.07290180775362
 30
0.0
 10
268.9145721412528
 20
46.01849775609029
 30
0.0
 10
269.5647561054727
 20
45.80841869773825
 30
0.0
 10
269.9930517647005
 20
45.60605940457091
 30
0.0
 10
270.4177970766308
 20
45.36083258439086
 30
0.0
  0
LINE
  5
1F3
330
1F
100
AcDbEntity
  8
0
  6
Continuous
 62
     7
370
    15
100
AcDbLine
 10
267.3639494993
 20
46.5976928636
 30
0.0
 11
283.8639494993
 21
46.5976928636
 31
0.0
  0
LINE
  5
1F4
330
1F
100
AcDbEntity
  8
0
  6
Continuous
 62
     7
370
    15
100
AcDbLine
 10
270.4177970766
 20
45.3608325844
 30
0.0
 11
270.4177970766
 21
37.4345531428
 31
0.0
  0
SPLINE
  5
1F5
330
1F
100
AcDbEntity
  8
0
  6
Continuous
 62
     7
370
    15
100
AcDbSpline
210
0.0
220
0.0
230
1.0
 70
     8
 71
     3
 72
    16
 73
    12
 74
     0
 42
0.00000001
 43
0.00000001
 12
1.0
 22
0.0
 32
0.0
 13
1.0
 23
0.0
 33
0.0
 40
0.0
 40
0.0
 40
0.0
 40
0.0
 40
0.2499999999999915
 40
0.2499999999999915
 40
0.499999999999983
 40
0.499999999999983
 40
0.6249999999999857
 40
0.6249999999999857
 40
0.7499999999999882
 40
0.7499999999999882
 40
1.0
 40
1.0
 40
1.0
 40
1.0
 10
270.4177970766308
 20
37.43455314276142
 30
0.0
 10
269.9935805695074
 20
37.18963162817898
 30
0.0
 10
269.5662711636967
 20
36.98777190814251
 30
0.0
 10
268.7027404799983
 20
36.70813063654538
 30
0.0
 10
268.2664529498367
 20
36.63127150181711
 30
0.0
 10
267.6038017145262
 20
36.63042734064795
 30
0.0
 10
267.3818786567454
 20
36.649216427318
 30
0.0
 10
266.9428914377503
 20
36.72248391939886
 30
0.0
 10
266.7248695893023
 20
36.77688797106227
 30
0.0
 10
266.0746856250824
 20
36.98696702941432
 30
0.0
 10
265.6463899658545
 20
37.18932632258159
 30
0.0
 10
265.2216446539242
 20
37.43455314276159
 30
0.0
  0
LINE
  5
1F6
330
1F
100
AcDbEntity
  8
0
  6
Continuous
 62
     7
370
    15
100
AcDbLine
 10
265.2216446539
 20
45.3608325844
 30
0.0
 11
265.2216446539
 21
37.4345531428
 31
0.0
  0
LINE
  5
1F7
330
1F
100
AcDbEntity
  8
0
  6
Continuous
 62
     7
370
    15
100
AcDbLine
 10
280.810101922
 20
45.3608325844
 30
0.0
 11
280.810101922
 21
37.4345531428
 31
0.0
  0
SPLINE
  5
1F8
330
1F
100
AcDbEntity
  8
0
  6
Continuous
 62
     7
370
    15
100
AcDbSpline
210
0.0
220
0.0
230
1.0
 70
     8
 71
     3
 72
    16
 73
    12
 74
     0
 42
0.00000001
 43
0.00000001
 12
1.0
 22
0.0
 32
0.0
 13
1.0
 23
0.0
 33
0.0
 40
0.0
 40
0.0
 40
0.0
 40
0.0
 40
0.25
 40
0.25
 40
0.5
 40
0.5
 40
0.625
 40
0.625
 40
0.75
 40
0.75
 40
1.0
 40
1.0
 40
1.0
 40
1.0
 10
280.810101922044
 20
37.43455314276173
 30
0.0
 10
279.9649467032792
 20
37.19057784623129
 30
0.0
 10
279.0991188064691
 20
36.98588389074034
 30
0.0
 10
277.3632334652891
 20
36.70603011841475
 30
0.0
 10
276.4905933295193
 20
36.63062154412369
 30
0.0
 10
275.1733883927462
 20
36.63074768335647
 30
0.0
 10
274.7329622489286
 20
36.64943914955002
 30
0.0
 10
273.8494312057583
 20
36.72361400660704
 30
0.0
 10
273.4103242272613
 20
36.77879025492778
 30
0.0
 10
272.1087211031461
 20
36.99012729500334
 30
0.0
 10
271.2577127961792
 20
37.19209035937282
 30
0.0
 10
270.4177970766308
 20
37.43455314276179
 30
0.0
  0
LINE
  5
1F9
330
1F
100
AcDbEntity
  8
0
  6
Continuous
 62
     7
370
    15
100
AcDbLine
 10
286.0062543448
 20
45.3608325844
 30
0.0
 11
286.0062543448
 21
37.4345531428
 31
0.0
  0
SPLINE
  5
1FA
330
1F
100
AcDbEntity
  8
0
  6
Continuous
 62
     7
370
    15
100
AcDbSpline
210
0.0
220
0.0
230
1.0
 70
     8
 71
     3
 72
    16
 73
    12
 74
     0
 42
0.00000001
 43
0.00000001
 12
1.0
 22
0.0
 32
0.0
 13
1.0
 23
0.0
 33
0.0
 40
0.0
 40
0.0
 40
0.0
 40
0.0
 40
0.2500000000000068
 40
0.2500000000000068
 40
0.5000000000000137
 40
0.5000000000000137
 40
0.6250000000000103
 40
0.6250000000000103
 40
0.7500000000000069
 40
0.7500000000000069
 40
1.0
 40
1.0
 40
1.0
 40
1.0
 10
286.0062543447507
 20
37.43455314276139
 30
0.0
 10
285.5820378376272
 20
37.18963162817901
 30
0.0
 10
285.1547284318166
 20
36.98777190814248
 30
0.0
 10
284.2911977481182
 20
36.70813063654541
 30
0.0
 10
283.8549102179566
 20
36.63127150181711
 30
0.0
 10
283.1922589826461
 20
36.63042734064792
 30
0.0
 10
282.9703359248652
 20
36.649216427318
 30
0.0
 10
282.5313487058701
 20
36.72248391939886
 30
0.0
 10
282.3133268574221
 20
36.77688797106221
 30
0.0
 10
281.6631428932022
 20
36.98696702941429
 30
0.0
 10
281.2348472339743
 20
37.18932632258162
 30
0.0
 10
280.8101019220441
 20
37.43455314276159
 30
0.0
  0
LINE
  5
1FB
330
1F
100
AcDbEntity
  8
0
  6
Continuous
 62
     7
370
    15
100
AcDbLine
 10
269.6139494993
 20
81.6976928636
 30
0.0
 11
281.6139494993
 21
81.6976928636
 31
0.0
  0
SPLINE
  5
1FC
330
1F
100
AcDbEntity
  8
0
  6
Continuous
 62
     7
370
    15
100
AcDbSpline
210
0.0
220
0.0
230
1.0
 70
     8
 71
     3
 72
    15
 73
    11
 74
     0
 42
0.00000001
 43
0.00000001
 12
1.0
 22
0.0
 32
0.0
 13
1.0
 23
0.0
 33
0.0
 40
0.0
 40
0.0
 40
0.0
 40
0.0
 40
0.0112593135001491
 40
0.1592089101624289
 40
0.2967997388605553
 40
0.4353316928045835
 40
0.5767336077070745
 40
0.7190987319348641
 40
0.8590747694074026
 40
1.0
 40
1.0
 40
1.0
 40
1.0
 10
34.61240315828079
 20
25.84330393856281
 30
0.0
 10
34.61291159017613
 20
25.84314822844198
 30
0.0
 10
34.62010091730097
 20
25.84094645666982
 30
0.0
 10
34.59347444697406
 20
25.84917459951082
 30
0.0
 10
34.53177634756855
 20
25.86761520024999
 30
0.0
 10
34.42841231534463
 20
25.8965109190785
 30
0.0
 10
34.28679483470531
 20
25.93215597347447
 30
0.0
 10
34.10560586903188
 20
25.97069122048349
 30
0.0
 10
33.8903678314072
 20
26.00831442901805
 30
0.0
 10
33.7179853653333
 20
26.02663695792115
 30
0.0
 10
33.63150288360969
 20
26.0358291791898
 30
0.0
  0
SPLINE
  5
1FD
330
1F
100
AcDbEntity
  8
0
  6
Continuous
 62
     7
370
    15
100
AcDbSpline
210
0.0
220
0.0
230
1.0
 70
     8
 71
     3
 72
    14
 73
    10
 74
     0
 42
0.00000001
 43
0.00000001
 12
1.0
 22
0.0
 32
0.0
 13
1.0
 23
0.0
 33
0.0
 40
0.0
 40
0.0
 40
0.0
 40
0.0
 40
0.1421144093089823
 40
0.285237838828384
 40
0.4314302481797997
 40
0.5786829203452801
 40
0.7210715385055562
 40
0.864497289442751
 40
0.9999999999999999
 40
0.9999999999999999
 40
0.9999999999999999
 40
0.9999999999999999
 10
517.5963961150669
 20
26.0358291791898
 30
0.0
 10
517.5092197593202
 20
26.02654914723879
 30
0.0
 10
517.3342480908523
 20
26.00792319459376
 30
0.0
 10
517.1155735106105
 20
25.96944325306941
 30
0.0
 10
516.9307187106524
 20
25.92978759855589
 30
0.0
 10
516.7871889537811
 20
25.89322575710544
 30
0.0
 10
516.6862336683095
 20
25.86475729413917
 30
0.0
 10
516.6245259949412
 20
25.84611530020389
 30
0.0
 10
516.6184490985704
 20
25.84422337369306
 30
0.0
 10
516.6154969583492
 20
25.84330428078654
 30
0.0
  0
LINE
  5
1FE
330
1F
100
AcDbEntity
  8
0
  6
Continuous
 62
     7
370
    15
100
AcDbLine
 10
41.9863609161
 20
-6.3023071364
 30
0.0
 11
94.9585745463
 21
-6.3023071364
 31
0.0
  0
LINE
  5
1FF
330
1F
100
AcDbEntity
  8
0
  6
Continuous
 62
     7
370
    15
100
AcDbLine
 10
106.9585745463
 20
-6.3023071364
 30
0.0
 11
269.6139494993
 21
-6.3023071364
 31
0.0
  0
LINE
  5
200
330
1F
100
AcDbEntity
  8
0
  6
Continuous
 62
     7
370
    15
100
AcDbLine
 10
281.6139494993
 20
-6.3023071364
 30
0.0
 11
444.2693244524
 21
-6.3023071364
 31
0.0
  0
LINE
  5
201
330
1F
100
AcDbEntity
  8
0
  6
Continuous
 62
     7
370
    15
100
AcDbLine
 10
456.2693244524
 20
-6.3023071364
 30
0.0
 11
509.2415380825
 21
-6.3023071364
 31
0.0
  0
LINE
  5
202
330
1F
100
AcDbEntity
  8
0
  6
Continuous
 62
     7
370
    15
100
AcDbLine
 10
438.2693244524
 20
36.1976928636
 30
0.0
 11
462.2693244524
 21
36.1976928636
 31
0.0
  0
LINE
  5
203
330
1F
100
AcDbEntity
  8
0
  6
Continuous
 62
     7
370
    15
100
AcDbLine
 10
109.4438559205
 20
36.1976928636
 30
0.0
 11
112.9585745463
 21
36.1976928636
 31
0.0
  0
LINE
  5
204
330
1F
100
AcDbEntity
  8
0
  6
Continuous
 62
     7
370
    15
100
AcDbLine
 10
88.9585745463
 20
36.1976928636
 30
0.0
 11
109.4438559205
 21
36.1976928636
 31
0.0
  0
LINE
  5
205
330
1F
100
AcDbEntity
  8
0
  6
Continuous
 62
     7
370
    15
100
AcDbLine
 10
452.9590508689
 20
45.3608325844
 30
0.0
 11
452.9590508689
 21
37.4345531428
 31
0.0
  0
SPLINE
  5
206
330
1F
100
AcDbEntity
  8
0
  6
Continuous
 62
     7
370
    15
100
AcDbSpline
210
0.0
220
0.0
230
1.0
 70
     8
 71
     3
 72
    16
 73
    12
 74
     0
 42
0.00000001
 43
0.00000001
 12
1.0
 22
0.0
 32
0.0
 13
1.0
 23
0.0
 33
0.0
 40
0.0
 40
0.0
 40
0.0
 40
0.0
 40
0.25
 40
0.25
 40
0.5
 40
0.5
 40
0.625
 40
0.625
 40
0.75
 40
0.75
 40
1.0
 40
1.0
 40
1.0
 40
1.0
 10
452.9590508689195
 20
37.43455314276139
 30
0.0
 10
452.1395275085821
 20
37.18963162817901
 30
0.0
 10
451.3140291268047
 20
36.98777190814251
 30
0.0
 10
449.6458159484499
 20
36.70813063654541
 30
0.0
 10
448.8029731623079
 20
36.63127150181708
 30
0.0
 10
447.5228292782905
 20
36.63042734064795
 30
0.0
 10
447.0941068523713
 20
36.649216427318
 30
0.0
 10
446.246048667895
 20
36.72248391939886
 30
0.0
 10
445.8248627996725
 20
36.77688797106215
 30
0.0
 10
444.5688038339146
 20
36.98696702941426
 30
0.0
 10
443.7414001568432
 20
37.18932632258159
 30
0.0
 10
442.9208552240657
 20
37.43455314276159
 30
0.0
  0
LINE
  5
207
330
1F
100
AcDbEntity
  8
0
  6
Continuous
 62
     7
370
    15
100
AcDbLine
 10
442.9208552241
 20
45.3608325844
 30
0.0
 11
442.9208552241
 21
37.4345531428
 31
0.0
  0
SPLINE
  5
208
330
1F
100
AcDbEntity
  8
0
  6
Continuous
 62
     7
370
    15
100
AcDbSpline
210
0.0
220
0.0
230
1.0
 70
     8
 71
     3
 72
    16
 73
    12
 74
     0
 42
0.00000001
 43
0.00000001
 12
1.0
 22
0.0
 32
0.0
 13
1.0
 23
0.0
 33
0.0
 40
0.0
 40
0.0
 40
0.0
 40
0.0
 40
0.2499999999999971
 40
0.2499999999999971
 40
0.4999999999999942
 40
0.4999999999999942
 40
0.6249999999999938
 40
0.6249999999999938
 40
0.7499999999999933
 40
0.7499999999999933
 40
1.0
 40
1.0
 40
1.0
 40
1.0
 10
442.9208552240656
 20
45.36083258439108
 30
0.0
 10
443.7403785844031
 20
45.60575409897349
 30
0.0
 10
444.5658769661806
 20
45.80761381900999
 30
0.0
 10
446.2340901445352
 20
46.08725509060704
 30
0.0
 10
447.0769329306773
 20
46.16411422533545
 30
0.0
 10
448.3570768146948
 20
46.16495838650459
 30
0.0
 10
448.7857992406139
 20
46.1461692998345
 30
0.0
 10
449.6338574250903
 20
46.07290180775367
 30
0.0
 10
450.0550432933128
 20
46.01849775609029
 30
0.0
 10
451.3111022590707
 20
45.80841869773819
 30
0.0
 10
452.1385059361421
 20
45.60605940457088
 30
0.0
 10
452.9590508689195
 20
45.36083258439086
 30
0.0
  0
SPLINE
  5
209
330
1F
100
AcDbEntity
  8
0
  6
Continuous
 62
     7
370
    15
100
AcDbSpline
210
0.0
220
0.0
230
1.0
 70
     8
 71
     3
 72
    10
 73
     6
 74
     0
 42
0.00000001
 43
0.00000001
 12
1.0
 22
0.0
 32
0.0
 13
1.0
 23
0.0
 33
0.0
 40
0.0
 40
0.0
 40
0.0
 40
0.0
 40
0.4879971273818235
 40
0.9778958559691723
 40
1.0
 40
1.0
 40
1.0
 40
1.0
 10
460.307520097269
 20
45.36083258439047
 30
0.0
 10
460.1914821358482
 20
45.48055898439377
 30
0.0
 10
459.958954042461
 20
45.72047832785697
 30
0.0
 10
459.7175688284948
 20
45.92355876274598
 30
0.0
 10
459.5922409143366
 20
45.97655569204196
 30
0.0
 10
459.5868302683934
 20
45.97884367092059
 30
0.0
  0
SPLINE
  5
20A
330
1F
100
AcDbEntity
  8
0
  6
Continuous
 62
     7
370
    15
100
AcDbSpline
210
0.0
220
0.0
230
1.0
 70
     8
 71
     3
 72
    16
 73
    12
 74
     0
 42
0.00000001
 43
0.00000001
 12
1.0
 22
0.0
 32
0.0
 13
1.0
 23
0.0
 33
0.0
 40
0.0
 40
0.0
 40
0.0
 40
0.0
 40
0.25
 40
0.25
 40
0.5
 40
0.5
 40
0.625
 40
0.625
 40
0.75
 40
0.75
 40
1.0
 40
1.0
 40
1.0
 40
1.0
 10
460.307520097269
 20
45.36083258439072
 30
0.0
 10
459.7099051109253
 20
45.60480788092116
 30
0.0
 10
459.0976723337503
 20
45.8095018364122
 30
0.0
 10
457.8702160376395
 20
46.08935560873767
 30
0.0
 10
457.2531662801011
 20
46.16476418302876
 30
0.0
 10
456.3217617370966
 20
46.16463804379612
 30
0.0
 10
456.0103334241912
 20
46.14594657760252
 30
0.0
 10
455.3855826321766
 20
46.07177172054544
 30
0.0
 10
455.075087110015
 20
46.01659547222472
 30
0.0
 10
454.1547147145396
 20
45.80525843214917
 30
0.0
 10
453.5529609698372
 20
45.60329536777966
 30
0.0
 10
452.9590508689193
 20
45.36083258439069
 30
0.0
  0
SPLINE
  5
20B
330
1F
100
AcDbEntity
  8
0
  6
Continuous
 62
     7
370
    15
100
AcDbSpline
210
0.0
220
0.0
230
1.0
 70
     8
 71
     3
 72
    16
 73
    12
 74
     0
 42
0.00000001
 43
0.00000001
 12
1.0
 22
0.0
 32
0.0
 13
1.0
 23
0.0
 33
0.0
 40
0.0
 40
0.0
 40
0.0
 40
0.0
 40
0.25
 40
0.25
 40
0.5
 40
0.5
 40
0.625
 40
0.625
 40
0.75
 40
0.75
 40
1.0
 40
1.0
 40
1.0
 40
1.0
 10
440.2311288075616
 20
45.36083258439108
 30
0.0
 10
440.4507194301424
 20
45.60575409897349
 30
0.0
 10
440.6719110548929
 20
45.80761381900999
 30
0.0
 10
441.118907428836
 20
46.08725509060702
 30
0.0
 10
441.3447464727291
 20
46.1641142253354
 30
0.0
 10
441.6877599926473
 20
46.16495838650456
 30
0.0
 10
441.8026358204494
 20
46.14616929983445
 30
0.0
 10
442.0298723261145
 20
46.07290180775364
 30
0.0
 10
442.142728739368
 20
46.01849775609026
 30
0.0
 10
442.4792887248888
 20
45.80841869773822
 30
0.0
 10
442.7009908719746
 20
45.60605940457088
 30
0.0
 10
442.9208552240657
 20
45.36083258439086
 30
0.0
  0
LINE
  5
20C
330
1F
100
AcDbEntity
  8
0
  6
Continuous
 62
     7
370
    15
100
AcDbLine
 10
442.0193244524
 20
46.5976928636
 30
0.0
 11
458.5193244524
 21
46.5976928636
 31
0.0
  0
SPLINE
  5
20D
330
1F
100
AcDbEntity
  8
0
  6
Continuous
 62
     7
370
    15
100
AcDbSpline
210
0.0
220
0.0
230
1.0
 70
     8
 71
     3
 72
    16
 73
    12
 74
     0
 42
0.00000001
 43
0.00000001
 12
1.0
 22
0.0
 32
0.0
 13
1.0
 23
0.0
 33
0.0
 40
0.0
 40
0.0
 40
0.0
 40
0.0
 40
0.2499999999999944
 40
0.2499999999999944
 40
0.4999999999999889
 40
0.4999999999999889
 40
0.6249999999999917
 40
0.6249999999999917
 40
0.7499999999999944
 40
0.7499999999999944
 40
1.0
 40
1.0
 40
1.0
 40
1.0
 10
460.3075200972689
 20
37.43455314276173
 30
0.0
 10
459.7099051109251
 20
37.19057784623131
 30
0.0
 10
459.0976723337503
 20
36.98588389074031
 30
0.0
 10
457.8702160376395
 20
36.70603011841478
 30
0.0
 10
457.2531662801011
 20
36.63062154412372
 30
0.0
 10
456.3217617370964
 20
36.63074768335639
 30
0.0
 10
456.0103334241912
 20
36.64943914955002
 30
0.0
 10
455.3855826321766
 20
36.72361400660706
 30
0.0
 10
455.0750871100151
 20
36.77879025492775
 30
0.0
 10
454.1547147145397
 20
36.99012729500334
 30
0.0
 10
453.5529609698373
 20
37.19209035937279
 30
0.0
 10
452.9590508689194
 20
37.43455314276176
 30
0.0
  0
SPLINE
  5
20E
330
1F
100
AcDbEntity
  8
0
  6
Continuous
 62
     7
370
    15
100
AcDbSpline
210
0.0
220
0.0
230
1.0
 70
     8
 71
     3
 72
    10
 73
     6
 74
     0
 42
0.00000001
 43
0.00000001
 12
1.0
 22
0.0
 32
0.0
 13
1.0
 23
0.0
 33
0.0
 40
0.0
 40
0.0
 40
0.0
 40
0.0
 40
0.1326340636021783
 40
0.5655959040290753
 40
0.9999999999999999
 40
0.9999999999999999
 40
0.9999999999999999
 40
0.9999999999999999
 10
459.5868359362194
 20
36.82315017709318
 30
0.0
 10
459.6192208189119
 20
36.83929252235094
 30
0.0
 10
459.7573207647769
 20
36.90812886884631
 30
0.0
 10
459.9983121454876
 20
37.11029486306758
 30
0.0
 10
460.2043365875701
 20
37.32634729891121
 30
0.0
 10
460.307520097269
 20
37.43455314276159
 30
0.0
  0
SPLINE
  5
20F
330
1F
100
AcDbEntity
  8
0
  6
Continuous
 62
     7
370
    15
100
AcDbSpline
210
0.0
220
0.0
230
1.0
 70
     8
 71
     3
 72
    16
 73
    12
 74
     0
 42
0.00000001
 43
0.00000001
 12
1.0
 22
0.0
 32
0.0
 13
1.0
 23
0.0
 33
0.0
 40
0.0
 40
0.0
 40
0.0
 40
0.0
 40
0.2499999999999962
 40
0.2499999999999962
 40
0.4999999999999925
 40
0.4999999999999925
 40
0.6249999999999943
 40
0.6249999999999943
 40
0.7499999999999962
 40
0.7499999999999962
 40
1.0
 40
1.0
 40
1.0
 40
1.0
 10
442.9208552240657
 20
37.43455314276142
 30
0.0
 10
442.701264601485
 20
37.18963162817904
 30
0.0
 10
442.4800729767344
 20
36.98777190814253
 30
0.0
 10
442.0330766027914
 20
36.70813063654552
 30
0.0
 10
441.8072375588982
 20
36.63127150181714
 30
0.0
 10
441.4642240389801
 20
36.63042734064795
 30
0.0
 10
441.3493482111779
 20
36.64921642731805
 30
0.0
 10
441.1221117055129
 20
36.72248391939892
 30
0.0
 10
441.0092552922593
 20
36.77688797106224
 30
0.0
 10
440.6726953067386
 20
36.98696702941434
 30
0.0
 10
440.4509931596527
 20
37.18932632258168
 30
0.0
 10
440.2311288075616
 20
37.43455314276164
 30
0.0
  0
LINE
  5
210
330
1F
100
AcDbEntity
  8
0
  6
Continuous
 62
     7
370
    15
100
AcDbLine
 10
108.3070437746
 20
45.3608325844
 30
0.0
 11
108.3070437746
 21
37.4345531428
 31
0.0
  0
SPLINE
  5
211
330
1F
100
AcDbEntity
  8
0
  6
Continuous
 62
     7
370
    15
100
AcDbSpline
210
0.0
220
0.0
230
1.0
 70
     8
 71
     3
 72
    16
 73
    12
 74
     0
 42
0.00000001
 43
0.00000001
 12
1.0
 22
0.0
 32
0.0
 13
1.0
 23
0.0
 33
0.0
 40
0.0
 40
0.0
 40
0.0
 40
0.0
 40
0.2500000000000048
 40
0.2500000000000048
 40
0.5000000000000095
 40
0.5000000000000095
 40
0.6250000000000071
 40
0.6250000000000071
 40
0.7500000000000048
 40
0.7500000000000048
 40
1.0
 40
1.0
 40
1.0
 40
1.0
 10
108.3070437746096
 20
37.43455314276139
 30
0.0
 10
107.4875204142723
 20
37.18963162817904
 30
0.0
 10
106.6620220324947
 20
36.98777190814251
 30
0.0
 10
104.9938088541401
 20
36.70813063654543
 30
0.0
 10
104.1509660679981
 20
36.63127150181714
 30
0.0
 10
102.8708221839807
 20
36.63042734064792
 30
0.0
 10
102.4420997580615
 20
36.649216427318
 30
0.0
 10
101.5940415735852
 20
36.72248391939886
 30
0.0
 10
101.1728557053626
 20
36.77688797106218
 30
0.0
 10
99.91679673960476
 20
36.98696702941423
 30
0.0
 10
99.08939306253336
 20
37.18932632258156
 30
0.0
 10
98.2688481297559
 20
37.43455314276159
 30
0.0
  0
LINE
  5
212
330
1F
100
AcDbEntity
  8
0
  6
Continuous
 62
     7
370
    15
100
AcDbLine
 10
98.2688481298
 20
45.3608325844
 30
0.0
 11
98.2688481298
 21
37.4345531428
 31
0.0
  0
SPLINE
  5
213
330
1F
100
AcDbEntity
  8
0
  6
Continuous
 62
     7
370
    15
100
AcDbSpline
210
0.0
220
0.0
230
1.0
 70
     8
 71
     3
 72
    16
 73
    12
 74
     0
 42
0.00000001
 43
0.00000001
 12
1.0
 22
0.0
 32
0.0
 13
1.0
 23
0.0
 33
0.0
 40
0.0
 40
0.0
 40
0.0
 40
0.0
 40
0.2500000000000019
 40
0.2500000000000019
 40
0.5000000000000038
 40
0.5000000000000038
 40
0.6250000000000047
 40
0.6250000000000047
 40
0.7500000000000057
 40
0.7500000000000057
 40
1.0
 40
1.0
 40
1.0
 40
1.0
 10
98.26884812975581
 20
45.36083258439105
 30
0.0
 10
99.08837149009317
 20
45.60575409897346
 30
0.0
 10
99.9138698718707
 20
45.80761381900999
 30
0.0
 10
101.5820830502254
 20
46.08725509060702
 30
0.0
 10
102.4249258363674
 20
46.16411422533534
 30
0.0
 10
103.7050697203848
 20
46.16495838650459
 30
0.0
 10
104.1337921463039
 20
46.1461692998345
 30
0.0
 10
104.9818503307804
 20
46.07290180775362
 30
0.0
 10
105.4030361990028
 20
46.01849775609032
 30
0.0
 10
106.6590951647608
 20
45.80841869773828
 30
0.0
 10
107.4864988418322
 20
45.60605940457091
 30
0.0
 10
108.3070437746096
 20
45.36083258439091
 30
0.0
  0
SPLINE
  5
214
330
1F
100
AcDbEntity
  8
0
  6
Continuous
 62
     7
370
    15
100
AcDbSpline
210
0.0
220
0.0
230
1.0
 70
     8
 71
     3
 72
    16
 73
    12
 74
     0
 42
0.00000001
 43
0.00000001
 12
1.0
 22
0.0
 32
0.0
 13
1.0
 23
0.0
 33
0.0
 40
0.0
 40
0.0
 40
0.0
 40
0.0
 40
0.250000000000001
 40
0.250000000000001
 40
0.500000000000002
 40
0.500000000000002
 40
0.6250000000000014
 40
0.6250000000000014
 40
0.750000000000001
 40
0.750000000000001
 40
1.0
 40
1.0
 40
1.0
 40
1.0
 10
108.3070437746096
 20
45.36083258439105
 30
0.0
 10
108.5266343971905
 20
45.60575409897344
 30
0.0
 10
108.7478260219409
 20
45.80761381900999
 30
0.0
 10
109.194822395884
 20
46.08725509060704
 30
0.0
 10
109.4206614397772
 20
46.1641142253354
 30
0.0
 10
109.7636749596953
 20
46.16495838650459
 30
0.0
 10
109.8785507874975
 20
46.14616929983448
 30
0.0
 10
110.1057872931625
 20
46.07290180775367
 30
0.0
 10
110.2186437064162
 20
46.01849775609029
 30
0.0
 10
110.5552036919369
 20
45.80841869773822
 30
0.0
 10
110.7769058390226
 20
45.60605940457096
 30
0.0
 10
110.9967701911138
 20
45.36083258439091
 30
0.0
  0
SPLINE
  5
215
330
1F
100
AcDbEntity
  8
0
  6
Continuous
 62
     7
370
    15
100
AcDbSpline
210
0.0
220
0.0
230
1.0
 70
     8
 71
     3
 72
    16
 73
    12
 74
     0
 42
0.00000001
 43
0.00000001
 12
1.0
 22
0.0
 32
0.0
 13
1.0
 23
0.0
 33
0.0
 40
0.0
 40
0.0
 40
0.0
 40
0.0
 40
0.2499999999999944
 40
0.2499999999999944
 40
0.4999999999999889
 40
0.4999999999999889
 40
0.6249999999999917
 40
0.6249999999999917
 40
0.7499999999999944
 40
0.7499999999999944
 40
1.0
 40
1.0
 40
1.0
 40
1.0
 10
98.26884812975598
 20
45.36083258439072
 30
0.0
 10
97.67123314341225
 20
45.60480788092116
 30
0.0
 10
97.05900036623721
 20
45.8095018364122
 30
0.0
 10
95.83154407012654
 20
46.08935560873767
 30
0.0
 10
95.21449431258822
 20
46.16476418302876
 30
0.0
 10
94.28308976958347
 20
46.16463804379609
 30
0.0
 10
93.97166145667818
 20
46.14594657760252
 30
0.0
 10
93.34691066466372
 20
46.07177172054544
 30
0.0
 10
93.03641514250208
 20
46.01659547222469
 30
0.0
 10
92.11604274702661
 20
45.80525843214914
 30
0.0
 10
91.51428900232425
 20
45.60329536777963
 30
0.0
 10
90.9203789014064
 20
45.36083258439069
 30
0.0
  0
SPLINE
  5
216
330
1F
100
AcDbEntity
  8
0
  6
Continuous
 62
     7
370
    15
100
AcDbSpline
210
0.0
220
0.0
230
1.0
 70
     8
 71
     3
 72
    10
 73
     6
 74
     0
 42
0.00000001
 43
0.00000001
 12
1.0
 22
0.0
 32
0.0
 13
1.0
 23
0.0
 33
0.0
 40
0.0
 40
0.0
 40
0.0
 40
0.0
 40
0.1326340636021832
 40
0.5655959040290743
 40
1.0
 40
1.0
 40
1.0
 40
1.0
 10
91.64106306245601
 20
45.97223555005933
 30
0.0
 10
91.60867817976352
 20
45.95609320480157
 30
0.0
 10
91.4705782338984
 20
45.88725685830614
 30
0.0
 10
91.22958685318788
 20
45.68509086408504
 30
0.0
 10
91.02356241110529
 20
45.46903842824104
 30
0.0
 10
90.92037890140637
 20
45.3608325843905
 30
0.0
  0
LINE
  5
217
330
1F
100
AcDbEntity
  8
0
  6
Continuous
 62
     7
370
    15
100
AcDbLine
 10
92.7085745463
 20
46.5976928636
 30
0.0
 11
109.2085745463
 21
46.5976928636
 31
0.0
  0
SPLINE
  5
218
330
1F
100
AcDbEntity
  8
0
  6
Continuous
 62
     7
370
    15
100
AcDbSpline
210
0.0
220
0.0
230
1.0
 70
     8
 71
     3
 72
    10
 73
     6
 74
     0
 42
0.00000001
 43
0.00000001
 12
1.0
 22
0.0
 32
0.0
 13
1.0
 23
0.0
 33
0.0
 40
0.0
 40
0.0
 40
0.0
 40
0.0
 40
0.4879971273818672
 40
0.9778958559692505
 40
1.0
 40
1.0
 40
1.0
 40
1.0
 10
90.92037890140637
 20
37.43455314276162
 30
0.0
 10
91.03641686282735
 20
37.31482674275835
 30
0.0
 10
91.2689449562148
 20
37.07490739929542
 30
0.0
 10
91.51033017018001
 20
36.87182696440691
 30
0.0
 10
91.63565808433887
 20
36.81883003511052
 30
0.0
 10
91.64106873028202
 20
36.81654205623192
 30
0.0
  0
SPLINE
  5
219
330
1F
100
AcDbEntity
  8
0
  6
Continuous
 62
     7
370
    15
100
AcDbSpline
210
0.0
220
0.0
230
1.0
 70
     8
 71
     3
 72
    16
 73
    12
 74
     0
 42
0.00000001
 43
0.00000001
 12
1.0
 22
0.0
 32
0.0
 13
1.0
 23
0.0
 33
0.0
 40
0.0
 40
0.0
 40
0.0
 40
0.0
 40
0.2499999999999972
 40
0.2499999999999972
 40
0.4999999999999944
 40
0.4999999999999944
 40
0.6249999999999958
 40
0.6249999999999958
 40
0.7499999999999972
 40
0.7499999999999972
 40
1.0
 40
1.0
 40
1.0
 40
1.0
 10
98.2688481297559
 20
37.43455314276173
 30
0.0
 10
97.67123314341205
 20
37.19057784623129
 30
0.0
 10
97.05900036623721
 20
36.98588389074034
 30
0.0
 10
95.83154407012651
 20
36.70603011841478
 30
0.0
 10
95.21449431258819
 20
36.63062154412369
 30
0.0
 10
94.28308976958341
 20
36.63074768335645
 30
0.0
 10
93.97166145667818
 20
36.64943914955005
 30
0.0
 10
93.34691066466375
 20
36.72361400660706
 30
0.0
 10
93.03641514250214
 20
36.77879025492775
 30
0.0
 10
92.11604274702667
 20
36.99012729500331
 30
0.0
 10
91.51428900232436
 20
37.19209035937282
 30
0.0
 10
90.92037890140648
 20
37.43455314276176
 30
0.0
  0
SPLINE
  5
21A
330
1F
100
AcDbEntity
  8
0
  6
Continuous
 62
     7
370
    15
100
AcDbSpline
210
0.0
220
0.0
230
1.0
 70
     8
 71
     3
 72
    16
 73
    12
 74
     0
 42
0.00000001
 43
0.00000001
 12
1.0
 22
0.0
 32
0.0
 13
1.0
 23
0.0
 33
0.0
 40
0.0
 40
0.0
 40
0.0
 40
0.0
 40
0.2499999999999971
 40
0.2499999999999971
 40
0.4999999999999942
 40
0.4999999999999942
 40
0.6249999999999938
 40
0.6249999999999938
 40
0.7499999999999933
 40
0.7499999999999933
 40
1.0
 40
1.0
 40
1.0
 40
1.0
 10
110.9967701911139
 20
37.43455314276145
 30
0.0
 10
110.777179568533
 20
37.18963162817904
 30
0.0
 10
110.5559879437825
 20
36.98777190814256
 30
0.0
 10
110.1089915698394
 20
36.70813063654543
 30
0.0
 10
109.8831525259463
 20
36.63127150181717
 30
0.0
 10
109.5401390060281
 20
36.63042734064798
 30
0.0
 10
109.425263178226
 20
36.64921642731805
 30
0.0
 10
109.198026672561
 20
36.72248391939892
 30
0.0
 10
109.0851702593073
 20
36.77688797106218
 30
0.0
 10
108.7486102737867
 20
36.98696702941429
 30
0.0
 10
108.5269081267008
 20
37.18932632258162
 30
0.0
 10
108.3070437746096
 20
37.43455314276162
 30
0.0
  0
LINE
  5
21B
330
1F
100
AcDbEntity
  8
0
  6
Continuous
 62
     7
370
    15
100
AcDbLine
 10
460.3075200973
 20
45.3608325844
 30
0.0
 11
460.3075200973
 21
37.4345531428
 31
0.0
  0
LINE
  5
21C
330
1F
100
AcDbEntity
  8
0
  6
Continuous
 62
     7
370
    15
100
AcDbLine
 10
90.9203789014
 20
45.3608325844
 30
0.0
 11
90.9203789014
 21
37.4345531428
 31
0.0
  0
LINE
  5
21D
330
1F
100
AcDbEntity
  8
0
  6
Continuous
 62
     7
370
    15
100
AcDbLine
 10
440.2311288076
 20
45.3608325844
 30
0.0
 11
440.2311288076
 21
37.4345531428
 31
0.0
  0
LINE
  5
21E
330
1F
100
AcDbEntity
  8
0
  6
Continuous
 62
     7
370
    15
100
AcDbLine
 10
110.9967701911
 20
45.3608325844
 30
0.0
 11
110.9967701911
 21
37.4345531428
 31
0.0
  0
LINE
  5
21F
330
1F
100
AcDbEntity
  8
0
  6
Continuous
 62
     7
370
    15
100
AcDbLine
 10
444.2693244524
 20
81.6976928636
 30
0.0
 11
456.2693244524
 21
81.6976928636
 31
0.0
  0
LINE
  5
220
330
1F
100
AcDbEntity
  8
0
  6
Continuous
 62
     7
370
    15
100
AcDbLine
 10
94.9585745463
 20
81.6976928636
 30
0.0
 11
106.9585745463
 21
81.6976928636
 31
0.0
  0
LINE
  5
221
330
1F
100
AcDbEntity
  8
0
  6
Continuous
 62
     7
370
    15
100
AcDbLine
 10
510.6139494993
 20
36.1976928636
 30
0.0
 11
534.6139494993
 21
36.1976928636
 31
0.0
  0
LINE
  5
222
330
1F
100
AcDbEntity
  8
0
  6
Continuous
 62
     7
370
    15
100
AcDbLine
 10
28.6139494993
 20
36.1976928636
 30
0.0
 11
40.6139494993
 21
36.1976928636
 31
0.0
  0
LINE
  5
223
330
1F
100
AcDbEntity
  8
0
  6
Continuous
 62
     7
370
    15
100
AcDbLine
 10
16.6139494993
 20
36.1976928636
 30
0.0
 11
28.6139494993
 21
36.1976928636
 31
0.0
  0
SPLINE
  5
224
330
1F
100
AcDbEntity
  8
0
  6
Continuous
 62
     7
370
    15
100
AcDbSpline
210
0.0
220
0.0
230
1.0
 70
    24
 71
     3
 72
    13
 73
     9
 74
     0
 42
0.00000001
 43
0.00000001
 12
1.0
 22
0.0
 32
0.0
 13
1.0
 23
0.0
 33
0.0
 40
0.0
 40
0.0
 40
0.0
 40
0.0
 40
0.0192897082779003
 40
0.2756345880952386
 40
0.4555920260395563
 40
0.6360752414781532
 40
0.8178724427302422
 40
1.0
 40
1.0
 40
1.0
 40
1.0
 10
513.6139494993383
 20
46.16065448834342
 30
0.0
 10
513.6139494993383
 20
46.16197882870338
 30
0.0
 10
513.6139494993381
 20
46.18090259905522
 30
0.0
 10
513.6139494993384
 20
46.11735983422116
 30
0.0
 10
513.6139494993382
 20
45.99341488771294
 30
0.0
 10
513.6139494993383
 20
45.82614694490922
 30
0.0
 10
513.6139494993383
 20
45.61777657783281
 30
0.0
 10
513.6139494993383
 20
45.44653239835991
 30
0.0
 10
513.6139494993383
 20
45.36083258439081
 30
0.0
  0
SPLINE
  5
225
330
1F
100
AcDbEntity
  8
0
  6
Continuous
 62
     7
370
    15
100
AcDbSpline
210
0.0
220
0.0
230
1.0
 70
    24
 71
     3
 72
    13
 73
     9
 74
     0
 42
0.00000001
 43
0.00000001
 12
1.0
 22
0.0
 32
0.0
 13
1.0
 23
0.0
 33
0.0
 40
0.0
 40
0.0
 40
0.0
 40
0.0
 40
0.1801854371458039
 40
0.3606611084617657
 40
0.5422585260238578
 40
0.724359861970301
 40
0.9724860866426003
 40
1.0
 40
1.0
 40
1.0
 40
1.0
 10
531.6139494993383
 20
45.36083258439047
 30
0.0
 10
531.6139494993383
 20
45.44564938595186
 30
0.0
 10
531.6139494993383
 20
45.61541960796245
 30
0.0
 10
531.6139494993383
 20
45.82359547155798
 30
0.0
 10
531.6139494993383
 20
45.9920994689432
 30
0.0
 10
531.6139494993383
 20
46.1157652880532
 30
0.0
 10
531.6139494993381
 20
46.17874901509894
 30
0.0
 10
531.6139494993383
 20
46.1610170347973
 30
0.0
 10
531.6139494993383
 20
46.15924705973792
 30
0.0
  0
SPLINE
  5
226
330
1F
100
AcDbEntity
  8
0
  6
Continuous
 62
     7
370
    15
100
AcDbSpline
210
0.0
220
0.0
230
1.0
 70
     8
 71
     3
 72
    16
 73
    12
 74
     0
 42
0.00000001
 43
0.00000001
 12
1.0
 22
0.0
 32
0.0
 13
1.0
 23
0.0
 33
0.0
 40
0.0
 40
0.0
 40
0.0
 40
0.0
 40
0.2500000000000068
 40
0.2500000000000068
 40
0.5000000000000135
 40
0.5000000000000135
 40
0.6250000000000101
 40
0.6250000000000101
 40
0.7500000000000068
 40
0.7500000000000068
 40
1.0
 40
1.0
 40
1.0
 40
1.0
 10
522.6139494993382
 20
45.36083258439108
 30
0.0
 10
523.3487140430855
 20
45.60575409897349
 30
0.0
 10
524.0888356445017
 20
45.80761381900997
 30
0.0
 10
525.5845146625619
 20
46.08725509060704
 30
0.0
 10
526.3401868315107
 20
46.1641142253354
 30
0.0
 10
527.4879324387667
 20
46.16495838650459
 30
0.0
 10
527.8723144502143
 20
46.14616929983453
 30
0.0
 10
528.6326626173869
 20
46.07290180775367
 30
0.0
 10
529.0102875360592
 20
46.01849775609035
 30
0.0
 10
530.1364391963544
 20
45.80841869773822
 30
0.0
 10
530.8782690387983
 20
45.6060594045708
 30
0.0
 10
531.6139494993383
 20
45.36083258439086
 30
0.0
  0
SPLINE
  5
227
330
1F
100
AcDbEntity
  8
0
  6
Continuous
 62
     7
370
    15
100
AcDbSpline
210
0.0
220
0.0
230
1.0
 70
     8
 71
     3
 72
    16
 73
    12
 74
     0
 42
0.00000001
 43
0.00000001
 12
1.0
 22
0.0
 32
0.0
 13
1.0
 23
0.0
 33
0.0
 40
0.0
 40
0.0
 40
0.0
 40
0.0
 40
0.2500000000000017
 40
0.2500000000000017
 40
0.5000000000000034
 40
0.5000000000000034
 40
0.6250000000000043
 40
0.6250000000000043
 40
0.7500000000000051
 40
0.7500000000000051
 40
1.0
 40
1.0
 40
1.0
 40
1.0
 10
513.6139494993383
 20
45.36083258439111
 30
0.0
 10
514.3487140430856
 20
45.60575409897352
 30
0.0
 10
515.0888356445017
 20
45.80761381901002
 30
0.0
 10
516.5845146625619
 20
46.0872550906071
 30
0.0
 10
517.3401868315107
 20
46.16411422533534
 30
0.0
 10
518.4879324387666
 20
46.16495838650456
 30
0.0
 10
518.8723144502142
 20
46.1461692998345
 30
0.0
 10
519.632662617387
 20
46.07290180775367
 30
0.0
 10
520.0102875360592
 20
46.01849775609026
 30
0.0
 10
521.1364391963544
 20
45.80841869773822
 30
0.0
 10
521.8782690387984
 20
45.60605940457088
 30
0.0
 10
522.6139494993383
 20
45.36083258439088
 30
0.0
  0
LINE
  5
228
330
1F
100
AcDbEntity
  8
0
  6
Continuous
 62
     7
370
    15
100
AcDbLine
 10
514.3639494993
 20
46.5976928636
 30
0.0
 11
530.8639494993
 21
46.5976928636
 31
0.0
  0
LINE
  5
229
330
1F
100
AcDbEntity
  8
0
  6
Continuous
 62
     7
370
    15
100
AcDbLine
 10
522.6139494993
 20
45.3608325844
 30
0.0
 11
522.6139494993
 21
37.4345531428
 31
0.0
  0
SPLINE
  5
22A
330
1F
100
AcDbEntity
  8
0
  6
Continuous
 62
     7
370
    15
100
AcDbSpline
210
0.0
220
0.0
230
1.0
 70
     8
 71
     3
 72
    16
 73
    12
 74
     0
 42
0.00000001
 43
0.00000001
 12
1.0
 22
0.0
 32
0.0
 13
1.0
 23
0.0
 33
0.0
 40
0.0
 40
0.0
 40
0.0
 40
0.0
 40
0.2500000000000017
 40
0.2500000000000017
 40
0.5000000000000034
 40
0.5000000000000034
 40
0.6250000000000043
 40
0.6250000000000043
 40
0.7500000000000051
 40
0.7500000000000051
 40
1.0
 40
1.0
 40
1.0
 40
1.0
 10
522.6139494993383
 20
37.43455314276142
 30
0.0
 10
521.8791849555912
 20
37.18963162817904
 30
0.0
 10
521.139063354175
 20
36.98777190814253
 30
0.0
 10
519.6433843361148
 20
36.70813063654555
 30
0.0
 10
518.887712167166
 20
36.63127150181714
 30
0.0
 10
517.73996655991
 20
36.63042734064795
 30
0.0
 10
517.3555845484625
 20
36.64921642731805
 30
0.0
 10
516.5952363812896
 20
36.72248391939892
 30
0.0
 10
516.2176114626176
 20
36.77688797106224
 30
0.0
 10
515.0914598023223
 20
36.98696702941426
 30
0.0
 10
514.3496299598784
 20
37.18932632258165
 30
0.0
 10
513.6139494993383
 20
37.43455314276164
 30
0.0
  0
LINE
  5
22B
330
1F
100
AcDbEntity
  8
0
  6
Continuous
 62
     7
370
    15
100
AcDbLine
 10
513.6139494993
 20
45.3608325844
 30
0.0
 11
513.6139494993
 21
37.4345531428
 31
0.0
  0
LINE
  5
22C
330
1F
100
AcDbEntity
  8
0
  6
Continuous
 62
     7
370
    15
100
AcDbLine
 10
531.6139494993
 20
45.3608325844
 30
0.0
 11
531.6139494993
 21
37.4345531428
 31
0.0
  0
SPLINE
  5
22D
330
1F
100
AcDbEntity
  8
0
  6
Continuous
 62
     7
370
    15
100
AcDbSpline
210
0.0
220
0.0
230
1.0
 70
     8
 71
     3
 72
    16
 73
    12
 74
     0
 42
0.00000001
 43
0.00000001
 12
1.0
 22
0.0
 32
0.0
 13
1.0
 23
0.0
 33
0.0
 40
0.0
 40
0.0
 40
0.0
 40
0.0
 40
0.2499999999999948
 40
0.2499999999999948
 40
0.4999999999999897
 40
0.4999999999999897
 40
0.624999999999994
 40
0.624999999999994
 40
0.7499999999999982
 40
0.7499999999999982
 40
1.0
 40
1.0
 40
1.0
 40
1.0
 10
531.6139494993383
 20
37.43455314276139
 30
0.0
 10
530.8791849555912
 20
37.18963162817898
 30
0.0
 10
530.1390633541749
 20
36.98777190814253
 30
0.0
 10
528.6433843361147
 20
36.70813063654538
 30
0.0
 10
527.887712167166
 20
36.63127150181711
 30
0.0
 10
526.7399665599099
 20
36.63042734064795
 30
0.0
 10
526.3555845484624
 20
36.649216427318
 30
0.0
 10
525.5952363812897
 20
36.72248391939889
 30
0.0
 10
525.2176114626177
 20
36.77688797106221
 30
0.0
 10
524.0914598023223
 20
36.98696702941426
 30
0.0
 10
523.3496299598784
 20
37.18932632258159
 30
0.0
 10
522.6139494993383
 20
37.43455314276159
 30
0.0
  0
SPLINE
  5
22E
330
1F
100
AcDbEntity
  8
0
  6
Continuous
 62
     7
370
    15
100
AcDbSpline
210
0.0
220
0.0
230
1.0
 70
    24
 71
     3
 72
    13
 73
     9
 74
     0
 42
0.00000001
 43
0.00000001
 12
1.0
 22
0.0
 32
0.0
 13
1.0
 23
0.0
 33
0.0
 40
0.0
 40
0.0
 40
0.0
 40
0.0
 40
0.0192897082778831
 40
0.2756345880952238
 40
0.4555920260395461
 40
0.6360752414781475
 40
0.8178724427302393
 40
1.0
 40
1.0
 40
1.0
 40
1.0
 10
531.6139494993383
 20
36.63473123880903
 30
0.0
 10
531.6139494993383
 20
36.63340689844913
 30
0.0
 10
531.6139494993386
 20
36.6144831280974
 30
0.0
 10
531.6139494993383
 20
36.67802589293123
 30
0.0
 10
531.6139494993382
 20
36.80197083943953
 30
0.0
 10
531.6139494993383
 20
36.96923878224332
 30
0.0
 10
531.6139494993382
 20
37.17760914931966
 30
0.0
 10
531.6139494993383
 20
37.34885332879251
 30
0.0
 10
531.6139494993383
 20
37.43455314276159
 30
0.0
  0
SPLINE
  5
22F
330
1F
100
AcDbEntity
  8
0
  6
Continuous
 62
     7
370
    15
100
AcDbSpline
210
0.0
220
0.0
230
1.0
 70
    24
 71
     3
 72
    13
 73
     9
 74
     0
 42
0.00000001
 43
0.00000001
 12
1.0
 22
0.0
 32
0.0
 13
1.0
 23
0.0
 33
0.0
 40
0.0
 40
0.0
 40
0.0
 40
0.0
 40
0.1801854371458095
 40
0.360661108461776
 40
0.5422585260238713
 40
0.7243598619703158
 40
0.9724860866426219
 40
1.0
 40
1.0
 40
1.0
 40
1.0
 10
513.6139494993383
 20
37.43455314276192
 30
0.0
 10
513.6139494993383
 20
37.34973634120059
 30
0.0
 10
513.6139494993383
 20
37.17996611919017
 30
0.0
 10
513.6139494993383
 20
36.97179025559446
 30
0.0
 10
513.6139494993382
 20
36.80328625820942
 30
0.0
 10
513.6139494993383
 20
36.67962043909911
 30
0.0
 10
513.6139494993383
 20
36.6166367120534
 30
0.0
 10
513.6139494993383
 20
36.63436869235523
 30
0.0
 10
513.6139494993383
 20
36.63613866741461
 30
0.0
  0
SPLINE
  5
230
330
1F
100
AcDbEntity
  8
0
  6
Continuous
 62
     7
370
    15
100
AcDbSpline
210
0.0
220
0.0
230
1.0
 70
    24
 71
     3
 72
    11
 73
     7
 74
     0
 42
0.00000001
 43
0.00000001
 12
1.0
 22
0.0
 32
0.0
 13
1.0
 23
0.0
 33
0.0
 40
0.0
 40
0.0
 40
0.0
 40
0.0
 40
0.2663523580043937
 40
0.5149691374199601
 40
0.7648207627617927
 40
0.9999999999999999
 40
0.9999999999999999
 40
0.9999999999999999
 40
0.9999999999999999
 10
37.61394949933825
 20
45.36083258439081
 30
0.0
 10
37.61394949933833
 20
45.48419727534225
 30
0.0
 10
37.61394949933825
 20
45.72271218455259
 30
0.0
 10
37.61394949933833
 20
45.97414252519555
 30
0.0
 10
37.61394949933828
 20
46.13658938349219
 30
0.0
 10
37.6139494993383
 20
46.1527962078161
 30
0.0
 10
37.6139494993383
 20
46.16065448834342
 30
0.0
  0
SPLINE
  5
231
330
1F
100
AcDbEntity
  8
0
  6
Continuous
 62
     7
370
    15
100
AcDbSpline
210
0.0
220
0.0
230
1.0
 70
     8
 71
     3
 72
    16
 73
    12
 74
     0
 42
0.00000001
 43
0.00000001
 12
1.0
 22
0.0
 32
0.0
 13
1.0
 23
0.0
 33
0.0
 40
0.0
 40
0.0
 40
0.0
 40
0.0
 40
0.2500000000000017
 40
0.2500000000000017
 40
0.5000000000000033
 40
0.5000000000000033
 40
0.6250000000000042
 40
0.6250000000000042
 40
0.750000000000005
 40
0.750000000000005
 40
1.0
 40
1.0
 40
1.0
 40
1.0
 10
28.61394949933815
 20
45.36083258439105
 30
0.0
 10
29.34871404308534
 20
45.60575409897344
 30
0.0
 10
30.08883564450154
 20
45.80761381900997
 30
0.0
 10
31.58451466256185
 20
46.08725509060702
 30
0.0
 10
32.34018683151055
 20
46.16411422533537
 30
0.0
 10
33.48793243876649
 20
46.16495838650456
 30
0.0
 10
33.87231445021408
 20
46.1461692998345
 30
0.0
 10
34.63266261738698
 20
46.07290180775364
 30
0.0
 10
35.01028753605906
 20
46.01849775609026
 30
0.0
 10
36.13643919635432
 20
45.80841869773822
 30
0.0
 10
36.87826903879824
 20
45.60605940457094
 30
0.0
 10
37.61394949933828
 20
45.36083258439091
 30
0.0
  0
SPLINE
  5
232
330
1F
100
AcDbEntity
  8
0
  6
Continuous
 62
     7
370
    15
100
AcDbSpline
210
0.0
220
0.0
230
1.0
 70
     8
 71
     3
 72
    16
 73
    12
 74
     0
 42
0.00000001
 43
0.00000001
 12
1.0
 22
0.0
 32
0.0
 13
1.0
 23
0.0
 33
0.0
 40
0.0
 40
0.0
 40
0.0
 40
0.0
 40
0.2500000000000069
 40
0.2500000000000069
 40
0.5000000000000139
 40
0.5000000000000139
 40
0.6250000000000104
 40
0.6250000000000104
 40
0.750000000000007
 40
0.750000000000007
 40
1.0
 40
1.0
 40
1.0
 40
1.0
 10
19.61394949933815
 20
45.36083258439105
 30
0.0
 10
20.34871404308519
 20
45.60575409897346
 30
0.0
 10
21.08883564450154
 20
45.80761381900994
 30
0.0
 10
22.58451466256178
 20
46.08725509060704
 30
0.0
 10
23.3401868315104
 20
46.16411422533537
 30
0.0
 10
24.4879324387664
 20
46.16495838650459
 30
0.0
 10
24.87231445021398
 20
46.14616929983453
 30
0.0
 10
25.63266261738689
 20
46.07290180775364
 30
0.0
 10
26.01028753605894
 20
46.01849775609026
 30
0.0
 10
27.13643919635433
 20
45.80841869773822
 30
0.0
 10
27.87826903879814
 20
45.60605940457094
 30
0.0
 10
28.61394949933821
 20
45.36083258439091
 30
0.0
  0
SPLINE
  5
233
330
1F
100
AcDbEntity
  8
0
  6
Continuous
 62
     7
370
    15
100
AcDbSpline
210
0.0
220
0.0
230
1.0
 70
    24
 71
     3
 72
    11
 73
     7
 74
     0
 42
0.00000001
 43
0.00000001
 12
1.0
 22
0.0
 32
0.0
 13
1.0
 23
0.0
 33
0.0
 40
0.0
 40
0.0
 40
0.0
 40
0.0
 40
0.2223389001464257
 40
0.4772529623961647
 40
0.7336461735029947
 40
1.0
 40
1.0
 40
1.0
 40
1.0
 10
19.61394949933831
 20
46.15924705973792
 30
0.0
 10
19.61394949933831
 20
46.15293983984159
 30
0.0
 10
19.61394949933826
 20
46.13940132103978
 30
0.0
 10
19.61394949933837
 20
45.98043097265126
 30
0.0
 10
19.61394949933831
 20
45.72630129115532
 30
0.0
 10
19.61394949933826
 20
45.48419322552044
 30
0.0
 10
19.6139494993382
 20
45.36083258439047
 30
0.0
  0
LINE
  5
234
330
1F
100
AcDbEntity
  8
0
  6
Continuous
 62
     7
370
    15
100
AcDbLine
 10
20.3639494993
 20
46.5976928636
 30
0.0
 11
36.8639494993
 21
46.5976928636
 31
0.0
  0
LINE
  5
235
330
1F
100
AcDbEntity
  8
0
  6
Continuous
 62
     7
370
    15
100
AcDbLine
 10
37.6139494993
 20
45.3608325844
 30
0.0
 11
37.6139494993
 21
37.4345531428
 31
0.0
  0
SPLINE
  5
236
330
1F
100
AcDbEntity
  8
0
  6
Continuous
 62
     7
370
    15
100
AcDbSpline
210
0.0
220
0.0
230
1.0
 70
     8
 71
     3
 72
    16
 73
    12
 74
     0
 42
0.00000001
 43
0.00000001
 12
1.0
 22
0.0
 32
0.0
 13
1.0
 23
0.0
 33
0.0
 40
0.0
 40
0.0
 40
0.0
 40
0.0
 40
0.25
 40
0.25
 40
0.5
 40
0.5
 40
0.625
 40
0.625
 40
0.75
 40
0.75
 40
1.0
 40
1.0
 40
1.0
 40
1.0
 10
37.61394949933833
 20
37.43455314276145
 30
0.0
 10
36.87918495559111
 20
37.18963162817904
 30
0.0
 10
36.13906335417491
 20
36.98777190814256
 30
0.0
 10
34.64338433611466
 20
36.70813063654541
 30
0.0
 10
33.88771216716597
 20
36.63127150181711
 30
0.0
 10
32.73996655990993
 20
36.63042734064798
 30
0.0
 10
32.35558454846241
 20
36.64921642731802
 30
0.0
 10
31.59523638128953
 20
36.72248391939886
 30
0.0
 10
31.21761146261745
 20
36.77688797106221
 30
0.0
 10
30.09145980232206
 20
36.98696702941434
 30
0.0
 10
29.34962995987816
 20
37.18932632258165
 30
0.0
 10
28.61394949933815
 20
37.43455314276164
 30
0.0
  0
LINE
  5
237
330
1F
100
AcDbEntity
  8
0
  6
Continuous
 62
     7
370
    15
100
AcDbLine
 10
28.6139494993
 20
45.3608325844
 30
0.0
 11
28.6139494993
 21
37.4345531428
 31
0.0
  0
SPLINE
  5
238
330
1F
100
AcDbEntity
  8
0
  6
Continuous
 62
     7
370
    15
100
AcDbSpline
210
0.0
220
0.0
230
1.0
 70
     8
 71
     3
 72
    16
 73
    12
 74
     0
 42
0.00000001
 43
0.00000001
 12
1.0
 22
0.0
 32
0.0
 13
1.0
 23
0.0
 33
0.0
 40
0.0
 40
0.0
 40
0.0
 40
0.0
 40
0.2499999999999933
 40
0.2499999999999933
 40
0.4999999999999867
 40
0.4999999999999867
 40
0.62499999999999
 40
0.62499999999999
 40
0.7499999999999933
 40
0.7499999999999933
 40
1.0
 40
1.0
 40
1.0
 40
1.0
 10
28.61394949933824
 20
37.43455314276139
 30
0.0
 10
27.87918495559111
 20
37.18963162817898
 30
0.0
 10
27.1390633541749
 20
36.98777190814251
 30
0.0
 10
25.6433843361146
 20
36.70813063654543
 30
0.0
 10
24.88771216716584
 20
36.63127150181711
 30
0.0
 10
23.73996655990995
 20
36.63042734064789
 30
0.0
 10
23.35558454846237
 20
36.649216427318
 30
0.0
 10
22.59523638128952
 20
36.72248391939886
 30
0.0
 10
22.21761146261747
 20
36.77688797106215
 30
0.0
 10
21.09145980232213
 20
36.98696702941429
 30
0.0
 10
20.34962995987821
 20
37.18932632258162
 30
0.0
 10
19.6139494993382
 20
37.43455314276162
 30
0.0
  0
LINE
  5
239
330
1F
100
AcDbEntity
  8
0
  6
Continuous
 62
     7
370
    15
100
AcDbLine
 10
19.6139494993
 20
45.3608325844
 30
0.0
 11
19.6139494993
 21
37.4345531428
 31
0.0
  0
SPLINE
  5
23A
330
1F
100
AcDbEntity
  8
0
  6
Continuous
 62
     7
370
    15
100
AcDbSpline
210
0.0
220
0.0
230
1.0
 70
    24
 71
     3
 72
    11
 73
     7
 74
     0
 42
0.00000001
 43
0.00000001
 12
1.0
 22
0.0
 32
0.0
 13
1.0
 23
0.0
 33
0.0
 40
0.0
 40
0.0
 40
0.0
 40
0.0
 40
0.266352358004404
 40
0.5149691374199823
 40
0.7648207627618275
 40
1.0
 40
1.0
 40
1.0
 40
1.0
 10
19.6139494993382
 20
37.43455314276159
 30
0.0
 10
19.6139494993382
 20
37.31118845181014
 30
0.0
 10
19.61394949933826
 20
37.07267354259991
 30
0.0
 10
19.61394949933831
 20
36.82124320195692
 30
0.0
 10
19.61394949933826
 20
36.65879634366034
 30
0.0
 10
19.61394949933826
 20
36.64258951933638
 30
0.0
 10
19.61394949933831
 20
36.63473123880903
 30
0.0
  0
SPLINE
  5
23B
330
1F
100
AcDbEntity
  8
0
  6
Continuous
 62
     7
370
    15
100
AcDbSpline
210
0.0
220
0.0
230
1.0
 70
    24
 71
     3
 72
    11
 73
     7
 74
     0
 42
0.00000001
 43
0.00000001
 12
1.0
 22
0.0
 32
0.0
 13
1.0
 23
0.0
 33
0.0
 40
0.0
 40
0.0
 40
0.0
 40
0.0
 40
0.2223389001464316
 40
0.4772529623961695
 40
0.7336461735029968
 40
1.0
 40
1.0
 40
1.0
 40
1.0
 10
37.61394949933828
 20
36.63613866741461
 30
0.0
 10
37.61394949933825
 20
36.64244588731097
 30
0.0
 10
37.61394949933828
 20
36.65598440611281
 30
0.0
 10
37.61394949933838
 20
36.81495475450125
 30
0.0
 10
37.61394949933825
 20
37.06908443599715
 30
0.0
 10
37.61394949933819
 20
37.31119250163198
 30
0.0
 10
37.61394949933822
 20
37.43455314276195
 30
0.0
  0
LINE
  5
23C
330
1F
100
AcDbEntity
  8
0
  6
Continuous
 62
     7
370
    15
100
AcDbLine
 10
516.6139494993
 20
81.6976928636
 30
0.0
 11
528.6139494993
 21
81.6976928636
 31
0.0
  0
LINE
  5
23D
330
1F
100
AcDbEntity
  8
0
  6
Continuous
 62
     7
370
    15
100
AcDbLine
 10
22.6139494993
 20
81.6976928636
 30
0.0
 11
34.6139494993
 21
81.6976928636
 31
0.0
  0
LINE
  5
23E
330
1F
100
AcDbEntity
  8
0
  6
Continuous
 62
     7
370
     0
100
AcDbLine
 10
17.3524822711
 20
27.4581022914
 30
0.0
 11
533.8754167276
 21
27.4581022914
 31
0.0
  0
LINE
  5
23F
330
1F
100
AcDbEntity
  8
0
  6
Continuous
 62
     7
370
     0
100
AcDbLine
 10
14.6139494993
 20
30.4466863856
 30
0.0
 11
536.6139494993
 21
30.4466863856
 31
0.0
  0
LINE
  5
240
330
1F
100
AcDbEntity
  8
0
  6
Continuous
 62
     7
370
     0
100
AcDbLine
 10
456.2693244524
 20
26.0358291792
 30
0.0
 11
517.5963961151
 21
26.0358291792
 31
0.0
  0
LINE
  5
241
330
1F
100
AcDbEntity
  8
0
  6
Continuous
 62
     7
370
     0
100
AcDbLine
 10
281.6139494993
 20
26.0358291792
 30
0.0
 11
444.2693244524
 21
26.0358291792
 31
0.0
  0
LINE
  5
242
330
1F
100
AcDbEntity
  8
0
  6
Continuous
 62
     7
370
     0
100
AcDbLine
 10
106.9585745463
 20
26.0358291792
 30
0.0
 11
269.6139494993
 21
26.0358291792
 31
0.0
  0
LINE
  5
243
330
1F
100
AcDbEntity
  8
0
  6
Continuous
 62
     7
370
     0
100
AcDbLine
 10
33.6315028836
 20
26.0358291792
 30
0.0
 11
94.9585745463
 21
26.0358291792
 31
0.0
  0
LINE
  5
244
330
1F
100
AcDbEntity
  8
0
  6
Continuous
 62
     7
370
     0
100
AcDbLine
 10
38.166507292
 20
21.3165354699
 30
0.0
 11
94.9585745463
 21
21.3165354699
 31
0.0
  0
LINE
  5
245
330
1F
100
AcDbEntity
  8
0
  6
Continuous
 62
     7
370
     0
100
AcDbLine
 10
106.9585745463
 20
21.3165354699
 30
0.0
 11
269.6139494993
 21
21.3165354699
 31
0.0
  0
LINE
  5
246
330
1F
100
AcDbEntity
  8
0
  6
Continuous
 62
     7
370
     0
100
AcDbLine
 10
281.6139494993
 20
21.3165354699
 30
0.0
 11
444.2693244524
 21
21.3165354699
 31
0.0
  0
LINE
  5
247
330
1F
100
AcDbEntity
  8
0
  6
Continuous
 62
     7
370
     0
100
AcDbLine
 10
456.2693244524
 20
21.3165354699
 30
0.0
 11
513.0613917067
 21
21.3165354699
 31
0.0
  0
LINE
  5
248
330
1F
100
AcDbEntity
  8
0
  6
Continuous
 62
     7
370
     0
100
AcDbLine
 10
39.4897870792
 20
-3.933147027
 30
0.0
 11
94.9585745463
 21
-3.933147027
 31
0.0
  0
LINE
  5
249
330
1F
100
AcDbEntity
  8
0
  6
Continuous
 62
     7
370
     0
100
AcDbLine
 10
106.9585745463
 20
-3.933147027
 30
0.0
 11
269.6139494993
 21
-3.933147027
 31
0.0
  0
LINE
  5
24A
330
1F
100
AcDbEntity
  8
0
  6
Continuous
 62
     7
370
     0
100
AcDbLine
 10
281.6139494993
 20
-3.933147027
 30
0.0
 11
444.2693244524
 21
-3.933147027
 31
0.0
  0
LINE
  5
24B
330
1F
100
AcDbEntity
  8
0
  6
Continuous
 62
     7
370
     0
100
AcDbLine
 10
456.2693244524
 20
-3.933147027
 30
0.0
 11
511.7381119194
 21
-3.933147027
 31
0.0
  0
LINE
  5
24C
330
1F
100
AcDbEntity
  8
FORMAT
  6
CENTERX2
370
     0
100
AcDbLine
 10
275.6139494993
 20
-98.3023071364
 30
0.0
 11
275.6139494993
 21
87.3984713149
 31
0.0
  0
ENDSEC
  0
SECTION
  2
OBJECTS
  0
DICTIONARY
  5
C
330
0
100
AcDbDictionary
281
     1
  3
ACAD_GROUP
350
D
  3
ACAD_LAYOUT
350
1A
  3
ACAD_MLINESTYLE
350
17
  3
ACAD_PLOTSETTINGS
350
19
  3
ACAD_PLOTSTYLENAME
350
E
  0
DICTIONARY
  5
D
102
{ACAD_REACTORS
330
C
102
}
330
C
100
AcDbDictionary
281
     1
  0
DICTIONARY
  5
1A
102
{ACAD_REACTORS
330
C
102
}
330
C
100
AcDbDictionary
281
     1
  3
Layout1
350
1E
  3
Layout2
350
26
  3
Model
350
22
  0
DICTIONARY
  5
17
102
{ACAD_REACTORS
330
C
102
}
330
C
100
AcDbDictionary
281
     1
  3
Standard
350
18
  0
DICTIONARY
  5
19
102
{ACAD_REACTORS
330
C
102
}
330
C
100
AcDbDictionary
281
     1
  0
ACDBDICTIONARYWDFLT
  5
E
102
{ACAD_REACTORS
330
C
102
}
330
C
100
AcDbDictionary
281
     1
  3
Normal
350
F
100
AcDbDictionaryWithDefault
340
F
  0
LAYOUT
  5
1E
102
{ACAD_REACTORS
330
1A
102
}
330
1A
100
AcDbPlotSettings
  1

  2
none_device
  4

  6

 40
0.0
 41
0.0
 42
0.0
 43
0.0
 44
0.0
 45
0.0
 46
0.0
 47
0.0
 48
0.0
 49
0.0
140
0.0
141
0.0
142
1.0
143
1.0
 70
   688
 72
     0
 73
     0
 74
     5
  7

 75
    16
147
1.0
148
0.0
149
0.0
100
AcDbLayout
  1
Layout1
 70
     1
 71
     1
 10
0.0
 20
0.0
 11
420.0
 21
297.0
 12
0.0
 22
0.0
 32
0.0
 14
1.0000000000E+20
 24
1.0000000000E+20
 34
1.0000000000E+20
 15
-1.0000000000E+20
 25
-1.0000000000E+20
 35
-1.0000000000E+20
146
0.0
 13
0.0
 23
0.0
 33
0.0
 16
1.0
 26
0.0
 36
0.0
 17
0.0
 27
1.0
 37
0.0
 76
     0
330
1B
  0
LAYOUT
  5
26
102
{ACAD_REACTORS
330
1A
102
}
330
1A
100
AcDbPlotSettings
  1

  2
none_device
  4

  6

 40
0.0
 41
0.0
 42
0.0
 43
0.0
 44
0.0
 45
0.0
 46
0.0
 47
0.0
 48
0.0
 49
0.0
140
0.0
141
0.0
142
1.0
143
1.0
 70
   688
 72
     0
 73
     0
 74
     5
  7

 75
    16
147
1.0
148
0.0
149
0.0
100
AcDbLayout
  1
Layout2
 70
     1
 71
     2
 10
0.0
 20
0.0
 11
0.0
 21
0.0
 12
0.0
 22
0.0
 32
0.0
 14
0.0
 24
0.0
 34
0.0
 15
0.0
 25
0.0
 35
0.0
146
0.0
 13
0.0
 23
0.0
 33
0.0
 16
1.0
 26
0.0
 36
0.0
 17
0.0
 27
1.0
 37
0.0
 76
     0
330
23
  0
LAYOUT
  5
22
102
{ACAD_REACTORS
330
1A
102
}
330
1A
100
AcDbPlotSettings
  1

  2
none_device
  4

  6

 40
0.0
 41
0.0
 42
0.0
 43
0.0
 44
0.0
 45
0.0
 46
0.0
 47
0.0
 48
0.0
 49
0.0
140
0.0
141
0.0
142
1.0
143
1.0
 70
  1712
 72
     0
 73
     0
 74
     0
  7

 75
     0
147
1.0
148
0.0
149
0.0
100
AcDbLayout
  1
Model
 70
     1
 71
     0
 10
0.0
 20
0.0
 11
841.0
 21
594.0
 12
0.0
 22
0.0
 32
0.0
 14
0.0
 24
0.0
 34
0.0
 15
841.0
 25
594.0
 35
0.0
146
0.0
 13
0.0
 23
0.0
 33
0.0
 16
1.0
 26
0.0
 36
0.0
 17
0.0
 27
1.0
 37
0.0
 76
     0
330
1F
331
29
  0
MLINESTYLE
  5
18
102
{ACAD_REACTORS
330
17
102
}
330
17
100
AcDbMlineStyle
  2
Standard
 70
     0
  3

 62
   256
 51
90.0
 52
90.0
 71
     2
 49
0.5
 62
   256
  6
BYLAYER
 49
-0.5
 62
   256
  6
BYLAYER
  0
ACDBPLACEHOLDER
  5
F
102
{ACAD_REACTORS
330
E
102
}
330
E
  0
ENDSEC
  0
EOF
