  0
SECTION
  2
HEADER
  9
$ACADVER
  1
AC1015
  9
$ACADMAINTVER
 70
     6
  9
$DWGCODEPAGE
  3
ANSI_1252
  9
$INSBASE
 10
0.0
 20
0.0
 30
0.0
  9
$EXTMIN
 10
0.0
 20
0.0
 30
0.0
  9
$EXTMAX
 10
594.0
 20
420.0
 30
0.0
  9
$LIMMIN
 10
0.0
 20
0.0
  9
$LIMMAX
 10
594.0
 20
420.0
  9
$ORTHOMODE
 70
     0
  9
$REGENMODE
 70
     1
  9
$FILLMODE
 70
     1
  9
$QTEXTMODE
 70
     0
  9
$MIRRTEXT
 70
     1
  9
$LTSCALE
 40
1.0
  9
$ATTMODE
 70
     1
  9
$TEXTSIZE
 40
3.5
  9
$TRACEWID
 40
1.0
  9
$TEXTSTYLE
  7
Standard
  9
$CLAYER
  8
0
  9
$CELTYPE
  6
ByLayer
  9
$CECOLOR
 62
   256
  9
$CELTSCALE
 40
1.0
  9
$DISPSILH
 70
     0
  9
$DIMSCALE
 40
1.0
  9
$DIMASZ
 40
3.302
  9
$DIMEXO
 40
1.0
  9
$DIMDLI
 40
3.75
  9
$DIMRND
 40
0.0
  9
$DIMDLE
 40
0.0
  9
$DIMEXE
 40
1.0
  9
$DIMTP
 40
0.0
  9
$DIMTM
 40
0.0
  9
$DIMTXT
 40
3.5
  9
$DIMCEN
 40
2.5
  9
$DIMTSZ
 40
0.0
  9
$DIMTOL
 70
     0
  9
$DIMLIM
 70
     0
  9
$DIMTIH
 70
     1
  9
$DIMTOH
 70
     1
  9
$DIMSE1
 70
     0
  9
$DIMSE2
 70
     0
  9
$DIMTAD
 70
     1
  9
$DIMZIN
 70
     0
  9
$DIMBLK
  1

  9
$DIMASO
 70
     1
  9
$DIMSHO
 70
     1
  9
$DIMPOST
  1

  9
$DIMAPOST
  1

  9
$DIMALT
 70
     0
  9
$DIMALTD
 70
     3
  9
$DIMALTF
 40
0.0393700787
  9
$DIMLFAC
 40
1.0
  9
$DIMTOFL
 70
     1
  9
$DIMTVP
 40
0.0
  9
$DIMTIX
 70
     0
  9
$DIMSOXD
 70
     0
  9
$DIMSAH
 70
     0
  9
$DIMBLK1
  1

  9
$DIMBLK2
  1

  9
$DIMSTYLE
  2
ISO-25
  9
$DIMCLRD
 70
     0
  9
$DIMCLRE
 70
     0
  9
$DIMCLRT
 70
     0
  9
$DIMTFAC
 40
1.0
  9
$DIMGAP
 40
1.524
  9
$DIMJUST
 70
     0
  9
$DIMSD1
 70
     0
  9
$DIMSD2
 70
     0
  9
$DIMTOLJ
 70
     0
  9
$DIMTZIN
 70
     0
  9
$DIMALTZ
 70
     0
  9
$DIMALTTZ
 70
     0
  9
$DIMUPT
 70
     0
  9
$DIMDEC
 70
     2
  9
$DIMTDEC
 70
     2
  9
$DIMALTU
 70
     2
  9
$DIMALTTD
 70
     3
  9
$DIMTXSTY
  7
Standard
  9
$DIMAUNIT
 70
     0
  9
$DIMADEC
 70
     2
  9
$DIMALTRND
 40
0.0
  9
$DIMAZIN
 70
     0
  9
$DIMDSEP
 70
    44
  9
$DIMATFIT
 70
     3
  9
$DIMFRAC
 70
     0
  9
$DIMLDRBLK
  1

  9
$DIMLUNIT
 70
     2
  9
$DIMLWD
 70
    -2
  9
$DIMLWE
 70
    -2
  9
$DIMTMOVE
 70
     0
  9
$LUNITS
 70
     2
  9
$LUPREC
 70
     2
  9
$SKETCHINC
 40
1.0
  9
$FILLETRAD
 40
10.0
  9
$AUNITS
 70
     0
  9
$AUPREC
 70
     2
  9
$MENU
  1
.
  9
$ELEVATION
 40
0.0
  9
$PELEVATION
 40
0.0
  9
$THICKNESS
 40
0.0
  9
$LIMCHECK
 70
     0
  9
$CHAMFERA
 40
10.0
  9
$CHAMFERB
 40
10.0
  9
$CHAMFERC
 40
20.0
  9
$CHAMFERD
 40
0.0
  9
$SKPOLY
 70
     0
  9
$TDCREATE
 40
2457791.416769375
  9
$TDUCREATE
 40
2457791.375102708
  9
$TDUPDATE
 40
2457791.416770104
  9
$TDUUPDATE
 40
2457791.375103437
  9
$TDINDWG
 40
0.0000000116
  9
$TDUSRTIMER
 40
0.0000000116
  9
$USRTIMER
 70
     1
  9
$ANGBASE
 50
0.0
  9
$ANGDIR
 70
     0
  9
$PDMODE
 70
     0
  9
$PDSIZE
 40
-1.0
  9
$PLINEWID
 40
0.0
  9
$SPLFRAME
 70
     0
  9
$SPLINETYPE
 70
     6
  9
$SPLINESEGS
 70
     8
  9
$HANDSEED
  5
4C0
  9
$SURFTAB1
 70
     6
  9
$SURFTAB2
 70
     6
  9
$SURFTYPE
 70
     6
  9
$SURFU
 70
     6
  9
$SURFV
 70
     6
  9
$UCSBASE
  2

  9
$UCSNAME
  2

  9
$UCSORG
 10
0.0
 20
0.0
 30
0.0
  9
$UCSXDIR
 10
1.0
 20
0.0
 30
0.0
  9
$UCSYDIR
 10
0.0
 20
1.0
 30
0.0
  9
$UCSORTHOREF
  2

  9
$UCSORTHOVIEW
 70
     0
  9
$UCSORGTOP
 10
0.0
 20
0.0
 30
0.0
  9
$UCSORGBOTTOM
 10
0.0
 20
0.0
 30
0.0
  9
$UCSORGLEFT
 10
0.0
 20
0.0
 30
0.0
  9
$UCSORGRIGHT
 10
0.0
 20
0.0
 30
0.0
  9
$UCSORGFRONT
 10
0.0
 20
0.0
 30
0.0
  9
$UCSORGBACK
 10
0.0
 20
0.0
 30
0.0
  9
$PUCSBASE
  2

  9
$PUCSNAME
  2

  9
$PUCSORG
 10
0.0
 20
0.0
 30
0.0
  9
$PUCSXDIR
 10
1.0
 20
0.0
 30
0.0
  9
$PUCSYDIR
 10
0.0
 20
1.0
 30
0.0
  9
$PUCSORTHOREF
  2

  9
$PUCSORTHOVIEW
 70
     0
  9
$PUCSORGTOP
 10
0.0
 20
0.0
 30
0.0
  9
$PUCSORGBOTTOM
 10
0.0
 20
0.0
 30
0.0
  9
$PUCSORGLEFT
 10
0.0
 20
0.0
 30
0.0
  9
$PUCSORGRIGHT
 10
0.0
 20
0.0
 30
0.0
  9
$PUCSORGFRONT
 10
0.0
 20
0.0
 30
0.0
  9
$PUCSORGBACK
 10
0.0
 20
0.0
 30
0.0
  9
$USERI1
 70
     0
  9
$USERI2
 70
     0
  9
$USERI3
 70
     0
  9
$USERI4
 70
     0
  9
$USERI5
 70
     0
  9
$USERR1
 40
0.0
  9
$USERR2
 40
0.0
  9
$USERR3
 40
0.0
  9
$USERR4
 40
0.0
  9
$USERR5
 40
0.0
  9
$WORLDVIEW
 70
     1
  9
$SHADEDGE
 70
     3
  9
$SHADEDIF
 70
    70
  9
$TILEMODE
 70
     1
  9
$MAXACTVP
 70
    64
  9
$PINSBASE
 10
0.0
 20
0.0
 30
0.0
  9
$PLIMCHECK
 70
     0
  9
$PEXTMIN
 10
1.0000000000E+20
 20
1.0000000000E+20
 30
1.0000000000E+20
  9
$PEXTMAX
 10
-1.0000000000E+20
 20
-1.0000000000E+20
 30
-1.0000000000E+20
  9
$PLIMMIN
 10
0.0
 20
0.0
  9
$PLIMMAX
 10
420.0
 20
297.0
  9
$UNITMODE
 70
     0
  9
$VISRETAIN
 70
     1
  9
$PLINEGEN
 70
     0
  9
$PSLTSCALE
 70
     1
  9
$TREEDEPTH
 70
  3020
  9
$CMLSTYLE
  2
Standard
  9
$CMLJUST
 70
     0
  9
$CMLSCALE
 40
20.0
  9
$PROXYGRAPHICS
 70
     1
  9
$MEASUREMENT
 70
     1
  9
$CELWEIGHT
370
    -1
  9
$ENDCAPS
280
     0
  9
$JOINSTYLE
280
     0
  9
$LWDISPLAY
290
     1
  9
$INSUNITS
 70
     4
  9
$HYPERLINKBASE
  1

  9
$STYLESHEET
  1

  9
$XEDIT
290
     1
  9
$CEPSNTYPE
380
     0
  9
$PSTYLEMODE
290
     1
  9
$FINGERPRINTGUID
  2
{7FAD89AF-4CDC-401B-B5F2-494A6FC26590}
  9
$VERSIONGUID
  2
{FAEB1C32-E019-11D5-929B-00C0DF256EC4}
  9
$EXTNAMES
290
     1
  9
$PSVPSCALE
 40
0.0
  9
$OLESTARTUP
290
     0
  0
ENDSEC
  0
SECTION
  2
CLASSES
  0
CLASS
  1
ACDBDICTIONARYWDFLT
  2
AcDbDictionaryWithDefault
  3
ObjectDBX Classes
 90
        0
280
     0
281
     0
  0
CLASS
  1
VISUALSTYLE
  2
AcDbVisualStyle
  3
ObjectDBX Classes
 90
     4095
280
     0
281
     0
  0
CLASS
  1
MATERIAL
  2
AcDbMaterial
  3
ObjectDBX Classes
 90
     1153
280
     0
281
     0
  0
CLASS
  1
ACDBPLACEHOLDER
  2
AcDbPlaceHolder
  3
ObjectDBX Classes
 90
        0
280
     0
281
     0
  0
CLASS
  1
LAYOUT
  2
AcDbLayout
  3
ObjectDBX Classes
 90
        0
280
     0
281
     0
  0
ENDSEC
  0
SECTION
  2
TABLES
  0
TABLE
  2
VPORT
  5
8
330
0
100
AcDbSymbolTable
 70
     1
  0
VPORT
  5
29
330
8
100
AcDbSymbolTableRecord
100
AcDbViewportTableRecord
  2
*Active
 70
     0
 10
0.0
 20
0.0
 11
1.0
 21
1.0
 12
297.0
 22
210.0
 13
0.0
 23
0.0
 14
10.0
 24
10.0
 15
10.0
 25
10.0
 16
0.0
 26
0.0
 36
1.0
 17
0.0
 27
0.0
 37
0.0
 40
420.0
 41
1.4142857143
 42
50.0
 43
0.0
 44
0.0
 50
0.0
 51
0.0
 71
     0
 72
  2000
 73
     1
 74
     3
 75
     0
 76
     0
 77
     0
 78
     0
281
     0
 65
     1
110
0.0
120
0.0
130
0.0
111
1.0
121
0.0
131
0.0
112
0.0
122
1.0
132
0.0
 79
     0
146
0.0
  0
ENDTAB
  0
TABLE
  2
LTYPE
  5
5
330
0
100
AcDbSymbolTable
 70
     6
  0
LTYPE
  5
14
330
5
100
AcDbSymbolTableRecord
100
AcDbLinetypeTableRecord
  2
ByBlock
 70
     0
  3

 72
    65
 73
     0
 40
0.0
  0
LTYPE
  5
15
330
5
100
AcDbSymbolTableRecord
100
AcDbLinetypeTableRecord
  2
ByLayer
 70
     0
  3

 72
    65
 73
     0
 40
0.0
  0
LTYPE
  5
16
330
5
100
AcDbSymbolTableRecord
100
AcDbLinetypeTableRecord
  2
Continuous
 70
     0
  3
Solid line
 72
    65
 73
     0
 40
0.0
  0
LTYPE
  5
3F
330
5
100
AcDbSymbolTableRecord
100
AcDbLinetypeTableRecord
  2
HIDDEN
 70
     0
  3
Hidden __ __ __ __ __ __ __ __ __ __ __ __ __ __
 72
    65
 73
     2
 40
1.905
 49
1.27
 74
     0
 49
-0.635
 74
     0
  0
LTYPE
  5
40
330
5
100
AcDbSymbolTableRecord
100
AcDbLinetypeTableRecord
  2
PHANTOM
 70
     0
  3
Phantom ______  __  __  ______  __  __  ______
 72
    65
 73
     6
 40
12.7
 49
6.35
 74
     0
 49
-1.27
 74
     0
 49
1.27
 74
     0
 49
-1.27
 74
     0
 49
1.27
 74
     0
 49
-1.27
 74
     0
  0
LTYPE
  5
41
330
5
100
AcDbSymbolTableRecord
100
AcDbLinetypeTableRecord
  2
CENTER
 70
     0
  3
Center ____ _ ____ _ ____ _ ____ _ ____ _ ____
 72
    65
 73
     4
 40
10.16
 49
6.35
 74
     0
 49
-1.27
 74
     0
 49
1.27
 74
     0
 49
-1.27
 74
     0
  0
LTYPE
  5
42
330
5
100
AcDbSymbolTableRecord
100
AcDbLinetypeTableRecord
  2
CENTERX2
 70
     0
  3
Center (2x) ________  __  ________  __  _____
 72
    65
 73
     4
 40
20.32
 49
12.7
 74
     0
 49
-2.54
 74
     0
 49
2.54
 74
     0
 49
-2.54
 74
     0
  0
LTYPE
  5
43
330
5
100
AcDbSymbolTableRecord
100
AcDbLinetypeTableRecord
  2
DOT2
 70
     0
  3
Dot (.5x) ........................................
 72
    65
 73
     2
 40
0.635
 49
0.0
 74
     0
 49
-0.635
 74
     0
  0
ENDTAB
  0
TABLE
  2
LAYER
  5
2
330
0
100
AcDbSymbolTable
 70
     3
  0
LAYER
  5
10
330
2
100
AcDbSymbolTableRecord
100
AcDbLayerTableRecord
  2
0
 70
     0
 62
     7
  6
Continuous
370
    -3
390
F
  0
LAYER
  5
44
330
2
100
AcDbSymbolTableRecord
100
AcDbLayerTableRecord
  2
FORMAT
 70
     0
 62
     7
  6
Continuous
370
    -3
390
F
  0
LAYER
  5
45
330
2
100
AcDbSymbolTableRecord
100
AcDbLayerTableRecord
  2
PROTOTYPE
 70
     0
 62
    -7
  6
Continuous
370
    -3
390
F
  0
ENDTAB
  0
TABLE
  2
STYLE
  5
3
330
0
100
AcDbSymbolTable
 70
     1
  0
STYLE
  5
11
330
3
100
AcDbSymbolTableRecord
100
AcDbTextStyleTableRecord
  2
Standard
 70
     0
 40
0.0
 41
1.0
 50
0.0
 71
     0
 42
3.5
  3
txt
  4

  0
ENDTAB
  0
TABLE
  2
VIEW
  5
6
330
0
100
AcDbSymbolTable
 70
     0
  0
ENDTAB
  0
TABLE
  2
UCS
  5
7
330
0
100
AcDbSymbolTable
 70
     0
  0
ENDTAB
  0
TABLE
  2
APPID
  5
9
330
0
100
AcDbSymbolTable
 70
     1
  0
APPID
  5
12
330
9
100
AcDbSymbolTableRecord
100
AcDbRegAppTableRecord
  2
ACAD
 70
     0
  0
ENDTAB
  0
TABLE
  2
DIMSTYLE
  5
A
330
0
100
AcDbSymbolTable
 70
     1
100
AcDbDimStyleTable
  0
DIMSTYLE
105
27
330
A
100
AcDbSymbolTableRecord
100
AcDbDimStyleTableRecord
  2
ISO-25
 70
     0
 41
2.5
 42
0.625
 43
3.75
 44
1.25
 73
     0
 74
     0
 77
     1
 78
     8
140
2.5
141
2.5
143
0.0393700787
147
0.625
171
     3
172
     1
178
     0
271
     2
272
     2
274
     3
278
    44
283
     0
284
     8
340
11
  0
ENDTAB
  0
TABLE
  2
BLOCK_RECORD
  5
1
330
0
100
AcDbSymbolTable
 70
     3
  0
BLOCK_RECORD
  5
1F
330
1
100
AcDbSymbolTableRecord
100
AcDbBlockTableRecord
  2
*Model_Space
340
22
  0
BLOCK_RECORD
  5
1B
330
1
100
AcDbSymbolTableRecord
100
AcDbBlockTableRecord
  2
*Paper_Space
340
1E
  0
BLOCK_RECORD
  5
23
330
1
100
AcDbSymbolTableRecord
100
AcDbBlockTableRecord
  2
*Paper_Space0
340
26
  0
BLOCK_RECORD
  5
39D
330
1
100
AcDbSymbolTableRecord
100
AcDbBlockTableRecord
  2
SW_CENTERMARKSYMBOL_0
340
0
102
{BLKREFS
331
3A8
102
}
  0
BLOCK_RECORD
  5
4B4
330
1
100
AcDbSymbolTableRecord
100
AcDbBlockTableRecord
  2
SW_CENTERMARKSYMBOL_1
340
0
102
{BLKREFS
331
4BF
102
}
  0
ENDTAB
  0
ENDSEC
  0
SECTION
  2
BLOCKS
  0
BLOCK
  5
20
330
1F
100
AcDbEntity
  8
0
100
AcDbBlockBegin
  2
*Model_Space
 70
     0
 10
0.0
 20
0.0
 30
0.0
  3
*Model_Space
  1

  0
ENDBLK
  5
21
330
1F
100
AcDbEntity
  8
0
100
AcDbBlockEnd
  0
BLOCK
  5
1C
330
1B
100
AcDbEntity
 67
     1
  8
0
100
AcDbBlockBegin
  2
*Paper_Space
 70
     0
 10
0.0
 20
0.0
 30
0.0
  3
*Paper_Space
  1

  0
ENDBLK
  5
1D
330
1B
100
AcDbEntity
 67
     1
  8
0
100
AcDbBlockEnd
  0
BLOCK
  5
24
330
23
100
AcDbEntity
  8
0
100
AcDbBlockBegin
  2
*Paper_Space0
 70
     0
 10
0.0
 20
0.0
 30
0.0
  3
*Paper_Space0
  1

  0
ENDBLK
  5
25
330
23
100
AcDbEntity
  8
0
100
AcDbBlockEnd
  0
BLOCK
  5
39E
330
39D
100
AcDbEntity
  8
0
100
AcDbBlockBegin
  2
SW_CENTERMARKSYMBOL_0
 70
     0
 10
0.0
 20
0.0
 30
0.0
  3
SW_CENTERMARKSYMBOL_0
  1

  0
LINE
  5
3A0
330
39D
100
AcDbEntity
  8
FORMAT
 62
     0
100
AcDbLine
 10
0.0
 20
0.0
 30
0.0
 11
0.0
 21
2.5
 31
0.0
  0
LINE
  5
3A1
330
39D
100
AcDbEntity
  8
FORMAT
 62
     0
100
AcDbLine
 10
0.0
 20
0.0
 30
0.0
 11
-2.5
 21
0.0
 31
0.0
  0
LINE
  5
3A2
330
39D
100
AcDbEntity
  8
FORMAT
 62
     0
100
AcDbLine
 10
0.0
 20
0.0
 30
0.0
 11
0.0
 21
-2.5
 31
0.0
  0
LINE
  5
3A3
330
39D
100
AcDbEntity
  8
FORMAT
 62
     0
100
AcDbLine
 10
0.0
 20
0.0
 30
0.0
 11
2.5
 21
0.0
 31
0.0
  0
LINE
  5
3A4
330
39D
100
AcDbEntity
  8
FORMAT
 62
     0
100
AcDbLine
 10
0.0
 20
5.0
 30
0.0
 11
0.0
 21
610.6523970521
 31
0.0
  0
LINE
  5
3A5
330
39D
100
AcDbEntity
  8
FORMAT
 62
     0
100
AcDbLine
 10
-5.0
 20
0.0
 30
0.0
 11
-131.6671381694
 21
0.0
 31
0.0
  0
LINE
  5
3A6
330
39D
100
AcDbEntity
  8
FORMAT
 62
     0
100
AcDbLine
 10
0.0
 20
-5.0
 30
0.0
 11
0.0
 21
-130.2789606957
 31
0.0
  0
LINE
  5
3A7
330
39D
100
AcDbEntity
  8
FORMAT
 62
     0
100
AcDbLine
 10
5.0
 20
0.0
 30
0.0
 11
131.2492611106
 21
0.0
 31
0.0
  0
ENDBLK
  5
39F
330
39D
100
AcDbEntity
  8
0
100
AcDbBlockEnd
  0
BLOCK
  5
4B5
330
4B4
100
AcDbEntity
  8
0
100
AcDbBlockBegin
  2
SW_CENTERMARKSYMBOL_1
 70
     0
 10
0.0
 20
0.0
 30
0.0
  3
SW_CENTERMARKSYMBOL_1
  1

  0
LINE
  5
4B7
330
4B4
100
AcDbEntity
  8
FORMAT
 62
     0
100
AcDbLine
 10
0.0
 20
0.0
 30
0.0
 11
0.0
 21
2.5
 31
0.0
  0
LINE
  5
4B8
330
4B4
100
AcDbEntity
  8
FORMAT
 62
     0
100
AcDbLine
 10
0.0
 20
0.0
 30
0.0
 11
-2.5
 21
0.0
 31
0.0
  0
LINE
  5
4B9
330
4B4
100
AcDbEntity
  8
FORMAT
 62
     0
100
AcDbLine
 10
0.0
 20
0.0
 30
0.0
 11
0.0
 21
-2.5
 31
0.0
  0
LINE
  5
4BA
330
4B4
100
AcDbEntity
  8
FORMAT
 62
     0
100
AcDbLine
 10
0.0
 20
0.0
 30
0.0
 11
2.5
 21
0.0
 31
0.0
  0
LINE
  5
4BB
330
4B4
100
AcDbEntity
  8
FORMAT
 62
     0
100
AcDbLine
 10
0.0
 20
5.0
 30
0.0
 11
0.0
 21
116.9199781132
 31
0.0
  0
LINE
  5
4BC
330
4B4
100
AcDbEntity
  8
FORMAT
 62
     0
100
AcDbLine
 10
-5.0
 20
0.0
 30
0.0
 11
-106.5714957211
 21
0.0
 31
0.0
  0
LINE
  5
4BD
330
4B4
100
AcDbEntity
  8
FORMAT
 62
     0
100
AcDbLine
 10
0.0
 20
-5.0
 30
0.0
 11
0.0
 21
-117.3474535568
 31
0.0
  0
LINE
  5
4BE
330
4B4
100
AcDbEntity
  8
FORMAT
 62
     0
100
AcDbLine
 10
5.0
 20
0.0
 30
0.0
 11
105.0514566135
 21
0.0
 31
0.0
  0
ENDBLK
  5
4B6
330
4B4
100
AcDbEntity
  8
0
100
AcDbBlockEnd
  0
ENDSEC
  0
SECTION
  2
ENTITIES
  0
LINE
  5
46
330
1F
100
AcDbEntity
  8
0
  6
Continuous
 62
     7
370
    15
100
AcDbLine
 10
-115.2111856695
 20
267.9702901964
 30
0.0
 11
-109.2111809607
 21
267.9702901964
 31
0.0
  0
LINE
  5
47
330
1F
100
AcDbEntity
  8
0
  6
Continuous
 62
     7
370
    15
100
AcDbLine
 10
-99.2111830469
 20
517.9702901964
 30
0.0
 11
-115.2111856695
 21
517.9702901964
 31
0.0
  0
LINE
  5
48
330
1F
100
AcDbEntity
  8
0
  6
Continuous
 62
     7
370
    15
100
AcDbLine
 10
78.7888200525
 20
517.9702901964
 30
0.0
 11
62.7888174299
 21
517.9702901964
 31
0.0
  0
LINE
  5
49
330
1F
100
AcDbEntity
  8
0
  6
Continuous
 62
     7
370
    15
100
AcDbLine
 10
72.7888153438
 20
267.9702901964
 30
0.0
 11
78.7888200525
 21
267.9702901964
 31
0.0
  0
LINE
  5
4A
330
1F
100
AcDbEntity
  8
0
  6
Continuous
 62
     7
370
    15
100
AcDbLine
 10
25.3163197581
 20
537.3643899087
 30
0.0
 11
24.2888176386
 21
556.9702947263
 31
0.0
  0
LINE
  5
4B
330
1F
100
AcDbEntity
  8
0
  6
Continuous
 62
     7
370
    15
100
AcDbLine
 10
-60.7111832555
 20
556.9702947263
 30
0.0
 11
-61.7386853751
 21
537.3643899087
 31
0.0
  0
LINE
  5
4C
330
1F
100
AcDbEntity
  8
0
  6
Continuous
 62
     7
370
    15
100
AcDbLine
 10
2.8929573987
 20
511.5323478107
 30
0.0
 11
2.8929573987
 21
511.4538410429
 31
0.0
  0
LINE
  5
4D
330
1F
100
AcDbEntity
  8
0
  6
Continuous
 62
     7
370
    15
100
AcDbLine
 10
-0.69213905
 20
511.4538410429
 30
0.0
 11
-0.69213905
 21
511.5323478107
 31
0.0
  0
LINE
  5
4E
330
1F
100
AcDbEntity
  8
0
  6
Continuous
 62
     7
370
    15
100
AcDbLine
 10
-52.2111846562
 20
621.9702923421
 30
0.0
 11
-57.4270790871
 21
621.9702923421
 31
0.0
  0
LINE
  5
4F
330
1F
100
AcDbEntity
  8
0
  6
Continuous
 62
     7
370
    15
100
AcDbLine
 10
21.0047134701
 20
621.9702923421
 30
0.0
 11
15.7888190393
 21
621.9702923421
 31
0.0
  0
LINE
  5
50
330
1F
100
AcDbEntity
  8
0
  6
Continuous
 62
     7
370
    15
100
AcDbLine
 10
5.2673549895
 20
495.4869711523
 30
0.0
 11
5.2673549895
 21
495.56547792
 31
0.0
  0
LINE
  5
51
330
1F
100
AcDbEntity
  8
0
  6
Continuous
 62
     7
370
    15
100
AcDbLine
 10
-41.3599970247
 20
495.56547792
 30
0.0
 11
-41.3599970247
 21
495.4869711523
 31
0.0
  0
LINE
  5
52
330
1F
100
AcDbEntity
  8
0
  6
Continuous
 62
     7
370
    15
100
AcDbLine
 10
-20.9515224173
 20
495.4869711523
 30
0.0
 11
-20.9515224173
 21
495.56547792
 31
0.0
  0
LINE
  5
53
330
1F
100
AcDbEntity
  8
0
  6
Continuous
 62
     7
370
    15
100
AcDbLine
 10
-12.4708429407
 20
495.56547792
 30
0.0
 11
-12.4708429407
 21
495.4869711523
 31
0.0
  0
LINE
  5
54
330
1F
100
AcDbEntity
  8
0
  6
Continuous
 62
     7
370
    15
100
AcDbLine
 10
-74.711181825
 20
536.9702839975
 30
0.0
 11
-74.711181825
 21
529.9702847127
 31
0.0
  0
LINE
  5
55
330
1F
100
AcDbEntity
  8
0
  6
Continuous
 62
     7
370
    15
100
AcDbLine
 10
38.288816208
 20
529.9702847127
 30
0.0
 11
38.288816208
 21
536.9702839975
 31
0.0
  0
LINE
  5
56
330
1F
100
AcDbEntity
  8
0
  6
Continuous
 62
     7
370
    15
100
AcDbLine
 10
-61.6385346707
 20
539.2753446226
 30
0.0
 11
-74.711181825
 21
536.9702839975
 31
0.0
  0
LINE
  5
57
330
1F
100
AcDbEntity
  8
0
  6
Continuous
 62
     7
370
    15
100
AcDbLine
 10
38.288816208
 20
536.9702839975
 30
0.0
 11
25.2161690537
 21
539.2753446226
 31
0.0
  0
LINE
  5
58
330
1F
100
AcDbEntity
  8
0
  6
Continuous
 62
     7
370
    15
100
AcDbLine
 10
36.9241455142
 20
522.4003309135
 30
0.0
 11
37.3208703045
 21
529.9702847127
 31
0.0
  0
LINE
  5
59
330
1F
100
AcDbEntity
  8
0
  6
Continuous
 62
     7
370
    15
100
AcDbLine
 10
-73.7432359215
 20
529.9702847127
 30
0.0
 11
-73.3465111311
 21
522.4003309135
 31
0.0
  0
LINE
  5
5A
330
1F
100
AcDbEntity
  8
0
  6
Continuous
 62
     7
370
    15
100
AcDbLine
 10
-73.3465111311
 20
522.4003309135
 30
0.0
 11
-59.3544623311
 21
519.9331605558
 31
0.0
  0
LINE
  5
5B
330
1F
100
AcDbEntity
  8
0
  6
Continuous
 62
     7
370
    15
100
AcDbLine
 10
22.9320967142
 20
519.9331605558
 30
0.0
 11
36.9241455142
 21
522.4003309135
 31
0.0
  0
LINE
  5
5C
330
1F
100
AcDbEntity
  8
0
  6
Continuous
 62
     7
370
    15
100
AcDbLine
 10
78.7888200525
 20
298.4702924017
 30
0.0
 11
81.7888186816
 21
301.4702910308
 31
0.0
  0
LINE
  5
5D
330
1F
100
AcDbEntity
  8
0
  6
Continuous
 62
     7
370
    15
100
AcDbLine
 10
81.7888186816
 20
484.4702893619
 30
0.0
 11
78.7888200525
 21
487.470287991
 31
0.0
  0
LINE
  5
5E
330
1F
100
AcDbEntity
  8
0
  6
Continuous
 62
     7
370
    15
100
AcDbLine
 10
-115.2111856695
 20
487.470287991
 30
0.0
 11
-118.2111842986
 21
484.4702893619
 31
0.0
  0
LINE
  5
5F
330
1F
100
AcDbEntity
  8
0
  6
Continuous
 62
     7
370
    15
100
AcDbLine
 10
-118.2111842986
 20
301.4702910308
 30
0.0
 11
-115.2111856695
 21
298.4702924017
 31
0.0
  0
LINE
  5
60
330
1F
100
AcDbEntity
  8
0
  6
Continuous
 62
     7
370
    15
100
AcDbLine
 10
-58.5706985052
 20
558.0826962118
 30
0.0
 11
-58.7157128807
 21
556.9702947263
 31
0.0
  0
LINE
  5
61
330
1F
100
AcDbEntity
  8
0
  6
Continuous
 62
     7
370
    15
100
AcDbLine
 10
22.2933472637
 20
556.9702947263
 30
0.0
 11
22.1482993607
 21
558.0829495315
 31
0.0
  0
LINE
  5
62
330
1F
100
AcDbEntity
  8
0
  6
Continuous
 62
     7
370
    15
100
AcDbLine
 10
-59.211183941
 20
517.2605404381
 30
0.0
 11
-59.211183941
 21
498.0698937301
 31
0.0
  0
LINE
  5
63
330
1F
100
AcDbEntity
  8
0
  6
Continuous
 62
     7
370
    15
100
AcDbLine
 10
22.788818324
 20
498.0698937301
 30
0.0
 11
22.788818324
 21
517.2605404381
 31
0.0
  0
LINE
  5
64
330
1F
100
AcDbEntity
  8
0
  6
Continuous
 62
     7
370
    15
100
AcDbLine
 10
-57.4555552061
 20
621.9702923421
 30
0.0
 11
-58.5707171317
 21
558.0825472002
 31
0.0
  0
LINE
  5
65
330
1F
100
AcDbEntity
  8
0
  6
Continuous
 62
     7
370
    15
100
AcDbLine
 10
22.1483515147
 20
558.0825472002
 30
0.0
 11
21.0331895892
 21
621.9702923421
 31
0.0
  0
ARC
  5
66
330
1F
100
AcDbEntity
  8
0
  6
Continuous
 62
     7
370
    15
100
AcDbCircle
 10
56.7888171915
 20
472.9702901964
 30
0.0
 40
6.0
100
AcDbArc
 50
281.0
 51
0.0
  0
ARC
  5
67
330
1F
100
AcDbEntity
  8
0
  6
Continuous
 62
     7
370
    15
100
AcDbCircle
 10
56.7888171915
 20
312.9702901964
 30
0.0
 40
6.0
100
AcDbArc
 50
0.0
 51
79.0
  0
ARC
  5
68
330
1F
100
AcDbEntity
  8
0
  6
Continuous
 62
     7
370
    15
100
AcDbCircle
 10
-93.2111828085
 20
312.9702901964
 30
0.0
 40
6.0
100
AcDbArc
 50
101.0
 51
180.0
  0
ARC
  5
69
330
1F
100
AcDbEntity
  8
0
  6
Continuous
 62
     7
370
    15
100
AcDbCircle
 10
-93.2111828085
 20
472.9702901964
 30
0.0
 40
6.0
100
AcDbArc
 50
180.0
 51
259.0
  0
LINE
  5
6A
330
1F
100
AcDbEntity
  8
0
  6
Continuous
 62
     7
370
    15
100
AcDbLine
 10
-94.3560345526
 20
318.8600504522
 30
0.0
 11
-65.4938711282
 21
324.4702929382
 31
0.0
  0
LINE
  5
6B
330
1F
100
AcDbEntity
  8
0
  6
Continuous
 62
     7
370
    15
100
AcDbLine
 10
-65.4938711282
 20
461.4702874546
 30
0.0
 11
-94.3560345526
 21
467.0805299406
 31
0.0
  0
LINE
  5
6C
330
1F
100
AcDbEntity
  8
0
  6
Continuous
 62
     7
370
    15
100
AcDbLine
 10
57.9336689357
 20
467.0805299406
 30
0.0
 11
29.0715055112
 21
461.4702874546
 31
0.0
  0
LINE
  5
6D
330
1F
100
AcDbEntity
  8
0
  6
Continuous
 62
     7
370
    15
100
AcDbLine
 10
29.0715055112
 20
324.4702929382
 30
0.0
 11
57.9336689357
 21
318.8600504522
 31
0.0
  0
LINE
  5
6E
330
1F
100
AcDbEntity
  8
0
  6
Continuous
 62
     7
370
    15
100
AcDbLine
 10
-54.0674446579
 20
461.4702874546
 30
0.0
 11
-65.4938711282
 21
461.4702874546
 31
0.0
  0
LINE
  5
6F
330
1F
100
AcDbEntity
  8
0
  6
Continuous
 62
     7
370
    15
100
AcDbLine
 10
29.0715055112
 20
461.4702874546
 30
0.0
 11
17.6450790409
 21
461.4702874546
 31
0.0
  0
LINE
  5
70
330
1F
100
AcDbEntity
  8
0
  6
Continuous
 62
     7
370
    15
100
AcDbLine
 10
-65.4938711282
 20
324.4702929382
 30
0.0
 11
29.0715055112
 21
324.4702929382
 31
0.0
  0
LINE
  5
71
330
1F
100
AcDbEntity
  8
0
  6
Continuous
 62
     7
370
    15
100
AcDbLine
 10
-85.9476445671
 20
743.4702777986
 30
0.0
 11
-85.9476445671
 21
721.470292819
 31
0.0
  0
LINE
  5
72
330
1F
100
AcDbEntity
  8
0
  6
Continuous
 62
     7
370
    15
100
AcDbLine
 10
-85.9476445671
 20
965.4702806596
 30
0.0
 11
-85.9476445671
 21
943.4702658777
 31
0.0
  0
LINE
  5
73
330
1F
100
AcDbEntity
  8
0
  6
Continuous
 62
     7
370
    15
100
AcDbLine
 10
49.0523533467
 20
943.4702658777
 30
0.0
 11
49.0523533467
 21
965.4702806596
 31
0.0
  0
LINE
  5
74
330
1F
100
AcDbEntity
  8
0
  6
Continuous
 62
     7
370
    15
100
AcDbLine
 10
49.0523533467
 20
721.470292819
 30
0.0
 11
49.0523533467
 21
743.4702777986
 31
0.0
  0
LINE
  5
75
330
1F
100
AcDbEntity
  8
0
  6
Continuous
 62
     7
370
    15
100
AcDbLine
 10
-80.7111828085
 20
689.9702811365
 30
0.0
 11
-80.7111828085
 21
678.9703035478
 31
0.0
  0
LINE
  5
76
330
1F
100
AcDbEntity
  8
0
  6
Continuous
 62
     7
370
    15
100
AcDbLine
 10
44.2888171915
 20
678.9703035478
 30
0.0
 11
44.2888171915
 21
689.9702811365
 31
0.0
  0
LINE
  5
77
330
1F
100
AcDbEntity
  8
0
  6
Continuous
 62
     7
370
    15
100
AcDbLine
 10
44.2888171915
 20
689.9702811365
 30
0.0
 11
44.2888171915
 21
721.470292819
 31
0.0
  0
LINE
  5
78
330
1F
100
AcDbEntity
  8
0
  6
Continuous
 62
     7
370
    15
100
AcDbLine
 10
-80.7111828085
 20
721.470292819
 30
0.0
 11
-80.7111828085
 21
689.9702811365
 31
0.0
  0
LINE
  5
79
330
1F
100
AcDbEntity
  8
0
  6
Continuous
 62
     7
370
    15
100
AcDbLine
 10
15.7888190393
 20
650.9702766065
 30
0.0
 11
15.7888190393
 21
660.9702968721
 31
0.0
  0
LINE
  5
7A
330
1F
100
AcDbEntity
  8
0
  6
Continuous
 62
     7
370
    15
100
AcDbLine
 10
-52.2111846562
 20
660.9702968721
 30
0.0
 11
-52.2111846562
 21
650.9702766065
 31
0.0
  0
LINE
  5
7B
330
1F
100
AcDbEntity
  8
0
  6
Continuous
 62
     7
370
    15
100
AcDbLine
 10
-52.2111846562
 20
650.9702766065
 30
0.0
 11
-52.2111846562
 21
621.9702923421
 31
0.0
  0
LINE
  5
7C
330
1F
100
AcDbEntity
  8
0
  6
Continuous
 62
     7
370
    15
100
AcDbLine
 10
15.7888190393
 20
621.9702923421
 30
0.0
 11
15.7888190393
 21
650.9702766065
 31
0.0
  0
LINE
  5
7D
330
1F
100
AcDbEntity
  8
0
  6
Continuous
 62
     7
370
    15
100
AcDbLine
 10
15.7888190393
 20
660.9702968721
 30
0.0
 11
7.788817728
 21
668.9702832822
 31
0.0
  0
LINE
  5
7E
330
1F
100
AcDbEntity
  8
0
  6
Continuous
 62
     7
370
    15
100
AcDbLine
 10
-44.2111833449
 20
668.9702832822
 30
0.0
 11
-52.2111846562
 21
660.9702968721
 31
0.0
  0
LINE
  5
7F
330
1F
100
AcDbEntity
  8
0
  6
Continuous
 62
     7
370
    15
100
AcDbLine
 10
7.788817728
 20
668.9702832822
 30
0.0
 11
7.788817728
 21
678.9703035478
 31
0.0
  0
LINE
  5
80
330
1F
100
AcDbEntity
  8
0
  6
Continuous
 62
     7
370
    15
100
AcDbLine
 10
-44.2111833449
 20
678.9703035478
 30
0.0
 11
-44.2111833449
 21
668.9702832822
 31
0.0
  0
LINE
  5
81
330
1F
100
AcDbEntity
  8
0
  6
Continuous
 62
     7
370
    15
100
AcDbLine
 10
55.0523580555
 20
743.4702777986
 30
0.0
 11
55.0523580555
 21
943.4702658777
 31
0.0
  0
LINE
  5
82
330
1F
100
AcDbEntity
  8
0
  6
Continuous
 62
     7
370
    15
100
AcDbLine
 10
-91.9476418253
 20
943.4702658777
 30
0.0
 11
-91.9476418253
 21
743.4702777986
 31
0.0
  0
LINE
  5
83
330
1F
100
AcDbEntity
  8
0
  6
Continuous
 62
     7
370
    15
100
AcDbLine
 10
-115.2111856695
 20
517.9702901964
 30
0.0
 11
-115.2111856695
 21
267.9702901964
 31
0.0
  0
LINE
  5
84
330
1F
100
AcDbEntity
  8
0
  6
Continuous
 62
     7
370
    15
100
AcDbLine
 10
-99.2111830469
 20
517.9702901964
 30
0.0
 11
-99.2111830469
 21
280.5075982336
 31
0.0
  0
LINE
  5
85
330
1F
100
AcDbEntity
  8
0
  6
Continuous
 62
     7
370
    15
100
AcDbLine
 10
-109.2111809607
 20
280.5075982336
 30
0.0
 11
-99.2111830469
 21
280.5075982336
 31
0.0
  0
LINE
  5
86
330
1F
100
AcDbEntity
  8
0
  6
Continuous
 62
     7
370
    15
100
AcDbLine
 10
72.7888153438
 20
280.5075982336
 30
0.0
 11
62.7888174299
 21
280.5075982336
 31
0.0
  0
LINE
  5
87
330
1F
100
AcDbEntity
  8
0
  6
Continuous
 62
     7
370
    15
100
AcDbLine
 10
78.7888200525
 20
517.9702901964
 30
0.0
 11
78.7888200525
 21
267.9702901964
 31
0.0
  0
LINE
  5
88
330
1F
100
AcDbEntity
  8
0
  6
Continuous
 62
     7
370
    15
100
AcDbLine
 10
62.7888174299
 20
517.9702901964
 30
0.0
 11
62.7888174299
 21
280.5075982336
 31
0.0
  0
SPLINE
  5
89
330
1F
100
AcDbEntity
  8
0
  6
Continuous
 62
     7
370
    15
100
AcDbSpline
210
0.0
220
0.0
230
1.0
 70
     8
 71
     3
 72
    18
 73
    14
 74
     0
 42
0.00000001
 43
0.00000001
 12
1.0
 22
0.0
 32
0.0
 13
1.0
 23
0.0
 33
0.0
 40
0.0
 40
0.0
 40
0.0
 40
0.0
 40
0.2500000000000005
 40
0.2500000000000005
 40
0.3750000000000007
 40
0.3750000000000007
 40
0.5000000000000009
 40
0.5000000000000009
 40
0.75
 40
0.75
 40
0.8750000000000001
 40
0.8750000000000001
 40
1.0
 40
1.0
 40
1.0
 40
1.0
 10
14.7719695098232
 20
537.2880844324224
 30
0.0
 10
13.94656301832874
 20
537.277250567644
 30
0.0
 10
13.10879660911512
 20
537.2783147507687
 30
0.0
 10
11.8341067831291
 20
537.2972830995936
 30
0.0
 10
11.40618642118038
 20
537.3065191484193
 30
0.0
 10
10.54417562728499
 20
537.3309555083952
 30
0.0
 10
10.10835012123889
 20
537.3462485200981
 30
0.0
 10
8.815370247925975
 20
537.4003811995977
 30
0.0
 10
7.9665330277645
 20
537.4474892741509
 30
0.0
 10
6.712543518089559
 20
537.5345619045152
 30
0.0
 10
6.297776153490607
 20
537.5663374687463
 30
0.0
 10
5.474843304030162
 20
537.6355724673581
 30
0.0
 10
5.066465715901705
 20
537.6730757868168
 30
0.0
 10
4.666261323683959
 20
537.7130678405748
 30
0.0
  0
LINE
  5
8A
330
1F
100
AcDbEntity
  8
0
  6
Continuous
 62
     7
370
    15
100
AcDbLine
 10
-51.6094645913
 20
536.9702839975
 30
0.0
 11
15.1870989744
 21
536.9702839975
 31
0.0
  0
SPLINE
  5
8B
330
1F
100
AcDbEntity
  8
0
  6
Continuous
 62
     7
370
    15
100
AcDbSpline
210
0.0
220
0.0
230
1.0
 70
     8
 71
     3
 72
    18
 73
    14
 74
     0
 42
0.00000001
 43
0.00000001
 12
1.0
 22
0.0
 32
0.0
 13
1.0
 23
0.0
 33
0.0
 40
0.0
 40
0.0
 40
0.0
 40
0.0
 40
0.2500000000000002
 40
0.2500000000000002
 40
0.3749999999999998
 40
0.3749999999999998
 40
0.4999999999999993
 40
0.4999999999999993
 40
0.7499999999999992
 40
0.7499999999999992
 40
0.8749999999999997
 40
0.8749999999999997
 40
1.0
 40
1.0
 40
1.0
 40
1.0
 10
-51.19433512677328
 20
537.2880844324224
 30
0.0
 10
-50.36892863527881
 20
537.277250567644
 30
0.0
 10
-49.53116222606521
 20
537.2783147507687
 30
0.0
 10
-48.25647240007918
 20
537.2972830995938
 30
0.0
 10
-47.82855203813044
 20
537.3065191484193
 30
0.0
 10
-46.96654124423507
 20
537.3309555083952
 30
0.0
 10
-46.53071573818894
 20
537.346248520098
 30
0.0
 10
-45.23773586487604
 20
537.4003811995977
 30
0.0
 10
-44.38889864471456
 20
537.4474892741508
 30
0.0
 10
-43.13490913503962
 20
537.534561904515
 30
0.0
 10
-42.72014177044067
 20
537.5663374687463
 30
0.0
 10
-41.89720892098022
 20
537.635572467358
 30
0.0
 10
-41.48883133285177
 20
537.6730757868166
 30
0.0
 10
-41.08862694063402
 20
537.7130678405748
 30
0.0
  0
SPLINE
  5
8C
330
1F
100
AcDbEntity
  8
0
  6
Continuous
 62
     7
370
    15
100
AcDbSpline
210
0.0
220
0.0
230
1.0
 70
     8
 71
     3
 72
     8
 73
     4
 74
     0
 42
0.00000001
 43
0.00000001
 12
1.0
 22
0.0
 32
0.0
 13
1.0
 23
0.0
 33
0.0
 40
0.0
 40
0.0
 40
0.0
 40
0.0
 40
1.0
 40
1.0
 40
1.0
 40
1.0
 10
-41.08862694063401
 20
537.7130678405748
 30
0.0
 10
-38.69341539405097
 20
537.9524191090659
 30
0.0
 10
-36.29735397123768
 20
538.182642104781
 30
0.0
 10
-33.90036540117025
 20
538.4029068821841
 30
0.0
  0
SPLINE
  5
8D
330
1F
100
AcDbEntity
  8
0
  6
Continuous
 62
     7
370
    15
100
AcDbSpline
210
0.0
220
0.0
230
1.0
 70
     8
 71
     3
 72
     8
 73
     4
 74
     0
 42
0.00000001
 43
0.00000001
 12
1.0
 22
0.0
 32
0.0
 13
1.0
 23
0.0
 33
0.0
 40
0.0
 40
0.0
 40
0.0
 40
0.0
 40
1.0
 40
1.0
 40
1.0
 40
1.0
 10
-2.522000215779814
 20
538.4029068821841
 30
0.0
 10
-12.97815392585773
 20
538.6219265395267
 30
0.0
 10
-23.4428486287162
 20
538.6219550908911
 30
0.0
 10
-33.90036540117025
 20
538.4029068821841
 30
0.0
  0
SPLINE
  5
8E
330
1F
100
AcDbEntity
  8
0
  6
Continuous
 62
     7
370
    15
100
AcDbSpline
210
0.0
220
0.0
230
1.0
 70
     8
 71
     3
 72
     8
 73
     4
 74
     0
 42
0.00000001
 43
0.00000001
 12
1.0
 22
0.0
 32
0.0
 13
1.0
 23
0.0
 33
0.0
 40
0.0
 40
0.0
 40
0.0
 40
0.0
 40
1.0
 40
1.0
 40
1.0
 40
1.0
 10
4.666261323683953
 20
537.7130678405748
 30
0.0
 10
2.271049777100909
 20
537.9524191090659
 30
0.0
 10
-0.1250116457123807
 20
538.182642104781
 30
0.0
 10
-2.522000215779811
 20
538.4029068821841
 30
0.0
  0
LINE
  5
8F
330
1F
100
AcDbEntity
  8
0
  6
Continuous
 62
     7
370
    15
100
AcDbLine
 10
-51.6094645913
 20
529.9702847127
 30
0.0
 11
15.1870989744
 21
529.9702847127
 31
0.0
  0
LINE
  5
90
330
1F
100
AcDbEntity
  8
0
  6
Continuous
 62
     7
370
    15
100
AcDbLine
 10
13.5794313196
 20
522.4003309135
 30
0.0
 11
-50.0017969366
 21
522.4003309135
 31
0.0
  0
SPLINE
  5
91
330
1F
100
AcDbEntity
  8
0
  6
Continuous
 62
     7
370
    15
100
AcDbSpline
210
0.0
220
0.0
230
1.0
 70
     8
 71
     3
 72
     8
 73
     4
 74
     0
 42
0.00000001
 43
0.00000001
 12
1.0
 22
0.0
 32
0.0
 13
1.0
 23
0.0
 33
0.0
 40
0.0
 40
0.0
 40
0.0
 40
0.0
 40
1.0
 40
1.0
 40
1.0
 40
1.0
 10
10.28881719152519
 20
521.5039993785913
 30
0.0
 10
11.04119845556249
 20
521.5315438685466
 30
0.0
 10
11.7809528693779
 20
521.5458230083614
 30
0.0
 10
12.50849019216561
 20
521.5473357466069
 30
0.0
  0
SPLINE
  5
92
330
1F
100
AcDbEntity
  8
0
  6
Continuous
 62
     7
370
    15
100
AcDbSpline
210
0.0
220
0.0
230
1.0
 70
     8
 71
     3
 72
    10
 73
     6
 74
     0
 42
0.00000001
 43
0.00000001
 12
1.0
 22
0.0
 32
0.0
 13
1.0
 23
0.0
 33
0.0
 40
0.0
 40
0.0
 40
0.0
 40
0.0
 40
0.5
 40
0.5
 40
1.0
 40
1.0
 40
1.0
 40
1.0
 10
-46.71118280847482
 20
521.5039993785913
 30
0.0
 10
-37.21426199815367
 20
521.1563194822802
 30
0.0
 10
-27.71210824481938
 20
520.9765472489456
 30
0.0
 10
-8.707543674200753
 20
520.976581110664
 30
0.0
 10
0.7919429356440417
 20
521.1563211866265
 30
0.0
 10
10.2888171915252
 20
521.5039993785913
 30
0.0
  0
SPLINE
  5
93
330
1F
100
AcDbEntity
  8
0
  6
Continuous
 62
     7
370
    15
100
AcDbSpline
210
0.0
220
0.0
230
1.0
 70
     8
 71
     3
 72
     8
 73
     4
 74
     0
 42
0.00000001
 43
0.00000001
 12
1.0
 22
0.0
 32
0.0
 13
1.0
 23
0.0
 33
0.0
 40
0.0
 40
0.0
 40
0.0
 40
0.0
 40
1.0
 40
1.0
 40
1.0
 40
1.0
 10
-46.71118280847482
 20
521.5039993785913
 30
0.0
 10
-47.46356407251211
 20
521.5315438685466
 30
0.0
 10
-48.20331848632753
 20
521.5458230083614
 30
0.0
 10
-48.93085580911524
 20
521.5473357466069
 30
0.0
  0
LINE
  5
94
330
1F
100
AcDbEntity
  8
0
  6
Continuous
 62
     7
370
    15
100
AcDbLine
 10
-51.6094645913
 20
536.9702839975
 30
0.0
 11
-62.6934288498
 21
536.9702839975
 31
0.0
  0
SPLINE
  5
95
330
1F
100
AcDbEntity
  8
0
  6
Continuous
 62
     7
370
    15
100
AcDbSpline
210
0.0
220
0.0
230
1.0
 70
     8
 71
     3
 72
    24
 73
    20
 74
     0
 42
0.00000001
 43
0.00000001
 12
1.0
 22
0.0
 32
0.0
 13
1.0
 23
0.0
 33
0.0
 40
0.0
 40
0.0
 40
0.0
 40
0.0
 40
0.1250000000000005
 40
0.1250000000000005
 40
0.2500000000000011
 40
0.2500000000000011
 40
0.3750000000000016
 40
0.3750000000000016
 40
0.4375000000000007
 40
0.4375000000000007
 40
0.4999999999999998
 40
0.4999999999999998
 40
0.7499999999999991
 40
0.7499999999999991
 40
0.8124999999999993
 40
0.8124999999999993
 40
0.8749999999999994
 40
0.8749999999999994
 40
1.0
 40
1.0
 40
1.0
 40
1.0
 10
-60.97018522498491
 20
537.2837802751661
 30
0.0
 10
-60.78298621628988
 20
537.2914899772466
 30
0.0
 10
-60.56218024041998
 20
537.2984064933038
 30
0.0
 10
-60.05191833459455
 20
537.3105092797441
 30
0.0
 10
-59.76724690791006
 20
537.3155844843895
 30
0.0
 10
-59.14103315553191
 20
537.3238187360438
 30
0.0
 10
-58.79948396738393
 20
537.3269776125723
 30
0.0
 10
-58.24433074017674
 20
537.3302547415067
 30
0.0
 10
-58.05212323375505
 20
537.3311030765976
 30
0.0
 10
-57.65314038661383
 20
537.3323012753118
 30
0.0
 10
-57.44562896034225
 20
537.3326509152834
 30
0.0
 10
-56.38145839200509
 20
537.3331160428775
 30
0.0
 10
-55.44733217814071
 20
537.3294616328603
 30
0.0
 10
-54.17846948974666
 20
537.3200418081896
 30
0.0
 10
-53.91957022059584
 20
537.3179126234463
 30
0.0
 10
-53.39130381639379
 20
537.3131576421263
 30
0.0
 10
-53.1216271064922
 20
537.3105270723911
 30
0.0
 10
-52.30798918197998
 20
537.3020047677893
 30
0.0
 10
-51.75586662497675
 20
537.2954548085739
 30
0.0
 10
-51.19433512677324
 20
537.2880844324224
 30
0.0
  0
LINE
  5
96
330
1F
100
AcDbEntity
  8
0
  6
Continuous
 62
     7
370
    15
100
AcDbLine
 10
15.1870989744
 20
536.9702839975
 30
0.0
 11
26.2710632328
 21
536.9702839975
 31
0.0
  0
SPLINE
  5
97
330
1F
100
AcDbEntity
  8
0
  6
Continuous
 62
     7
370
    15
100
AcDbSpline
210
0.0
220
0.0
230
1.0
 70
     8
 71
     3
 72
    24
 73
    20
 74
     0
 42
0.00000001
 43
0.00000001
 12
1.0
 22
0.0
 32
0.0
 13
1.0
 23
0.0
 33
0.0
 40
0.0
 40
0.0
 40
0.0
 40
0.0
 40
0.1249999999999998
 40
0.1249999999999998
 40
0.2499999999999997
 40
0.2499999999999997
 40
0.3749999999999995
 40
0.3749999999999995
 40
0.4374999999999983
 40
0.4374999999999983
 40
0.499999999999997
 40
0.499999999999997
 40
0.7499999999999992
 40
0.7499999999999992
 40
0.8125
 40
0.8125
 40
0.8750000000000008
 40
0.8750000000000008
 40
1.0
 40
1.0
 40
1.0
 40
1.0
 10
24.54781960803484
 20
537.2837802751661
 30
0.0
 10
24.36062059933981
 20
537.2914899772466
 30
0.0
 10
24.13981462346992
 20
537.2984064933038
 30
0.0
 10
23.62955271764446
 20
537.3105092797441
 30
0.0
 10
23.34488129096
 20
537.3155844843895
 30
0.0
 10
22.71866753858188
 20
537.3238187360438
 30
0.0
 10
22.37711835043385
 20
537.3269776125724
 30
0.0
 10
21.82196512322666
 20
537.3302547415067
 30
0.0
 10
21.62975761680498
 20
537.3311030765976
 30
0.0
 10
21.23077476966376
 20
537.3323012753118
 30
0.0
 10
21.02326334339218
 20
537.3326509152834
 30
0.0
 10
19.95909277505501
 20
537.3331160428776
 30
0.0
 10
19.02496656119064
 20
537.3294616328603
 30
0.0
 10
17.7561038727966
 20
537.3200418081896
 30
0.0
 10
17.49720460364579
 20
537.3179126234464
 30
0.0
 10
16.96893819944371
 20
537.3131576421263
 30
0.0
 10
16.69926148954213
 20
537.3105270723911
 30
0.0
 10
15.88562356502991
 20
537.3020047677893
 30
0.0
 10
15.33350100802668
 20
537.2954548085739
 30
0.0
 10
14.77196950982317
 20
537.2880844324224
 30
0.0
  0
LINE
  5
98
330
1F
100
AcDbEntity
  8
0
  6
Continuous
 62
     7
370
    15
100
AcDbLine
 10
15.1870989744
 20
529.9702847127
 30
0.0
 11
26.2710632328
 21
529.9702847127
 31
0.0
  0
LINE
  5
99
330
1F
100
AcDbEntity
  8
0
  6
Continuous
 62
     7
370
    15
100
AcDbLine
 10
-51.6094645913
 20
529.9702847127
 30
0.0
 11
-62.6934288498
 21
529.9702847127
 31
0.0
  0
LINE
  5
9A
330
1F
100
AcDbEntity
  8
0
  6
Continuous
 62
     7
370
    15
100
AcDbLine
 10
24.2888176386
 20
556.9702947263
 30
0.0
 11
5.0443255846
 21
556.9702947263
 31
0.0
  0
SPLINE
  5
9B
330
1F
100
AcDbEntity
  8
0
  6
Continuous
 62
     7
370
    15
100
AcDbSpline
210
0.0
220
0.0
230
1.0
 70
     8
 71
     3
 72
     9
 73
     5
 74
     0
 42
0.00000001
 43
0.00000001
 12
1.0
 22
0.0
 32
0.0
 13
1.0
 23
0.0
 33
0.0
 40
0.0
 40
0.0
 40
0.0
 40
0.0
 40
0.1900800841223187
 40
1.0
 40
1.0
 40
1.0
 40
1.0
 10
25.26645302216598
 20
537.3617822055294
 30
0.0
 10
25.2807896904117
 20
537.3467780359035
 30
0.0
 10
25.35621404805504
 20
537.2678419932608
 30
0.0
 10
24.90956688184468
 20
537.2766449426505
 30
0.0
 10
24.54781844656059
 20
537.2837746266796
 30
0.0
  0
SPLINE
  5
9C
330
1F
100
AcDbEntity
  8
0
  6
Continuous
 62
     7
370
    15
100
AcDbSpline
210
0.0
220
0.0
230
1.0
 70
     8
 71
     3
 72
     9
 73
     5
 74
     0
 42
0.00000001
 43
0.00000001
 12
1.0
 22
0.0
 32
0.0
 13
1.0
 23
0.0
 33
0.0
 40
0.0
 40
0.0
 40
0.0
 40
0.0
 40
0.1900800841223187
 40
1.0
 40
1.0
 40
1.0
 40
1.0
 10
-61.68881863911561
 20
537.3617822055294
 30
0.0
 10
-61.70315530736133
 20
537.3467780359035
 30
0.0
 10
-61.77857966500467
 20
537.2678419932608
 30
0.0
 10
-61.33193249879431
 20
537.2766449426505
 30
0.0
 10
-60.97018406351022
 20
537.2837746266796
 30
0.0
  0
LINE
  5
9D
330
1F
100
AcDbEntity
  8
0
  6
Continuous
 62
     7
370
    15
100
AcDbLine
 10
-60.7111832555
 20
556.9702947263
 30
0.0
 11
-41.4666912015
 21
556.9702947263
 31
0.0
  0
LINE
  5
9E
330
1F
100
AcDbEntity
  8
0
  6
Continuous
 62
     7
370
    15
100
AcDbLine
 10
25.2614015285
 20
522.4003309135
 30
0.0
 11
13.5794313196
 21
522.4003309135
 31
0.0
  0
LINE
  5
9F
330
1F
100
AcDbEntity
  8
0
  6
Continuous
 62
     7
370
    15
100
AcDbLine
 10
-61.6837671455
 20
522.4003309135
 30
0.0
 11
-50.0017969366
 21
522.4003309135
 31
0.0
  0
SPLINE
  5
A0
330
1F
100
AcDbEntity
  8
0
  6
Continuous
 62
     7
370
    15
100
AcDbSpline
210
0.0
220
0.0
230
1.0
 70
     8
 71
     3
 72
    24
 73
    20
 74
     0
 42
0.00000001
 43
0.00000001
 12
1.0
 22
0.0
 32
0.0
 13
1.0
 23
0.0
 33
0.0
 40
0.0
 40
0.0
 40
0.0
 40
0.0
 40
0.1249999999999997
 40
0.1249999999999997
 40
0.2499999999999994
 40
0.2499999999999994
 40
0.3749999999999992
 40
0.3749999999999992
 40
0.4374999999999997
 40
0.4374999999999997
 40
0.5000000000000002
 40
0.5000000000000002
 40
0.6250000000000001
 40
0.6250000000000001
 40
0.6875000000000007
 40
0.6875000000000007
 40
0.7500000000000012
 40
0.7500000000000012
 40
1.0
 40
1.0
 40
1.0
 40
1.0
 10
12.50849019216562
 20
521.5473357466069
 30
0.0
 10
12.9909682802161
 20
521.5483389433276
 30
0.0
 10
13.46974582075307
 20
521.5492302810254
 30
0.0
 10
14.40603634997862
 20
521.5507575935582
 30
0.0
 10
14.85693145444141
 20
521.5513838008799
 30
0.0
 10
15.72541021013194
 20
521.5523715637737
 30
0.0
 10
16.14299209192119
 20
521.552733102876
 30
0.0
 10
16.74376037492296
 20
521.5530723392073
 30
0.0
 10
16.94041832010674
 20
521.5531514566096
 30
0.0
 10
17.31960316174184
 20
521.5532387348637
 30
0.0
 10
17.50256684685726
 20
521.5532473926179
 30
0.0
 10
18.03200246266959
 20
521.5531706993822
 30
0.0
 10
18.35911248567591
 20
521.5529831865018
 30
0.0
 10
18.81097220061495
 20
521.5524969745334
 30
0.0
 10
18.9551011932244
 20
521.5523006207878
 30
0.0
 10
19.23007767216108
 20
521.5518376998574
 30
0.0
 10
19.3609468271503
 20
521.5515705759876
 30
0.0
 10
19.97160674845706
 20
521.5500798983488
 30
0.0
 10
20.33195033456234
 20
521.5483875569366
 30
0.0
 10
20.56226844797186
 20
521.5461841428896
 30
0.0
  0
SPLINE
  5
A1
330
1F
100
AcDbEntity
  8
0
  6
Continuous
 62
     7
370
    15
100
AcDbSpline
210
0.0
220
0.0
230
1.0
 70
     8
 71
     3
 72
    24
 73
    20
 74
     0
 42
0.00000001
 43
0.00000001
 12
1.0
 22
0.0
 32
0.0
 13
1.0
 23
0.0
 33
0.0
 40
0.0
 40
0.0
 40
0.0
 40
0.0
 40
0.1249999999999997
 40
0.1249999999999997
 40
0.2499999999999994
 40
0.2499999999999994
 40
0.3749999999999992
 40
0.3749999999999992
 40
0.4374999999999997
 40
0.4374999999999997
 40
0.5000000000000002
 40
0.5000000000000002
 40
0.6250000000000001
 40
0.6250000000000001
 40
0.6875000000000007
 40
0.6875000000000007
 40
0.7500000000000012
 40
0.7500000000000012
 40
1.0
 40
1.0
 40
1.0
 40
1.0
 10
-48.93085580911524
 20
521.5473357466069
 30
0.0
 10
-49.41333389716574
 20
521.5483389433276
 30
0.0
 10
-49.8921114377027
 20
521.5492302810254
 30
0.0
 10
-50.82840196692825
 20
521.5507575935582
 30
0.0
 10
-51.27929707139104
 20
521.5513838008799
 30
0.0
 10
-52.14777582708157
 20
521.5523715637737
 30
0.0
 10
-52.56535770887082
 20
521.552733102876
 30
0.0
 10
-53.16612599187259
 20
521.5530723392073
 30
0.0
 10
-53.36278393705636
 20
521.5531514566096
 30
0.0
 10
-53.74196877869147
 20
521.5532387348637
 30
0.0
 10
-53.92493246380688
 20
521.5532473926179
 30
0.0
 10
-54.45436807961921
 20
521.5531706993822
 30
0.0
 10
-54.78147810262554
 20
521.5529831865018
 30
0.0
 10
-55.23333781756458
 20
521.5524969745334
 30
0.0
 10
-55.37746681017403
 20
521.5523006207878
 30
0.0
 10
-55.65244328911071
 20
521.5518376998574
 30
0.0
 10
-55.78331244409993
 20
521.5515705759876
 30
0.0
 10
-56.39397236540669
 20
521.5500798983488
 30
0.0
 10
-56.75431595151197
 20
521.5483875569366
 30
0.0
 10
-56.98463406492149
 20
521.5461841428896
 30
0.0
  0
ELLIPSE
  5
A2
330
1F
100
AcDbEntity
  8
0
  6
Continuous
 62
     7
370
    15
100
AcDbEllipse
 10
-257.7727597336
 20
517.9702901964
 30
0.0
 11
257.8044924871889
 21
7.004091776003406
 31
0.0
210
0.0
220
0.0
230
1.0
 40
0.4024905794
 41
0.1303558128253946
 42
0.3169987238662129
  0
LINE
  5
A3
330
1F
100
AcDbEntity
  8
0
  6
Continuous
 62
     7
370
    15
100
AcDbLine
 10
5.0443255846
 20
556.9702947263
 30
0.0
 11
-13.692066675
 21
556.9702947263
 31
0.0
  0
ELLIPSE
  5
A4
330
1F
100
AcDbEntity
  8
0
  6
Continuous
 62
     7
370
    15
100
AcDbEllipse
 10
221.3503941166
 20
517.9702901964
 30
0.0
 11
257.8044924871889
 21
-7.004091776003406
 31
0.0
210
0.0
220
0.0
230
1.0
 40
0.4024905794
 41
2.82459392972358
 42
3.011236840764398
  0
LINE
  5
A5
330
1F
100
AcDbEntity
  8
0
  6
Continuous
 62
     7
370
    15
100
AcDbLine
 10
-41.4666912015
 20
556.9702947263
 30
0.0
 11
-22.7302989419
 21
556.9702947263
 31
0.0
  0
ARC
  5
A6
330
1F
100
AcDbEntity
  8
0
  6
Continuous
 62
     7
370
    15
100
AcDbCircle
 10
-9.9989319883
 20
518.01576475
 30
0.0
 40
0.2399572149744569
100
AcDbArc
 50
89.9733536828
 51
157.4545291911
  0
ARC
  5
A7
330
1F
100
AcDbEntity
  8
0
  6
Continuous
 62
     7
370
    15
100
AcDbCircle
 10
-9.9988833608
 20
518.0942060929
 30
0.0
 40
0.2400300726924077
100
AcDbArc
 50
89.9849692727
 51
157.4429136011
  0
LINE
  5
A8
330
1F
100
AcDbEntity
  8
0
  6
Continuous
 62
     7
370
    15
100
AcDbLine
 10
-39.8231825288
 20
518.255721939
 30
0.0
 11
-23.4235456641
 21
518.255721939
 31
0.0
  0
ARC
  5
A9
330
1F
100
AcDbEntity
  8
0
  6
Continuous
 62
     7
370
    15
100
AcDbCircle
 10
-23.4234339527
 20
518.0157635281
 30
0.0
 40
0.2399584369481857
100
AcDbArc
 50
22.5456655858
 51
90.0266737614
  0
LINE
  5
AA
330
1F
100
AcDbEntity
  8
0
  6
Continuous
 62
     7
370
    15
100
AcDbLine
 10
-23.2018145229
 20
518.1077683095
 30
0.0
 11
-16.9329139366
 21
502.9940495018
 31
0.0
  0
ARC
  5
AB
330
1F
100
AcDbEntity
  8
0
  6
Continuous
 62
     7
370
    15
100
AcDbCircle
 10
-16.7111828536
 20
503.0861817086
 30
0.0
 40
0.2401104260194547
100
AcDbArc
 50
202.5635328479
 51
337.4364671521
  0
LINE
  5
AC
330
1F
100
AcDbEntity
  8
0
  6
Continuous
 62
     7
370
    15
100
AcDbLine
 10
-16.4894517706
 20
502.9940495018
 30
0.0
 11
-10.2205506023
 21
518.1077683095
 31
0.0
  0
LINE
  5
AD
330
1F
100
AcDbEntity
  8
0
  6
Continuous
 62
     7
370
    15
100
AcDbLine
 10
-9.9988203924
 20
518.255721939
 30
0.0
 11
7.6968179588
 21
518.255721939
 31
0.0
  0
ARC
  5
AE
330
1F
100
AcDbEntity
  8
0
  6
Continuous
 62
     7
370
    15
100
AcDbCircle
 10
7.6969859027
 20
518.0158899224
 30
0.0
 40
0.2398320754433116
100
AcDbArc
 50
0.0386396191
 51
90.0401217353
  0
LINE
  5
AF
330
1F
100
AcDbEntity
  8
0
  6
Continuous
 62
     7
370
    15
100
AcDbLine
 10
7.9368179236
 20
518.0160516624
 30
0.0
 11
7.9368179236
 21
513.7019792323
 31
0.0
  0
ARC
  5
B0
330
1F
100
AcDbEntity
  8
0
  6
Continuous
 62
     7
370
    15
100
AcDbCircle
 10
7.6969784233
 20
513.7021410062
 30
0.0
 40
0.2398395548231014
100
AcDbArc
 50
269.9616662762
 51
359.9613534822
  0
LINE
  5
B1
330
1F
100
AcDbEntity
  8
0
  6
Continuous
 62
     7
370
    15
100
AcDbLine
 10
7.6968179588
 20
513.462301505
 30
0.0
 11
-6.7915624436
 21
513.462301505
 31
0.0
  0
ARC
  5
B2
330
1F
100
AcDbEntity
  8
0
  6
Continuous
 62
     7
370
    15
100
AcDbCircle
 10
-6.7916523613
 20
513.2223057977
 30
0.0
 40
0.2399957241517038
100
AcDbArc
 50
89.9785333338
 51
157.4464630279
  0
LINE
  5
B3
330
1F
100
AcDbEntity
  8
0
  6
Continuous
 62
     7
370
    15
100
AcDbLine
 10
-7.0132935848
 20
513.3143553261
 30
0.0
 11
-14.4458125774
 21
495.3952545051
 31
0.0
  0
ARC
  5
B4
330
1F
100
AcDbEntity
  8
0
  6
Continuous
 62
     7
370
    15
100
AcDbCircle
 10
-14.6674563165
 20
495.4872957179
 30
0.0
 40
0.2399948581665808
100
AcDbArc
 50
269.9791894227
 51
337.4485267853
  0
LINE
  5
B5
330
1F
100
AcDbEntity
  8
0
  6
Continuous
 62
     7
370
    15
100
AcDbLine
 10
-14.6675434857
 20
495.2473008756
 30
0.0
 11
-18.7548220469
 21
495.2473008756
 31
0.0
  0
ARC
  5
B6
330
1F
100
AcDbEntity
  8
0
  6
Continuous
 62
     7
370
    15
100
AcDbCircle
 10
-18.7549090458
 20
495.4872962349
 30
0.0
 40
0.2399953750888228
100
AcDbArc
 50
202.5515556095
 51
270.0207698489
  0
LINE
  5
B7
330
1F
100
AcDbEntity
  8
0
  6
Continuous
 62
     7
370
    15
100
AcDbLine
 10
-18.9765531299
 20
495.3952545051
 30
0.0
 11
-26.4090724718
 21
513.3143553261
 31
0.0
  0
ARC
  5
B8
330
1F
100
AcDbEntity
  8
0
  6
Continuous
 62
     7
370
    15
100
AcDbCircle
 10
-26.6307120645
 20
513.2223082411
 30
0.0
 40
0.2399932810442164
100
AcDbArc
 50
22.5531475732
 51
90.0216338484
  0
LINE
  5
B9
330
1F
100
AcDbEntity
  8
0
  6
Continuous
 62
     7
370
    15
100
AcDbLine
 10
-26.6308026816
 20
513.462301505
 30
0.0
 11
-39.8231825288
 21
513.462301505
 31
0.0
  0
ARC
  5
BA
330
1F
100
AcDbEntity
  8
0
  6
Continuous
 62
     7
370
    15
100
AcDbCircle
 10
-39.8233437679
 20
513.7021402306
 30
0.0
 40
0.2398387798040588
100
AcDbArc
 50
180.038461372
 51
270.0385188697
  0
LINE
  5
BB
330
1F
100
AcDbEntity
  8
0
  6
Continuous
 62
     7
370
    15
100
AcDbLine
 10
-40.0631824936
 20
513.7019792323
 30
0.0
 11
-40.0631824936
 21
518.0160516624
 31
0.0
  0
ARC
  5
BC
330
1F
100
AcDbEntity
  8
0
  6
Continuous
 62
     7
370
    15
100
AcDbCircle
 10
-39.823351247
 20
518.0158906977
 30
0.0
 40
0.2398313006865048
100
AcDbArc
 50
89.95969317
 51
179.9615454756
  0
LINE
  5
BD
330
1F
100
AcDbEntity
  8
0
  6
Continuous
 62
     7
370
    15
100
AcDbLine
 10
-9.9988203924
 20
518.3342361574
 30
0.0
 11
7.6968179588
 21
518.3342361574
 31
0.0
  0
LINE
  5
BE
330
1F
100
AcDbEntity
  8
0
  6
Continuous
 62
     7
370
    15
100
AcDbLine
 10
7.9368179236
 20
518.0160516624
 30
0.0
 11
7.9368179236
 21
518.0945658807
 31
0.0
  0
ARC
  5
BF
330
1F
100
AcDbEntity
  8
0
  6
Continuous
 62
     7
370
    15
100
AcDbCircle
 10
7.6969709359
 20
518.0943891534
 30
0.0
 40
0.2398470527806376
100
AcDbArc
 50
0.042217456
 51
90.0365438984
  0
LINE
  5
C0
330
1F
100
AcDbEntity
  8
0
  6
Continuous
 62
     7
370
    15
100
AcDbLine
 10
-40.0631824936
 20
518.0160516624
 30
0.0
 11
-40.0631824936
 21
518.0945658807
 31
0.0
  0
ARC
  5
C1
330
1F
100
AcDbEntity
  8
0
  6
Continuous
 62
     7
370
    15
100
AcDbCircle
 10
-39.8233362807
 20
518.0943899292
 30
0.0
 40
0.2398462774390269
100
AcDbArc
 50
89.9632709018
 51
179.9579677438
  0
LINE
  5
C2
330
1F
100
AcDbEntity
  8
0
  6
Continuous
 62
     7
370
    15
100
AcDbLine
 10
-39.8231825288
 20
518.3342361574
 30
0.0
 11
-23.4235456641
 21
518.3342361574
 31
0.0
  0
ARC
  5
C3
330
1F
100
AcDbEntity
  8
0
  6
Continuous
 62
     7
370
    15
100
AcDbCircle
 10
-23.4234825801
 20
518.0942048708
 30
0.0
 40
0.2400312948770389
100
AcDbArc
 50
22.5572811135
 51
90.0150582337
  0
LINE
  5
C4
330
1F
100
AcDbEntity
  8
0
  6
Continuous
 62
     7
370
    15
100
AcDbLine
 10
-23.2018145229
 20
518.1862825279
 30
0.0
 11
-16.9329139366
 21
503.0725562696
 31
0.0
  0
LINE
  5
C5
330
1F
100
AcDbEntity
  8
0
  6
Continuous
 62
     7
370
    15
100
AcDbLine
 10
-16.4894517706
 20
503.0725562696
 30
0.0
 11
-10.2205506023
 21
518.1862825279
 31
0.0
  0
ARC
  5
C6
330
1F
100
AcDbEntity
  8
0
  6
Continuous
 62
     7
370
    15
100
AcDbCircle
 10
-27.8142030328
 20
511.4535156123
 30
0.0
 40
0.2399957241516678
100
AcDbArc
 50
22.5535369721
 51
90.0214666662
  0
ARC
  5
C7
330
1F
100
AcDbEntity
  8
0
  6
Continuous
 62
     7
370
    15
100
AcDbCircle
 10
-27.8142063636
 20
511.5320220234
 30
0.0
 40
0.2399960795188899
100
AcDbArc
 50
22.5516679082
 51
90.0206714389
  0
LINE
  5
C8
330
1F
100
AcDbEntity
  8
0
  6
Continuous
 62
     7
370
    15
100
AcDbLine
 10
-39.8231825288
 20
511.6935113196
 30
0.0
 11
-27.8142929505
 21
511.6935113196
 31
0.0
  0
LINE
  5
C9
330
1F
100
AcDbEntity
  8
0
  6
Continuous
 62
     7
370
    15
100
AcDbLine
 10
-27.5925618093
 20
511.5455651407
 30
0.0
 11
-20.9697914738
 21
495.5786877994
 31
0.0
  0
ARC
  5
CA
330
1F
100
AcDbEntity
  8
0
  6
Continuous
 62
     7
370
    15
100
AcDbCircle
 10
-21.1912784297
 20
495.4870111566
 30
0.0
 40
0.2397104053970263
100
AcDbArc
 50
269.9416346114
 51
22.4853684254
  0
LINE
  5
CB
330
1F
100
AcDbEntity
  8
0
  6
Continuous
 62
     7
370
    15
100
AcDbLine
 10
-21.191522615
 20
495.2473008756
 30
0.0
 11
-25.8674567062
 21
495.2473008756
 31
0.0
  0
ARC
  5
CC
330
1F
100
AcDbEntity
  8
0
  6
Continuous
 62
     7
370
    15
100
AcDbCircle
 10
-25.867543559
 20
495.4872972387
 30
0.0
 40
0.2399963787542505
100
AcDbArc
 50
202.5517155704
 51
270.0207348868
  0
LINE
  5
CD
330
1F
100
AcDbEntity
  8
0
  6
Continuous
 62
     7
370
    15
100
AcDbLine
 10
-26.0891883131
 20
495.3952545051
 30
0.0
 11
-27.3582093846
 21
498.4547460203
 31
0.0
  0
ARC
  5
CE
330
1F
100
AcDbEntity
  8
0
  6
Continuous
 62
     7
370
    15
100
AcDbCircle
 10
-27.5798591184
 20
498.3626958235
 30
0.0
 40
0.240003840033427
100
AcDbArc
 50
22.5529050802
 51
90.0194342669
  0
LINE
  5
CF
330
1F
100
AcDbEntity
  8
0
  6
Continuous
 62
     7
370
    15
100
AcDbLine
 10
-27.5799405258
 20
498.6026996498
 30
0.0
 11
-34.7315805461
 21
498.6026996498
 31
0.0
  0
ARC
  5
D0
330
1F
100
AcDbEntity
  8
0
  6
Continuous
 62
     7
370
    15
100
AcDbCircle
 10
-34.7316578955
 20
498.3626897421
 30
0.0
 40
0.2400099201270121
100
AcDbArc
 50
89.981534946
 51
157.4461257068
  0
LINE
  5
D1
330
1F
100
AcDbEntity
  8
0
  6
Continuous
 62
     7
370
    15
100
AcDbLine
 10
-34.9533116873
 20
498.4547460203
 30
0.0
 11
-36.2223318275
 21
495.3952545051
 31
0.0
  0
ARC
  5
D2
330
1F
100
AcDbEntity
  8
0
  6
Continuous
 62
     7
370
    15
100
AcDbCircle
 10
-36.4439747518
 20
495.4872944967
 30
0.0
 40
0.2399936373277162
100
AcDbArc
 50
269.9789392097
 51
337.4487214432
  0
LINE
  5
D3
330
1F
100
AcDbEntity
  8
0
  6
Continuous
 62
     7
370
    15
100
AcDbLine
 10
-36.4440629687
 20
495.2473008756
 30
0.0
 11
-41.1199970599
 21
495.2473008756
 31
0.0
  0
ARC
  5
D4
330
1F
100
AcDbEntity
  8
0
  6
Continuous
 62
     7
370
    15
100
AcDbCircle
 10
-41.1202417141
 20
495.4870108429
 30
0.0
 40
0.2397100921579877
100
AcDbArc
 50
157.5145194298
 51
270.0584775334
  0
LINE
  5
D5
330
1F
100
AcDbEntity
  8
0
  6
Continuous
 62
     7
370
    15
100
AcDbLine
 10
-41.3417282011
 20
495.5786877994
 30
0.0
 11
-36.7832692768
 21
506.5687039618
 31
0.0
  0
ARC
  5
D6
330
1F
100
AcDbEntity
  8
0
  6
Continuous
 62
     7
370
    15
100
AcDbCircle
 10
-37.0047476095
 20
506.6603863743
 30
0.0
 40
0.2397046445606289
100
AcDbArc
 50
337.5125689998
 51
90.0604279635
  0
LINE
  5
D7
330
1F
100
AcDbEntity
  8
0
  6
Continuous
 62
     7
370
    15
100
AcDbLine
 10
-37.005000418
 20
506.9000908856
 30
0.0
 11
-39.8231825288
 21
506.9000908856
 31
0.0
  0
ARC
  5
D8
330
1F
100
AcDbEntity
  8
0
  6
Continuous
 62
     7
370
    15
100
AcDbCircle
 10
-39.8233437645
 20
507.1399296197
 30
0.0
 40
0.2398387883123209
100
AcDbArc
 50
180.0402432948
 51
270.0385180596
  0
LINE
  5
D9
330
1F
100
AcDbEntity
  8
0
  6
Continuous
 62
     7
370
    15
100
AcDbLine
 10
-40.0631824936
 20
507.1397611622
 30
0.0
 11
-40.0631824936
 21
511.4538410429
 31
0.0
  0
ARC
  5
DA
330
1F
100
AcDbEntity
  8
0
  6
Continuous
 62
     7
370
    15
100
AcDbCircle
 10
-39.8233585831
 20
511.4536874245
 30
0.0
 40
0.2398239597077648
100
AcDbArc
 50
89.9579392704
 51
179.9632993752
  0
ARC
  5
DB
330
1F
100
AcDbEntity
  8
0
  6
Continuous
 62
     7
370
    15
100
AcDbCircle
 10
-32.693901335
 20
503.2763197059
 30
0.0
 40
0.2397051695953295
100
AcDbArc
 50
157.5127569887
 51
270.0602399745
  0
LINE
  5
DC
330
1F
100
AcDbEntity
  8
0
  6
Continuous
 62
     7
370
    15
100
AcDbLine
 10
-29.6178708281
 20
503.0366146688
 30
0.0
 11
-32.6936493125
 21
503.0366146688
 31
0.0
  0
ARC
  5
DD
330
1F
100
AcDbEntity
  8
0
  6
Continuous
 62
     7
370
    15
100
AcDbCircle
 10
-29.6176188055
 20
503.2763197059
 30
0.0
 40
0.2397051695953295
100
AcDbArc
 50
269.9397600255
 51
22.4872430113
  0
LINE
  5
DE
330
1F
100
AcDbEntity
  8
0
  6
Continuous
 62
     7
370
    15
100
AcDbLine
 10
-30.9340289291
 20
507.0757085208
 30
0.0
 11
-29.3961396869
 21
503.3680015926
 31
0.0
  0
ARC
  5
DF
330
1F
100
AcDbEntity
  8
0
  6
Continuous
 62
     7
370
    15
100
AcDbCircle
 10
-31.1557600703
 20
506.9835666954
 30
0.0
 40
0.2401141707271464
100
AcDbArc
 50
22.5656470482
 51
157.4343529518
  0
LINE
  5
E0
330
1F
100
AcDbEntity
  8
0
  6
Continuous
 62
     7
370
    15
100
AcDbLine
 10
-32.9153804537
 20
503.3680015926
 30
0.0
 11
-31.3774912115
 21
507.0757085208
 31
0.0
  0
LINE
  5
E1
330
1F
100
AcDbEntity
  8
0
  6
Continuous
 62
     7
370
    15
100
AcDbLine
 10
-39.8231825288
 20
511.7720180873
 30
0.0
 11
-27.8142929505
 21
511.7720180873
 31
0.0
  0
LINE
  5
E2
330
1F
100
AcDbEntity
  8
0
  6
Continuous
 62
     7
370
    15
100
AcDbLine
 10
-40.0631824936
 20
511.4538410429
 30
0.0
 11
-40.0631824936
 21
511.5323478107
 31
0.0
  0
ARC
  5
E3
330
1F
100
AcDbEntity
  8
0
  6
Continuous
 62
     7
370
    15
100
AcDbCircle
 10
-39.8233437645
 20
511.5321793532
 30
0.0
 40
0.2398387883123209
100
AcDbArc
 50
89.9614819404
 51
179.9597567052
  0
ARC
  5
E4
330
1F
100
AcDbEntity
  8
0
  6
Continuous
 62
     7
370
    15
100
AcDbCircle
 10
-2.3757228199
 20
511.2578301284
 30
0.0
 40
9.595255595880287
100
AcDbArc
 50
292.2198583706
 51
332.1296035481
  0
ARC
  5
E5
330
1F
100
AcDbEntity
  8
0
  6
Continuous
 62
     7
370
    15
100
AcDbCircle
 10
1.3433034609
 20
502.1533156344
 30
0.0
 40
0.2395469598700467
100
AcDbArc
 50
112.1891075693
 51
212.522505212
  0
LINE
  5
E6
330
1F
100
AcDbEntity
  8
0
  6
Continuous
 62
     7
370
    15
100
AcDbLine
 10
1.1413221751
 20
502.0245278005
 30
0.0
 11
5.229768673
 21
495.6157469873
 31
0.0
  0
ARC
  5
E7
330
1F
100
AcDbEntity
  8
0
  6
Continuous
 62
     7
370
    15
100
AcDbCircle
 10
5.0276323882
 20
495.486971661
 30
0.0
 40
0.2396709458628441
100
AcDbArc
 50
269.9336933963
 51
32.5000626325
  0
LINE
  5
E8
330
1F
100
AcDbEntity
  8
0
  6
Continuous
 62
     7
370
    15
100
AcDbLine
 10
5.0273550246
 20
495.2473008756
 30
0.0
 11
0.3514209334
 21
495.2473008756
 31
0.0
  0
ARC
  5
E9
330
1F
100
AcDbEntity
  8
0
  6
Continuous
 62
     7
370
    15
100
AcDbCircle
 10
0.3513717624
 20
495.4873893583
 30
0.0
 40
0.2400884876901371
100
AcDbArc
 50
212.5550778697
 51
270.0117343979
  0
LINE
  5
EA
330
1F
100
AcDbEntity
  8
0
  6
Continuous
 62
     7
370
    15
100
AcDbLine
 10
0.149007285
 20
495.3581953172
 30
0.0
 11
-4.1467423048
 21
502.0919332032
 31
0.0
  0
ARC
  5
EB
330
1F
100
AcDbEntity
  8
0
  6
Continuous
 62
     7
370
    15
100
AcDbCircle
 10
-4.3491437354
 20
501.9627188022
 30
0.0
 40
0.2401305906074766
100
AcDbArc
 50
32.5544279023
 51
157.4325218599
  0
LINE
  5
EC
330
1F
100
AcDbEntity
  8
0
  6
Continuous
 62
     7
370
    15
100
AcDbLine
 10
-4.5708870943
 20
502.0548740153
 30
0.0
 11
-7.3331777435
 21
495.3952545051
 31
0.0
  0
ARC
  5
ED
330
1F
100
AcDbEntity
  8
0
  6
Continuous
 62
     7
370
    15
100
AcDbCircle
 10
-7.5548222978
 20
495.4872969395
 30
0.0
 40
0.239996079518912
100
AcDbArc
 50
269.9793285611
 51
337.4483320917
  0
LINE
  5
EE
330
1F
100
AcDbEntity
  8
0
  6
Continuous
 62
     7
370
    15
100
AcDbLine
 10
-7.5549088847
 20
495.2473008756
 30
0.0
 11
-12.2308429759
 21
495.2473008756
 31
0.0
  0
ARC
  5
EF
330
1F
100
AcDbEntity
  8
0
  6
Continuous
 62
     7
370
    15
100
AcDbCircle
 10
-12.2310872371
 20
495.4870111058
 30
0.0
 40
0.2397103546874706
100
AcDbArc
 50
157.5146134198
 51
270.0583835435
  0
LINE
  5
F0
330
1F
100
AcDbEntity
  8
0
  6
Continuous
 62
     7
370
    15
100
AcDbLine
 10
-12.4525741171
 20
495.5786877994
 30
0.0
 11
-5.8298033159
 21
511.5455651407
 31
0.0
  0
ARC
  5
F1
330
1F
100
AcDbEntity
  8
0
  6
Continuous
 62
     7
370
    15
100
AcDbCircle
 10
-5.6081637223
 20
511.453518055
 30
0.0
 40
0.2399932820570848
100
AcDbArc
 50
89.978144005
 51
157.4468523567
  0
LINE
  5
F2
330
1F
100
AcDbEntity
  8
0
  6
Continuous
 62
     7
370
    15
100
AcDbLine
 10
-5.6080721747
 20
511.6935113196
 30
0.0
 11
-0.9321390148
 21
511.6935113196
 31
0.0
  0
ARC
  5
F3
330
1F
100
AcDbEntity
  8
0
  6
Continuous
 62
     7
370
    15
100
AcDbCircle
 10
-0.9318862063
 20
511.4538068083
 30
0.0
 40
0.239704644560629
100
AcDbArc
 50
337.5125689998
 51
90.0604279635
  0
LINE
  5
F4
330
1F
100
AcDbEntity
  8
0
  6
Continuous
 62
     7
370
    15
100
AcDbLine
 10
-0.7104078736
 20
511.3621243958
 30
0.0
 11
-2.8057923969
 21
506.310347629
 31
0.0
  0
ARC
  5
F5
330
1F
100
AcDbEntity
  8
0
  6
Continuous
 62
     7
370
    15
100
AcDbCircle
 10
-2.5843294731
 20
506.2186646553
 30
0.0
 40
0.2396906219453089
100
AcDbArc
 50
157.5110362399
 51
267.7769874369
  0
ARC
  5
F6
330
1F
100
AcDbEntity
  8
0
  6
Continuous
 62
     7
370
    15
100
AcDbCircle
 10
-2.379722707
 20
511.2512196597
 30
0.0
 40
5.276402835183697
100
AcDbArc
 50
267.6766055144
 51
2.1033833623
  0
ARC
  5
F7
330
1F
100
AcDbEntity
  8
0
  6
Continuous
 62
     7
370
    15
100
AcDbCircle
 10
3.1327833249
 20
511.4536911042
 30
0.0
 40
0.239820278534588
100
AcDbArc
 50
89.9584202071
 51
182.1060258871
  0
LINE
  5
F8
330
1F
100
AcDbEntity
  8
0
  6
Continuous
 62
     7
370
    15
100
AcDbLine
 10
3.1329573635
 20
511.6935113196
 30
0.0
 11
7.6968179588
 21
511.6935113196
 31
0.0
  0
ARC
  5
F9
330
1F
100
AcDbEntity
  8
0
  6
Continuous
 62
     7
370
    15
100
AcDbCircle
 10
7.6969932388
 20
511.4536866492
 30
0.0
 40
0.2398247344409015
100
AcDbArc
 50
0.0368857309
 51
90.0418756235
  0
LINE
  5
FA
330
1F
100
AcDbEntity
  8
0
  6
Continuous
 62
     7
370
    15
100
AcDbLine
 10
7.9368179236
 20
511.4538410429
 30
0.0
 11
7.9368179236
 21
507.1397611622
 31
0.0
  0
ARC
  5
FB
330
1F
100
AcDbEntity
  8
0
  6
Continuous
 62
     7
370
    15
100
AcDbCircle
 10
7.6969784199
 20
507.1399303953
 30
0.0
 40
0.2398395633614806
100
AcDbArc
 50
269.9616670876
 51
359.9595715579
  0
LINE
  5
FC
330
1F
100
AcDbEntity
  8
0
  6
Continuous
 62
     7
370
    15
100
AcDbLine
 10
7.6968179588
 20
506.9000908856
 30
0.0
 11
6.3187958245
 21
506.9000908856
 31
0.0
  0
ARC
  5
FD
330
1F
100
AcDbEntity
  8
0
  6
Continuous
 62
     7
370
    15
100
AcDbCircle
 10
6.3187175558
 20
506.6600673283
 30
0.0
 40
0.2400235700643593
100
AcDbArc
 50
89.9813165735
 51
152.1204004319
  0
ARC
  5
FE
330
1F
100
AcDbEntity
  8
0
  6
Continuous
 62
     7
370
    15
100
AcDbCircle
 10
3.1327871871
 20
511.5321883063
 30
0.0
 40
0.239829841424143
100
AcDbArc
 50
89.9593445372
 51
179.9618941083
  0
LINE
  5
FF
330
1F
100
AcDbEntity
  8
0
  6
Continuous
 62
     7
370
    15
100
AcDbLine
 10
-5.6080721747
 20
511.7720180873
 30
0.0
 11
-0.9321390148
 21
511.7720180873
 31
0.0
  0
LINE
  5
100
330
1F
100
AcDbEntity
  8
0
  6
Continuous
 62
     7
370
    15
100
AcDbLine
 10
7.9368179236
 20
511.4538410429
 30
0.0
 11
7.9368179236
 21
511.5323478107
 31
0.0
  0
ARC
  5
101
330
1F
100
AcDbEntity
  8
0
  6
Continuous
 62
     7
370
    15
100
AcDbCircle
 10
7.6969784199
 20
511.5321785777
 30
0.0
 40
0.2398395633614806
100
AcDbArc
 50
0.0404284421
 51
90.0383329124
  0
ARC
  5
102
330
1F
100
AcDbEntity
  8
0
  6
Continuous
 62
     7
370
    15
100
AcDbCircle
 10
-5.6081603916
 20
511.5320244662
 30
0.0
 40
0.2399936373276944
100
AcDbArc
 50
89.9789392097
 51
157.4487214432
  0
LINE
  5
103
330
1F
100
AcDbEntity
  8
0
  6
Continuous
 62
     7
370
    15
100
AcDbLine
 10
3.1329573635
 20
511.7720180873
 30
0.0
 11
7.6968179588
 21
511.7720180873
 31
0.0
  0
ARC
  5
104
330
1F
100
AcDbEntity
  8
0
  6
Continuous
 62
     7
370
    15
100
AcDbCircle
 10
-0.9319258586
 20
511.5322313452
 30
0.0
 40
0.2397868368769529
100
AcDbArc
 50
0.0278288066
 51
90.0509325479
  0
LINE
  5
105
330
1F
100
AcDbEntity
  8
0
  6
Continuous
 62
     7
370
    15
100
AcDbLine
 10
-12.4525741171
 20
495.6571945672
 30
0.0
 11
-5.8298033159
 21
511.6240644578
 31
0.0
  0
LINE
  5
106
330
1F
100
AcDbEntity
  8
0
  6
Continuous
 62
     7
370
    15
100
AcDbLine
 10
-27.5925618093
 20
511.6240644578
 30
0.0
 11
-20.9697914738
 21
495.6571945672
 31
0.0
  0
ARC
  5
107
330
1F
100
AcDbEntity
  8
0
  6
Continuous
 62
     7
370
    15
100
AcDbCircle
 10
-2.3798148415
 20
511.3299530243
 30
0.0
 40
5.276632956110817
100
AcDbArc
 50
267.6777081521
 51
359.959546755
  0
LINE
  5
108
330
1F
100
AcDbEntity
  8
0
  6
Continuous
 62
     7
370
    15
100
AcDbLine
 10
-36.7832692768
 20
506.6472107295
 30
0.0
 11
-36.7682414557
 21
506.6996702675
 31
0.0
  0
LINE
  5
109
330
1F
100
AcDbEntity
  8
0
  6
Continuous
 62
     7
370
    15
100
AcDbLine
 10
-41.3417282011
 20
495.6571945672
 30
0.0
 11
-36.7832692768
 21
506.6472107295
 31
0.0
  0
LINE
  5
10A
330
1F
100
AcDbEntity
  8
0
  6
Continuous
 62
     7
370
    15
100
AcDbLine
 10
10.2888172064
 20
494.970288289
 30
0.0
 11
-46.7111828234
 21
494.970288289
 31
0.0
  0
ARC
  5
10B
330
1F
100
AcDbEntity
  8
0
  6
Continuous
 62
     7
370
    15
100
AcDbCircle
 10
-16.7111828536
 20
503.1646884763
 30
0.0
 40
0.2401104260194547
100
AcDbArc
 50
202.5635328479
 51
337.4364671521
  0
ARC
  5
10C
330
1F
100
AcDbEntity
  8
0
  6
Continuous
 62
     7
370
    15
100
AcDbCircle
 10
-2.5842128684
 20
506.2973445043
 30
0.0
 40
0.2398755658941459
100
AcDbArc
 50
189.4674348155
 51
267.750829257
  0
LWPOLYLINE
  5
10D
330
1F
100
AcDbEntity
  8
0
  6
Continuous
 62
     7
370
    15
100
AcDbPolyline
 90
        3
 70
   128
 43
0.0
 10
-12.4708429407
 20
495.56547792
 10
-12.468245482
 20
495.6006446604
 10
-12.4525741171
 20
495.6571945672
  0
ARC
  5
10E
330
1F
100
AcDbEntity
  8
0
  6
Continuous
 62
     7
370
    15
100
AcDbCircle
 10
5.0279395735
 20
495.5654719394
 30
0.0
 40
0.239415416014633
100
AcDbArc
 50
0.0014312421
 51
32.5408716061
  0
LINE
  5
10F
330
1F
100
AcDbEntity
  8
0
  6
Continuous
 62
     7
370
    15
100
AcDbLine
 10
1.1413221751
 20
502.1030345683
 30
0.0
 11
5.229768673
 21
495.694253755
 31
0.0
  0
LWPOLYLINE
  5
110
330
1F
100
AcDbEntity
  8
0
  6
Continuous
 62
     7
370
    15
100
AcDbPolyline
 90
        3
 70
   128
 43
0.0
 10
1.1069768612
 20
502.1925532941
 10
1.1181657706
 20
502.1499583249
 10
1.1413221751
 20
502.1030345683
  0
LWPOLYLINE
  5
111
330
1F
100
AcDbEntity
  8
0
  6
Continuous
 62
     7
370
    15
100
AcDbPolyline
 90
        3
 70
   128
 43
0.0
 10
-41.3599970247
 20
495.56547792
 10
-41.3574004974
 20
495.6006446604
 10
-41.3417282011
 20
495.6571945672
  0
LWPOLYLINE
  5
112
330
1F
100
AcDbEntity
  8
0
  6
Continuous
 62
     7
370
    15
100
AcDbPolyline
 90
        3
 70
   128
 43
0.0
 10
-20.9697914738
 20
495.6571945672
 10
-20.9541201088
 20
495.6006446604
 10
-20.9515224173
 20
495.56547792
  0
ELLIPSE
  5
113
330
1F
100
AcDbEntity
  8
0
  6
Continuous
 62
     7
370
    15
100
AcDbEllipse
 10
5.6177031522
 20
517.9702901964
 30
0.0
 11
0.0
 21
104.0000000000001
 31
0.0
210
0.0
220
0.0
230
1.0
 40
0.1763269807
 41
0.2756323703854746
 42
0.4557953901783103
  0
SPLINE
  5
114
330
1F
100
AcDbEntity
  8
0
  6
Continuous
 62
     7
370
    15
100
AcDbSpline
210
0.0
220
0.0
230
1.0
 70
     8
 71
     3
 72
    24
 73
    20
 74
     0
 42
0.00000001
 43
0.00000001
 12
1.0
 22
0.0
 32
0.0
 13
1.0
 23
0.0
 33
0.0
 40
0.0
 40
0.0
 40
0.0
 40
0.0
 40
0.125
 40
0.125
 40
0.2499999999999999
 40
0.2499999999999999
 40
0.3749999999999999
 40
0.3749999999999999
 40
0.4375
 40
0.4375
 40
0.5000000000000001
 40
0.5000000000000001
 40
0.6250000000000001
 40
0.6250000000000001
 40
0.75
 40
0.75
 40
0.875
 40
0.875
 40
1.0
 40
1.0
 40
1.0
 40
1.0
 10
0.6269141120628825
 20
618.0446320407553
 30
0.0
 10
1.782079937755227
 20
618.2620816425477
 30
0.0
 10
2.901090070866742
 20
618.4923144893027
 30
0.0
 10
5.00263717384326
 20
618.9545995715824
 30
0.0
 10
5.991330169679569
 20
619.1876450917537
 30
0.0
 10
7.847750310181309
 20
619.6475211423535
 30
0.0
 10
8.715480667006583
 20
619.8743813119473
 30
0.0
 10
9.92417018869338
 20
620.2026125475583
 30
0.0
 10
10.31233020775922
 20
620.3102459791196
 30
0.0
 10
11.04712469585556
 20
620.5174711076257
 30
0.0
 10
11.3949830956919
 20
620.6173856742921
 30
0.0
 10
12.38097087708396
 20
620.9046599139593
 30
0.0
 10
12.96173824513328
 20
621.0795563195991
 30
0.0
 10
13.97003086177807
 20
621.3888584844046
 30
0.0
 10
14.39758458254432
 20
621.5232883071294
 30
0.0
 10
15.09175626711441
 20
621.7439740378804
 30
0.0
 10
15.35230650565216
 20
621.8282734642947
 30
0.0
 10
15.70057501834629
 20
621.9413447858373
 30
0.0
 10
15.78881719152497
 20
621.9702901963666
 30
0.0
 10
15.78881719152497
 20
621.9702901963666
 30
0.0
  0
SPLINE
  5
115
330
1F
100
AcDbEntity
  8
0
  6
Continuous
 62
     7
370
    15
100
AcDbSpline
210
0.0
220
0.0
230
1.0
 70
     8
 71
     3
 72
    24
 73
    20
 74
     0
 42
0.00000001
 43
0.00000001
 12
1.0
 22
0.0
 32
0.0
 13
1.0
 23
0.0
 33
0.0
 40
0.0
 40
0.0
 40
0.0
 40
0.0
 40
0.1250000000000003
 40
0.1250000000000003
 40
0.2500000000000006
 40
0.2500000000000006
 40
0.3750000000000008
 40
0.3750000000000008
 40
0.4375000000000008
 40
0.4375000000000008
 40
0.5000000000000009
 40
0.5000000000000009
 40
0.6250000000000006
 40
0.6250000000000006
 40
0.7500000000000004
 40
0.7500000000000004
 40
0.8750000000000002
 40
0.8750000000000002
 40
1.0
 40
1.0
 40
1.0
 40
1.0
 10
-37.04927972901295
 20
618.0446320407553
 30
0.0
 10
-38.2044455547053
 20
618.2620816425477
 30
0.0
 10
-39.3234556878168
 20
618.4923144893025
 30
0.0
 10
-41.42500279079333
 20
618.9545995715824
 30
0.0
 10
-42.41369578662962
 20
619.1876450917536
 30
0.0
 10
-44.27011592713138
 20
619.6475211423536
 30
0.0
 10
-45.13784628395665
 20
619.8743813119473
 30
0.0
 10
-46.34653580564345
 20
620.2026125475581
 30
0.0
 10
-46.73469582470928
 20
620.3102459791196
 30
0.0
 10
-47.46949031280563
 20
620.5174711076257
 30
0.0
 10
-47.81734871264195
 20
620.617385674292
 30
0.0
 10
-48.80333649403403
 20
620.9046599139592
 30
0.0
 10
-49.38410386208336
 20
621.0795563195992
 30
0.0
 10
-50.39239647872815
 20
621.3888584844046
 30
0.0
 10
-50.81995019949439
 20
621.5232883071293
 30
0.0
 10
-51.51412188406449
 20
621.7439740378803
 30
0.0
 10
-51.77467212260223
 20
621.8282734642947
 30
0.0
 10
-52.12294063529636
 20
621.9413447858371
 30
0.0
 10
-52.21118280847504
 20
621.9702901963666
 30
0.0
 10
-52.21118280847504
 20
621.9702901963666
 30
0.0
  0
ELLIPSE
  5
116
330
1F
100
AcDbEntity
  8
0
  6
Continuous
 62
     7
370
    15
100
AcDbEllipse
 10
-42.0400687691
 20
517.9702901964
 30
0.0
 11
0.0
 21
104.0000000000001
 31
0.0
210
0.0
220
0.0
230
1.0
 40
0.1763269807
 41
5.82738991700134
 42
6.007552936794186
  0
SPLINE
  5
117
330
1F
100
AcDbEntity
  8
0
  6
Continuous
 62
     7
370
    15
100
AcDbSpline
210
0.0
220
0.0
230
1.0
 70
     8
 71
     3
 72
    50
 73
    46
 74
     0
 42
0.00000001
 43
0.00000001
 12
1.0
 22
0.0
 32
0.0
 13
1.0
 23
0.0
 33
0.0
 40
0.0
 40
0.0
 40
0.0
 40
0.0
 40
0.0624999999999991
 40
0.0624999999999991
 40
0.1249999999999982
 40
0.1249999999999982
 40
0.1562499999999979
 40
0.1562499999999979
 40
0.1874999999999976
 40
0.1874999999999976
 40
0.2499999999999978
 40
0.2499999999999978
 40
0.3124999999999979
 40
0.3124999999999979
 40
0.3749999999999981
 40
0.3749999999999981
 40
0.4062499999999982
 40
0.4062499999999982
 40
0.4374999999999982
 40
0.4374999999999982
 40
0.4999999999999984
 40
0.4999999999999984
 40
0.5624999999999987
 40
0.5624999999999987
 40
0.5937499999999988
 40
0.5937499999999988
 40
0.6249999999999988
 40
0.6249999999999988
 40
0.6874999999999989
 40
0.6874999999999989
 40
0.7187499999999989
 40
0.7187499999999989
 40
0.7499999999999989
 40
0.7499999999999989
 40
0.7812499999999989
 40
0.7812499999999989
 40
0.8124999999999989
 40
0.8124999999999989
 40
0.874999999999999
 40
0.874999999999999
 40
0.9062499999999993
 40
0.9062499999999993
 40
0.9374999999999997
 40
0.9374999999999997
 40
1.0
 40
1.0
 40
1.0
 40
1.0
 10
-33.96810685667055
 20
611.3530550033207
 30
0.0
 10
-33.81146926619221
 20
610.9175723826924
 30
0.0
 10
-33.5829446260622
 20
610.4802045945917
 30
0.0
 10
-32.98974905705423
 20
609.6040340902726
 30
0.0
 10
-32.62508115649815
 20
609.1652124986515
 30
0.0
 10
-31.97193632316792
 20
608.5089533844736
 30
0.0
 10
-31.73553986351766
 20
608.2899017615524
 30
0.0
 10
-31.23415128961881
 20
607.8605264106069
 30
0.0
 10
-30.96847337046352
 20
607.6494018320888
 30
0.0
 10
-30.12635683121306
 20
607.0278631276778
 30
0.0
 10
-29.50527166100105
 20
606.6291075396153
 30
0.0
 10
-28.1334731479551
 20
605.8724859712979
 30
0.0
 10
-27.37575735258688
 20
605.5125230918823
 30
0.0
 10
-25.77323536855721
 20
604.874473521015
 30
0.0
 10
-24.92383478006555
 20
604.5928795327297
 30
0.0
 10
-23.5685894107862
 20
604.2388822452582
 30
0.0
 10
-23.10135659952073
 20
604.1321734531981
 30
0.0
 10
-22.16134657245856
 20
603.9489075459738
 30
0.0
 10
-21.68607841420091
 20
603.8715843397368
 30
0.0
 10
-20.24434531246163
 20
603.6837012899286
 30
0.0
 10
-19.26209527401532
 20
603.6169245202434
 30
0.0
 10
-17.25152749675011
 20
603.6129745968609
 30
0.0
 10
-16.26426124015132
 20
603.6760682407296
 30
0.0
 10
-14.81400631275156
 20
603.8598697280445
 30
0.0
 10
-14.33540115148497
 20
603.9360692950672
 30
0.0
 10
-13.3877860211418
 20
604.1177217893896
 30
0.0
 10
-12.92112060095253
 20
604.2228995918135
 30
0.0
 10
-11.56600945935864
 20
604.5723726958867
 30
0.0
 10
-10.71193076651157
 20
604.8521975613271
 30
0.0
 10
-9.498452279121363
 20
605.3313905609987
 30
0.0
 10
-9.104892796856944
 20
605.5014446462484
 30
0.0
 10
-8.353317498608993
 20
605.8538021642054
 30
0.0
 10
-7.993426718711437
 20
606.0367927640361
 30
0.0
 10
-7.303627252974144
 20
606.4147383688562
 30
0.0
 10
-6.973723855463335
 20
606.6096969679778
 30
0.0
 10
-6.342970451979762
 20
607.0103495056962
 30
0.0
 10
-6.041255466600382
 20
607.2166944554426
 30
0.0
 10
-5.185606964097659
 20
607.8458897021122
 30
0.0
 10
-4.685302940034534
 20
608.2749459151966
 30
0.0
 10
-4.032688592007309
 20
608.9277517705409
 30
0.0
 10
-3.831572262135237
 20
609.1469206124102
 30
0.0
 10
-3.462221024264691
 20
609.5878305448639
 30
0.0
 10
-3.293646599382041
 20
609.8100843261192
 30
0.0
 10
-2.840914544620651
 20
610.4764765030653
 30
0.0
 10
-2.611046123436508
 20
610.9171559858468
 30
0.0
 10
-2.45425876027951
 20
611.3530550033207
 30
0.0
  0
SPLINE
  5
118
330
1F
100
AcDbEntity
  8
0
  6
Continuous
 62
     7
370
    15
100
AcDbSpline
210
0.0
220
0.0
230
1.0
 70
     8
 71
     3
 72
    32
 73
    28
 74
     0
 42
0.00000001
 43
0.00000001
 12
1.0
 22
0.0
 32
0.0
 13
1.0
 23
0.0
 33
0.0
 40
0.0
 40
0.0
 40
0.0
 40
0.0
 40
0.0625000000000014
 40
0.0625000000000014
 40
0.0937500000000029
 40
0.0937500000000029
 40
0.1250000000000045
 40
0.1250000000000045
 40
0.1875000000000055
 40
0.1875000000000055
 40
0.2500000000000065
 40
0.2500000000000065
 40
0.3750000000000079
 40
0.3750000000000079
 40
0.4375000000000077
 40
0.4375000000000077
 40
0.5000000000000074
 40
0.5000000000000074
 40
0.6250000000000075
 40
0.6250000000000075
 40
0.7500000000000075
 40
0.7500000000000075
 40
0.8125000000000063
 40
0.8125000000000063
 40
0.875000000000005
 40
0.875000000000005
 40
1.0
 40
1.0
 40
1.0
 40
1.0
 10
-43.27407950365816
 20
583.7545799918427
 30
0.0
 10
-42.64144983767393
 20
583.4997763969476
 30
0.0
 10
-42.06143664829432
 20
583.1868868357766
 30
0.0
 10
-41.25431644812821
 20
582.6457557323603
 30
0.0
 10
-40.9946592958044
 20
582.4521825705376
 30
0.0
 10
-40.50261940108624
 20
582.0485138474667
 30
0.0
 10
-40.2699861002987
 20
581.8385045295447
 30
0.0
 10
-39.60706424692539
 20
581.1865230159195
 30
0.0
 10
-39.21148927781358
 20
580.7227406700481
 30
0.0
 10
-38.495616970548
 20
579.7451064849031
 30
0.0
 10
-38.17536038623216
 20
579.2298351298941
 30
0.0
 10
-37.33027353637969
 20
577.6548557948953
 30
0.0
 10
-36.90894095288385
 20
576.553782483867
 30
0.0
 10
-36.42616460752541
 20
574.8387183285647
 30
0.0
 10
-36.29033394973279
 20
574.254334653559
 30
0.0
 10
-36.06537044358934
 20
573.075515970383
 30
0.0
 10
-35.9762513306522
 20
572.482269993599
 30
0.0
 10
-35.76857312732049
 20
570.6911891443875
 30
0.0
 10
-35.70915884530673
 20
569.4820233330707
 30
0.0
 10
-35.71331044221967
 20
567.0339581353918
 30
0.0
 10
-35.77718778580761
 20
565.7950543315746
 30
0.0
 10
-35.95042789629107
 20
563.9144961694857
 30
0.0
 10
-36.0213526280176
 20
563.2826479180724
 30
0.0
 10
-36.18632668406373
 20
562.0198991311413
 30
0.0
 10
-36.2803422889863
 20
561.3887116439146
 30
0.0
 10
-36.59407925733471
 20
559.4952509383704
 30
0.0
 10
-36.84526208100676
 20
558.2330327910329
 30
0.0
 10
-37.13383346388422
 20
556.9702901963665
 30
0.0
  0
SPLINE
  5
119
330
1F
100
AcDbEntity
  8
0
  6
Continuous
 62
     7
370
    15
100
AcDbSpline
210
0.0
220
0.0
230
1.0
 70
     8
 71
     3
 72
    18
 73
    14
 74
     0
 42
0.00000001
 43
0.00000001
 12
1.0
 22
0.0
 32
0.0
 13
1.0
 23
0.0
 33
0.0
 40
0.0
 40
0.0
 40
0.0
 40
0.0
 40
0.0424734700674644
 40
0.1377529032482258
 40
0.2330316197665511
 40
0.3309971617440213
 40
0.4289581785171316
 40
0.5252656268371425
 40
0.6215672607522317
 40
0.7211349251207725
 40
0.8206968343912088
 40
0.9193586456136261
 40
1.0
 40
1.0
 40
1.0
 40
1.0
 10
-43.27407911975793
 20
583.7545806292965
 30
0.0
 10
-43.56799973515987
 20
584.7442205516237
 30
0.0
 10
-44.52126345559081
 20
587.9538893696974
 30
0.0
 10
-46.15970846188659
 20
593.052435786925
 30
0.0
 10
-48.16371284998527
 20
598.86391568672
 30
0.0
 10
-50.10810397842517
 20
604.1506608681761
 30
0.0
 10
-51.92597774907916
 20
608.8413193071863
 30
0.0
 10
-53.54784020622156
 20
612.8543851588444
 30
0.0
 10
-54.95075584471875
 20
616.2097280530108
 30
0.0
 10
-56.09110182266176
 20
618.8681101152755
 30
0.0
 10
-56.91074237319401
 20
620.7405947394399
 30
0.0
 10
-57.38855406211881
 20
621.8197259259078
 30
0.0
 10
-57.41512765148874
 20
621.8793238547526
 30
0.0
 10
-57.42707908709458
 20
621.906127942033
 30
0.0
  0
SPLINE
  5
11A
330
1F
100
AcDbEntity
  8
0
  6
Continuous
 62
     7
370
    15
100
AcDbSpline
210
0.0
220
0.0
230
1.0
 70
     8
 71
     3
 72
    18
 73
    14
 74
     0
 42
0.00000001
 43
0.00000001
 12
1.0
 22
0.0
 32
0.0
 13
1.0
 23
0.0
 33
0.0
 40
0.0
 40
0.0
 40
0.0
 40
0.0
 40
0.0424734700674644
 40
0.1377529032482258
 40
0.2330316197665511
 40
0.3309971617440213
 40
0.4289581785171316
 40
0.5252656268371425
 40
0.6215672607522317
 40
0.7211349251207725
 40
0.8206968343912088
 40
0.9193586456136261
 40
1.0
 40
1.0
 40
1.0
 40
1.0
 10
6.851713502808297
 20
583.7545806292965
 30
0.0
 10
7.145634118210242
 20
584.7442205516237
 30
0.0
 10
8.098897838641182
 20
587.9538893696974
 30
0.0
 10
9.737342844936963
 20
593.052435786925
 30
0.0
 10
11.74134723303565
 20
598.86391568672
 30
0.0
 10
13.68573836147554
 20
604.1506608681761
 30
0.0
 10
15.50361213212953
 20
608.8413193071863
 30
0.0
 10
17.12547458927193
 20
612.8543851588444
 30
0.0
 10
18.52839022776912
 20
616.2097280530108
 30
0.0
 10
19.66873620571213
 20
618.8681101152755
 30
0.0
 10
20.48837675624438
 20
620.7405947394399
 30
0.0
 10
20.96618844516918
 20
621.8197259259078
 30
0.0
 10
20.99276203453911
 20
621.8793238547526
 30
0.0
 10
21.00471347014495
 20
621.906127942033
 30
0.0
  0
SPLINE
  5
11B
330
1F
100
AcDbEntity
  8
0
  6
Continuous
 62
     7
370
    15
100
AcDbSpline
210
0.0
220
0.0
230
1.0
 70
     8
 71
     3
 72
    32
 73
    28
 74
     0
 42
0.00000001
 43
0.00000001
 12
1.0
 22
0.0
 32
0.0
 13
1.0
 23
0.0
 33
0.0
 40
0.0
 40
0.0
 40
0.0
 40
0.0
 40
0.0625000000000015
 40
0.0625000000000015
 40
0.0937500000000032
 40
0.0937500000000032
 40
0.1250000000000048
 40
0.1250000000000048
 40
0.1875000000000058
 40
0.1875000000000058
 40
0.2500000000000068
 40
0.2500000000000068
 40
0.3750000000000082
 40
0.3750000000000082
 40
0.4375000000000078
 40
0.4375000000000078
 40
0.5000000000000075
 40
0.5000000000000075
 40
0.6250000000000075
 40
0.6250000000000075
 40
0.7500000000000077
 40
0.7500000000000077
 40
0.8125000000000063
 40
0.8125000000000063
 40
0.8750000000000049
 40
0.8750000000000049
 40
1.0
 40
1.0
 40
1.0
 40
1.0
 10
6.851713886708091
 20
583.7545799918427
 30
0.0
 10
6.219084220723863
 20
583.4997763969476
 30
0.0
 10
5.639071031344249
 20
583.1868868357766
 30
0.0
 10
4.831950831178152
 20
582.6457557323604
 30
0.0
 10
4.572293678854339
 20
582.4521825705376
 30
0.0
 10
4.080253784136175
 20
582.0485138474668
 30
0.0
 10
3.847620483348635
 20
581.8385045295447
 30
0.0
 10
3.184698629975322
 20
581.1865230159194
 30
0.0
 10
2.789123660863511
 20
580.722740670048
 30
0.0
 10
2.073251353597934
 20
579.7451064849031
 30
0.0
 10
1.752994769282101
 20
579.2298351298942
 30
0.0
 10
0.9079079194296396
 20
577.6548557948953
 30
0.0
 10
0.4865753359337907
 20
576.553782483867
 30
0.0
 10
0.0037989905753329
 20
574.8387183285646
 30
0.0
 10
-0.1320316672172722
 20
574.254334653559
 30
0.0
 10
-0.3569951733607274
 20
573.075515970383
 30
0.0
 10
-0.4461142862978648
 20
572.482269993599
 30
0.0
 10
-0.6537924896295698
 20
570.6911891443876
 30
0.0
 10
-0.7132067716433266
 20
569.4820233330707
 30
0.0
 10
-0.7090551747303935
 20
567.0339581353918
 30
0.0
 10
-0.6451778311424503
 20
565.7950543315746
 30
0.0
 10
-0.4719377206590034
 20
563.9144961694857
 30
0.0
 10
-0.4010129889324629
 20
563.2826479180724
 30
0.0
 10
-0.236038932886342
 20
562.0198991311413
 30
0.0
 10
-0.1420233279637619
 20
561.3887116439145
 30
0.0
 10
0.1717136403846416
 20
559.4952509383704
 30
0.0
 10
0.4228964640566948
 20
558.2330327910329
 30
0.0
 10
0.7114678469341447
 20
556.9702901963665
 30
0.0
  0
ARC
  5
11C
330
1F
100
AcDbEntity
  8
0
  6
Continuous
 62
     7
370
    15
100
AcDbCircle
 10
-32.6937877706
 20
503.3550036462
 30
0.0
 40
0.2398897002437848
100
AcDbArc
 50
189.469929851
 51
270.03306964
  0
ARC
  5
11D
330
1F
100
AcDbEntity
  8
0
  6
Continuous
 62
     7
370
    15
100
AcDbCircle
 10
-29.6177342051
 20
503.3550069136
 30
0.0
 40
0.2398929665480394
100
AcDbArc
 50
269.9673691008
 51
350.5294091211
  0
LINE
  5
11E
330
1F
100
AcDbEntity
  8
0
  6
Continuous
 62
     7
370
    15
100
AcDbLine
 10
-29.6178708281
 20
503.115113986
 30
0.0
 11
-32.6936493125
 21
503.115113986
 31
0.0
  0
LINE
  5
11F
330
1F
100
AcDbEntity
  8
0
  6
Continuous
 62
     7
370
    15
100
AcDbLine
 10
-55.8745531793
 20
494.970288289
 30
0.0
 11
-46.7111828234
 21
494.970288289
 31
0.0
  0
SPLINE
  5
120
330
1F
100
AcDbEntity
  8
0
  6
Continuous
 62
     7
370
    15
100
AcDbSpline
210
0.0
220
0.0
230
1.0
 70
     8
 71
     3
 72
     8
 73
     4
 74
     0
 42
0.00000001
 43
0.00000001
 12
1.0
 22
0.0
 32
0.0
 13
1.0
 23
0.0
 33
0.0
 40
0.0
 40
0.0
 40
0.0
 40
0.0
 40
1.0
 40
1.0
 40
1.0
 40
1.0
 10
-56.98463406492149
 20
521.5461841428896
 30
0.0
 10
-57.1549247305898
 20
521.544555001181
 30
0.0
 10
-57.24916577672862
 20
521.5296922673698
 30
0.0
 10
-57.26461385145932
 20
521.5010913678882
 30
0.0
  0
SPLINE
  5
121
330
1F
100
AcDbEntity
  8
0
  6
Continuous
 62
     7
370
    15
100
AcDbSpline
210
0.0
220
0.0
230
1.0
 70
     8
 71
     3
 72
     8
 73
     4
 74
     0
 42
0.00000001
 43
0.00000001
 12
1.0
 22
0.0
 32
0.0
 13
1.0
 23
0.0
 33
0.0
 40
0.0
 40
0.0
 40
0.0
 40
0.0
 40
1.0
 40
1.0
 40
1.0
 40
1.0
 10
20.56226844797186
 20
521.5461841428896
 30
0.0
 10
20.73255911364018
 20
521.544555001181
 30
0.0
 10
20.82680015977899
 20
521.5296922673698
 30
0.0
 10
20.84224823450969
 20
521.5010913678882
 30
0.0
  0
LINE
  5
122
330
1F
100
AcDbEntity
  8
0
  6
Continuous
 62
     7
370
    15
100
AcDbLine
 10
19.4521875624
 20
494.970288289
 30
0.0
 11
10.2888172064
 21
494.970288289
 31
0.0
  0
LINE
  5
123
330
1F
100
AcDbEntity
  8
0
  6
Continuous
 62
     7
370
    15
100
AcDbLine
 10
4.0962801818
 20
489.3286118035
 30
0.0
 11
10.2888172064
 21
491.6342386727
 31
0.0
  0
LINE
  5
124
330
1F
100
AcDbEntity
  8
0
  6
Continuous
 62
     7
370
    15
100
AcDbLine
 10
-0.2111835833
 20
493.6360755686
 30
0.0
 11
4.0962801818
 21
489.3286118035
 31
0.0
  0
LINE
  5
125
330
1F
100
AcDbEntity
  8
0
  6
Continuous
 62
     7
370
    15
100
AcDbLine
 10
-36.2111820336
 20
493.6360755686
 30
0.0
 11
-0.2111835833
 21
493.6360755686
 31
0.0
  0
LINE
  5
126
330
1F
100
AcDbEntity
  8
0
  6
Continuous
 62
     7
370
    15
100
AcDbLine
 10
-36.2111820336
 20
493.6360755686
 30
0.0
 11
-40.5186457988
 21
489.3286118035
 31
0.0
  0
LINE
  5
127
330
1F
100
AcDbEntity
  8
0
  6
Continuous
 62
     7
370
    15
100
AcDbLine
 10
-40.5186457988
 20
489.3286118035
 30
0.0
 11
-46.7111828234
 21
491.6342386727
 31
0.0
  0
LINE
  5
128
330
1F
100
AcDbEntity
  8
0
  6
Continuous
 62
     7
370
    15
100
AcDbLine
 10
6.8517135028
 20
583.7545806293
 30
0.0
 11
6.8804503922
 21
582.4086332445
 31
0.0
  0
SPLINE
  5
129
330
1F
100
AcDbEntity
  8
0
  6
Continuous
 62
     7
370
    15
100
AcDbSpline
210
0.0
220
0.0
230
1.0
 70
     8
 71
     3
 72
    12
 73
     8
 74
     0
 42
0.00000001
 43
0.00000001
 12
1.0
 22
0.0
 32
0.0
 13
1.0
 23
0.0
 33
0.0
 40
0.0
 40
0.0
 40
0.0
 40
0.0
 40
0.5
 40
0.5
 40
0.75
 40
0.75
 40
1.0
 40
1.0
 40
1.0
 40
1.0
 10
11.54052605105832
 20
556.9702901963666
 30
0.0
 10
10.98772692509998
 20
561.2498448089711
 30
0.0
 10
10.33261811449352
 20
565.5215318934411
 30
0.0
 10
9.177876845233495
 20
571.8862432200353
 30
0.0
 10
8.764111438619903
 20
574.0013953563574
 30
0.0
 10
7.872673475427507
 20
578.2168917794788
 30
0.0
 10
7.395121034260685
 20
580.3172729960609
 30
0.0
 10
6.880450248219494
 20
582.4086281619793
 30
0.0
  0
SPLINE
  5
12A
330
1F
100
AcDbEntity
  8
0
  6
Continuous
 62
     7
370
    15
100
AcDbSpline
210
0.0
220
0.0
230
1.0
 70
     8
 71
     3
 72
    12
 73
     8
 74
     0
 42
0.00000001
 43
0.00000001
 12
1.0
 22
0.0
 32
0.0
 13
1.0
 23
0.0
 33
0.0
 40
0.0
 40
0.0
 40
0.0
 40
0.0
 40
0.5
 40
0.5
 40
0.75
 40
0.75
 40
1.0
 40
1.0
 40
1.0
 40
1.0
 10
-47.96289166800844
 20
556.9702901963665
 30
0.0
 10
-47.41009254205012
 20
561.2498448089711
 30
0.0
 10
-46.75498373144359
 20
565.5215318934411
 30
0.0
 10
-45.60024246218356
 20
571.8862432200353
 30
0.0
 10
-45.18647705556997
 20
574.0013953563574
 30
0.0
 10
-44.29503909237757
 20
578.2168917794788
 30
0.0
 10
-43.81748665121081
 20
580.3172729960609
 30
0.0
 10
-43.30281586516963
 20
582.4086281619793
 30
0.0
  0
LINE
  5
12B
330
1F
100
AcDbEntity
  8
0
  6
Continuous
 62
     7
370
    15
100
AcDbLine
 10
-43.2740791198
 20
583.7545806293
 30
0.0
 11
-43.3028160091
 21
582.4086332445
 31
0.0
  0
LINE
  5
12C
330
1F
100
AcDbEntity
  8
0
  6
Continuous
 62
     7
370
    15
100
AcDbLine
 10
-38.2873366084
 20
360.5765888218
 30
0.0
 11
-37.952824166
 21
356.1019526545
 31
0.0
  0
LINE
  5
12D
330
1F
100
AcDbEntity
  8
0
  6
Continuous
 62
     7
370
    15
100
AcDbLine
 10
-36.2111820336
 20
362.1050214146
 30
0.0
 11
-38.2873366084
 21
360.5765888218
 31
0.0
  0
LINE
  5
12E
330
1F
100
AcDbEntity
  8
0
  6
Continuous
 62
     7
370
    15
100
AcDbLine
 10
-36.2111820336
 20
362.1050214146
 30
0.0
 11
-0.2111835833
 21
362.1050214146
 31
0.0
  0
LINE
  5
12F
330
1F
100
AcDbEntity
  8
0
  6
Continuous
 62
     7
370
    15
100
AcDbLine
 10
-0.2111835833
 20
362.1050214146
 30
0.0
 11
1.8649709914
 21
360.5765888218
 31
0.0
  0
LINE
  5
130
330
1F
100
AcDbEntity
  8
0
  6
Continuous
 62
     7
370
    15
100
AcDbLine
 10
1.8649709914
 20
360.5765888218
 30
0.0
 11
1.5304585491
 21
356.1019526545
 31
0.0
  0
LINE
  5
131
330
1F
100
AcDbEntity
  8
0
  6
Continuous
 62
     7
370
    15
100
AcDbLine
 10
4.6913617794
 20
379.713465621
 30
0.0
 11
4.6913617794
 21
489.5316475753
 31
0.0
  0
LINE
  5
132
330
1F
100
AcDbEntity
  8
0
  6
Continuous
 62
     7
370
    15
100
AcDbLine
 10
4.6913617794
 20
379.713465621
 30
0.0
 11
1.8649709914
 21
360.5765888218
 31
0.0
  0
LINE
  5
133
330
1F
100
AcDbEntity
  8
0
  6
Continuous
 62
     7
370
    15
100
AcDbLine
 10
-0.2111835833
 20
362.1050214146
 30
0.0
 11
-0.2111835833
 21
493.6360755686
 31
0.0
  0
LINE
  5
134
330
1F
100
AcDbEntity
  8
0
  6
Continuous
 62
     7
370
    15
100
AcDbLine
 10
4.0962801818
 20
489.3286118035
 30
0.0
 11
4.6913617794
 21
489.5316475753
 31
0.0
  0
LINE
  5
135
330
1F
100
AcDbEntity
  8
0
  6
Continuous
 62
     7
370
    15
100
AcDbLine
 10
-36.2111820336
 20
362.1050214146
 30
0.0
 11
-36.2111820336
 21
493.6360755686
 31
0.0
  0
LINE
  5
136
330
1F
100
AcDbEntity
  8
0
  6
Continuous
 62
     7
370
    15
100
AcDbLine
 10
-41.1137273963
 20
379.713465621
 30
0.0
 11
-38.2873366084
 21
360.5765888218
 31
0.0
  0
LINE
  5
137
330
1F
100
AcDbEntity
  8
0
  6
Continuous
 62
     7
370
    15
100
AcDbLine
 10
-41.1137273963
 20
379.713465621
 30
0.0
 11
-41.1137273963
 21
489.5316475753
 31
0.0
  0
LINE
  5
138
330
1F
100
AcDbEntity
  8
0
  6
Continuous
 62
     7
370
    15
100
AcDbLine
 10
-40.5186457988
 20
489.3286118035
 30
0.0
 11
-41.1137273963
 21
489.5316475753
 31
0.0
  0
LINE
  5
139
330
1F
100
AcDbEntity
  8
0
  6
Continuous
 62
     7
370
    15
100
AcDbLine
 10
-62.6934288498
 20
536.9702839975
 30
0.0
 11
-74.711181825
 21
536.9702839975
 31
0.0
  0
LINE
  5
13A
330
1F
100
AcDbEntity
  8
0
  6
Continuous
 62
     7
370
    15
100
AcDbLine
 10
-62.6934288498
 20
529.9702847127
 30
0.0
 11
-74.711181825
 21
529.9702847127
 31
0.0
  0
LINE
  5
13B
330
1F
100
AcDbEntity
  8
0
  6
Continuous
 62
     7
370
    15
100
AcDbLine
 10
26.2710632328
 20
536.9702839975
 30
0.0
 11
38.288816208
 21
536.9702839975
 31
0.0
  0
LINE
  5
13C
330
1F
100
AcDbEntity
  8
0
  6
Continuous
 62
     7
370
    15
100
AcDbLine
 10
26.2710632328
 20
529.9702847127
 30
0.0
 11
38.288816208
 21
529.9702847127
 31
0.0
  0
LINE
  5
13D
330
1F
100
AcDbEntity
  8
0
  6
Continuous
 62
     7
370
    15
100
AcDbLine
 10
36.9241455142
 20
522.4003309135
 30
0.0
 11
25.2614015285
 21
522.4003309135
 31
0.0
  0
LINE
  5
13E
330
1F
100
AcDbEntity
  8
0
  6
Continuous
 62
     7
370
    15
100
AcDbLine
 10
-73.3465111311
 20
522.4003309135
 30
0.0
 11
-61.6837671455
 21
522.4003309135
 31
0.0
  0
LINE
  5
13F
330
1F
100
AcDbEntity
  8
0
  6
Continuous
 62
     7
370
    15
100
AcDbLine
 10
-59.1705223974
 20
519.9054294948
 30
0.0
 11
-59.3547193762
 21
519.937899125
 31
0.0
  0
SPLINE
  5
140
330
1F
100
AcDbEntity
  8
0
  6
Continuous
 62
     7
370
    15
100
AcDbSpline
210
0.0
220
0.0
230
1.0
 70
     8
 71
     3
 72
    10
 73
     6
 74
     0
 42
0.00000001
 43
0.00000001
 12
1.0
 22
0.0
 32
0.0
 13
1.0
 23
0.0
 33
0.0
 40
0.0
 40
0.0
 40
0.0
 40
0.0
 40
0.5
 40
0.5
 40
1.0
 40
1.0
 40
1.0
 40
1.0
 10
-57.26461385145932
 20
521.5010913678882
 30
0.0
 10
-57.54814997854929
 20
520.9761464532822
 30
0.0
 10
-57.83825843545765
 20
520.5757597914442
 30
0.0
 10
-58.4323593850252
 20
520.0381155684498
 30
0.0
 10
-58.73635487032632
 20
519.900914723596
 30
0.0
 10
-59.04743283193058
 20
519.897940385623
 30
0.0
  0
SPLINE
  5
141
330
1F
100
AcDbEntity
  8
0
  6
Continuous
 62
     7
370
    15
100
AcDbSpline
210
0.0
220
0.0
230
1.0
 70
     8
 71
     3
 72
     8
 73
     4
 74
     0
 42
0.00000001
 43
0.00000001
 12
1.0
 22
0.0
 32
0.0
 13
1.0
 23
0.0
 33
0.0
 40
0.0
 40
0.0
 40
0.0
 40
0.0
 40
1.0
 40
1.0
 40
1.0
 40
1.0
 10
-59.04743283193056
 20
519.897940385623
 30
0.0
 10
-59.10216632370454
 20
519.9012687176245
 30
0.0
 10
-59.14321224856014
 20
519.9037644762057
 30
0.0
 10
-59.17052200930738
 20
519.9054249892
 30
0.0
  0
SPLINE
  5
142
330
1F
100
AcDbEntity
  8
0
  6
Continuous
 62
     7
370
    15
100
AcDbSpline
210
0.0
220
0.0
230
1.0
 70
     8
 71
     3
 72
    10
 73
     6
 74
     0
 42
0.00000001
 43
0.00000001
 12
1.0
 22
0.0
 32
0.0
 13
1.0
 23
0.0
 33
0.0
 40
0.0
 40
0.0
 40
0.0
 40
0.0
 40
0.5
 40
0.5
 40
1.0
 40
1.0
 40
1.0
 40
1.0
 10
20.84224823450969
 20
521.5010913678882
 30
0.0
 10
21.12578436159966
 20
520.9761464532822
 30
0.0
 10
21.41589281850802
 20
520.5757597914442
 30
0.0
 10
22.00999376807557
 20
520.0381155684498
 30
0.0
 10
22.31398925337669
 20
519.900914723596
 30
0.0
 10
22.62506721498095
 20
519.897940385623
 30
0.0
  0
LINE
  5
143
330
1F
100
AcDbEntity
  8
0
  6
Continuous
 62
     7
370
    15
100
AcDbLine
 10
22.7481567804
 20
519.9054294948
 30
0.0
 11
22.9323537592
 21
519.937899125
 31
0.0
  0
SPLINE
  5
144
330
1F
100
AcDbEntity
  8
0
  6
Continuous
 62
     7
370
    15
100
AcDbSpline
210
0.0
220
0.0
230
1.0
 70
     8
 71
     3
 72
     8
 73
     4
 74
     0
 42
0.00000001
 43
0.00000001
 12
1.0
 22
0.0
 32
0.0
 13
1.0
 23
0.0
 33
0.0
 40
0.0
 40
0.0
 40
0.0
 40
0.0
 40
1.0
 40
1.0
 40
1.0
 40
1.0
 10
22.62506721498093
 20
519.897940385623
 30
0.0
 10
22.67980070675491
 20
519.9012687176245
 30
0.0
 10
22.72084663161051
 20
519.9037644762057
 30
0.0
 10
22.74815639235776
 20
519.9054249892
 30
0.0
  0
LINE
  5
145
330
1F
100
AcDbEntity
  8
0
  6
Continuous
 62
     7
370
    15
100
AcDbLine
 10
81.7888186816
 20
484.4702893619
 30
0.0
 11
81.7888186816
 21
301.4702910308
 31
0.0
  0
LINE
  5
146
330
1F
100
AcDbEntity
  8
0
  6
Continuous
 62
     7
370
    15
100
AcDbLine
 10
-118.2111842986
 20
484.4702893619
 30
0.0
 11
-118.2111842986
 21
301.4702910308
 31
0.0
  0
LINE
  5
147
330
1F
100
AcDbEntity
  8
0
  6
Continuous
 62
     7
370
    15
100
AcDbLine
 10
20.8164857272
 20
494.970288289
 30
0.0
 11
19.4521875624
 21
494.970288289
 31
0.0
  0
ELLIPSE
  5
148
330
1F
100
AcDbEntity
  8
0
  6
Continuous
 62
     7
370
    15
100
AcDbEllipse
 10
-223.2111828085
 20
-4173.6147501211
 30
0.0
 11
245.9370281490852
 21
4693.959616123278
 31
0.0
210
0.0
220
0.0
230
1.0
 40
0.0011857377
 41
0.0138618624742624
 42
0.1040878224798435
  0
LINE
  5
149
330
1F
100
AcDbEntity
  8
0
  6
Continuous
 62
     7
370
    15
100
AcDbLine
 10
-57.2388513442
 20
494.970288289
 30
0.0
 11
-55.8745531793
 21
494.970288289
 31
0.0
  0
ELLIPSE
  5
14A
330
1F
100
AcDbEntity
  8
0
  6
Continuous
 62
     7
370
    15
100
AcDbEllipse
 10
186.7888171915
 20
-4173.6147501211
 30
0.0
 11
-245.9370281490852
 21
4693.959616123278
 31
0.0
210
0.0
220
0.0
230
1.0
 40
0.0011857377
 41
6.179097484711354
 42
6.269323444717201
  0
ELLIPSE
  5
14B
330
1F
100
AcDbEntity
  8
0
  6
Continuous
 62
     7
370
    15
100
AcDbEllipse
 10
-223.2111828085
 20
405.9176295177
 30
0.0
 11
245.9991339332169
 21
89.51870681046834
 31
0.0
210
0.0
220
0.0
230
1.0
 40
0.0072919562
 41
0.1240614513651569
 42
0.3350283899625384
  0
LINE
  5
14C
330
1F
100
AcDbEntity
  8
0
  6
Continuous
 62
     7
370
    15
100
AcDbLine
 10
4.6913617794
 20
489.5316475753
 30
0.0
 11
8.8960131202
 21
491.0489806656
 31
0.0
  0
LINE
  5
14D
330
1F
100
AcDbEntity
  8
0
  6
Continuous
 62
     7
370
    15
100
AcDbLine
 10
-41.1137273963
 20
489.5316475753
 30
0.0
 11
-45.3183787372
 21
491.0489806656
 31
0.0
  0
ELLIPSE
  5
14E
330
1F
100
AcDbEntity
  8
0
  6
Continuous
 62
     7
370
    15
100
AcDbEllipse
 10
186.7888171915
 20
405.9176295177
 30
0.0
 11
245.9991339332169
 21
-89.51870681046837
 31
0.0
210
0.0
220
0.0
230
1.0
 40
0.0072919562
 41
2.806564263627269
 42
3.017531202224673
  0
LINE
  5
14F
330
1F
100
AcDbEntity
  8
0
  6
Continuous
 62
     7
370
    15
100
AcDbLine
 10
-54.0674446579
 20
461.4702874546
 30
0.0
 11
-59.211183941
 21
498.0698937301
 31
0.0
  0
ELLIPSE
  5
150
330
1F
100
AcDbEntity
  8
0
  6
Continuous
 62
     7
370
    15
100
AcDbEllipse
 10
186.7888171915
 20
-1252.3110586312
 30
0.0
 11
-245.9632581165108
 21
1750.652747942659
 31
0.0
210
0.0
220
0.0
230
1.0
 40
0.0024285499
 41
5.962786966018189
 42
6.300468881392508
  0
LINE
  5
151
330
1F
100
AcDbEntity
  8
0
  6
Continuous
 62
     7
370
    15
100
AcDbLine
 10
-45.3183787372
 20
409.4391653065
 30
0.0
 11
-41.1137273963
 21
379.713465621
 31
0.0
  0
ELLIPSE
  5
152
330
1F
100
AcDbEntity
  8
0
  6
Continuous
 62
     7
370
    15
100
AcDbEllipse
 10
-35.9884271032
 20
342.5789923394
 30
0.0
 11
-1.968165532435144
 21
13.99995866583072
 31
0.0
210
0.0
220
0.0
230
1.0
 40
0.0172850914
 41
0.2593693910421314
 42
0.5211687788412566
  0
LINE
  5
153
330
1F
100
AcDbEntity
  8
0
  6
Continuous
 62
     7
370
    15
100
AcDbLine
 10
-37.8157800492
 20
354.7033482913
 30
0.0
 11
-35.9809982087
 21
338.0251342182
 31
0.0
  0
LINE
  5
154
330
1F
100
AcDbEntity
  8
0
  6
Continuous
 62
     7
370
    15
100
AcDbLine
 10
-35.9809982087
 20
338.0251342182
 30
0.0
 11
-35.9971976336
 21
338.0240017299
 31
0.0
  0
ELLIPSE
  5
155
330
1F
100
AcDbEntity
  8
0
  6
Continuous
 62
     7
370
    15
100
AcDbEllipse
 10
-44.440396893
 20
392.9702901964
 30
0.0
 11
-9.629952783700467
 21
68.49979775781406
 31
0.0
210
0.0
220
0.0
230
1.0
 40
0.0172850914
 41
3.779095925729516
 42
6.280755310423352
  0
LINE
  5
156
330
1F
100
AcDbEntity
  8
0
  6
Continuous
 62
     7
370
    15
100
AcDbLine
 10
-0.4413674082
 20
338.0251342182
 30
0.0
 11
-0.4251679834
 21
338.0240017299
 31
0.0
  0
LINE
  5
157
330
1F
100
AcDbEntity
  8
0
  6
Continuous
 62
     7
370
    15
100
AcDbLine
 10
1.3934144322
 20
354.7033482913
 30
0.0
 11
-0.4413674082
 21
338.0251342182
 31
0.0
  0
ELLIPSE
  5
158
330
1F
100
AcDbEntity
  8
0
  6
Continuous
 62
     7
370
    15
100
AcDbEllipse
 10
-0.4339385137
 20
342.5789923394
 30
0.0
 11
1.968165532435145
 21
13.99995866583072
 31
0.0
210
0.0
220
0.0
230
1.0
 40
0.0172850914
 41
5.762016528338935
 42
6.023815916138206
  0
LINE
  5
159
330
1F
100
AcDbEntity
  8
0
  6
Continuous
 62
     7
370
    15
100
AcDbLine
 10
8.8960131202
 20
409.4391653065
 30
0.0
 11
4.6913617794
 21
379.713465621
 31
0.0
  0
ELLIPSE
  5
15A
330
1F
100
AcDbEntity
  8
0
  6
Continuous
 62
     7
370
    15
100
AcDbEllipse
 10
-223.2111828085
 20
-1252.3110586312
 30
0.0
 11
245.9632581165108
 21
1750.652747942659
 31
0.0
210
0.0
220
0.0
230
1.0
 40
0.0024285499
 41
6.265901732972313
 42
6.603583648346072
  0
LINE
  5
15B
330
1F
100
AcDbEntity
  8
0
  6
Continuous
 62
     7
370
    15
100
AcDbLine
 10
17.6450790409
 20
461.4702874546
 30
0.0
 11
22.788818324
 21
498.0698937301
 31
0.0
  0
ELLIPSE
  5
15C
330
1F
100
AcDbEntity
  8
0
  6
Continuous
 62
     7
370
    15
100
AcDbEllipse
 10
8.018031276
 20
392.9702901964
 30
0.0
 11
9.629952783700469
 21
68.49979775781406
 31
0.0
210
0.0
220
0.0
230
1.0
 40
0.0172850914
 41
0.0024299967570607
 42
2.504089381450593
  0
LINE
  5
15D
330
1F
100
AcDbEntity
  8
0
  6
Continuous
 62
     7
370
    15
100
AcDbLine
 10
8.8960131202
 20
409.4391653065
 30
0.0
 11
8.8960131202
 21
491.0489806656
 31
0.0
  0
LINE
  5
15E
330
1F
100
AcDbEntity
  8
0
  6
Continuous
 62
     7
370
    15
100
AcDbLine
 10
-45.3183787372
 20
409.4391653065
 30
0.0
 11
-45.3183787372
 21
491.0489806656
 31
0.0
  0
LINE
  5
15F
330
1F
100
AcDbEntity
  8
0
  6
Continuous
 62
     7
370
    15
100
AcDbLine
 10
-37.4476449992
 20
729.9703025941
 30
0.0
 11
0.5523556415
 21
729.9703025941
 31
0.0
  0
LINE
  5
160
330
1F
100
AcDbEntity
  8
0
  6
Continuous
 62
     7
370
    15
100
AcDbLine
 10
-37.4476449992
 20
956.9703006868
 30
0.0
 11
0.5523556415
 21
956.9703006868
 31
0.0
  0
LINE
  5
161
330
1F
100
AcDbEntity
  8
0
  6
Continuous
 62
     7
370
    15
100
AcDbLine
 10
8.0523559396
 20
956.9703006868
 30
0.0
 11
8.0523559396
 21
729.9703025941
 31
0.0
  0
LINE
  5
162
330
1F
100
AcDbEntity
  8
0
  6
Continuous
 62
     7
370
    15
100
AcDbLine
 10
0.5523556415
 20
729.9703025941
 30
0.0
 11
8.0523559396
 21
729.9703025941
 31
0.0
  0
LINE
  5
163
330
1F
100
AcDbEntity
  8
0
  6
Continuous
 62
     7
370
    15
100
AcDbLine
 10
0.5523556415
 20
956.9703006868
 30
0.0
 11
8.0523559396
 21
956.9703006868
 31
0.0
  0
LINE
  5
164
330
1F
100
AcDbEntity
  8
0
  6
Continuous
 62
     7
370
    15
100
AcDbLine
 10
-44.9476434346
 20
956.9703006868
 30
0.0
 11
-44.9476434346
 21
729.9703025941
 31
0.0
  0
LINE
  5
165
330
1F
100
AcDbEntity
  8
0
  6
Continuous
 62
     7
370
    15
100
AcDbLine
 10
-44.9476434346
 20
729.9703025941
 30
0.0
 11
-37.4476449992
 21
729.9703025941
 31
0.0
  0
LINE
  5
166
330
1F
100
AcDbEntity
  8
0
  6
Continuous
 62
     7
370
    15
100
AcDbLine
 10
-44.9476434346
 20
956.9703006868
 30
0.0
 11
-37.4476449992
 21
956.9703006868
 31
0.0
  0
SPLINE
  5
167
330
1F
100
AcDbEntity
  8
0
  6
Continuous
 62
     7
370
    15
100
AcDbSpline
210
0.0
220
0.0
230
1.0
 70
     8
 71
     3
 72
    15
 73
    11
 74
     0
 42
0.00000001
 43
0.00000001
 12
1.0
 22
0.0
 32
0.0
 13
1.0
 23
0.0
 33
0.0
 40
0.0
 40
0.0
 40
0.0
 40
0.0
 40
0.1169459851609199
 40
0.233965453803701
 40
0.3552789132272929
 40
0.4766401603058917
 40
0.6066986240418769
 40
0.7367808476998402
 40
0.8683865943159417
 40
1.0
 40
1.0
 40
1.0
 40
1.0
 10
-58.57064635117463
 20
558.0826813106014
 30
0.0
 10
-58.52452503129724
 20
558.1828302198601
 30
0.0
 10
-58.43225341102494
 20
558.3831909673487
 30
0.0
 10
-57.69930347619877
 20
559.9083185546549
 30
0.0
 10
-56.53181745548873
 20
562.2194601025933
 30
0.0
 10
-54.86338216198925
 20
565.3083285137457
 30
0.0
 10
-52.71049007555766
 20
568.9878568843852
 30
0.0
 10
-50.03898667857999
 20
573.1785682154588
 30
0.0
 10
-46.9476423535807
 20
577.6576277773961
 30
0.0
 10
-44.51778169171372
 20
580.8249340350137
 30
0.0
 10
-43.30281600912026
 20
582.4086332444622
 30
0.0
  0
SPLINE
  5
168
330
1F
100
AcDbEntity
  8
0
  6
Continuous
 62
     7
370
    15
100
AcDbSpline
210
0.0
220
0.0
230
1.0
 70
     8
 71
     3
 72
    15
 73
    11
 74
     0
 42
0.00000001
 43
0.00000001
 12
1.0
 22
0.0
 32
0.0
 13
1.0
 23
0.0
 33
0.0
 40
0.0
 40
0.0
 40
0.0
 40
0.0
 40
0.1169687520365126
 40
0.2339852036864033
 40
0.3552955354095466
 40
0.4766536535556366
 40
0.6067087641276999
 40
0.7367876340091636
 40
0.8683899875693363
 40
1.0
 40
1.0
 40
1.0
 40
1.0
 10
22.14833288828918
 20
558.082577002473
 30
0.0
 10
22.10220467171636
 20
558.1827385011594
 30
0.0
 10
22.00992942758013
 20
558.3831023441827
 30
0.0
 10
21.27694108261472
 20
559.9083124030147
 30
0.0
 10
20.1094509633719
 20
562.2194617728084
 30
0.0
 10
18.44101679834682
 20
565.3083280303209
 30
0.0
 10
16.2881243887977
 20
568.987857017615
 30
0.0
 10
13.61662108049148
 20
573.1785681794632
 30
0.0
 10
10.52527673189263
 20
577.6576277864393
 30
0.0
 10
8.095416073184571
 20
580.824934038028
 30
0.0
 10
6.880450392170633
 20
582.4086332444622
 30
0.0
  0
ELLIPSE
  5
169
330
1F
100
AcDbEntity
  8
0
  6
Continuous
 62
     7
370
    15
100
AcDbEllipse
 10
186.7888171915
 20
434.5646067577
 30
0.0
 11
2.842170943040401E-14
 21
4693.959625181133
 31
0.0
210
0.0
220
0.0
230
1.0
 40
0.0524077793
 41
1.55261433817774
 42
1.55332707651861
  0
ELLIPSE
  5
16A
330
1F
100
AcDbEntity
  8
0
  6
Continuous
 62
     7
370
    15
100
AcDbEllipse
 10
-223.2111828085
 20
434.5646067577
 30
0.0
 11
-2.842170943040401E-14
 21
4693.959625181133
 31
0.0
210
0.0
220
0.0
230
1.0
 40
0.0524077793
 41
4.729858230660977
 42
4.730570969001848
  0
LINE
  5
16B
330
1F
100
AcDbEntity
  8
0
  6
Continuous
 62
     7
370
    15
100
AcDbLine
 10
8.8622880671
 20
943.4702658777
 30
0.0
 11
8.2937063221
 21
943.4702658777
 31
0.0
  0
LINE
  5
16C
330
1F
100
AcDbEntity
  8
0
  6
Continuous
 62
     7
370
    15
100
AcDbLine
 10
8.2937063221
 20
943.4702658777
 30
0.0
 11
8.2937063221
 21
743.4702777986
 31
0.0
  0
LINE
  5
16D
330
1F
100
AcDbEntity
  8
0
  6
Continuous
 62
     7
370
    15
100
AcDbLine
 10
8.8622880671
 20
743.4702777986
 30
0.0
 11
8.2937063221
 21
743.4702777986
 31
0.0
  0
LINE
  5
16E
330
1F
100
AcDbEntity
  8
0
  6
Continuous
 62
     7
370
    15
100
AcDbLine
 10
8.0523559396
 20
729.9703025941
 30
0.0
 11
8.8622880671
 21
729.9703025941
 31
0.0
  0
LINE
  5
16F
330
1F
100
AcDbEntity
  8
0
  6
Continuous
 62
     7
370
    15
100
AcDbLine
 10
8.0523559396
 20
956.9703006868
 30
0.0
 11
8.8622880671
 21
956.9703006868
 31
0.0
  0
LINE
  5
170
330
1F
100
AcDbEntity
  8
0
  6
Continuous
 62
     7
370
    15
100
AcDbLine
 10
-45.1889956798
 20
743.4702777986
 30
0.0
 11
-45.7575774248
 21
743.4702777986
 31
0.0
  0
LINE
  5
171
330
1F
100
AcDbEntity
  8
0
  6
Continuous
 62
     7
370
    15
100
AcDbLine
 10
-45.1889956798
 20
943.4702658777
 30
0.0
 11
-45.1889956798
 21
743.4702777986
 31
0.0
  0
LINE
  5
172
330
1F
100
AcDbEntity
  8
0
  6
Continuous
 62
     7
370
    15
100
AcDbLine
 10
-45.1889956798
 20
943.4702658777
 30
0.0
 11
-45.7575774248
 21
943.4702658777
 31
0.0
  0
LINE
  5
173
330
1F
100
AcDbEntity
  8
0
  6
Continuous
 62
     7
370
    15
100
AcDbLine
 10
-45.7575774248
 20
729.9703025941
 30
0.0
 11
-44.9476434346
 21
729.9703025941
 31
0.0
  0
LINE
  5
174
330
1F
100
AcDbEntity
  8
0
  6
Continuous
 62
     7
370
    15
100
AcDbLine
 10
-45.7575774248
 20
956.9703006868
 30
0.0
 11
-44.9476434346
 21
956.9703006868
 31
0.0
  0
LINE
  5
175
330
1F
100
AcDbEntity
  8
0
  6
Continuous
 62
     7
370
    15
100
AcDbLine
 10
-65.4938711282
 20
461.4702874546
 30
0.0
 11
-65.4938711282
 21
324.4702929382
 31
0.0
  0
LINE
  5
176
330
1F
100
AcDbEntity
  8
0
  6
Continuous
 62
     7
370
    15
100
AcDbLine
 10
29.0715055112
 20
461.4702874546
 30
0.0
 11
29.0715055112
 21
324.4702929382
 31
0.0
  0
LINE
  5
177
330
1F
100
AcDbEntity
  8
0
  6
Continuous
 62
     7
370
    15
100
AcDbLine
 10
-0.4413674082
 20
338.0251342182
 30
0.0
 11
-0.3090190198
 21
333.6475493137
 31
0.0
  0
LINE
  5
178
330
1F
100
AcDbEntity
  8
0
  6
Continuous
 62
     7
370
    15
100
AcDbLine
 10
-35.9809982087
 20
338.0251342182
 30
0.0
 11
-36.1133465972
 21
333.6475493137
 31
0.0
  0
LINE
  5
179
330
1F
100
AcDbEntity
  8
0
  6
Continuous
 62
     7
370
    15
100
AcDbLine
 10
-46.0027536805
 20
721.470292819
 30
0.0
 11
-46.0027536805
 21
729.9703025941
 31
0.0
  0
LINE
  5
17A
330
1F
100
AcDbEntity
  8
0
  6
Continuous
 62
     7
370
    15
100
AcDbLine
 10
9.1074643228
 20
729.9703025941
 30
0.0
 11
9.1074643228
 21
721.470292819
 31
0.0
  0
LINE
  5
17B
330
1F
100
AcDbEntity
  8
0
  6
Continuous
 62
     7
370
    15
100
AcDbLine
 10
9.1074643228
 20
721.470292819
 30
0.0
 11
-46.0027536805
 21
721.470292819
 31
0.0
  0
LINE
  5
17C
330
1F
100
AcDbEntity
  8
0
  6
Continuous
 62
     7
370
    15
100
AcDbLine
 10
9.1074643228
 20
965.4702806596
 30
0.0
 11
-46.0027536805
 21
965.4702806596
 31
0.0
  0
LINE
  5
17D
330
1F
100
AcDbEntity
  8
0
  6
Continuous
 62
     7
370
    15
100
AcDbLine
 10
9.1074643228
 20
956.9703006868
 30
0.0
 11
9.1074643228
 21
965.4702806596
 31
0.0
  0
LINE
  5
17E
330
1F
100
AcDbEntity
  8
0
  6
Continuous
 62
     7
370
    15
100
AcDbLine
 10
-46.0027536805
 20
965.4702806596
 30
0.0
 11
-46.0027536805
 21
956.9703006868
 31
0.0
  0
ELLIPSE
  5
17F
330
1F
100
AcDbEntity
  8
0
  6
Continuous
 62
     7
370
    15
100
AcDbEllipse
 10
-36.7111828085
 20
392.9702901964
 30
0.0
 11
-1.421085471520200E-14
 21
68.50000000000006
 31
0.0
210
0.0
220
0.0
230
1.0
 40
0.0174550649
 41
3.665191429188686
 42
3.781525922486558
  0
ELLIPSE
  5
180
330
1F
100
AcDbEntity
  8
0
  6
Continuous
 62
     7
370
    15
100
AcDbEllipse
 10
0.2888171915
 20
392.9702901964
 30
0.0
 11
1.731947918415244E-14
 21
68.50000000000006
 31
0.0
210
0.0
220
0.0
230
1.0
 40
0.0174550649
 41
2.501659384693543
 42
2.6179938779915
  0
LINE
  5
181
330
1F
100
AcDbEntity
  8
0
  6
Continuous
 62
     7
370
    15
100
AcDbLine
 10
11.8709554468
 20
965.4702806596
 30
0.0
 11
9.1074643228
 21
965.4702806596
 31
0.0
  0
LINE
  5
182
330
1F
100
AcDbEntity
  8
0
  6
Continuous
 62
     7
370
    15
100
AcDbLine
 10
11.8709554468
 20
943.4702658777
 30
0.0
 11
8.8622880671
 21
943.4702658777
 31
0.0
  0
LINE
  5
183
330
1F
100
AcDbEntity
  8
0
  6
Continuous
 62
     7
370
    15
100
AcDbLine
 10
8.8622880671
 20
956.9703006868
 30
0.0
 11
9.1074643228
 21
956.9703006868
 31
0.0
  0
LINE
  5
184
330
1F
100
AcDbEntity
  8
0
  6
Continuous
 62
     7
370
    15
100
AcDbLine
 10
11.8709554468
 20
721.470292819
 30
0.0
 11
9.1074643228
 21
721.470292819
 31
0.0
  0
LINE
  5
185
330
1F
100
AcDbEntity
  8
0
  6
Continuous
 62
     7
370
    15
100
AcDbLine
 10
11.8709554468
 20
743.4702777986
 30
0.0
 11
8.8622880671
 21
743.4702777986
 31
0.0
  0
LINE
  5
186
330
1F
100
AcDbEntity
  8
0
  6
Continuous
 62
     7
370
    15
100
AcDbLine
 10
8.8622880671
 20
729.9703025941
 30
0.0
 11
9.1074643228
 21
729.9703025941
 31
0.0
  0
LINE
  5
187
330
1F
100
AcDbEntity
  8
0
  6
Continuous
 62
     7
370
    15
100
AcDbLine
 10
-46.0027536805
 20
721.470292819
 30
0.0
 11
-48.7662429418
 21
721.470292819
 31
0.0
  0
LINE
  5
188
330
1F
100
AcDbEntity
  8
0
  6
Continuous
 62
     7
370
    15
100
AcDbLine
 10
-45.7575774248
 20
743.4702777986
 30
0.0
 11
-48.7662429418
 21
743.4702777986
 31
0.0
  0
LINE
  5
189
330
1F
100
AcDbEntity
  8
0
  6
Continuous
 62
     7
370
    15
100
AcDbLine
 10
-46.0027536805
 20
729.9703025941
 30
0.0
 11
-45.7575774248
 21
729.9703025941
 31
0.0
  0
LINE
  5
18A
330
1F
100
AcDbEntity
  8
0
  6
Continuous
 62
     7
370
    15
100
AcDbLine
 10
-46.0027536805
 20
965.4702806596
 30
0.0
 11
-48.7662429418
 21
965.4702806596
 31
0.0
  0
LINE
  5
18B
330
1F
100
AcDbEntity
  8
0
  6
Continuous
 62
     7
370
    15
100
AcDbLine
 10
-45.7575774248
 20
943.4702658777
 30
0.0
 11
-48.7662429418
 21
943.4702658777
 31
0.0
  0
LINE
  5
18C
330
1F
100
AcDbEntity
  8
0
  6
Continuous
 62
     7
370
    15
100
AcDbLine
 10
-46.0027536805
 20
956.9703006868
 30
0.0
 11
-45.7575774248
 21
956.9703006868
 31
0.0
  0
LINE
  5
18D
330
1F
100
AcDbEntity
  8
0
  6
Continuous
 62
     7
370
    15
100
AcDbLine
 10
-48.7662429418
 20
965.4702806596
 30
0.0
 11
-85.9476445671
 21
965.4702806596
 31
0.0
  0
LINE
  5
18E
330
1F
100
AcDbEntity
  8
0
  6
Continuous
 62
     7
370
    15
100
AcDbLine
 10
-48.7662429418
 20
721.470292819
 30
0.0
 11
-85.9476445671
 21
721.470292819
 31
0.0
  0
LINE
  5
18F
330
1F
100
AcDbEntity
  8
0
  6
Continuous
 62
     7
370
    15
100
AcDbLine
 10
49.0523533467
 20
965.4702806596
 30
0.0
 11
11.8709554468
 21
965.4702806596
 31
0.0
  0
LINE
  5
190
330
1F
100
AcDbEntity
  8
0
  6
Continuous
 62
     7
370
    15
100
AcDbLine
 10
49.0523533467
 20
721.470292819
 30
0.0
 11
11.8709554468
 21
721.470292819
 31
0.0
  0
LINE
  5
191
330
1F
100
AcDbEntity
  8
0
  6
Continuous
 62
     7
370
    15
100
AcDbLine
 10
-80.7111828085
 20
678.9703035478
 30
0.0
 11
-18.2111828085
 21
678.9703035478
 31
0.0
  0
LINE
  5
192
330
1F
100
AcDbEntity
  8
0
  6
Continuous
 62
     7
370
    15
100
AcDbLine
 10
-18.2111828085
 20
678.9703035478
 30
0.0
 11
44.2888171915
 21
678.9703035478
 31
0.0
  0
LINE
  5
193
330
1F
100
AcDbEntity
  8
0
  6
Continuous
 62
     7
370
    15
100
AcDbLine
 10
-37.0467367079
 20
660.9702968721
 30
0.0
 11
0.6243710909
 21
660.9702968721
 31
0.0
  0
CIRCLE
  5
194
330
1F
100
AcDbEntity
  8
0
  6
Continuous
 62
     7
370
    15
100
AcDbCircle
 10
-22.6111828085
 20
984.0202901964
 30
0.0
 40
10.75
  0
CIRCLE
  5
195
330
1F
100
AcDbEntity
  8
0
  6
Continuous
 62
     7
370
    15
100
AcDbCircle
 10
-22.6111828085
 20
984.0202901964
 30
0.0
 40
10.55000000000007
  0
LINE
  5
196
330
1F
100
AcDbEntity
  8
0
  6
Continuous
 62
     7
370
    15
100
AcDbLine
 10
-11.6111828442
 20
995.020296586
 30
0.0
 11
-39.6111837085
 21
995.020296586
 31
0.0
  0
ARC
  5
197
330
1F
100
AcDbEntity
  8
0
  6
Continuous
 62
     7
370
    15
100
AcDbCircle
 10
-11.6111828085
 20
993.5202901964
 30
0.0
 40
1.499999999999432
100
AcDbArc
 50
360.0
 51
90.0
  0
LINE
  5
198
330
1F
100
AcDbEntity
  8
0
  6
Continuous
 62
     7
370
    15
100
AcDbLine
 10
-10.1111825984
 20
974.5202922944
 30
0.0
 11
-10.1111825984
 21
993.5202860956
 31
0.0
  0
LINE
  5
199
330
1F
100
AcDbEntity
  8
0
  6
Continuous
 62
     7
370
    15
100
AcDbLine
 10
-39.6111837085
 20
973.020281804
 30
0.0
 11
-11.6111828442
 21
973.020281804
 31
0.0
  0
LINE
  5
19A
330
1F
100
AcDbEntity
  8
0
  6
Continuous
 62
     7
370
    15
100
AcDbLine
 10
-39.6111837085
 20
995.020296586
 30
0.0
 11
-39.6111837085
 21
973.020281804
 31
0.0
  0
ARC
  5
19B
330
1F
100
AcDbEntity
  8
0
  6
Continuous
 62
     7
370
    15
100
AcDbCircle
 10
-11.6111828085
 20
974.5202901964
 30
0.0
 40
1.499999999999432
100
AcDbArc
 50
270.0
 51
0.0
  0
LINE
  5
19C
330
1F
100
AcDbEntity
  8
0
  6
Continuous
 62
     7
370
    15
100
AcDbLine
 10
72.7888153438
 20
267.9702901964
 30
0.0
 11
62.7888174299
 21
267.9702901964
 31
0.0
  0
LINE
  5
19D
330
1F
100
AcDbEntity
  8
0
  6
Continuous
 62
     7
370
    15
100
AcDbLine
 10
72.7888153438
 20
280.5075982336
 30
0.0
 11
72.7888153438
 21
267.9702901964
 31
0.0
  0
LINE
  5
19E
330
1F
100
AcDbEntity
  8
0
  6
Continuous
 62
     7
370
    15
100
AcDbLine
 10
62.7888174299
 20
280.5075982336
 30
0.0
 11
62.7888174299
 21
267.9702901964
 31
0.0
  0
LINE
  5
19F
330
1F
100
AcDbEntity
  8
0
  6
Continuous
 62
     7
370
    15
100
AcDbLine
 10
-109.2111809607
 20
267.9702901964
 30
0.0
 11
-99.2111830469
 21
267.9702901964
 31
0.0
  0
LINE
  5
1A0
330
1F
100
AcDbEntity
  8
0
  6
Continuous
 62
     7
370
    15
100
AcDbLine
 10
-109.2111809607
 20
280.5075982336
 30
0.0
 11
-109.2111809607
 21
267.9702901964
 31
0.0
  0
LINE
  5
1A1
330
1F
100
AcDbEntity
  8
0
  6
Continuous
 62
     7
370
    15
100
AcDbLine
 10
-99.2111830469
 20
280.5075982336
 30
0.0
 11
-99.2111830469
 21
267.9702901964
 31
0.0
  0
LINE
  5
1A2
330
1F
100
AcDbEntity
  8
0
  6
Continuous
 62
     7
370
    15
100
AcDbLine
 10
7.6036354099
 20
678.9703035478
 30
0.0
 11
7.6036354099
 21
661.0526704912
 31
0.0
  0
SPLINE
  5
1A3
330
1F
100
AcDbEntity
  8
0
  6
Continuous
 62
     7
370
    15
100
AcDbSpline
210
0.0
220
0.0
230
1.0
 70
     8
 71
     3
 72
     8
 73
     4
 74
     0
 42
0.00000001
 43
0.00000001
 12
1.0
 22
0.0
 32
0.0
 13
1.0
 23
0.0
 33
0.0
 40
0.0000002253479019
 40
0.0000002253479019
 40
0.0000002253479019
 40
0.0000002253479019
 40
0.0002080259078672
 40
0.0002080259078672
 40
0.0002080259078672
 40
0.0002080259078672
 10
7.603635750575367
 20
661.052671511726
 30
0.0
 10
7.587163490770734
 20
661.0253338486181
 30
0.0
 10
7.570704911571864
 20
660.9978728074765
 30
0.0
 10
7.554260028204123
 20
660.9702901963666
 30
0.0
  0
LINE
  5
1A4
330
1F
100
AcDbEntity
  8
0
  6
Continuous
 62
     7
370
    15
100
AcDbLine
 10
0.6243710909
 20
660.9702968721
 30
0.0
 11
7.5542604123
 21
660.9702968721
 31
0.0
  0
SPLINE
  5
1A5
330
1F
100
AcDbEntity
  8
0
  6
Continuous
 62
     7
370
    15
100
AcDbSpline
210
0.0
220
0.0
230
1.0
 70
     8
 71
     3
 72
     8
 73
     4
 74
     0
 42
0.00000001
 43
0.00000001
 12
1.0
 22
0.0
 32
0.0
 13
1.0
 23
0.0
 33
0.0
 40
0.0000005022438713
 40
0.0000005022438713
 40
0.0000005022438713
 40
0.0000005022438713
 40
0.0002083028038367
 40
0.0002083028038367
 40
0.0002083028038367
 40
0.0002083028038367
 10
-43.97662564515339
 20
660.9702901963666
 30
0.0
 10
-43.99307052852114
 20
660.9978728074765
 30
0.0
 10
-44.00952910772001
 20
661.0253338486181
 30
0.0
 10
-44.02600136752464
 20
661.052671511726
 30
0.0
  0
LINE
  5
1A6
330
1F
100
AcDbEntity
  8
0
  6
Continuous
 62
     7
370
    15
100
AcDbLine
 10
-44.0260010268
 20
678.9703035478
 30
0.0
 11
-44.0260010268
 21
661.0526704912
 31
0.0
  0
LINE
  5
1A7
330
1F
100
AcDbEntity
  8
0
  6
Continuous
 62
     7
370
    15
100
AcDbLine
 10
-43.9766260292
 20
660.9702968721
 30
0.0
 11
-37.0467367079
 21
660.9702968721
 31
0.0
  0
LINE
  5
1A8
330
1F
100
AcDbEntity
  8
0
  6
Continuous
 62
     7
370
    15
100
AcDbLine
 10
0.6269136016
 20
650.9702766065
 30
0.0
 11
0.6269136016
 21
660.9702968721
 31
0.0
  0
LINE
  5
1A9
330
1F
100
AcDbEntity
  8
0
  6
Continuous
 62
     7
370
    15
100
AcDbLine
 10
0.6269136016
 20
618.0446261291
 30
0.0
 11
0.6269136016
 21
650.9702766065
 31
0.0
  0
LINE
  5
1AA
330
1F
100
AcDbEntity
  8
0
  6
Continuous
 62
     7
370
    15
100
AcDbLine
 10
-37.0492792185
 20
618.0446261291
 30
0.0
 11
-37.0492792185
 21
650.9702766065
 31
0.0
  0
LINE
  5
1AB
330
1F
100
AcDbEntity
  8
0
  6
Continuous
 62
     7
370
    15
100
AcDbLine
 10
-37.0492792185
 20
660.9702968721
 30
0.0
 11
-37.0492792185
 21
650.9702766065
 31
0.0
  0
LINE
  5
1AC
330
1F
100
AcDbEntity
  8
0
  6
Continuous
 62
     7
370
    15
100
AcDbLine
 10
7.5542604123
 20
660.9702968721
 30
0.0
 11
15.7888190393
 21
660.9702968721
 31
0.0
  0
LINE
  5
1AD
330
1F
100
AcDbEntity
  8
0
  6
Continuous
 62
     7
370
    15
100
AcDbLine
 10
-52.2111846562
 20
660.9702968721
 30
0.0
 11
-43.9766260292
 21
660.9702968721
 31
0.0
  0
ARC
  5
1AE
330
1F
100
AcDbEntity
  8
0
  6
Continuous
 62
     7
370
    15
100
AcDbCircle
 10
-41.6373559837
 20
971.7702901964
 30
0.0
 40
0.5000000000030695
100
AcDbArc
 50
198.3066449161
 51
269.9999999998
  0
ARC
  5
1AF
330
1F
100
AcDbEntity
  8
0
  6
Continuous
 62
     7
370
    15
100
AcDbCircle
 10
-4.6111828085
 20
984.0202901964
 30
0.0
 40
39.499999999998
100
AcDbArc
 50
161.0732568243
 51
198.3066449159
  0
ARC
  5
1B0
330
1F
100
AcDbEntity
  8
0
  6
Continuous
 62
     7
370
    15
100
AcDbCircle
 10
-41.5026113522
 20
996.6702901964
 30
0.0
 40
0.499999999998014
100
AcDbArc
 50
89.9999999999
 51
161.0732568245
  0
LINE
  5
1B1
330
1F
100
AcDbEntity
  8
0
  6
Continuous
 62
     7
370
    15
100
AcDbLine
 10
5.4888179098
 20
997.1702957277
 30
0.0
 11
-41.5026104506
 21
997.1702957277
 31
0.0
  0
LINE
  5
1B2
330
1F
100
AcDbEntity
  8
0
  6
Continuous
 62
     7
370
    15
100
AcDbLine
 10
5.4888179098
 20
971.2702894334
 30
0.0
 11
5.4888179098
 21
997.1702957277
 31
0.0
  0
LINE
  5
1B3
330
1F
100
AcDbEntity
  8
0
  6
Continuous
 62
     7
370
    15
100
AcDbLine
 10
-41.6373560633
 20
971.2702894334
 30
0.0
 11
5.4888179098
 21
971.2702894334
 31
0.0
  0
LINE
  5
1B4
330
1F
100
AcDbEntity
  8
0
  6
Continuous
 62
     7
370
    15
100
AcDbLine
 10
7.6036354099
 20
668.9702832822
 30
0.0
 11
7.788817728
 21
668.9702832822
 31
0.0
  0
LINE
  5
1B5
330
1F
100
AcDbEntity
  8
0
  6
Continuous
 62
     7
370
    15
100
AcDbLine
 10
-44.2111833449
 20
668.9702832822
 30
0.0
 11
-44.0260010268
 21
668.9702832822
 31
0.0
  0
LINE
  5
1B6
330
1F
100
AcDbEntity
  8
0
  6
Continuous
 62
     7
370
    15
100
AcDbLine
 10
47.2301872019
 20
943.4702658777
 30
0.0
 11
45.7650379781
 21
943.4702658777
 31
0.0
  0
LINE
  5
1B7
330
1F
100
AcDbEntity
  8
0
  6
Continuous
 62
     7
370
    15
100
AcDbLine
 10
47.2301872019
 20
743.4702777986
 30
0.0
 11
45.7650379781
 21
743.4702777986
 31
0.0
  0
LINE
  5
1B8
330
1F
100
AcDbEntity
  8
0
  6
Continuous
 62
     7
370
    15
100
AcDbLine
 10
-82.6603217479
 20
943.4702658777
 30
0.0
 11
-84.1254784222
 21
943.4702658777
 31
0.0
  0
LINE
  5
1B9
330
1F
100
AcDbEntity
  8
0
  6
Continuous
 62
     7
370
    15
100
AcDbLine
 10
-82.6603217479
 20
743.4702777986
 30
0.0
 11
-84.1254784222
 21
743.4702777986
 31
0.0
  0
LINE
  5
1BA
330
1F
100
AcDbEntity
  8
0
  6
Continuous
 62
     7
370
    15
100
AcDbLine
 10
54.055410767
 20
943.4702658777
 30
0.0
 11
47.2301872019
 21
943.4702658777
 31
0.0
  0
LINE
  5
1BB
330
1F
100
AcDbEntity
  8
0
  6
Continuous
 62
     7
370
    15
100
AcDbLine
 10
54.055410767
 20
743.4702777986
 30
0.0
 11
47.2301872019
 21
743.4702777986
 31
0.0
  0
LINE
  5
1BC
330
1F
100
AcDbEntity
  8
0
  6
Continuous
 62
     7
370
    15
100
AcDbLine
 10
-84.1254784222
 20
943.4702658777
 30
0.0
 11
-90.9506945368
 21
943.4702658777
 31
0.0
  0
LINE
  5
1BD
330
1F
100
AcDbEntity
  8
0
  6
Continuous
 62
     7
370
    15
100
AcDbLine
 10
-84.1254784222
 20
743.4702777986
 30
0.0
 11
-90.9506945368
 21
743.4702777986
 31
0.0
  0
LINE
  5
1BE
330
1F
100
AcDbEntity
  8
0
  6
Continuous
 62
     7
370
    15
100
AcDbLine
 10
54.1677506212
 20
943.4702658777
 30
0.0
 11
54.055410767
 21
943.4702658777
 31
0.0
  0
LINE
  5
1BF
330
1F
100
AcDbEntity
  8
0
  6
Continuous
 62
     7
370
    15
100
AcDbLine
 10
54.1677506212
 20
743.4702777986
 30
0.0
 11
54.055410767
 21
743.4702777986
 31
0.0
  0
LINE
  5
1C0
330
1F
100
AcDbEntity
  8
0
  6
Continuous
 62
     7
370
    15
100
AcDbLine
 10
-90.9506945368
 20
943.4702658777
 30
0.0
 11
-91.0630418416
 21
943.4702658777
 31
0.0
  0
LINE
  5
1C1
330
1F
100
AcDbEntity
  8
0
  6
Continuous
 62
     7
370
    15
100
AcDbLine
 10
-90.9506945368
 20
743.4702777986
 30
0.0
 11
-91.0630418416
 21
743.4702777986
 31
0.0
  0
LINE
  5
1C2
330
1F
100
AcDbEntity
  8
0
  6
Continuous
 62
     7
370
    15
100
AcDbLine
 10
54.5759306792
 20
943.4702658777
 30
0.0
 11
54.5759306792
 21
743.4702777986
 31
0.0
  0
LINE
  5
1C3
330
1F
100
AcDbEntity
  8
0
  6
Continuous
 62
     7
370
    15
100
AcDbLine
 10
54.5759306792
 20
943.4702658777
 30
0.0
 11
54.1677506212
 21
943.4702658777
 31
0.0
  0
LINE
  5
1C4
330
1F
100
AcDbEntity
  8
0
  6
Continuous
 62
     7
370
    15
100
AcDbLine
 10
54.5759306792
 20
743.4702777986
 30
0.0
 11
54.1677506212
 21
743.4702777986
 31
0.0
  0
LINE
  5
1C5
330
1F
100
AcDbEntity
  8
0
  6
Continuous
 62
     7
370
    15
100
AcDbLine
 10
-91.471214449
 20
943.4702658777
 30
0.0
 11
-91.471214449
 21
743.4702777986
 31
0.0
  0
LINE
  5
1C6
330
1F
100
AcDbEntity
  8
0
  6
Continuous
 62
     7
370
    15
100
AcDbLine
 10
-91.0630418416
 20
943.4702658777
 30
0.0
 11
-91.471214449
 21
943.4702658777
 31
0.0
  0
LINE
  5
1C7
330
1F
100
AcDbEntity
  8
0
  6
Continuous
 62
     7
370
    15
100
AcDbLine
 10
-91.0630418416
 20
743.4702777986
 30
0.0
 11
-91.471214449
 21
743.4702777986
 31
0.0
  0
LINE
  5
1C8
330
1F
100
AcDbEntity
  8
0
  6
Continuous
 62
     7
370
    15
100
AcDbLine
 10
-59.1736479159
 20
516.5603944783
 30
0.0
 11
-59.3547193762
 21
519.937899125
 31
0.0
  0
LINE
  5
1C9
330
1F
100
AcDbEntity
  8
0
  6
Continuous
 62
     7
370
    15
100
AcDbLine
 10
22.751282299
 20
516.5603944783
 30
0.0
 11
22.9323537592
 21
519.937899125
 31
0.0
  0
LINE
  5
1CA
330
1F
100
AcDbEntity
  8
0
  6
Continuous
 62
     7
370
    15
100
AcDbLine
 10
54.9839170222
 20
943.4702658777
 30
0.0
 11
54.9839170222
 21
743.4702777986
 31
0.0
  0
LINE
  5
1CB
330
1F
100
AcDbEntity
  8
0
  6
Continuous
 62
     7
370
    15
100
AcDbLine
 10
55.0523580555
 20
943.4702658777
 30
0.0
 11
54.9839170222
 21
943.4702658777
 31
0.0
  0
LINE
  5
1CC
330
1F
100
AcDbEntity
  8
0
  6
Continuous
 62
     7
370
    15
100
AcDbLine
 10
55.0523580555
 20
743.4702777986
 30
0.0
 11
54.9839170222
 21
743.4702777986
 31
0.0
  0
LINE
  5
1CD
330
1F
100
AcDbEntity
  8
0
  6
Continuous
 62
     7
370
    15
100
AcDbLine
 10
54.9839170222
 20
943.4702658777
 30
0.0
 11
54.5759306792
 21
943.4702658777
 31
0.0
  0
LINE
  5
1CE
330
1F
100
AcDbEntity
  8
0
  6
Continuous
 62
     7
370
    15
100
AcDbLine
 10
54.9839170222
 20
743.4702777986
 30
0.0
 11
54.5759306792
 21
743.4702777986
 31
0.0
  0
LINE
  5
1CF
330
1F
100
AcDbEntity
  8
0
  6
Continuous
 62
     7
370
    15
100
AcDbLine
 10
-91.8792007919
 20
943.4702658777
 30
0.0
 11
-91.8792007919
 21
743.4702777986
 31
0.0
  0
LINE
  5
1D0
330
1F
100
AcDbEntity
  8
0
  6
Continuous
 62
     7
370
    15
100
AcDbLine
 10
-91.471214449
 20
943.4702658777
 30
0.0
 11
-91.8792007919
 21
943.4702658777
 31
0.0
  0
LINE
  5
1D1
330
1F
100
AcDbEntity
  8
0
  6
Continuous
 62
     7
370
    15
100
AcDbLine
 10
-91.471214449
 20
743.4702777986
 30
0.0
 11
-91.8792007919
 21
743.4702777986
 31
0.0
  0
LINE
  5
1D2
330
1F
100
AcDbEntity
  8
0
  6
Continuous
 62
     7
370
    15
100
AcDbLine
 10
-91.8792007919
 20
943.4702658777
 30
0.0
 11
-91.9476418253
 21
943.4702658777
 31
0.0
  0
LINE
  5
1D3
330
1F
100
AcDbEntity
  8
0
  6
Continuous
 62
     7
370
    15
100
AcDbLine
 10
-91.8792007919
 20
743.4702777986
 30
0.0
 11
-91.9476418253
 21
743.4702777986
 31
0.0
  0
LINE
  5
1D4
330
1F
100
AcDbEntity
  8
0
  6
Continuous
 62
     7
370
    15
100
AcDbLine
 10
-41.9111835267
 20
970.6520700578
 30
0.0
 11
-41.9111835267
 21
965.9703040246
 31
0.0
  0
ARC
  5
1D5
330
1F
100
AcDbEntity
  8
0
  6
Continuous
 62
     7
370
    15
100
AcDbCircle
 10
-42.4111828085
 20
970.6520442381
 30
0.0
 40
0.4999999999789182
100
AcDbArc
 50
359.9999999996
 51
19.5242715107
  0
ARC
  5
1D6
330
1F
100
AcDbEntity
  8
0
  6
Continuous
 62
     7
370
    15
100
AcDbCircle
 10
-4.7111828085
 20
984.0202901964
 30
0.0
 40
39.50000000000307
100
AcDbArc
 50
160.9178751964
 51
199.5242715103
  0
ARC
  5
1D7
330
1F
100
AcDbEntity
  8
0
  6
Continuous
 62
     7
370
    15
100
AcDbCircle
 10
-41.5681699344
 20
996.7702901964
 30
0.0
 40
0.4999999999996192
100
AcDbArc
 50
90.0
 51
160.9178751964
  0
LINE
  5
1D8
330
1F
100
AcDbEntity
  8
0
  6
Continuous
 62
     7
370
    15
100
AcDbLine
 10
5.5888177399
 20
997.2703123216
 30
0.0
 11
-41.5681699719
 21
997.2703123216
 31
0.0
  0
ARC
  5
1D9
330
1F
100
AcDbEntity
  8
0
  6
Continuous
 62
     7
370
    15
100
AcDbCircle
 10
-41.4111828085
 20
965.9702901964
 30
0.0
 40
0.5000000000009379
100
AcDbArc
 50
180.0000000001
 51
269.9999999999
  0
LINE
  5
1DA
330
1F
100
AcDbEntity
  8
0
  6
Continuous
 62
     7
370
    15
100
AcDbLine
 10
5.5888177399
 20
965.4702806596
 30
0.0
 11
5.5888177399
 21
997.2703123216
 31
0.0
  0
LINE
  5
1DB
330
1F
100
AcDbEntity
  8
0
  6
Continuous
 62
     8
370
     0
100
AcDbLine
 10
14.77197125
 20
537.2880810623
 30
0.0
 11
15.1870989744
 21
536.9702839975
 31
0.0
  0
LINE
  5
1DC
330
1F
100
AcDbEntity
  8
0
  6
Continuous
 62
     8
370
     0
100
AcDbLine
 10
-51.1943368669
 20
537.2880810623
 30
0.0
 11
-51.6094645913
 21
536.9702839975
 31
0.0
  0
LINE
  5
1DD
330
1F
100
AcDbEntity
  8
0
  6
Continuous
 62
     8
370
     0
100
AcDbLine
 10
15.1870989744
 20
529.9702847127
 30
0.0
 11
15.1870989744
 21
536.9702839975
 31
0.0
  0
LINE
  5
1DE
330
1F
100
AcDbEntity
  8
0
  6
Continuous
 62
     8
370
     0
100
AcDbLine
 10
-51.6094645913
 20
529.9702847127
 30
0.0
 11
-51.6094645913
 21
536.9702839975
 31
0.0
  0
LINE
  5
1DF
330
1F
100
AcDbEntity
  8
0
  6
Continuous
 62
     8
370
     0
100
AcDbLine
 10
-50.0017969366
 20
522.4003309135
 30
0.0
 11
-50.0896243807
 21
529.9702847127
 31
0.0
  0
LINE
  5
1E0
330
1F
100
AcDbEntity
  8
0
  6
Continuous
 62
     8
370
     0
100
AcDbLine
 10
13.5794313196
 20
522.4003309135
 30
0.0
 11
13.6672587637
 21
529.9702847127
 31
0.0
  0
LINE
  5
1E1
330
1F
100
AcDbEntity
  8
0
  6
Continuous
 62
     8
370
     0
100
AcDbLine
 10
12.5084904526
 20
521.5473288421
 30
0.0
 11
13.5794313196
 21
522.4003309135
 31
0.0
  0
LINE
  5
1E2
330
1F
100
AcDbEntity
  8
0
  6
Continuous
 62
     8
370
     0
100
AcDbLine
 10
-48.9308560695
 20
521.5473288421
 30
0.0
 11
-50.0017969366
 21
522.4003309135
 31
0.0
  0
LINE
  5
1E3
330
1F
100
AcDbEntity
  8
0
  6
Continuous
 62
     8
370
     0
100
AcDbLine
 10
-60.9701840635
 20
537.2837746267
 30
0.0
 11
-62.6934288498
 21
536.9702839975
 31
0.0
  0
LINE
  5
1E4
330
1F
100
AcDbEntity
  8
0
  6
Continuous
 62
     8
370
     0
100
AcDbLine
 10
24.5478184466
 20
537.2837746267
 30
0.0
 11
26.2710632328
 21
536.9702839975
 31
0.0
  0
LINE
  5
1E5
330
1F
100
AcDbEntity
  8
0
  6
Continuous
 62
     8
370
     0
100
AcDbLine
 10
26.2710632328
 20
529.9702847127
 30
0.0
 11
26.2710632328
 21
536.9702839975
 31
0.0
  0
LINE
  5
1E6
330
1F
100
AcDbEntity
  8
0
  6
Continuous
 62
     8
370
     0
100
AcDbLine
 10
-62.6934288498
 20
529.9702847127
 30
0.0
 11
-62.6934288498
 21
536.9702839975
 31
0.0
  0
LINE
  5
1E7
330
1F
100
AcDbEntity
  8
0
  6
Continuous
 62
     8
370
     0
100
AcDbLine
 10
4.6662607733
 20
537.7130621795
 30
0.0
 11
5.0443255846
 21
556.9702947263
 31
0.0
  0
LINE
  5
1E8
330
1F
100
AcDbEntity
  8
0
  6
Continuous
 62
     8
370
     0
100
AcDbLine
 10
-41.0886263903
 20
537.7130621795
 30
0.0
 11
-41.4666912015
 21
556.9702947263
 31
0.0
  0
LINE
  5
1E9
330
1F
100
AcDbEntity
  8
0
  6
Continuous
 62
     8
370
     0
100
AcDbLine
 10
25.2614015285
 20
522.4003309135
 30
0.0
 11
25.6462500934
 21
529.9702847127
 31
0.0
  0
LINE
  5
1EA
330
1F
100
AcDbEntity
  8
0
  6
Continuous
 62
     8
370
     0
100
AcDbLine
 10
-61.6837671455
 20
522.4003309135
 30
0.0
 11
-62.0686157103
 21
529.9702847127
 31
0.0
  0
LINE
  5
1EB
330
1F
100
AcDbEntity
  8
0
  6
Continuous
 62
     8
370
     0
100
AcDbLine
 10
20.562268192
 20
521.5461814527
 30
0.0
 11
25.2614015285
 21
522.4003309135
 31
0.0
  0
LINE
  5
1EC
330
1F
100
AcDbEntity
  8
0
  6
Continuous
 62
     8
370
     0
100
AcDbLine
 10
-56.9846338089
 20
521.5461814527
 30
0.0
 11
-61.6837671455
 21
522.4003309135
 31
0.0
  0
LINE
  5
1ED
330
1F
100
AcDbEntity
  8
0
  6
Continuous
 62
     8
370
     0
100
AcDbLine
 10
-9.9988203924
 20
518.255721939
 30
0.0
 11
-9.9988203924
 21
518.3342361574
 31
0.0
  0
LINE
  5
1EE
330
1F
100
AcDbEntity
  8
0
  6
Continuous
 62
     8
370
     0
100
AcDbLine
 10
-10.2205506023
 20
518.1077683095
 30
0.0
 11
-10.2205506023
 21
518.1862825279
 31
0.0
  0
LINE
  5
1EF
330
1F
100
AcDbEntity
  8
0
  6
Continuous
 62
     8
370
     0
100
AcDbLine
 10
7.6968179588
 20
518.255721939
 30
0.0
 11
7.6968179588
 21
518.3342361574
 31
0.0
  0
LINE
  5
1F0
330
1F
100
AcDbEntity
  8
0
  6
Continuous
 62
     8
370
     0
100
AcDbLine
 10
-39.8231825288
 20
518.255721939
 30
0.0
 11
-39.8231825288
 21
518.3342361574
 31
0.0
  0
LINE
  5
1F1
330
1F
100
AcDbEntity
  8
0
  6
Continuous
 62
     8
370
     0
100
AcDbLine
 10
-23.4235456641
 20
518.255721939
 30
0.0
 11
-23.4235456641
 21
518.3342361574
 31
0.0
  0
LINE
  5
1F2
330
1F
100
AcDbEntity
  8
0
  6
Continuous
 62
     8
370
     0
100
AcDbLine
 10
-23.2018145229
 20
518.1077683095
 30
0.0
 11
-23.2018145229
 21
518.1862825279
 31
0.0
  0
LINE
  5
1F3
330
1F
100
AcDbEntity
  8
0
  6
Continuous
 62
     8
370
     0
100
AcDbLine
 10
-16.9329139366
 20
502.9940495018
 30
0.0
 11
-16.9329139366
 21
503.0725562696
 31
0.0
  0
LINE
  5
1F4
330
1F
100
AcDbEntity
  8
0
  6
Continuous
 62
     8
370
     0
100
AcDbLine
 10
-16.4894517706
 20
502.9940495018
 30
0.0
 11
-16.4894517706
 21
503.0725562696
 31
0.0
  0
LINE
  5
1F5
330
1F
100
AcDbEntity
  8
0
  6
Continuous
 62
     8
370
     0
100
AcDbLine
 10
-27.5925618093
 20
511.5455651407
 30
0.0
 11
-27.5925618093
 21
511.6240644578
 31
0.0
  0
LINE
  5
1F6
330
1F
100
AcDbEntity
  8
0
  6
Continuous
 62
     8
370
     0
100
AcDbLine
 10
-27.8142929505
 20
511.6935113196
 30
0.0
 11
-27.8142929505
 21
511.7720180873
 31
0.0
  0
LINE
  5
1F7
330
1F
100
AcDbEntity
  8
0
  6
Continuous
 62
     8
370
     0
100
AcDbLine
 10
-39.8231825288
 20
511.6935113196
 30
0.0
 11
-39.8231825288
 21
511.7720180873
 31
0.0
  0
LINE
  5
1F8
330
1F
100
AcDbEntity
  8
0
  6
Continuous
 62
     8
370
     0
100
AcDbLine
 10
3.1329573635
 20
511.6935113196
 30
0.0
 11
3.1329573635
 21
511.7720180873
 31
0.0
  0
LINE
  5
1F9
330
1F
100
AcDbEntity
  8
0
  6
Continuous
 62
     8
370
     0
100
AcDbLine
 10
-0.9321390148
 20
511.6935113196
 30
0.0
 11
-0.9321390148
 21
511.7720180873
 31
0.0
  0
LINE
  5
1FA
330
1F
100
AcDbEntity
  8
0
  6
Continuous
 62
     8
370
     0
100
AcDbLine
 10
-5.6080721747
 20
511.6935113196
 30
0.0
 11
-5.6080721747
 21
511.7720180873
 31
0.0
  0
LINE
  5
1FB
330
1F
100
AcDbEntity
  8
0
  6
Continuous
 62
     8
370
     0
100
AcDbLine
 10
7.6968179588
 20
511.6935113196
 30
0.0
 11
7.6968179588
 21
511.7720180873
 31
0.0
  0
LINE
  5
1FC
330
1F
100
AcDbEntity
  8
0
  6
Continuous
 62
     8
370
     0
100
AcDbLine
 10
-5.8298033159
 20
511.5455651407
 30
0.0
 11
-5.8298033159
 21
511.6240644578
 31
0.0
  0
LINE
  5
1FD
330
1F
100
AcDbEntity
  8
0
  6
Continuous
 62
     8
370
     0
100
AcDbLine
 10
-12.4525741171
 20
495.5786877994
 30
0.0
 11
-12.4525741171
 21
495.6571945672
 31
0.0
  0
LINE
  5
1FE
330
1F
100
AcDbEntity
  8
0
  6
Continuous
 62
     8
370
     0
100
AcDbLine
 10
-20.9697914738
 20
495.5786877994
 30
0.0
 11
-20.9697914738
 21
495.6571945672
 31
0.0
  0
LINE
  5
1FF
330
1F
100
AcDbEntity
  8
0
  6
Continuous
 62
     8
370
     0
100
AcDbLine
 10
-2.5936268698
 20
505.9791544203
 30
0.0
 11
-2.5936268698
 21
506.0576537375
 31
0.0
  0
LINE
  5
200
330
1F
100
AcDbEntity
  8
0
  6
Continuous
 62
     8
370
     0
100
AcDbLine
 10
-36.7832692768
 20
506.5687039618
 30
0.0
 11
-36.7832692768
 21
506.6472107295
 31
0.0
  0
LINE
  5
201
330
1F
100
AcDbEntity
  8
0
  6
Continuous
 62
     8
370
     0
100
AcDbLine
 10
-41.3417282011
 20
495.5786877994
 30
0.0
 11
-41.3417282011
 21
495.6571945672
 31
0.0
  0
LINE
  5
202
330
1F
100
AcDbEntity
  8
0
  6
Continuous
 62
     8
370
     0
100
AcDbLine
 10
-46.7111828234
 20
494.970288289
 30
0.0
 11
-46.7111828234
 21
521.5039962654
 31
0.0
  0
LINE
  5
203
330
1F
100
AcDbEntity
  8
0
  6
Continuous
 62
     8
370
     0
100
AcDbLine
 10
10.2888172064
 20
494.970288289
 30
0.0
 11
10.2888172064
 21
521.5039962654
 31
0.0
  0
LINE
  5
204
330
1F
100
AcDbEntity
  8
0
  6
Continuous
 62
     8
370
     0
100
AcDbLine
 10
-32.6936493125
 20
503.0366146688
 30
0.0
 11
-32.6936493125
 21
503.115113986
 31
0.0
  0
LINE
  5
205
330
1F
100
AcDbEntity
  8
0
  6
Continuous
 62
     8
370
     0
100
AcDbLine
 10
-29.6178708281
 20
503.0366146688
 30
0.0
 11
-29.6178708281
 21
503.115113986
 31
0.0
  0
LINE
  5
206
330
1F
100
AcDbEntity
  8
0
  6
Continuous
 62
     8
370
     0
100
AcDbLine
 10
1.1413221751
 20
502.0245278005
 30
0.0
 11
1.1413221751
 21
502.1030345683
 31
0.0
  0
LINE
  5
207
330
1F
100
AcDbEntity
  8
0
  6
Continuous
 62
     8
370
     0
100
AcDbLine
 10
5.229768673
 20
495.6157469873
 30
0.0
 11
5.229768673
 21
495.694253755
 31
0.0
  0
LINE
  5
208
330
1F
100
AcDbEntity
  8
0
  6
Continuous
 62
     8
370
     0
100
AcDbLine
 10
-55.8745531793
 20
494.970288289
 30
0.0
 11
-57.2646154519
 21
521.5010905389
 31
0.0
  0
LINE
  5
209
330
1F
100
AcDbEntity
  8
0
  6
Continuous
 62
     8
370
     0
100
AcDbLine
 10
19.4521875624
 20
494.970288289
 30
0.0
 11
20.8422498349
 21
521.5010905389
 31
0.0
  0
LINE
  5
20A
330
1F
100
AcDbEntity
  8
0
  6
Continuous
 62
     8
370
     0
100
AcDbLine
 10
-46.7111828234
 20
491.6342386727
 30
0.0
 11
-46.7111828234
 21
494.970288289
 31
0.0
  0
LINE
  5
20B
330
1F
100
AcDbEntity
  8
0
  6
Continuous
 62
     8
370
     0
100
AcDbLine
 10
-46.7111828234
 20
491.6342386727
 30
0.0
 11
-55.8745531793
 21
494.970288289
 31
0.0
  0
LINE
  5
20C
330
1F
100
AcDbEntity
  8
0
  6
Continuous
 62
     8
370
     0
100
AcDbLine
 10
10.2888172064
 20
491.6342386727
 30
0.0
 11
10.2888172064
 21
494.970288289
 31
0.0
  0
LINE
  5
20D
330
1F
100
AcDbEntity
  8
0
  6
Continuous
 62
     8
370
     0
100
AcDbLine
 10
10.2888172064
 20
491.6342386727
 30
0.0
 11
19.4521875624
 21
494.970288289
 31
0.0
  0
LINE
  5
20E
330
1F
100
AcDbEntity
  8
0
  6
Continuous
 62
     8
370
     0
100
AcDbLine
 10
1.5304585491
 20
356.1019526545
 30
0.0
 11
-37.952824166
 21
356.1019526545
 31
0.0
  0
LINE
  5
20F
330
1F
100
AcDbEntity
  8
0
  6
Continuous
 62
     8
370
     0
100
AcDbLine
 10
0.5523556415
 20
956.9703006868
 30
0.0
 11
0.5523556415
 21
729.9703025941
 31
0.0
  0
LINE
  5
210
330
1F
100
AcDbEntity
  8
0
  6
Continuous
 62
     8
370
     0
100
AcDbLine
 10
-37.4476449992
 20
956.9703006868
 30
0.0
 11
-37.4476449992
 21
729.9703025941
 31
0.0
  0
LINE
  5
211
330
1F
100
AcDbEntity
  8
0
  6
Continuous
 62
     8
370
     0
100
AcDbLine
 10
57.9336689357
 20
467.0805299406
 30
0.0
 11
57.9336689357
 21
318.8600504522
 31
0.0
  0
LINE
  5
212
330
1F
100
AcDbEntity
  8
0
  6
Continuous
 62
     8
370
     0
100
AcDbLine
 10
-94.3560345526
 20
467.0805299406
 30
0.0
 11
-94.3560345526
 21
318.8600504522
 31
0.0
  0
LINE
  5
213
330
1F
100
AcDbEntity
  8
0
  6
Continuous
 62
     8
370
     0
100
AcDbLine
 10
8.8622880671
 20
956.9703006868
 30
0.0
 11
8.8622880671
 21
943.4702658777
 31
0.0
  0
LINE
  5
214
330
1F
100
AcDbEntity
  8
0
  6
Continuous
 62
     8
370
     0
100
AcDbLine
 10
8.8622880671
 20
743.4702777986
 30
0.0
 11
8.8622880671
 21
729.9703025941
 31
0.0
  0
LINE
  5
215
330
1F
100
AcDbEntity
  8
0
  6
Continuous
 62
     8
370
     0
100
AcDbLine
 10
-45.7575774248
 20
743.4702777986
 30
0.0
 11
-45.7575774248
 21
729.9703025941
 31
0.0
  0
LINE
  5
216
330
1F
100
AcDbEntity
  8
0
  6
Continuous
 62
     8
370
     0
100
AcDbLine
 10
-45.7575774248
 20
956.9703006868
 30
0.0
 11
-45.7575774248
 21
943.4702658777
 31
0.0
  0
LINE
  5
217
330
1F
100
AcDbEntity
  8
0
  6
Continuous
 62
     8
370
     0
100
AcDbLine
 10
1.3934144322
 20
354.7033482913
 30
0.0
 11
-37.8157800492
 21
354.7033482913
 31
0.0
  0
LINE
  5
218
330
1F
100
AcDbEntity
  8
0
  6
Continuous
 62
     8
370
     0
100
AcDbLine
 10
-0.3090190198
 20
333.6475493137
 30
0.0
 11
-36.1133465972
 21
333.6475493137
 31
0.0
  0
LINE
  5
219
330
1F
100
AcDbEntity
  8
0
  6
Continuous
 62
     8
370
     0
100
AcDbLine
 10
11.8709554468
 20
965.4702806596
 30
0.0
 11
11.8709554468
 21
943.4702658777
 31
0.0
  0
LINE
  5
21A
330
1F
100
AcDbEntity
  8
0
  6
Continuous
 62
     8
370
     0
100
AcDbLine
 10
11.8709554468
 20
743.4702777986
 30
0.0
 11
11.8709554468
 21
721.470292819
 31
0.0
  0
LINE
  5
21B
330
1F
100
AcDbEntity
  8
0
  6
Continuous
 62
     8
370
     0
100
AcDbLine
 10
-48.7662429418
 20
743.4702777986
 30
0.0
 11
-48.7662429418
 21
721.470292819
 31
0.0
  0
LINE
  5
21C
330
1F
100
AcDbEntity
  8
0
  6
Continuous
 62
     8
370
     0
100
AcDbLine
 10
-48.7662429418
 20
965.4702806596
 30
0.0
 11
-48.7662429418
 21
943.4702658777
 31
0.0
  0
LINE
  5
21D
330
1F
100
AcDbEntity
  8
0
  6
Continuous
 62
     8
370
     0
100
AcDbLine
 10
-82.6603217479
 20
943.4702658777
 30
0.0
 11
-82.6603217479
 21
743.4702777986
 31
0.0
  0
LINE
  5
21E
330
1F
100
AcDbEntity
  8
0
  6
Continuous
 62
     8
370
     0
100
AcDbLine
 10
45.7650379781
 20
943.4702658777
 30
0.0
 11
45.7650379781
 21
743.4702777986
 31
0.0
  0
LINE
  5
21F
330
1F
100
AcDbEntity
  8
0
  6
Continuous
 62
     8
370
     0
100
AcDbLine
 10
-80.7111828085
 20
689.9702811365
 30
0.0
 11
44.2888171915
 21
689.9702811365
 31
0.0
  0
LINE
  5
220
330
1F
100
AcDbEntity
  8
0
  6
Continuous
 62
     8
370
     0
100
AcDbLine
 10
0.6243710909
 20
678.9703035478
 30
0.0
 11
0.6243710909
 21
660.9702968721
 31
0.0
  0
LINE
  5
221
330
1F
100
AcDbEntity
  8
0
  6
Continuous
 62
     8
370
     0
100
AcDbLine
 10
-37.0467367079
 20
678.9703035478
 30
0.0
 11
-37.0467367079
 21
660.9702968721
 31
0.0
  0
LINE
  5
222
330
1F
100
AcDbEntity
  8
0
  6
Continuous
 62
     8
370
     0
100
AcDbLine
 10
-33.9681065138
 20
660.9702968721
 30
0.0
 11
-33.9681065138
 21
650.9702766065
 31
0.0
  0
LINE
  5
223
330
1F
100
AcDbEntity
  8
0
  6
Continuous
 62
     8
370
     0
100
AcDbLine
 10
-2.4542591031
 20
660.9702968721
 30
0.0
 11
-2.4542591031
 21
650.9702766065
 31
0.0
  0
LINE
  5
224
330
1F
100
AcDbEntity
  8
0
  6
Continuous
 62
     8
370
     0
100
AcDbLine
 10
-33.9681065138
 20
650.9702766065
 30
0.0
 11
-2.4542591031
 21
650.9702766065
 31
0.0
  0
LINE
  5
225
330
1F
100
AcDbEntity
  8
0
  6
Continuous
 62
     8
370
     0
100
AcDbLine
 10
-2.4542591031
 20
611.3530510787
 30
0.0
 11
-2.4542591031
 21
650.9702766065
 31
0.0
  0
LINE
  5
226
330
1F
100
AcDbEntity
  8
0
  6
Continuous
 62
     8
370
     0
100
AcDbLine
 10
-33.9681065138
 20
611.3530510787
 30
0.0
 11
-33.9681065138
 21
650.9702766065
 31
0.0
  0
LINE
  5
227
330
1F
100
AcDbEntity
  8
0
  6
Continuous
 62
     8
370
     0
100
AcDbLine
 10
-2.4542591031
 20
650.9702766065
 30
0.0
 11
0.6269136016
 21
650.9702766065
 31
0.0
  0
LINE
  5
228
330
1F
100
AcDbEntity
  8
0
  6
Continuous
 62
     8
370
     0
100
AcDbLine
 10
-33.9681065138
 20
650.9702766065
 30
0.0
 11
-37.0492792185
 21
650.9702766065
 31
0.0
  0
LINE
  5
229
330
1F
100
AcDbEntity
  8
0
  6
Continuous
 62
     8
370
     0
100
AcDbLine
 10
0.6269136016
 20
650.9702766065
 30
0.0
 11
15.7888190393
 21
650.9702766065
 31
0.0
  0
LINE
  5
22A
330
1F
100
AcDbEntity
  8
0
  6
Continuous
 62
     8
370
     0
100
AcDbLine
 10
-37.0492792185
 20
650.9702766065
 30
0.0
 11
-52.2111846562
 21
650.9702766065
 31
0.0
  0
LINE
  5
22B
330
1F
100
AcDbEntity
  8
0
  6
Continuous
 62
     8
370
     0
100
AcDbLine
 10
47.2301872019
 20
943.4702658777
 30
0.0
 11
47.2301872019
 21
743.4702777986
 31
0.0
  0
LINE
  5
22C
330
1F
100
AcDbEntity
  8
0
  6
Continuous
 62
     8
370
     0
100
AcDbLine
 10
-84.1254784222
 20
943.4702658777
 30
0.0
 11
-84.1254784222
 21
743.4702777986
 31
0.0
  0
LINE
  5
22D
330
1F
100
AcDbEntity
  8
0
  6
Continuous
 62
     8
370
     0
100
AcDbLine
 10
54.055410767
 20
943.4702658777
 30
0.0
 11
54.055410767
 21
743.4702777986
 31
0.0
  0
LINE
  5
22E
330
1F
100
AcDbEntity
  8
0
  6
Continuous
 62
     8
370
     0
100
AcDbLine
 10
-90.9506945368
 20
943.4702658777
 30
0.0
 11
-90.9506945368
 21
743.4702777986
 31
0.0
  0
LINE
  5
22F
330
1F
100
AcDbEntity
  8
0
  6
Continuous
 62
     8
370
     0
100
AcDbLine
 10
54.1677506212
 20
943.4702658777
 30
0.0
 11
54.1677506212
 21
743.4702777986
 31
0.0
  0
LINE
  5
230
330
1F
100
AcDbEntity
  8
0
  6
Continuous
 62
     8
370
     0
100
AcDbLine
 10
-91.0630418416
 20
943.4702658777
 30
0.0
 11
-91.0630418416
 21
743.4702777986
 31
0.0
  0
LINE
  5
231
330
1F
100
AcDbEntity
  8
FORMAT
  6
CENTERX2
370
     0
100
AcDbLine
 10
-126.4584080913
 20
392.9702901964
 30
0.0
 11
88.7818726648
 21
392.9702901964
 31
0.0
  0
LINE
  5
232
330
1F
100
AcDbEntity
  8
FORMAT
  6
CENTERX2
370
     0
100
AcDbLine
 10
-18.2111828085
 20
315.7658546729
 30
0.0
 11
-18.2111828085
 21
1002.4008502477
 31
0.0
  0
LINE
  5
233
330
1F
100
AcDbEntity
  8
0
  6
Continuous
 62
     7
370
    15
100
AcDbLine
 10
630.1543948051
 20
943.4702658777
 30
0.0
 11
630.1543948051
 21
743.4702777986
 31
0.0
  0
LINE
  5
234
330
1F
100
AcDbEntity
  8
0
  6
Continuous
 62
     7
370
    15
100
AcDbLine
 10
613.6107810583
 20
743.4702777986
 30
0.0
 11
613.6107810583
 21
943.4702658777
 31
0.0
  0
LINE
  5
235
330
1F
100
AcDbEntity
  8
0
  6
Continuous
 62
     7
370
    15
100
AcDbLine
 10
558.3240755644
 20
689.9702811365
 30
0.0
 11
558.3240755644
 21
678.9703035478
 31
0.0
  0
LINE
  5
236
330
1F
100
AcDbEntity
  8
0
  6
Continuous
 62
     7
370
    15
100
AcDbLine
 10
683.3240755644
 20
678.9703035478
 30
0.0
 11
683.3240755644
 21
689.9702811365
 31
0.0
  0
LINE
  5
237
330
1F
100
AcDbEntity
  8
0
  6
Continuous
 62
     7
370
    15
100
AcDbLine
 10
683.3240755644
 20
689.9702811365
 30
0.0
 11
683.3240755644
 21
721.470292819
 31
0.0
  0
LINE
  5
238
330
1F
100
AcDbEntity
  8
0
  6
Continuous
 62
     7
370
    15
100
AcDbLine
 10
558.3240755644
 20
721.470292819
 30
0.0
 11
558.3240755644
 21
689.9702811365
 31
0.0
  0
LINE
  5
239
330
1F
100
AcDbEntity
  8
0
  6
Continuous
 62
     7
370
    15
100
AcDbLine
 10
515.8240788426
 20
556.9702947263
 30
0.0
 11
514.7953399267
 21
537.3409205799
 31
0.0
  0
LINE
  5
23A
330
1F
100
AcDbEntity
  8
0
  6
Continuous
 62
     7
370
    15
100
AcDbLine
 10
726.852811202
 20
537.3409205799
 30
0.0
 11
725.8240722861
 21
556.9702947263
 31
0.0
  0
LINE
  5
23B
330
1F
100
AcDbEntity
  8
0
  6
Continuous
 62
     7
370
    15
100
AcDbLine
 10
509.8240741339
 20
536.9702839975
 30
0.0
 11
509.8240741339
 21
529.9702847127
 31
0.0
  0
LINE
  5
23C
330
1F
100
AcDbEntity
  8
0
  6
Continuous
 62
     7
370
    15
100
AcDbLine
 10
514.8221098628
 20
537.851583374
 30
0.0
 11
509.8240741339
 21
536.9702839975
 31
0.0
  0
LINE
  5
23D
330
1F
100
AcDbEntity
  8
0
  6
Continuous
 62
     7
370
    15
100
AcDbLine
 10
731.8240769949
 20
536.9702839975
 30
0.0
 11
726.826041266
 21
537.851583374
 31
0.0
  0
LINE
  5
23E
330
1F
100
AcDbEntity
  8
0
  6
Continuous
 62
     7
370
    15
100
AcDbLine
 10
731.8240769949
 20
529.9702847127
 30
0.0
 11
731.8240769949
 21
536.9702839975
 31
0.0
  0
LINE
  5
23F
330
1F
100
AcDbEntity
  8
0
  6
Continuous
 62
     7
370
    15
100
AcDbLine
 10
510.8240761604
 20
529.9702847127
 30
0.0
 11
511.2207972255
 21
522.4003309135
 31
0.0
  0
LINE
  5
240
330
1F
100
AcDbEntity
  8
0
  6
Continuous
 62
     7
370
    15
100
AcDbLine
 10
730.4273539033
 20
522.4003309135
 30
0.0
 11
730.8240749683
 21
529.9702847127
 31
0.0
  0
LINE
  5
241
330
1F
100
AcDbEntity
  8
0
  6
Continuous
 62
     7
370
    15
100
AcDbLine
 10
511.2207972255
 20
522.4003309135
 30
0.0
 11
519.2874216285
 21
520.9779703741
 31
0.0
  0
LINE
  5
242
330
1F
100
AcDbEntity
  8
0
  6
Continuous
 62
     7
370
    15
100
AcDbLine
 10
722.3607295003
 20
520.9779703741
 30
0.0
 11
730.4273539033
 21
522.4003309135
 31
0.0
  0
LINE
  5
243
330
1F
100
AcDbEntity
  8
0
  6
Continuous
 62
     7
370
    15
100
AcDbLine
 10
691.1325895038
 20
956.9703006868
 30
0.0
 11
691.1325895038
 21
965.4702806596
 31
0.0
  0
LINE
  5
244
330
1F
100
AcDbEntity
  8
0
  6
Continuous
 62
     7
370
    15
100
AcDbLine
 10
691.1325895038
 20
721.470292819
 30
0.0
 11
691.1325895038
 21
729.9703025941
 31
0.0
  0
LINE
  5
245
330
1F
100
AcDbEntity
  8
0
  6
Continuous
 62
     7
370
    15
100
AcDbLine
 10
552.632584497
 20
729.9703025941
 30
0.0
 11
552.632584497
 21
721.470292819
 31
0.0
  0
LINE
  5
246
330
1F
100
AcDbEntity
  8
0
  6
Continuous
 62
     7
370
    15
100
AcDbLine
 10
552.632584497
 20
965.4702806596
 30
0.0
 11
552.632584497
 21
956.9703006868
 31
0.0
  0
LINE
  5
247
330
1F
100
AcDbEntity
  8
0
  6
Continuous
 62
     7
370
    15
100
AcDbLine
 10
558.3240755644
 20
678.9703035478
 30
0.0
 11
558.3240755644
 21
660.9702968721
 31
0.0
  0
LINE
  5
248
330
1F
100
AcDbEntity
  8
0
  6
Continuous
 62
     7
370
    15
100
AcDbLine
 10
683.3240755644
 20
660.9702968721
 30
0.0
 11
683.3240755644
 21
678.9703035478
 31
0.0
  0
LINE
  5
249
330
1F
100
AcDbEntity
  8
0
  6
Continuous
 62
     7
370
    15
100
AcDbLine
 10
561.8240752068
 20
650.9702766065
 30
0.0
 11
561.8240752068
 21
603.6149078731
 31
0.0
  0
LINE
  5
24A
330
1F
100
AcDbEntity
  8
0
  6
Continuous
 62
     7
370
    15
100
AcDbLine
 10
679.824075922
 20
603.6149078731
 30
0.0
 11
679.824075922
 21
650.9702766065
 31
0.0
  0
LINE
  5
24B
330
1F
100
AcDbEntity
  8
0
  6
Continuous
 62
     7
370
    15
100
AcDbLine
 10
561.8240752068
 20
660.9702968721
 30
0.0
 11
561.8240752068
 21
650.9702766065
 31
0.0
  0
LINE
  5
24C
330
1F
100
AcDbEntity
  8
0
  6
Continuous
 62
     7
370
    15
100
AcDbLine
 10
679.824075922
 20
650.9702766065
 30
0.0
 11
679.824075922
 21
660.9702968721
 31
0.0
  0
LINE
  5
24D
330
1F
100
AcDbEntity
  8
0
  6
Continuous
 62
     7
370
    15
100
AcDbLine
 10
682.7740737047
 20
994.7703147058
 30
0.0
 11
679.4740737226
 21
994.7703147058
 31
0.0
  0
LINE
  5
24E
330
1F
100
AcDbEntity
  8
0
  6
Continuous
 62
     7
370
    15
100
AcDbLine
 10
679.4740737226
 20
973.2702636842
 30
0.0
 11
682.7740737047
 21
973.2702636842
 31
0.0
  0
LINE
  5
24F
330
1F
100
AcDbEntity
  8
0
  6
Continuous
 62
     7
370
    15
100
AcDbLine
 10
682.7740737047
 20
973.2702636842
 30
0.0
 11
682.9740770903
 21
973.4702968721
 31
0.0
  0
LINE
  5
250
330
1F
100
AcDbEntity
  8
0
  6
Continuous
 62
     7
370
    15
100
AcDbLine
 10
682.9740770903
 20
994.5702815179
 30
0.0
 11
682.7740737047
 21
994.7703147058
 31
0.0
  0
LINE
  5
251
330
1F
100
AcDbEntity
  8
0
  6
Continuous
 62
     7
370
    15
100
AcDbLine
 10
678.2740757611
 20
994.520273221
 30
0.0
 11
677.7740747478
 21
994.520273221
 31
0.0
  0
LINE
  5
252
330
1F
100
AcDbEntity
  8
0
  6
Continuous
 62
     7
370
    15
100
AcDbLine
 10
677.7740747478
 20
973.5203051691
 30
0.0
 11
678.2740757611
 21
973.5203051691
 31
0.0
  0
ARC
  5
253
330
1F
100
AcDbEntity
  8
0
  6
Continuous
 62
     7
370
    15
100
AcDbCircle
 10
679.2740755644
 20
989.2202901964
 30
0.0
 40
0.2000000000000455
100
AcDbArc
 50
270.0
 51
0.0
  0
ARC
  5
254
330
1F
100
AcDbEntity
  8
0
  6
Continuous
 62
     7
370
    15
100
AcDbCircle
 10
679.2740755644
 20
978.8202901964
 30
0.0
 40
0.2000000000000455
100
AcDbArc
 50
0.0
 51
90.0
  0
ARC
  5
255
330
1F
100
AcDbEntity
  8
0
  6
Continuous
 62
     7
370
    15
100
AcDbCircle
 10
677.5740755644
 20
989.2202901964
 30
0.0
 40
0.2000000000001592
100
AcDbArc
 50
284.4775121859
 51
0.0
  0
ARC
  5
256
330
1F
100
AcDbEntity
  8
0
  6
Continuous
 62
     7
370
    15
100
AcDbCircle
 10
677.5740755644
 20
978.8202901964
 30
0.0
 40
0.2000000000001592
100
AcDbArc
 50
0.0
 51
75.522487814
  0
LINE
  5
257
330
1F
100
AcDbEntity
  8
0
  6
Continuous
 62
     7
370
    15
100
AcDbLine
 10
679.2740740623
 20
989.020314229
 30
0.0
 11
678.2740757611
 21
989.020314229
 31
0.0
  0
LINE
  5
258
330
1F
100
AcDbEntity
  8
0
  6
Continuous
 62
     7
370
    15
100
AcDbLine
 10
678.2740757611
 20
979.0202641611
 30
0.0
 11
679.2740740623
 21
979.0202641611
 31
0.0
  0
CIRCLE
  5
259
330
1F
100
AcDbEntity
  8
0
  6
Continuous
 62
     7
370
    15
100
AcDbCircle
 10
620.8240755644
 20
392.9702901964
 30
0.0
 40
91.50000000000011
  0
CIRCLE
  5
25A
330
1F
100
AcDbEntity
  8
0
  6
Continuous
 62
     7
370
    15
100
AcDbCircle
 10
620.8240755644
 20
392.9702901964
 30
0.0
 40
94.50000000000011
  0
CIRCLE
  5
25B
330
1F
100
AcDbEntity
  8
0
  6
Continuous
 62
     7
370
    15
100
AcDbCircle
 10
620.8240755644
 20
392.9702901964
 30
0.0
 40
62.5
  0
CIRCLE
  5
25C
330
1F
100
AcDbEntity
  8
0
  6
Continuous
 62
     7
370
    15
100
AcDbCircle
 10
620.8240755644
 20
392.9702901964
 30
0.0
 40
125.0000000000001
  0
CIRCLE
  5
25D
330
1F
100
AcDbEntity
  8
0
  6
Continuous
 62
     7
370
    15
100
AcDbCircle
 10
661.0058359627
 20
489.9776411101
 30
0.0
 40
9.500000000000114
  0
CIRCLE
  5
25E
330
1F
100
AcDbEntity
  8
0
  6
Continuous
 62
     7
370
    15
100
AcDbCircle
 10
717.8314264781
 20
433.1520505947
 30
0.0
 40
9.500000000000114
  0
CIRCLE
  5
25F
330
1F
100
AcDbEntity
  8
0
  6
Continuous
 62
     7
370
    15
100
AcDbCircle
 10
717.8314264781
 20
352.788529798
 30
0.0
 40
9.5
  0
CIRCLE
  5
260
330
1F
100
AcDbEntity
  8
0
  6
Continuous
 62
     7
370
    15
100
AcDbCircle
 10
661.0058359627
 20
295.9629392827
 30
0.0
 40
9.5
  0
CIRCLE
  5
261
330
1F
100
AcDbEntity
  8
0
  6
Continuous
 62
     7
370
    15
100
AcDbCircle
 10
580.642315166
 20
295.9629392827
 30
0.0
 40
9.499999999999886
  0
CIRCLE
  5
262
330
1F
100
AcDbEntity
  8
0
  6
Continuous
 62
     7
370
    15
100
AcDbCircle
 10
523.8167246507
 20
352.788529798
 30
0.0
 40
9.499999999999886
  0
CIRCLE
  5
263
330
1F
100
AcDbEntity
  8
0
  6
Continuous
 62
     7
370
    15
100
AcDbCircle
 10
523.8167246507
 20
433.1520505947
 30
0.0
 40
9.5
  0
CIRCLE
  5
264
330
1F
100
AcDbEntity
  8
0
  6
Continuous
 62
     7
370
    15
100
AcDbCircle
 10
580.642315166
 20
489.9776411101
 30
0.0
 40
9.500000000000114
  0
LINE
  5
265
330
1F
100
AcDbEntity
  8
0
  6
Continuous
 62
     7
370
    15
100
AcDbLine
 10
570.8240748193
 20
267.9702901964
 30
0.0
 11
620.8240755644
 21
267.9702901964
 31
0.0
  0
LINE
  5
266
330
1F
100
AcDbEntity
  8
0
  6
Continuous
 62
     7
370
    15
100
AcDbLine
 10
566.2608661499
 20
280.5075982336
 30
0.0
 11
570.8240748193
 21
267.9702901964
 31
0.0
  0
LINE
  5
267
330
1F
100
AcDbEntity
  8
0
  6
Continuous
 62
     7
370
    15
100
AcDbLine
 10
675.3872849789
 20
280.5075982336
 30
0.0
 11
670.8240763094
 21
267.9702901964
 31
0.0
  0
LINE
  5
268
330
1F
100
AcDbEntity
  8
0
  6
Continuous
 62
     7
370
    15
100
AcDbLine
 10
670.8240763094
 20
267.9702901964
 30
0.0
 11
620.8240755644
 21
267.9702901964
 31
0.0
  0
LINE
  5
269
330
1F
100
AcDbEntity
  8
0
  6
Continuous
 62
     7
370
    15
100
AcDbLine
 10
618.7114387561
 20
943.4702658777
 30
0.0
 11
618.7114387561
 21
743.4702777986
 31
0.0
  0
LINE
  5
26A
330
1F
100
AcDbEntity
  8
0
  6
Continuous
 62
     7
370
    15
100
AcDbLine
 10
625.053737573
 20
943.4702658777
 30
0.0
 11
625.053737573
 21
743.4702777986
 31
0.0
  0
LINE
  5
26B
330
1F
100
AcDbEntity
  8
0
  6
Continuous
 62
     7
370
    15
100
AcDbLine
 10
625.053737573
 20
743.4702777986
 30
0.0
 11
618.7114387561
 21
743.4702777986
 31
0.0
  0
LINE
  5
26C
330
1F
100
AcDbEntity
  8
0
  6
Continuous
 62
     7
370
    15
100
AcDbLine
 10
625.053737573
 20
943.4702658777
 30
0.0
 11
618.7114387561
 21
943.4702658777
 31
0.0
  0
LINE
  5
26D
330
1F
100
AcDbEntity
  8
0
  6
Continuous
 62
     7
370
    15
100
AcDbLine
 10
630.2377071973
 20
943.4702658777
 30
0.0
 11
630.2377071973
 21
743.4702777986
 31
0.0
  0
LINE
  5
26E
330
1F
100
AcDbEntity
  8
0
  6
Continuous
 62
     7
370
    15
100
AcDbLine
 10
633.2515909147
 20
743.4702777986
 30
0.0
 11
630.2377071973
 21
743.4702777986
 31
0.0
  0
LINE
  5
26F
330
1F
100
AcDbEntity
  8
0
  6
Continuous
 62
     7
370
    15
100
AcDbLine
 10
633.2515909147
 20
943.4702658777
 30
0.0
 11
630.2377071973
 21
943.4702658777
 31
0.0
  0
LINE
  5
270
330
1F
100
AcDbEntity
  8
0
  6
Continuous
 62
     7
370
    15
100
AcDbLine
 10
630.2377071973
 20
743.4702777986
 30
0.0
 11
630.1550113406
 21
743.4702777986
 31
0.0
  0
LINE
  5
271
330
1F
100
AcDbEntity
  8
0
  6
Continuous
 62
     7
370
    15
100
AcDbLine
 10
630.2377071973
 20
943.4702658777
 30
0.0
 11
630.1550113406
 21
943.4702658777
 31
0.0
  0
LINE
  5
272
330
1F
100
AcDbEntity
  8
0
  6
Continuous
 62
     7
370
    15
100
AcDbLine
 10
613.5274686661
 20
943.4702658777
 30
0.0
 11
613.5274686661
 21
743.4702777986
 31
0.0
  0
LINE
  5
273
330
1F
100
AcDbEntity
  8
0
  6
Continuous
 62
     7
370
    15
100
AcDbLine
 10
613.5274686661
 20
743.4702777986
 30
0.0
 11
610.51358588
 21
743.4702777986
 31
0.0
  0
LINE
  5
274
330
1F
100
AcDbEntity
  8
0
  6
Continuous
 62
     7
370
    15
100
AcDbLine
 10
613.5274686661
 20
943.4702658777
 30
0.0
 11
610.51358588
 21
943.4702658777
 31
0.0
  0
LINE
  5
275
330
1F
100
AcDbEntity
  8
0
  6
Continuous
 62
     7
370
    15
100
AcDbLine
 10
613.6101645228
 20
743.4702777986
 30
0.0
 11
613.5274686661
 21
743.4702777986
 31
0.0
  0
LINE
  5
276
330
1F
100
AcDbEntity
  8
0
  6
Continuous
 62
     7
370
    15
100
AcDbLine
 10
613.6101645228
 20
943.4702658777
 30
0.0
 11
613.5274686661
 21
943.4702658777
 31
0.0
  0
LINE
  5
277
330
1F
100
AcDbEntity
  8
0
  6
Continuous
 62
     7
370
    15
100
AcDbLine
 10
633.4725611653
 20
743.4702777986
 30
0.0
 11
633.2515909147
 21
743.4702777986
 31
0.0
  0
LINE
  5
278
330
1F
100
AcDbEntity
  8
0
  6
Continuous
 62
     7
370
    15
100
AcDbLine
 10
633.4725611653
 20
943.4702658777
 30
0.0
 11
633.2515909147
 21
943.4702658777
 31
0.0
  0
LINE
  5
279
330
1F
100
AcDbEntity
  8
0
  6
Continuous
 62
     7
370
    15
100
AcDbLine
 10
610.51358588
 20
743.4702777986
 30
0.0
 11
610.2926146981
 21
743.4702777986
 31
0.0
  0
LINE
  5
27A
330
1F
100
AcDbEntity
  8
0
  6
Continuous
 62
     7
370
    15
100
AcDbLine
 10
610.51358588
 20
943.4702658777
 30
0.0
 11
610.2926146981
 21
943.4702658777
 31
0.0
  0
LINE
  5
27B
330
1F
100
AcDbEntity
  8
0
  6
Continuous
 62
     7
370
    15
100
AcDbLine
 10
640.2977828678
 20
743.4702777986
 30
0.0
 11
633.4725611653
 21
743.4702777986
 31
0.0
  0
LINE
  5
27C
330
1F
100
AcDbEntity
  8
0
  6
Continuous
 62
     7
370
    15
100
AcDbLine
 10
640.2977828678
 20
943.4702658777
 30
0.0
 11
633.4725611653
 21
943.4702658777
 31
0.0
  0
LINE
  5
27D
330
1F
100
AcDbEntity
  8
0
  6
Continuous
 62
     7
370
    15
100
AcDbLine
 10
610.2926146981
 20
743.4702777986
 30
0.0
 11
603.4673948582
 21
743.4702777986
 31
0.0
  0
LINE
  5
27E
330
1F
100
AcDbEntity
  8
0
  6
Continuous
 62
     7
370
    15
100
AcDbLine
 10
610.2926146981
 20
943.4702658777
 30
0.0
 11
603.4673948582
 21
943.4702658777
 31
0.0
  0
LINE
  5
27F
330
1F
100
AcDbEntity
  8
0
  6
Continuous
 62
     7
370
    15
100
AcDbLine
 10
630.1550113406
 20
743.4702777986
 30
0.0
 11
630.1543948051
 21
743.4702777986
 31
0.0
  0
LINE
  5
280
330
1F
100
AcDbEntity
  8
0
  6
Continuous
 62
     7
370
    15
100
AcDbLine
 10
630.1550113406
 20
943.4702658777
 30
0.0
 11
630.1543948051
 21
943.4702658777
 31
0.0
  0
LINE
  5
281
330
1F
100
AcDbEntity
  8
0
  6
Continuous
 62
     7
370
    15
100
AcDbLine
 10
613.6107810583
 20
743.4702777986
 30
0.0
 11
613.6101645228
 21
743.4702777986
 31
0.0
  0
LINE
  5
282
330
1F
100
AcDbEntity
  8
0
  6
Continuous
 62
     7
370
    15
100
AcDbLine
 10
613.6107810583
 20
943.4702658777
 30
0.0
 11
613.6101645228
 21
943.4702658777
 31
0.0
  0
LINE
  5
283
330
1F
100
AcDbEntity
  8
0
  6
Continuous
 62
     7
370
    15
100
AcDbLine
 10
630.1374801245
 20
743.4702777986
 30
0.0
 11
625.053737573
 21
743.4702777986
 31
0.0
  0
LINE
  5
284
330
1F
100
AcDbEntity
  8
0
  6
Continuous
 62
     7
370
    15
100
AcDbLine
 10
630.1374801245
 20
943.4702658777
 30
0.0
 11
625.053737573
 21
943.4702658777
 31
0.0
  0
LINE
  5
285
330
1F
100
AcDbEntity
  8
0
  6
Continuous
 62
     7
370
    15
100
AcDbLine
 10
618.7114387561
 20
743.4702777986
 30
0.0
 11
613.6276962046
 21
743.4702777986
 31
0.0
  0
LINE
  5
286
330
1F
100
AcDbEntity
  8
0
  6
Continuous
 62
     7
370
    15
100
AcDbLine
 10
618.7114387561
 20
943.4702658777
 30
0.0
 11
613.6276962046
 21
943.4702658777
 31
0.0
  0
LINE
  5
287
330
1F
100
AcDbEntity
  8
0
  6
Continuous
 62
     7
370
    15
100
AcDbLine
 10
630.1543948051
 20
743.4702777986
 30
0.0
 11
630.1374801245
 21
743.4702777986
 31
0.0
  0
LINE
  5
288
330
1F
100
AcDbEntity
  8
0
  6
Continuous
 62
     7
370
    15
100
AcDbLine
 10
630.1543948051
 20
943.4702658777
 30
0.0
 11
630.1374801245
 21
943.4702658777
 31
0.0
  0
LINE
  5
289
330
1F
100
AcDbEntity
  8
0
  6
Continuous
 62
     7
370
    15
100
AcDbLine
 10
613.6276962046
 20
743.4702777986
 30
0.0
 11
613.6107810583
 21
743.4702777986
 31
0.0
  0
LINE
  5
28A
330
1F
100
AcDbEntity
  8
0
  6
Continuous
 62
     7
370
    15
100
AcDbLine
 10
613.6276962046
 20
943.4702658777
 30
0.0
 11
613.6107810583
 21
943.4702658777
 31
0.0
  0
LINE
  5
28B
330
1F
100
AcDbEntity
  8
0
  6
Continuous
 62
     7
370
    15
100
AcDbLine
 10
559.7422973063
 20
943.4702658777
 30
0.0
 11
559.7422973063
 21
743.4702777986
 31
0.0
  0
LINE
  5
28C
330
1F
100
AcDbEntity
  8
0
  6
Continuous
 62
     7
370
    15
100
AcDbLine
 10
684.0228804197
 20
943.4702658777
 30
0.0
 11
684.0228804197
 21
743.4702777986
 31
0.0
  0
LINE
  5
28D
330
1F
100
AcDbEntity
  8
0
  6
Continuous
 62
     7
370
    15
100
AcDbLine
 10
682.1904026713
 20
965.4702806596
 30
0.0
 11
561.5747713294
 21
965.4702806596
 31
0.0
  0
LINE
  5
28E
330
1F
100
AcDbEntity
  8
0
  6
Continuous
 62
     7
370
    15
100
AcDbLine
 10
682.1904026713
 20
721.470292819
 30
0.0
 11
561.5747713294
 21
721.470292819
 31
0.0
  0
LINE
  5
28F
330
1F
100
AcDbEntity
  8
0
  6
Continuous
 62
     7
370
    15
100
AcDbLine
 10
642.6908031847
 20
743.4702777986
 30
0.0
 11
640.2977828678
 21
743.4702777986
 31
0.0
  0
LINE
  5
290
330
1F
100
AcDbEntity
  8
0
  6
Continuous
 62
     7
370
    15
100
AcDbLine
 10
642.6908031847
 20
943.4702658777
 30
0.0
 11
640.2977828678
 21
943.4702658777
 31
0.0
  0
LINE
  5
291
330
1F
100
AcDbEntity
  8
0
  6
Continuous
 62
     7
370
    15
100
AcDbLine
 10
603.4673948582
 20
743.4702777986
 30
0.0
 11
601.0743726786
 21
743.4702777986
 31
0.0
  0
LINE
  5
292
330
1F
100
AcDbEntity
  8
0
  6
Continuous
 62
     7
370
    15
100
AcDbLine
 10
603.4673948582
 20
943.4702658777
 30
0.0
 11
601.0743726786
 21
943.4702658777
 31
0.0
  0
LINE
  5
293
330
1F
100
AcDbEntity
  8
0
  6
Continuous
 62
     7
370
    15
100
AcDbLine
 10
558.3240755644
 20
678.9703035478
 30
0.0
 11
683.3240755644
 21
678.9703035478
 31
0.0
  0
SPLINE
  5
294
330
1F
100
AcDbEntity
  8
0
  6
Continuous
 62
     7
370
    15
100
AcDbSpline
210
0.0
220
0.0
230
1.0
 70
     8
 71
     3
 72
     8
 73
     4
 74
     0
 42
0.00000001
 43
0.00000001
 12
1.0
 22
0.0
 32
0.0
 13
1.0
 23
0.0
 33
0.0
 40
0.0
 40
0.0
 40
0.0
 40
0.0
 40
1.0
 40
1.0
 40
1.0
 40
1.0
 10
696.2412274779522
 20
539.8057386382742
 30
0.0
 10
697.5082706257466
 20
539.4758355516652
 30
0.0
 10
698.7752344858479
 20
539.1453612729451
 30
0.0
 10
700.0421225544413
 20
538.8143409887889
 30
0.0
  0
SPLINE
  5
295
330
1F
100
AcDbEntity
  8
0
  6
Continuous
 62
     7
370
    15
100
AcDbSpline
210
0.0
220
0.0
230
1.0
 70
     8
 71
     3
 72
    28
 73
    24
 74
     0
 42
0.00000001
 43
0.00000001
 12
1.0
 22
0.0
 32
0.0
 13
1.0
 23
0.0
 33
0.0
 40
0.0
 40
0.0
 40
0.0
 40
0.0
 40
0.124999999999999
 40
0.124999999999999
 40
0.1874999999999985
 40
0.1874999999999985
 40
0.2499999999999981
 40
0.2499999999999981
 40
0.3749999999999966
 40
0.3749999999999966
 40
0.4999999999999951
 40
0.4999999999999951
 40
0.5624999999999954
 40
0.5624999999999954
 40
0.624999999999996
 40
0.624999999999996
 40
0.7499999999999966
 40
0.7499999999999966
 40
0.812499999999998
 40
0.812499999999998
 40
0.8749999999999993
 40
0.8749999999999993
 40
1.0
 40
1.0
 40
1.0
 40
1.0
 10
700.0421225544413
 20
538.8143409887889
 30
0.0
 10
700.5082600513098
 20
538.6925457248707
 30
0.0
 10
701.0168139693556
 20
538.5761991029217
 30
0.0
 10
701.8421625424851
 20
538.4095975425638
 30
0.0
 10
702.127744321606
 20
538.3553891451395
 30
0.0
 10
702.7202138753678
 20
538.2496497076673
 30
0.0
 10
703.0280205781061
 20
538.1979747686953
 30
0.0
 10
703.9783360700546
 20
538.0480531382238
 30
0.0
 10
704.6388201441711
 20
537.9561835797289
 30
0.0
 10
706.0119788308018
 20
537.7879230606699
 30
0.0
 10
706.7246507576872
 20
537.7115320210645
 30
0.0
 10
707.8343921515259
 20
537.6089034205584
 30
0.0
 10
708.2104303722215
 20
537.5767883312814
 30
0.0
 10
708.9628653122553
 20
537.5176832474632
 30
0.0
 10
709.340866939846
 20
537.4905401276081
 30
0.0
 10
710.480144111642
 20
537.4162080923821
 30
0.0
 10
711.2466599396541
 20
537.3760724488455
 30
0.0
 10
712.4071852812233
 20
537.330269843014
 30
0.0
 10
712.7974590908352
 20
537.3173793072605
 30
0.0
 10
713.5708930227771
 20
537.2968591717402
 30
0.0
 10
713.9544961858365
 20
537.2891875760369
 30
0.0
 10
715.0961320672857
 20
537.2737910544938
 30
0.0
 10
715.8450466045596
 20
537.2736366949187
 30
0.0
 10
716.5815585802305
 20
537.2837802751661
 30
0.0
  0
LINE
  5
296
330
1F
100
AcDbEntity
  8
0
  6
Continuous
 62
     7
370
    15
100
AcDbLine
 10
717.0189612355
 20
536.9702839975
 30
0.0
 11
524.6291898932
 21
536.9702839975
 31
0.0
  0
SPLINE
  5
297
330
1F
100
AcDbEntity
  8
0
  6
Continuous
 62
     7
370
    15
100
AcDbSpline
210
0.0
220
0.0
230
1.0
 70
     8
 71
     3
 72
    28
 73
    24
 74
     0
 42
0.00000001
 43
0.00000001
 12
1.0
 22
0.0
 32
0.0
 13
1.0
 23
0.0
 33
0.0
 40
0.0
 40
0.0
 40
0.0
 40
0.0
 40
0.124999999999999
 40
0.124999999999999
 40
0.1874999999999985
 40
0.1874999999999985
 40
0.2499999999999981
 40
0.2499999999999981
 40
0.3749999999999966
 40
0.3749999999999966
 40
0.4999999999999951
 40
0.4999999999999951
 40
0.5624999999999954
 40
0.5624999999999954
 40
0.624999999999996
 40
0.624999999999996
 40
0.7499999999999966
 40
0.7499999999999966
 40
0.812499999999998
 40
0.812499999999998
 40
0.8749999999999993
 40
0.8749999999999993
 40
1.0
 40
1.0
 40
1.0
 40
1.0
 10
541.6060285743247
 20
538.8143409887889
 30
0.0
 10
541.1398910774564
 20
538.6925457248707
 30
0.0
 10
540.6313371594104
 20
538.5761991029217
 30
0.0
 10
539.8059885862808
 20
538.4095975425638
 30
0.0
 10
539.5204068071599
 20
538.3553891451395
 30
0.0
 10
538.9279372533981
 20
538.2496497076673
 30
0.0
 10
538.6201305506598
 20
538.1979747686953
 30
0.0
 10
537.6698150587113
 20
538.0480531382238
 30
0.0
 10
537.0093309845948
 20
537.9561835797289
 30
0.0
 10
535.6361722979641
 20
537.7879230606699
 30
0.0
 10
534.9235003710788
 20
537.7115320210645
 30
0.0
 10
533.81375897724
 20
537.6089034205584
 30
0.0
 10
533.4377207565444
 20
537.5767883312814
 30
0.0
 10
532.6852858165106
 20
537.5176832474632
 30
0.0
 10
532.30728418892
 20
537.4905401276081
 30
0.0
 10
531.1680070171241
 20
537.4162080923821
 30
0.0
 10
530.4014911891118
 20
537.3760724488455
 30
0.0
 10
529.2409658475425
 20
537.330269843014
 30
0.0
 10
528.8506920379308
 20
537.3173793072605
 30
0.0
 10
528.0772581059888
 20
537.2968591717402
 30
0.0
 10
527.6936549429295
 20
537.2891875760369
 30
0.0
 10
526.5520190614803
 20
537.2737910544938
 30
0.0
 10
525.8031045242063
 20
537.2736366949187
 30
0.0
 10
525.0665925485354
 20
537.2837802751661
 30
0.0
  0
SPLINE
  5
298
330
1F
100
AcDbEntity
  8
0
  6
Continuous
 62
     7
370
    15
100
AcDbSpline
210
0.0
220
0.0
230
1.0
 70
     8
 71
     3
 72
     8
 73
     4
 74
     0
 42
0.00000001
 43
0.00000001
 12
1.0
 22
0.0
 32
0.0
 13
1.0
 23
0.0
 33
0.0
 40
0.0
 40
0.0
 40
0.0
 40
0.0
 40
1.0
 40
1.0
 40
1.0
 40
1.0
 10
545.4069236508137
 20
539.8057386382742
 30
0.0
 10
544.1398805030193
 20
539.4758355516652
 30
0.0
 10
542.8729166429181
 20
539.1453612729451
 30
0.0
 10
541.6060285743247
 20
538.8143409887889
 30
0.0
  0
SPLINE
  5
299
330
1F
100
AcDbEntity
  8
0
  6
Continuous
 62
     7
370
    15
100
AcDbSpline
210
0.0
220
0.0
230
1.0
 70
     8
 71
     3
 72
    14
 73
    10
 74
     0
 42
0.00000001
 43
0.00000001
 12
1.0
 22
0.0
 32
0.0
 13
1.0
 23
0.0
 33
0.0
 40
0.0
 40
0.0
 40
0.0
 40
0.0
 40
0.2499999999999999
 40
0.2499999999999999
 40
0.4999999999999999
 40
0.4999999999999999
 40
0.7499999999999999
 40
0.7499999999999999
 40
1.0
 40
1.0
 40
1.0
 40
1.0
 10
545.4069236508137
 20
539.8057386382741
 30
0.0
 10
557.7221245179609
 20
539.6987742791382
 30
0.0
 10
570.1648548926355
 20
539.6187607237351
 30
0.0
 10
595.3027780401009
 20
539.5114878645867
 30
0.0
 10
607.9979467315526
 20
539.484223925575
 30
0.0
 10
633.6502144005229
 20
539.4842239398181
 30
0.0
 10
646.3453780887222
 20
539.511487881125
 30
0.0
 10
671.4832979282205
 20
539.6187607357548
 30
0.0
 10
683.9260271962027
 20
539.6987742842227
 30
0.0
 10
696.2412274779522
 20
539.8057386382741
 30
0.0
  0
LINE
  5
29A
330
1F
100
AcDbEntity
  8
0
  6
Continuous
 62
     7
370
    15
100
AcDbLine
 10
717.0189612355
 20
529.9702847127
 30
0.0
 11
524.6291898932
 21
529.9702847127
 31
0.0
  0
LINE
  5
29B
330
1F
100
AcDbEntity
  8
0
  6
Continuous
 62
     7
370
    15
100
AcDbLine
 10
526.2108214941
 20
522.4003309135
 30
0.0
 11
715.4373296347
 21
522.4003309135
 31
0.0
  0
SPLINE
  5
29C
330
1F
100
AcDbEntity
  8
0
  6
Continuous
 62
     7
370
    15
100
AcDbSpline
210
0.0
220
0.0
230
1.0
 70
     8
 71
     3
 72
     8
 73
     4
 74
     0
 42
0.00000001
 43
0.00000001
 12
1.0
 22
0.0
 32
0.0
 13
1.0
 23
0.0
 33
0.0
 40
0.0
 40
0.0
 40
0.0
 40
0.0
 40
1.0
 40
1.0
 40
1.0
 40
1.0
 10
620.8240755643828
 20
519.9150921977234
 30
0.0
 10
622.3154599334491
 20
519.9211155267549
 30
0.0
 10
623.8068682633537
 20
519.9287202652889
 30
0.0
 10
625.2983005316062
 20
519.9379049289615
 30
0.0
  0
SPLINE
  5
29D
330
1F
100
AcDbEntity
  8
0
  6
Continuous
 62
     7
370
    15
100
AcDbSpline
210
0.0
220
0.0
230
1.0
 70
     8
 71
     3
 72
     8
 73
     4
 74
     0
 42
0.00000001
 43
0.00000001
 12
1.0
 22
0.0
 32
0.0
 13
1.0
 23
0.0
 33
0.0
 40
0.0
 40
0.0
 40
0.0
 40
0.0
 40
1.0
 40
1.0
 40
1.0
 40
1.0
 10
620.8240755643828
 20
519.9150921977234
 30
0.0
 10
619.3326911953164
 20
519.9211155267549
 30
0.0
 10
617.8412828654118
 20
519.9287202652889
 30
0.0
 10
616.3498505971594
 20
519.9379049289615
 30
0.0
  0
SPLINE
  5
29E
330
1F
100
AcDbEntity
  8
0
  6
Continuous
 62
     7
370
    15
100
AcDbSpline
210
0.0
220
0.0
230
1.0
 70
     8
 71
     3
 72
     8
 73
     4
 74
     0
 42
0.00000001
 43
0.00000001
 12
1.0
 22
0.0
 32
0.0
 13
1.0
 23
0.0
 33
0.0
 40
0.0
 40
0.0
 40
0.0
 40
0.0
 40
1.0
 40
1.0
 40
1.0
 40
1.0
 10
611.8497692176521
 20
519.897940385623
 30
0.0
 10
613.3491025196969
 20
519.9012687176245
 30
0.0
 10
614.8496955563525
 20
519.9037644762057
 30
0.0
 10
616.3515527986737
 20
519.9054249892
 30
0.0
  0
SPLINE
  5
29F
330
1F
100
AcDbEntity
  8
0
  6
Continuous
 62
     7
370
    15
100
AcDbSpline
210
0.0
220
0.0
230
1.0
 70
     8
 71
     3
 72
    10
 73
     6
 74
     0
 42
0.00000001
 43
0.00000001
 12
1.0
 22
0.0
 32
0.0
 13
1.0
 23
0.0
 33
0.0
 40
0.0
 40
0.0
 40
0.0
 40
0.0
 40
0.5
 40
0.5
 40
1.0
 40
1.0
 40
1.0
 40
1.0
 10
529.5845847112605
 20
521.5010913678882
 30
0.0
 10
543.2915434315123
 20
520.9761464532822
 30
0.0
 10
557.0003894049701
 20
520.5757597914442
 30
0.0
 10
584.4220681711272
 20
520.0381155684498
 30
0.0
 10
598.1349018231675
 20
519.900914723596
 30
0.0
 10
611.8497692176521
 20
519.897940385623
 30
0.0
  0
SPLINE
  5
2A0
330
1F
100
AcDbEntity
  8
0
  6
Continuous
 62
     7
370
    15
100
AcDbSpline
210
0.0
220
0.0
230
1.0
 70
     8
 71
     3
 72
     8
 73
     4
 74
     0
 42
0.00000001
 43
0.00000001
 12
1.0
 22
0.0
 32
0.0
 13
1.0
 23
0.0
 33
0.0
 40
0.0
 40
0.0
 40
0.0
 40
0.0
 40
1.0
 40
1.0
 40
1.0
 40
1.0
 10
527.3872004445068
 20
521.5461841428896
 30
0.0
 10
528.1054868767549
 20
521.544555001181
 30
0.0
 10
528.8377799748969
 20
521.5296922673698
 30
0.0
 10
529.5845847112605
 20
521.5010913678882
 30
0.0
  0
SPLINE
  5
2A1
330
1F
100
AcDbEntity
  8
0
  6
Continuous
 62
     7
370
    15
100
AcDbSpline
210
0.0
220
0.0
230
1.0
 70
     8
 71
     3
 72
     8
 73
     4
 74
     0
 42
0.00000001
 43
0.00000001
 12
1.0
 22
0.0
 32
0.0
 13
1.0
 23
0.0
 33
0.0
 40
0.0
 40
0.0
 40
0.0
 40
0.0
 40
1.0
 40
1.0
 40
1.0
 40
1.0
 10
714.2609506842588
 20
521.5461841428896
 30
0.0
 10
713.5426642520107
 20
521.544555001181
 30
0.0
 10
712.8103711538687
 20
521.5296922673698
 30
0.0
 10
712.0635664175052
 20
521.5010913678882
 30
0.0
  0
SPLINE
  5
2A2
330
1F
100
AcDbEntity
  8
0
  6
Continuous
 62
     7
370
    15
100
AcDbSpline
210
0.0
220
0.0
230
1.0
 70
     8
 71
     3
 72
    10
 73
     6
 74
     0
 42
0.00000001
 43
0.00000001
 12
1.0
 22
0.0
 32
0.0
 13
1.0
 23
0.0
 33
0.0
 40
0.0
 40
0.0
 40
0.0
 40
0.0
 40
0.5
 40
0.5
 40
1.0
 40
1.0
 40
1.0
 40
1.0
 10
712.0635664175052
 20
521.5010913678882
 30
0.0
 10
698.3566076972533
 20
520.9761464532822
 30
0.0
 10
684.6477617237955
 20
520.5757597914442
 30
0.0
 10
657.2260829576384
 20
520.0381155684498
 30
0.0
 10
643.513249305598
 20
519.900914723596
 30
0.0
 10
629.7983819111134
 20
519.897940385623
 30
0.0
  0
SPLINE
  5
2A3
330
1F
100
AcDbEntity
  8
0
  6
Continuous
 62
     7
370
    15
100
AcDbSpline
210
0.0
220
0.0
230
1.0
 70
     8
 71
     3
 72
     8
 73
     4
 74
     0
 42
0.00000001
 43
0.00000001
 12
1.0
 22
0.0
 32
0.0
 13
1.0
 23
0.0
 33
0.0
 40
0.0
 40
0.0
 40
0.0
 40
0.0
 40
1.0
 40
1.0
 40
1.0
 40
1.0
 10
629.7983819111134
 20
519.897940385623
 30
0.0
 10
628.2990486090687
 20
519.9012687176245
 30
0.0
 10
626.7984555724131
 20
519.9037644762057
 30
0.0
 10
625.296598330092
 20
519.9054249892
 30
0.0
  0
LINE
  5
2A4
330
1F
100
AcDbEntity
  8
0
  6
Continuous
 62
     7
370
    15
100
AcDbLine
 10
701.3748504963
 20
583.7545806293
 30
0.0
 11
701.365440413
 21
582.4086332445
 31
0.0
  0
SPLINE
  5
2A5
330
1F
100
AcDbEntity
  8
0
  6
Continuous
 62
     7
370
    15
100
AcDbSpline
210
0.0
220
0.0
230
1.0
 70
     8
 71
     3
 72
    38
 73
    34
 74
     0
 42
0.00000001
 43
0.00000001
 12
1.0
 22
0.0
 32
0.0
 13
1.0
 23
0.0
 33
0.0
 40
0.0
 40
0.0
 40
0.0
 40
0.0
 40
0.1250000000000001
 40
0.1250000000000001
 40
0.1875000000000001
 40
0.1875000000000001
 40
0.25
 40
0.25
 40
0.28125
 40
0.28125
 40
0.3124999999999999
 40
0.3124999999999999
 40
0.3749999999999999
 40
0.3749999999999999
 40
0.4374999999999999
 40
0.4374999999999999
 40
0.4999999999999998
 40
0.4999999999999998
 40
0.5624999999999998
 40
0.5624999999999998
 40
0.6249999999999997
 40
0.6249999999999997
 40
0.6874999999999997
 40
0.6874999999999997
 40
0.7187499999999996
 40
0.7187499999999996
 40
0.7499999999999994
 40
0.7499999999999994
 40
0.8124999999999997
 40
0.8124999999999997
 40
0.8749999999999999
 40
0.8749999999999999
 40
1.0
 40
1.0
 40
1.0
 40
1.0
 10
540.2827100249516
 20
582.40862816198
 30
0.0
 10
546.4107007455507
 20
579.3600862354945
 30
0.0
 10
552.6538337195547
 20
576.4144185384657
 30
0.0
 10
562.2334778462686
 20
572.2504134204904
 30
0.0
 10
565.4628395286926
 20
570.9055160303575
 30
0.0
 10
572.0065684238681
 20
568.3308021528612
 30
0.0
 10
575.320868004974
 20
567.1008450001949
 30
0.0
 10
580.3699506279438
 20
565.3731832363535
 30
0.0
 10
582.0659697329856
 20
564.816954275481
 30
0.0
 10
585.4870510261219
 20
563.7505508997325
 30
0.0
 10
587.213668114765
 20
563.2400577009026
 30
0.0
 10
592.4040412038564
 20
561.799533865959
 30
0.0
 10
595.889408319848
 20
560.9566549276955
 30
0.0
 10
602.9202112788964
 20
559.5652858634481
 30
0.0
 10
606.4657204938771
 20
559.0172592711638
 30
0.0
 10
613.6267588036903
 20
558.2742982659108
 30
0.0
 10
617.2434655228332
 20
558.0799673227847
 30
0.0
 10
624.549879477439
 20
558.085149614132
 30
0.0
 10
628.1592310172306
 20
558.2844330727102
 30
0.0
 10
635.2989989831176
 20
559.0336704759184
 30
0.0
 10
638.8295261361675
 20
559.5830166155624
 30
0.0
 10
645.8233327182667
 20
560.9718668783034
 30
0.0
 10
649.2866907996997
 20
561.8109292782581
 30
0.0
 10
654.4398301189768
 20
563.2417545569392
 30
0.0
 10
656.1505505730063
 20
563.7474428620155
 30
0.0
 10
659.5592463193842
 20
564.8096264127208
 30
0.0
 10
661.2597787546079
 20
565.367024775667
 30
0.0
 10
666.3189773484826
 20
567.0977149750578
 30
0.0
 10
669.638193235732
 20
568.3294666734085
 30
0.0
 10
676.1889434801483
 20
570.9069468895518
 30
0.0
 10
679.420404916585
 20
572.2528220281412
 30
0.0
 10
689.0029174882307
 20
576.4183225629387
 30
0.0
 10
695.2434338052866
 20
579.3630628576652
 30
0.0
 10
701.3654411038148
 20
582.408628161979
 30
0.0
  0
LINE
  5
2A6
330
1F
100
AcDbEntity
  8
0
  6
Continuous
 62
     7
370
    15
100
AcDbLine
 10
540.2733006325
 20
583.7545806293
 30
0.0
 11
540.2827107158
 21
582.4086332445
 31
0.0
  0
SPLINE
  5
2A7
330
1F
100
AcDbEntity
  8
0
  6
Continuous
 62
     7
370
    15
100
AcDbSpline
210
0.0
220
0.0
230
1.0
 70
     8
 71
     3
 72
    58
 73
    54
 74
     0
 42
0.00000001
 43
0.00000001
 12
1.0
 22
0.0
 32
0.0
 13
1.0
 23
0.0
 33
0.0
 40
0.0
 40
0.0
 40
0.0
 40
0.0
 40
0.015625
 40
0.015625
 40
0.03125
 40
0.03125
 40
0.0625000000000001
 40
0.0625000000000001
 40
0.1250000000000004
 40
0.1250000000000004
 40
0.1875000000000006
 40
0.1875000000000006
 40
0.2031250000000007
 40
0.2031250000000007
 40
0.2187500000000009
 40
0.2187500000000009
 40
0.250000000000001
 40
0.250000000000001
 40
0.3125000000000011
 40
0.3125000000000011
 40
0.3750000000000011
 40
0.3750000000000011
 40
0.4062500000000011
 40
0.4062500000000011
 40
0.4218750000000011
 40
0.4218750000000011
 40
0.4375000000000011
 40
0.4375000000000011
 40
0.5000000000000013
 40
0.5000000000000013
 40
0.5156250000000014
 40
0.5156250000000014
 40
0.5312500000000016
 40
0.5312500000000016
 40
0.5625000000000017
 40
0.5625000000000017
 40
0.6250000000000019
 40
0.6250000000000019
 40
0.6875000000000022
 40
0.6875000000000022
 40
0.7500000000000026
 40
0.7500000000000026
 40
0.812500000000003
 40
0.812500000000003
 40
0.8437500000000031
 40
0.8437500000000031
 40
0.859375000000003
 40
0.859375000000003
 40
0.8750000000000027
 40
0.8750000000000027
 40
0.9375000000000013
 40
0.9375000000000013
 40
1.0
 40
1.0
 40
1.0
 40
1.0
 10
701.3748497140137
 20
583.7545799918427
 30
0.0
 10
700.7726564384849
 20
584.4919465375995
 30
0.0
 10
700.159419959237
 20
585.2221738131291
 30
0.0
 10
698.9105583515443
 20
586.6682808961172
 30
0.0
 10
698.2747933643558
 20
587.384239575118
 30
0.0
 10
696.3452500362954
 20
589.4978543288784
 30
0.0
 10
695.0255249399191
 20
590.8656781762327
 30
0.0
 10
690.96730060619
 20
594.8487572297058
 30
0.0
 10
688.1300849304552
 20
597.3440475979612
 30
0.0
 10
682.1894175523702
 20
602.0213881281031
 30
0.0
 10
679.085995330188
 20
604.2034450168568
 30
0.0
 10
675.0316920918268
 20
606.7309083117889
 30
0.0
 10
674.2120512727238
 20
607.2263606504694
 30
0.0
 10
672.5548715352073
 20
608.1969315578131
 30
0.0
 10
671.7159826637964
 20
608.6727803270038
 30
0.0
 10
669.1827371575423
 20
610.0634579417155
 30
0.0
 10
667.4742271782603
 20
610.940362924109
 30
0.0
 10
662.290092794388
 20
613.4231774731732
 30
0.0
 10
658.7560338764727
 20
614.8816685156811
 30
0.0
 10
651.5300920423604
 20
617.4076537032174
 30
0.0
 10
647.8382266540083
 20
618.4751739715106
 30
0.0
 10
642.176403153236
 20
619.7731738096286
 30
0.0
 10
640.2684121379136
 20
620.1551685819422
 30
0.0
 10
637.3741811150373
 20
620.6496547499471
 30
0.0
 10
636.404422883319
 20
620.8012765923016
 30
0.0
 10
634.4652908309923
 20
621.0764308078243
 30
0.0
 10
633.49453935011
 20
621.2002088740123
 30
0.0
 10
628.6348666386627
 20
621.750344863022
 30
0.0
 10
624.7282488396228
 20
621.9711019936517
 30
0.0
 10
619.8210757107399
 20
621.9700844522192
 30
0.0
 10
618.8371228228708
 20
621.9559339562315
 30
0.0
 10
616.8761984574409
 20
621.8999604339797
 30
0.0
 10
615.8986813422579
 20
621.8581789697919
 30
0.0
 10
612.9748352572515
 20
621.6920390958749
 30
0.0
 10
611.0372051171081
 20
621.5269193938693
 30
0.0
 10
605.2583212158638
 20
620.8718957580143
 30
0.0
 10
601.4509818773773
 20
620.2228253419139
 30
0.0
 10
593.9249151323617
 20
618.5055221837116
 30
0.0
 10
590.2061861195929
 20
617.4373130335042
 30
0.0
 10
582.8584407497268
 20
614.8710350813118
 30
0.0
 10
579.2988206899718
 20
613.3971171594038
 30
0.0
 10
572.402162289627
 20
610.08947609936
 30
0.0
 10
569.0635796337177
 20
608.2551314673246
 30
0.0
 10
564.2153459320975
 20
605.2346993503647
 30
0.0
 10
562.6259390618283
 20
604.1829522362106
 30
0.0
 10
560.2817874078492
 20
602.5370856415223
 30
0.0
 10
559.5070672756486
 20
601.9770815279899
 30
0.0
 10
557.9709953547157
 20
600.83407482797
 30
0.0
 10
557.2090166116519
 20
600.2505345440135
 30
0.0
 10
553.4536697175971
 20
597.2915218025796
 30
0.0
 10
550.607562979098
 20
594.7813214067329
 30
0.0
 10
545.2157677787421
 20
589.4802681646975
 30
0.0
 10
542.6701178633639
 20
586.6894056322875
 30
0.0
 10
540.2733014147522
 20
583.7545799918425
 30
0.0
  0
LINE
  5
2A8
330
1F
100
AcDbEntity
  8
0
  6
Continuous
 62
     7
370
    15
100
AcDbLine
 10
513.7228512015
 20
536.9702839975
 30
0.0
 11
524.6291898932
 21
536.9702839975
 31
0.0
  0
LINE
  5
2A9
330
1F
100
AcDbEntity
  8
0
  6
Continuous
 62
     7
370
    15
100
AcDbLine
 10
513.7228512015
 20
529.9702847127
 30
0.0
 11
524.6291898932
 21
529.9702847127
 31
0.0
  0
SPLINE
  5
2AA
330
1F
100
AcDbEntity
  8
0
  6
Continuous
 62
     7
370
    15
100
AcDbSpline
210
0.0
220
0.0
230
1.0
 70
     8
 71
     3
 72
    24
 73
    20
 74
     0
 42
0.00000001
 43
0.00000001
 12
1.0
 22
0.0
 32
0.0
 13
1.0
 23
0.0
 33
0.0
 40
0.0
 40
0.0
 40
0.0
 40
0.0
 40
0.1250000000000005
 40
0.1250000000000005
 40
0.2500000000000011
 40
0.2500000000000011
 40
0.3750000000000016
 40
0.3750000000000016
 40
0.4375000000000007
 40
0.4375000000000007
 40
0.4999999999999998
 40
0.4999999999999998
 40
0.7499999999999991
 40
0.7499999999999991
 40
0.8124999999999993
 40
0.8124999999999993
 40
0.8749999999999994
 40
0.8749999999999994
 40
1.0
 40
1.0
 40
1.0
 40
1.0
 10
525.0665925485354
 20
537.2837802751661
 30
0.0
 10
524.5068012546814
 20
537.2914899772466
 30
0.0
 10
523.9557833157025
 20
537.2984064933038
 30
0.0
 10
522.8747812030108
 20
537.3105092797441
 30
0.0
 10
522.3547949365502
 20
537.3155844843895
 30
0.0
 10
521.3543169318772
 20
537.3238187360438
 30
0.0
 10
520.8738299597774
 20
537.3269776125723
 30
0.0
 10
520.1828426861797
 20
537.3302547415067
 30
0.0
 10
519.9574834252256
 20
537.3311030765976
 30
0.0
 10
519.5168816197951
 20
537.3323012753118
 30
0.0
 10
519.300943649306
 20
537.3326509152834
 30
0.0
 10
518.2576486763263
 20
537.3331160428775
 30
0.0
 10
517.5374602769291
 20
537.3294616328603
 30
0.0
 10
516.7771287849786
 20
537.3200418081896
 30
0.0
 10
516.6321495915453
 20
537.3179126234463
 30
0.0
 10
516.3566617740973
 20
537.3131576421263
 30
0.0
 10
516.2260910049414
 20
537.3105270723911
 30
0.0
 10
515.8615135021054
 20
537.3020047677893
 30
0.0
 10
515.6525614234823
 20
537.2954548085739
 30
0.0
 10
515.4766939757741
 20
537.2880844324224
 30
0.0
  0
LINE
  5
2AB
330
1F
100
AcDbEntity
  8
0
  6
Continuous
 62
     7
370
    15
100
AcDbLine
 10
727.9252999272
 20
536.9702839975
 30
0.0
 11
717.0189612355
 21
536.9702839975
 31
0.0
  0
SPLINE
  5
2AC
330
1F
100
AcDbEntity
  8
0
  6
Continuous
 62
     7
370
    15
100
AcDbSpline
210
0.0
220
0.0
230
1.0
 70
     8
 71
     3
 72
    24
 73
    20
 74
     0
 42
0.00000001
 43
0.00000001
 12
1.0
 22
0.0
 32
0.0
 13
1.0
 23
0.0
 33
0.0
 40
0.0
 40
0.0
 40
0.0
 40
0.0
 40
0.1250000000000005
 40
0.1250000000000005
 40
0.2500000000000011
 40
0.2500000000000011
 40
0.3750000000000016
 40
0.3750000000000016
 40
0.4375000000000007
 40
0.4375000000000007
 40
0.4999999999999998
 40
0.4999999999999998
 40
0.7499999999999991
 40
0.7499999999999991
 40
0.8124999999999993
 40
0.8124999999999993
 40
0.8749999999999994
 40
0.8749999999999994
 40
1.0
 40
1.0
 40
1.0
 40
1.0
 10
716.5815585802305
 20
537.2837802751661
 30
0.0
 10
717.1413498740847
 20
537.2914899772466
 30
0.0
 10
717.6923678130634
 20
537.2984064933038
 30
0.0
 10
718.7733699257552
 20
537.3105092797441
 30
0.0
 10
719.2933561922157
 20
537.3155844843895
 30
0.0
 10
720.2938341968887
 20
537.3238187360438
 30
0.0
 10
720.7743211689885
 20
537.3269776125723
 30
0.0
 10
721.4653084425863
 20
537.3302547415067
 30
0.0
 10
721.6906677035403
 20
537.3311030765976
 30
0.0
 10
722.1312695089708
 20
537.3323012753118
 30
0.0
 10
722.3472074794599
 20
537.3326509152834
 30
0.0
 10
723.3905024524397
 20
537.3331160428775
 30
0.0
 10
724.1106908518369
 20
537.3294616328603
 30
0.0
 10
724.8710223437873
 20
537.3200418081896
 30
0.0
 10
725.0160015372206
 20
537.3179126234463
 30
0.0
 10
725.2914893546686
 20
537.3131576421263
 30
0.0
 10
725.4220601238246
 20
537.3105270723911
 30
0.0
 10
725.7866376266605
 20
537.3020047677893
 30
0.0
 10
725.9955897052836
 20
537.2954548085739
 30
0.0
 10
726.1714571529918
 20
537.2880844324224
 30
0.0
  0
LINE
  5
2AD
330
1F
100
AcDbEntity
  8
0
  6
Continuous
 62
     7
370
    15
100
AcDbLine
 10
727.9252999272
 20
529.9702847127
 30
0.0
 11
717.0189612355
 21
529.9702847127
 31
0.0
  0
LINE
  5
2AE
330
1F
100
AcDbEntity
  8
0
  6
Continuous
 62
     7
370
    15
100
AcDbLine
 10
540.8562266078
 20
556.9702947263
 30
0.0
 11
515.8240788426
 21
556.9702947263
 31
0.0
  0
SPLINE
  5
2AF
330
1F
100
AcDbEntity
  8
0
  6
Continuous
 62
     7
370
    15
100
AcDbSpline
210
0.0
220
0.0
230
1.0
 70
     8
 71
     3
 72
    10
 73
     6
 74
     0
 42
0.00000001
 43
0.00000001
 12
1.0
 22
0.0
 32
0.0
 13
1.0
 23
0.0
 33
0.0
 40
0.0
 40
0.0
 40
0.0
 40
0.0
 40
0.4922902717556502
 40
0.9964444358241425
 40
1.0
 40
1.0
 40
1.0
 40
1.0
 10
515.4766955223067
 20
537.2880810622646
 30
0.0
 10
515.2926551854491
 20
537.2851092205447
 30
0.0
 10
514.920139252979
 20
537.2790939175497
 30
0.0
 10
514.7323461814442
 20
537.3036487102605
 30
0.0
 10
514.7961966244956
 20
537.3405873871901
 30
0.0
 10
514.7966437783225
 20
537.340846074052
 30
0.0
  0
LINE
  5
2B0
330
1F
100
AcDbEntity
  8
0
  6
Continuous
 62
     7
370
    15
100
AcDbLine
 10
700.791924521
 20
556.9702947263
 30
0.0
 11
725.8240722861
 21
556.9702947263
 31
0.0
  0
SPLINE
  5
2B1
330
1F
100
AcDbEntity
  8
0
  6
Continuous
 62
     7
370
    15
100
AcDbSpline
210
0.0
220
0.0
230
1.0
 70
     8
 71
     3
 72
    10
 73
     6
 74
     0
 42
0.00000001
 43
0.00000001
 12
1.0
 22
0.0
 32
0.0
 13
1.0
 23
0.0
 33
0.0
 40
0.0
 40
0.0
 40
0.0
 40
0.0
 40
0.4922902717556502
 40
0.9964444358241425
 40
1.0
 40
1.0
 40
1.0
 40
1.0
 10
726.171455606459
 20
537.2880810622646
 30
0.0
 10
726.3554959433166
 20
537.2851092205447
 30
0.0
 10
726.7280118757866
 20
537.2790939175497
 30
0.0
 10
726.9158049473215
 20
537.3036487102605
 30
0.0
 10
726.85195450427
 20
537.3405873871901
 30
0.0
 10
726.8515073504432
 20
537.340846074052
 30
0.0
  0
LINE
  5
2B2
330
1F
100
AcDbEntity
  8
0
  6
Continuous
 62
     7
370
    15
100
AcDbLine
 10
526.2108214941
 20
522.4003309135
 30
0.0
 11
514.7838734832
 21
522.4003309135
 31
0.0
  0
LINE
  5
2B3
330
1F
100
AcDbEntity
  8
0
  6
Continuous
 62
     7
370
    15
100
AcDbLine
 10
715.4373296347
 20
522.4003309135
 30
0.0
 11
726.8642776456
 21
522.4003309135
 31
0.0
  0
SPLINE
  5
2B4
330
1F
100
AcDbEntity
  8
0
  6
Continuous
 62
     7
370
    15
100
AcDbSpline
210
0.0
220
0.0
230
1.0
 70
     8
 71
     3
 72
    24
 73
    20
 74
     0
 42
0.00000001
 43
0.00000001
 12
1.0
 22
0.0
 32
0.0
 13
1.0
 23
0.0
 33
0.0
 40
0.0
 40
0.0
 40
0.0
 40
0.0
 40
0.1249999999999997
 40
0.1249999999999997
 40
0.2499999999999994
 40
0.2499999999999994
 40
0.3749999999999992
 40
0.3749999999999992
 40
0.4374999999999997
 40
0.4374999999999997
 40
0.5000000000000002
 40
0.5000000000000002
 40
0.6250000000000001
 40
0.6250000000000001
 40
0.6875000000000007
 40
0.6875000000000007
 40
0.7500000000000012
 40
0.7500000000000012
 40
1.0
 40
1.0
 40
1.0
 40
1.0
 10
519.5014553874194
 20
521.5473357466069
 30
0.0
 10
519.6051488728807
 20
521.5483389433276
 30
0.0
 10
519.743594565759
 20
521.5492302810254
 30
0.0
 10
520.0883372353113
 20
521.5507575935582
 30
0.0
 10
520.2918476274643
 20
521.5513838008799
 30
0.0
 10
520.7590004463898
 20
521.5523715637737
 30
0.0
 10
521.0226460672616
 20
521.552733102876
 30
0.0
 10
521.4643344287765
 20
521.5530723392073
 30
0.0
 10
521.619928737726
 20
521.5531514566096
 30
0.0
 10
521.9424533987386
 20
521.5532387348637
 30
0.0
 10
522.1096185551953
 20
521.5532473926179
 30
0.0
 10
522.6284389080022
 20
521.5531706993822
 30
0.0
 10
522.9973356985796
 20
521.5529831865018
 30
0.0
 10
523.5852366515101
 20
521.5524969745334
 30
0.0
 10
523.7869837313929
 20
521.5523006207878
 30
0.0
 10
524.2023049458274
 20
521.5518376998574
 30
0.0
 10
524.4160908886905
 20
521.5515705759876
 30
0.0
 10
525.4977084650856
 20
521.5500798983488
 30
0.0
 10
526.4157180951146
 20
521.5483875569366
 30
0.0
 10
527.3872004445068
 20
521.5461841428896
 30
0.0
  0
SPLINE
  5
2B5
330
1F
100
AcDbEntity
  8
0
  6
Continuous
 62
     7
370
    15
100
AcDbSpline
210
0.0
220
0.0
230
1.0
 70
     8
 71
     3
 72
    24
 73
    20
 74
     0
 42
0.00000001
 43
0.00000001
 12
1.0
 22
0.0
 32
0.0
 13
1.0
 23
0.0
 33
0.0
 40
0.0
 40
0.0
 40
0.0
 40
0.0
 40
0.1249999999999997
 40
0.1249999999999997
 40
0.2499999999999994
 40
0.2499999999999994
 40
0.3749999999999992
 40
0.3749999999999992
 40
0.4374999999999997
 40
0.4374999999999997
 40
0.5000000000000002
 40
0.5000000000000002
 40
0.6250000000000001
 40
0.6250000000000001
 40
0.6875000000000007
 40
0.6875000000000007
 40
0.7500000000000012
 40
0.7500000000000012
 40
1.0
 40
1.0
 40
1.0
 40
1.0
 10
722.1466957413463
 20
521.5473357466069
 30
0.0
 10
722.0430022558849
 20
521.5483389433276
 30
0.0
 10
721.9045565630065
 20
521.5492302810254
 30
0.0
 10
721.5598138934542
 20
521.5507575935582
 30
0.0
 10
721.3563035013012
 20
521.5513838008799
 30
0.0
 10
720.8891506823758
 20
521.5523715637737
 30
0.0
 10
720.625505061504
 20
521.552733102876
 30
0.0
 10
720.183816699989
 20
521.5530723392073
 30
0.0
 10
720.0282223910395
 20
521.5531514566096
 30
0.0
 10
719.705697730027
 20
521.5532387348637
 30
0.0
 10
719.5385325735703
 20
521.5532473926179
 30
0.0
 10
719.0197122207635
 20
521.5531706993822
 30
0.0
 10
718.650815430186
 20
521.5529831865018
 30
0.0
 10
718.0629144772556
 20
521.5524969745334
 30
0.0
 10
717.8611673973727
 20
521.5523006207878
 30
0.0
 10
717.4458461829381
 20
521.5518376998574
 30
0.0
 10
717.232060240075
 20
521.5515705759876
 30
0.0
 10
716.15044266368
 20
521.5500798983488
 30
0.0
 10
715.232433033651
 20
521.5483875569366
 30
0.0
 10
714.2609506842588
 20
521.5461841428896
 30
0.0
  0
ARC
  5
2B6
330
1F
100
AcDbEntity
  8
0
  6
Continuous
 62
     7
370
    15
100
AcDbCircle
 10
247.8175615457
 20
543.1251854361
 30
0.0
 40
448.4359534707458
100
AcDbArc
 50
359.5758766738
 51
1.7692435297
  0
ARC
  5
2B7
330
1F
100
AcDbEntity
  8
0
  6
Continuous
 62
     7
370
    15
100
AcDbCircle
 10
993.8305895831
 20
543.1251854361
 30
0.0
 40
448.4359534707456
100
AcDbArc
 50
178.2307564703
 51
180.4241233262
  0
SPLINE
  5
2B8
330
1F
100
AcDbEntity
  8
0
  6
Continuous
 62
     7
370
    15
100
AcDbSpline
210
0.0
220
0.0
230
1.0
 70
     8
 71
     3
 72
    12
 73
     8
 74
     0
 42
0.00000001
 43
0.00000001
 12
1.0
 22
0.0
 32
0.0
 13
1.0
 23
0.0
 33
0.0
 40
0.0
 40
0.0
 40
0.0
 40
0.0
 40
0.5
 40
0.5
 40
0.75
 40
0.75
 40
1.0
 40
1.0
 40
1.0
 40
1.0
 10
540.7526264715698
 20
556.9702901963665
 30
0.0
 10
540.8159416877754
 20
561.2498448089711
 30
0.0
 10
540.851011171303
 20
565.521531893441
 30
0.0
 10
540.7746289018628
 20
571.8862432200353
 30
0.0
 10
540.7273101192346
 20
574.0013953563574
 30
0.0
 10
540.5650020111199
 20
578.2168917794789
 30
0.0
 10
540.4504362133407
 20
580.3172729960609
 30
0.0
 10
540.2827100249514
 20
582.4086281619793
 30
0.0
  0
SPLINE
  5
2B9
330
1F
100
AcDbEntity
  8
0
  6
Continuous
 62
     7
370
    15
100
AcDbSpline
210
0.0
220
0.0
230
1.0
 70
     8
 71
     3
 72
    12
 73
     8
 74
     0
 42
0.00000001
 43
0.00000001
 12
1.0
 22
0.0
 32
0.0
 13
1.0
 23
0.0
 33
0.0
 40
0.0
 40
0.0
 40
0.0
 40
0.0
 40
0.5
 40
0.5
 40
0.75
 40
0.75
 40
1.0
 40
1.0
 40
1.0
 40
1.0
 10
700.8955246571962
 20
556.9702901963665
 30
0.0
 10
700.8322094409905
 20
561.2498448089711
 30
0.0
 10
700.797139957463
 20
565.5215318934411
 30
0.0
 10
700.8735222269031
 20
571.8862432200353
 30
0.0
 10
700.9208410095315
 20
574.0013953563574
 30
0.0
 10
701.083149117646
 20
578.2168917794788
 30
0.0
 10
701.1977149154253
 20
580.3172729960609
 30
0.0
 10
701.3654411038146
 20
582.4086281619793
 30
0.0
  0
LINE
  5
2BA
330
1F
100
AcDbEntity
  8
0
  6
Continuous
 62
     7
370
    15
100
AcDbLine
 10
588.7246087935
 20
494.970288289
 30
0.0
 11
572.5600228455
 21
494.970288289
 31
0.0
  0
LINE
  5
2BB
330
1F
100
AcDbEntity
  8
0
  6
Continuous
 62
     7
370
    15
100
AcDbLine
 10
548.5675849762
 20
494.970288289
 30
0.0
 11
529.6161317077
 21
494.970288289
 31
0.0
  0
ELLIPSE
  5
2BC
330
1F
100
AcDbEntity
  8
0
  6
Continuous
 62
     7
370
    15
100
AcDbEllipse
 10
620.8240755644
 20
-4173.6147501211
 30
0.0
 11
-5.596447178267681
 21
4693.959616022684
 31
0.0
210
0.0
220
0.0
230
1.0
 40
0.0523942157
 41
0.0137372686728642
 42
0.0371191260689131
  0
LINE
  5
2BD
330
1F
100
AcDbEntity
  8
0
  6
Continuous
 62
     7
370
    15
100
AcDbLine
 10
652.9235423353
 20
494.970288289
 30
0.0
 11
669.0881282833
 21
494.970288289
 31
0.0
  0
LINE
  5
2BE
330
1F
100
AcDbEntity
  8
0
  6
Continuous
 62
     7
370
    15
100
AcDbLine
 10
693.0805661526
 20
494.970288289
 30
0.0
 11
712.0320194211
 21
494.970288289
 31
0.0
  0
ELLIPSE
  5
2BF
330
1F
100
AcDbEntity
  8
0
  6
Continuous
 62
     7
370
    15
100
AcDbEllipse
 10
620.8240755644
 20
-4173.6147501211
 30
0.0
 11
5.596447178267681
 21
4693.959616022684
 31
0.0
210
0.0
220
0.0
230
1.0
 40
0.0523942157
 41
6.246066181110936
 42
6.269448038506988
  0
ELLIPSE
  5
2C0
330
1F
100
AcDbEntity
  8
0
  6
Continuous
 62
     7
370
    15
100
AcDbEllipse
 10
620.8240755644
 20
-4173.6147501211
 30
0.0
 11
5.596447178267681
 21
4693.959616022684
 31
0.0
210
0.0
220
0.0
230
1.0
 40
0.0523942157
 41
0.0227517481035985
 42
0.0320107255106133
  0
LINE
  5
2C1
330
1F
100
AcDbEntity
  8
0
  6
Continuous
 62
     7
370
    15
100
AcDbLine
 10
616.4569680389
 20
517.8939813499
 30
0.0
 11
616.349850576
 21
519.937899125
 31
0.0
  0
LINE
  5
2C2
330
1F
100
AcDbEntity
  8
0
  6
Continuous
 62
     7
370
    15
100
AcDbLine
 10
620.8240755644
 20
519.13669349
 30
0.0
 11
620.8240755644
 21
519.9150854473
 31
0.0
  0
LINE
  5
2C3
330
1F
100
AcDbEntity
  8
0
  6
Continuous
 62
     7
370
    15
100
AcDbLine
 10
625.1911830899
 20
517.8939813499
 30
0.0
 11
625.2983005528
 21
519.937899125
 31
0.0
  0
ELLIPSE
  5
2C4
330
1F
100
AcDbEntity
  8
0
  6
Continuous
 62
     7
370
    15
100
AcDbEllipse
 10
620.8240755644
 20
-4173.6147501211
 30
0.0
 11
-5.596447178267681
 21
4693.959616022684
 31
0.0
210
0.0
220
0.0
230
1.0
 40
0.0523942157
 41
6.251174581669241
 42
6.260433559076259
  0
ELLIPSE
  5
2C5
330
1F
100
AcDbEntity
  8
0
  6
Continuous
 62
     7
370
    15
100
AcDbEllipse
 10
620.8240755644
 20
-1252.3110586312
 30
0.0
 11
-4.422773922779471
 21
1750.652739570367
 31
0.0
210
0.0
220
0.0
230
1.0
 40
0.1404963036
 41
0.1078307153056271
 42
0.1424605517558333
  0
ELLIPSE
  5
2C6
330
1F
100
AcDbEntity
  8
0
  6
Continuous
 62
     7
370
    15
100
AcDbEllipse
 10
620.8240755644
 20
405.9176295177
 30
0.0
 11
245.9985249851838
 21
2.341316640920298
 31
0.0
210
0.0
220
0.0
230
1.0
 40
0.3638479563
 41
1.229651464352776
 42
1.249809712651966
  0
ELLIPSE
  5
2C7
330
1F
100
AcDbEntity
  8
0
  6
Continuous
 62
     7
370
    15
100
AcDbEllipse
 10
620.8240755644
 20
405.9176295177
 30
0.0
 11
245.9985249851838
 21
2.341316640920298
 31
0.0
210
0.0
220
0.0
230
1.0
 40
0.3638479563
 41
1.36779677329433
 42
1.436571220828058
  0
LINE
  5
2C8
330
1F
100
AcDbEntity
  8
0
  6
Continuous
 62
     7
370
    15
100
AcDbLine
 10
702.3240768161
 20
487.7476582055
 30
0.0
 11
702.3240768161
 21
491.0489806656
 31
0.0
  0
ELLIPSE
  5
2C9
330
1F
100
AcDbEntity
  8
0
  6
Continuous
 62
     7
370
    15
100
AcDbEllipse
 10
620.8240755644
 20
-1252.3110586312
 30
0.0
 11
4.422773922779356
 21
1750.652739570367
 31
0.0
210
0.0
220
0.0
230
1.0
 40
0.1404963036
 41
6.14072475542384
 42
6.175354591874063
  0
LINE
  5
2CA
330
1F
100
AcDbEntity
  8
0
  6
Continuous
 62
     7
370
    15
100
AcDbLine
 10
539.3240743127
 20
487.7476582055
 30
0.0
 11
539.3240743127
 21
491.0489806656
 31
0.0
  0
ELLIPSE
  5
2CB
330
1F
100
AcDbEntity
  8
0
  6
Continuous
 62
     7
370
    15
100
AcDbEllipse
 10
620.8240755644
 20
405.9176295177
 30
0.0
 11
245.9985249851838
 21
-2.341316640920298
 31
0.0
210
0.0
220
0.0
230
1.0
 40
0.3638479563
 41
1.891782940937825
 42
1.911941189237018
  0
ELLIPSE
  5
2CC
330
1F
100
AcDbEntity
  8
0
  6
Continuous
 62
     7
370
    15
100
AcDbEllipse
 10
620.8240755644
 20
405.9176295177
 30
0.0
 11
245.9985249851838
 21
-2.341316640920298
 31
0.0
210
0.0
220
0.0
230
1.0
 40
0.3638479563
 41
1.705021432761721
 42
1.773795880295474
  0
LINE
  5
2CD
330
1F
100
AcDbEntity
  8
0
  6
Continuous
 62
     7
370
    15
100
AcDbLine
 10
529.6161317077
 20
494.970288289
 30
0.0
 11
520.65835081
 21
494.970288289
 31
0.0
  0
LINE
  5
2CE
330
1F
100
AcDbEntity
  8
0
  6
Continuous
 62
     7
370
    15
100
AcDbLine
 10
520.65835081
 20
494.970288289
 30
0.0
 11
519.2677744474
 21
521.5039962654
 31
0.0
  0
SPLINE
  5
2CF
330
1F
100
AcDbEntity
  8
0
  6
Continuous
 62
     7
370
    15
100
AcDbSpline
210
0.0
220
0.0
230
1.0
 70
     8
 71
     3
 72
     8
 73
     4
 74
     0
 42
0.00000001
 43
0.00000001
 12
1.0
 22
0.0
 32
0.0
 13
1.0
 23
0.0
 33
0.0
 40
0.0
 40
0.0
 40
0.0
 40
0.0
 40
1.0
 40
1.0
 40
1.0
 40
1.0
 10
519.2677750649068
 20
521.5039993785913
 30
0.0
 10
519.2663315193568
 20
521.5315438685466
 30
0.0
 10
519.3450941294232
 20
521.5458230083614
 30
0.0
 10
519.5014553874194
 20
521.5473357466069
 30
0.0
  0
LINE
  5
2D0
330
1F
100
AcDbEntity
  8
0
  6
Continuous
 62
     7
370
    15
100
AcDbLine
 10
720.9898003187
 20
494.970288289
 30
0.0
 11
722.3803766813
 21
521.5039962654
 31
0.0
  0
LINE
  5
2D1
330
1F
100
AcDbEntity
  8
0
  6
Continuous
 62
     7
370
    15
100
AcDbLine
 10
712.0320194211
 20
494.970288289
 30
0.0
 11
720.9898003187
 21
494.970288289
 31
0.0
  0
SPLINE
  5
2D2
330
1F
100
AcDbEntity
  8
0
  6
Continuous
 62
     7
370
    15
100
AcDbSpline
210
0.0
220
0.0
230
1.0
 70
     8
 71
     3
 72
     8
 73
     4
 74
     0
 42
0.00000001
 43
0.00000001
 12
1.0
 22
0.0
 32
0.0
 13
1.0
 23
0.0
 33
0.0
 40
0.0
 40
0.0
 40
0.0
 40
0.0
 40
1.0
 40
1.0
 40
1.0
 40
1.0
 10
722.3803760638588
 20
521.5039993785913
 30
0.0
 10
722.3818196094088
 20
521.5315438685466
 30
0.0
 10
722.3030569993424
 20
521.5458230083614
 30
0.0
 10
722.1466957413463
 20
521.5473357466069
 30
0.0
  0
LINE
  5
2D3
330
1F
100
AcDbEntity
  8
0
  6
Continuous
 62
     7
370
    15
100
AcDbLine
 10
537.7937101569
 20
489.5316475753
 30
0.0
 11
539.3240743127
 21
491.0489806656
 31
0.0
  0
LINE
  5
2D4
330
1F
100
AcDbEntity
  8
0
  6
Continuous
 62
     7
370
    15
100
AcDbLine
 10
536.158732399
 20
489.3286118035
 30
0.0
 11
537.7937101569
 21
489.5316475753
 31
0.0
  0
LINE
  5
2D5
330
1F
100
AcDbEntity
  8
0
  6
Continuous
 62
     7
370
    15
100
AcDbLine
 10
536.158732399
 20
489.3286118035
 30
0.0
 11
529.8240774121
 21
491.6342386727
 31
0.0
  0
LINE
  5
2D6
330
1F
100
AcDbEntity
  8
0
  6
Continuous
 62
     7
370
    15
100
AcDbLine
 10
705.4894187298
 20
489.3286118035
 30
0.0
 11
703.8544409718
 21
489.5316475753
 31
0.0
  0
LINE
  5
2D7
330
1F
100
AcDbEntity
  8
0
  6
Continuous
 62
     7
370
    15
100
AcDbLine
 10
703.8544409718
 20
489.5316475753
 30
0.0
 11
702.3240768161
 21
491.0489806656
 31
0.0
  0
LINE
  5
2D8
330
1F
100
AcDbEntity
  8
0
  6
Continuous
 62
     7
370
    15
100
AcDbLine
 10
705.4894187298
 20
489.3286118035
 30
0.0
 11
711.8240737166
 21
491.6342386727
 31
0.0
  0
LINE
  5
2D9
330
1F
100
AcDbEntity
  8
0
  6
Continuous
 62
     7
370
    15
100
AcDbLine
 10
545.6084155288
 20
556.9702947263
 30
0.0
 11
540.8562266078
 21
556.9702947263
 31
0.0
  0
LINE
  5
2DA
330
1F
100
AcDbEntity
  8
0
  6
Continuous
 62
     7
370
    15
100
AcDbLine
 10
696.0397356
 20
556.9702947263
 30
0.0
 11
700.791924521
 21
556.9702947263
 31
0.0
  0
LINE
  5
2DB
330
1F
100
AcDbEntity
  8
0
  6
Continuous
 62
     7
370
    15
100
AcDbLine
 10
529.8240774121
 20
491.6342386727
 30
0.0
 11
520.65835081
 21
494.970288289
 31
0.0
  0
LINE
  5
2DC
330
1F
100
AcDbEntity
  8
0
  6
Continuous
 62
     7
370
    15
100
AcDbLine
 10
711.8240737166
 20
491.6342386727
 30
0.0
 11
720.9898003187
 21
494.970288289
 31
0.0
  0
LINE
  5
2DD
330
1F
100
AcDbEntity
  8
0
  6
Continuous
 62
     7
370
    15
100
AcDbLine
 10
592.5199047472
 20
650.9702766065
 30
0.0
 11
592.5199047472
 21
660.9702968721
 31
0.0
  0
LINE
  5
2DE
330
1F
100
AcDbEntity
  8
0
  6
Continuous
 62
     7
370
    15
100
AcDbLine
 10
598.6398023363
 20
660.9702968721
 30
0.0
 11
643.0083487924
 21
660.9702968721
 31
0.0
  0
LINE
  5
2DF
330
1F
100
AcDbEntity
  8
0
  6
Continuous
 62
     7
370
    15
100
AcDbLine
 10
649.1282463815
 20
660.9702968721
 30
0.0
 11
649.1282463815
 21
650.9702766065
 31
0.0
  0
LINE
  5
2E0
330
1F
100
AcDbEntity
  8
0
  6
Continuous
 62
     7
370
    15
100
AcDbLine
 10
592.5199047472
 20
618.0446261291
 30
0.0
 11
592.5199047472
 21
650.9702766065
 31
0.0
  0
LINE
  5
2E1
330
1F
100
AcDbEntity
  8
0
  6
Continuous
 62
     7
370
    15
100
AcDbLine
 10
649.1282463815
 20
618.0446261291
 30
0.0
 11
649.1282463815
 21
650.9702766065
 31
0.0
  0
SPLINE
  5
2E2
330
1F
100
AcDbEntity
  8
0
  6
Continuous
 62
     7
370
    15
100
AcDbSpline
210
0.0
220
0.0
230
1.0
 70
     8
 71
     3
 72
     8
 73
     4
 74
     0
 42
0.00000001
 43
0.00000001
 12
1.0
 22
0.0
 32
0.0
 13
1.0
 23
0.0
 33
0.0
 40
0.0000005022438713
 40
0.0000005022438713
 40
0.0000005022438713
 40
0.0000005022438713
 40
0.0002083028038367
 40
0.0002083028038367
 40
0.0002083028038367
 40
0.0002083028038367
 10
643.0083482689331
 20
660.9702901963666
 30
0.0
 10
642.94697512868
 20
660.9978728074765
 30
0.0
 10
642.8855508748894
 20
661.0253338486181
 30
0.0
 10
642.8240755643831
 20
661.052671511726
 30
0.0
  0
SPLINE
  5
2E3
330
1F
100
AcDbEntity
  8
0
  6
Continuous
 62
     7
370
    15
100
AcDbSpline
210
0.0
220
0.0
230
1.0
 70
     8
 71
     3
 72
     8
 73
     4
 74
     0
 42
0.00000001
 43
0.00000001
 12
1.0
 22
0.0
 32
0.0
 13
1.0
 23
0.0
 33
0.0
 40
0.0000002253479019
 40
0.0000002253479019
 40
0.0000002253479019
 40
0.0000002253479019
 40
0.0002080259078672
 40
0.0002080259078672
 40
0.0002080259078672
 40
0.0002080259078672
 10
598.824075564383
 20
661.052671511726
 30
0.0
 10
598.7626002538767
 20
661.0253338486181
 30
0.0
 10
598.7011760000861
 20
660.9978728074765
 30
0.0
 10
598.6398028598331
 20
660.9702901963666
 30
0.0
  0
SPLINE
  5
2E4
330
1F
100
AcDbEntity
  8
0
  6
Continuous
 62
     7
370
    15
100
AcDbSpline
210
0.0
220
0.0
230
1.0
 70
     8
 71
     3
 72
     8
 73
     4
 74
     0
 42
0.00000001
 43
0.00000001
 12
1.0
 22
0.0
 32
0.0
 13
1.0
 23
0.0
 33
0.0
 40
0.0
 40
0.0
 40
0.0
 40
0.0
 40
1.0
 40
1.0
 40
1.0
 40
1.0
 10
605.8240755643831
 20
668.9702901963665
 30
0.0
 10
603.4711068587526
 20
666.3558689011533
 30
0.0
 10
601.1425776233339
 20
663.7105986552508
 30
0.0
 10
598.8240755643831
 20
661.052671511726
 30
0.0
  0
LINE
  5
2E5
330
1F
100
AcDbEntity
  8
0
  6
Continuous
 62
     7
370
    15
100
AcDbLine
 10
605.8240758997
 20
668.9702832822
 30
0.0
 11
635.8240752291
 21
668.9702832822
 31
0.0
  0
SPLINE
  5
2E6
330
1F
100
AcDbEntity
  8
0
  6
Continuous
 62
     7
370
    15
100
AcDbSpline
210
0.0
220
0.0
230
1.0
 70
     8
 71
     3
 72
     8
 73
     4
 74
     0
 42
0.00000001
 43
0.00000001
 12
1.0
 22
0.0
 32
0.0
 13
1.0
 23
0.0
 33
0.0
 40
0.0
 40
0.0
 40
0.0
 40
0.0
 40
1.0
 40
1.0
 40
1.0
 40
1.0
 10
642.8240755643832
 20
661.052671511726
 30
0.0
 10
640.5055735054323
 20
663.7105986552508
 30
0.0
 10
638.1770442700135
 20
666.3558689011533
 30
0.0
 10
635.8240755643832
 20
668.9702901963665
 30
0.0
  0
LINE
  5
2E7
330
1F
100
AcDbEntity
  8
0
  6
Continuous
 62
     7
370
    15
100
AcDbLine
 10
509.8240741339
 20
536.9702839975
 30
0.0
 11
513.7228512015
 21
536.9702839975
 31
0.0
  0
LINE
  5
2E8
330
1F
100
AcDbEntity
  8
0
  6
Continuous
 62
     7
370
    15
100
AcDbLine
 10
509.8240741339
 20
529.9702847127
 30
0.0
 11
513.7228512015
 21
529.9702847127
 31
0.0
  0
LINE
  5
2E9
330
1F
100
AcDbEntity
  8
0
  6
Continuous
 62
     7
370
    15
100
AcDbLine
 10
727.9252999272
 20
536.9702839975
 30
0.0
 11
731.8240769949
 21
536.9702839975
 31
0.0
  0
LINE
  5
2EA
330
1F
100
AcDbEntity
  8
0
  6
Continuous
 62
     7
370
    15
100
AcDbLine
 10
727.9252999272
 20
529.9702847127
 30
0.0
 11
731.8240769949
 21
529.9702847127
 31
0.0
  0
LINE
  5
2EB
330
1F
100
AcDbEntity
  8
0
  6
Continuous
 62
     7
370
    15
100
AcDbLine
 10
511.2207972255
 20
522.4003309135
 30
0.0
 11
514.7838734832
 21
522.4003309135
 31
0.0
  0
LINE
  5
2EC
330
1F
100
AcDbEntity
  8
0
  6
Continuous
 62
     7
370
    15
100
AcDbLine
 10
730.4273539033
 20
522.4003309135
 30
0.0
 11
726.8642776456
 21
522.4003309135
 31
0.0
  0
LINE
  5
2ED
330
1F
100
AcDbEntity
  8
0
  6
Continuous
 62
     7
370
    15
100
AcDbLine
 10
685.4142986979
 20
729.9703025941
 30
0.0
 11
686.6250180449
 21
729.9703025941
 31
0.0
  0
LINE
  5
2EE
330
1F
100
AcDbEntity
  8
0
  6
Continuous
 62
     7
370
    15
100
AcDbLine
 10
685.4142986979
 20
721.470292819
 30
0.0
 11
685.4142986979
 21
729.9703025941
 31
0.0
  0
LINE
  5
2EF
330
1F
100
AcDbEntity
  8
0
  6
Continuous
 62
     7
370
    15
100
AcDbLine
 10
686.6250180449
 20
743.4702777986
 30
0.0
 11
682.1904026713
 21
743.4702777986
 31
0.0
  0
LINE
  5
2F0
330
1F
100
AcDbEntity
  8
0
  6
Continuous
 62
     7
370
    15
100
AcDbLine
 10
685.4142986979
 20
721.470292819
 30
0.0
 11
682.1904026713
 21
721.470292819
 31
0.0
  0
LINE
  5
2F1
330
1F
100
AcDbEntity
  8
0
  6
Continuous
 62
     7
370
    15
100
AcDbLine
 10
558.3508753028
 20
956.9703006868
 30
0.0
 11
558.3508753028
 21
965.4702806596
 31
0.0
  0
LINE
  5
2F2
330
1F
100
AcDbEntity
  8
0
  6
Continuous
 62
     7
370
    15
100
AcDbLine
 10
557.1401559558
 20
956.9703006868
 30
0.0
 11
558.3508753028
 21
956.9703006868
 31
0.0
  0
LINE
  5
2F3
330
1F
100
AcDbEntity
  8
0
  6
Continuous
 62
     7
370
    15
100
AcDbLine
 10
561.5747713294
 20
943.4702658777
 30
0.0
 11
557.1401559558
 21
943.4702658777
 31
0.0
  0
LINE
  5
2F4
330
1F
100
AcDbEntity
  8
0
  6
Continuous
 62
     7
370
    15
100
AcDbLine
 10
561.5747713294
 20
965.4702806596
 30
0.0
 11
558.3508753028
 21
965.4702806596
 31
0.0
  0
LINE
  5
2F5
330
1F
100
AcDbEntity
  8
0
  6
Continuous
 62
     7
370
    15
100
AcDbLine
 10
685.4142986979
 20
965.4702806596
 30
0.0
 11
685.4142986979
 21
956.9703006868
 31
0.0
  0
LINE
  5
2F6
330
1F
100
AcDbEntity
  8
0
  6
Continuous
 62
     7
370
    15
100
AcDbLine
 10
685.4142986979
 20
956.9703006868
 30
0.0
 11
686.6250180449
 21
956.9703006868
 31
0.0
  0
LINE
  5
2F7
330
1F
100
AcDbEntity
  8
0
  6
Continuous
 62
     7
370
    15
100
AcDbLine
 10
686.6250180449
 20
943.4702658777
 30
0.0
 11
682.1904026713
 21
943.4702658777
 31
0.0
  0
LINE
  5
2F8
330
1F
100
AcDbEntity
  8
0
  6
Continuous
 62
     7
370
    15
100
AcDbLine
 10
685.4142986979
 20
965.4702806596
 30
0.0
 11
682.1904026713
 21
965.4702806596
 31
0.0
  0
LINE
  5
2F9
330
1F
100
AcDbEntity
  8
0
  6
Continuous
 62
     7
370
    15
100
AcDbLine
 10
558.3508753028
 20
729.9703025941
 30
0.0
 11
558.3508753028
 21
721.470292819
 31
0.0
  0
LINE
  5
2FA
330
1F
100
AcDbEntity
  8
0
  6
Continuous
 62
     7
370
    15
100
AcDbLine
 10
557.1401559558
 20
729.9703025941
 30
0.0
 11
558.3508753028
 21
729.9703025941
 31
0.0
  0
LINE
  5
2FB
330
1F
100
AcDbEntity
  8
0
  6
Continuous
 62
     7
370
    15
100
AcDbLine
 10
561.5747713294
 20
743.4702777986
 30
0.0
 11
557.1401559558
 21
743.4702777986
 31
0.0
  0
LINE
  5
2FC
330
1F
100
AcDbEntity
  8
0
  6
Continuous
 62
     7
370
    15
100
AcDbLine
 10
561.5747713294
 20
721.470292819
 30
0.0
 11
558.3508753028
 21
721.470292819
 31
0.0
  0
SPLINE
  5
2FD
330
1F
100
AcDbEntity
  8
0
  6
Continuous
 62
     7
370
    15
100
AcDbSpline
210
0.0
220
0.0
230
1.0
 70
     8
 71
     3
 72
    32
 73
    28
 74
     0
 42
0.00000001
 43
0.00000001
 12
1.0
 22
0.0
 32
0.0
 13
1.0
 23
0.0
 33
0.0
 40
0.0
 40
0.0
 40
0.0
 40
0.0
 40
0.0624999999999991
 40
0.0624999999999991
 40
0.0937499999999995
 40
0.0937499999999995
 40
0.1249999999999999
 40
0.1249999999999999
 40
0.1874999999999986
 40
0.1874999999999986
 40
0.2499999999999973
 40
0.2499999999999973
 40
0.3749999999999947
 40
0.3749999999999947
 40
0.4374999999999944
 40
0.4374999999999944
 40
0.499999999999994
 40
0.499999999999994
 40
0.624999999999996
 40
0.624999999999996
 40
0.749999999999998
 40
0.749999999999998
 40
0.812499999999998
 40
0.812499999999998
 40
0.874999999999998
 40
0.874999999999998
 40
1.0
 40
1.0
 40
1.0
 40
1.0
 10
540.2733014147522
 20
583.7545799918427
 30
0.0
 10
540.0652081505413
 20
583.4997763969476
 30
0.0
 10
539.8116784468286
 20
583.1868868357766
 30
0.0
 10
539.3800002814476
 20
582.6457557323603
 30
0.0
 10
539.2265788159668
 20
582.4521825705376
 30
0.0
 10
538.9091979567008
 20
582.0485138474667
 30
0.0
 10
538.7452919680262
 20
581.8385045295447
 30
0.0
 10
538.2407238331208
 20
581.1865230159195
 30
0.0
 10
537.8873382761307
 20
580.722740670048
 30
0.0
 10
537.156611726939
 20
579.7451064849031
 30
0.0
 10
536.7783355407123
 20
579.2298351298941
 30
0.0
 10
535.6452890288131
 20
577.6548557948953
 30
0.0
 10
534.8830750275138
 20
576.553782483867
 30
0.0
 10
533.7467985786935
 20
574.8387183285646
 30
0.0
 10
533.3678383022691
 20
574.254334653559
 30
0.0
 10
532.6203274076236
 20
573.075515970383
 30
0.0
 10
532.2524576448778
 20
572.482269993599
 30
0.0
 10
531.166635364011
 20
570.6911891443875
 30
0.0
 10
530.4664704433214
 20
569.4820233330709
 30
0.0
 10
529.1141418476378
 20
567.0339581353918
 30
0.0
 10
528.4619732502391
 20
565.7950543315745
 30
0.0
 10
527.5201558202543
 20
563.9144961694857
 30
0.0
 10
527.2116880011844
 20
563.2826479180724
 30
0.0
 10
526.6109086487351
 20
562.0198991311412
 30
0.0
 10
526.3184133060964
 20
561.3887116439145
 30
0.0
 10
525.4637289056599
 20
559.4952509383704
 30
0.0
 10
524.9242997623296
 20
558.233032791033
 30
0.0
 10
524.4134952321392
 20
556.9702901963665
 30
0.0
  0
SPLINE
  5
2FE
330
1F
100
AcDbEntity
  8
0
  6
Continuous
 62
     7
370
    15
100
AcDbSpline
210
0.0
220
0.0
230
1.0
 70
     8
 71
     3
 72
    32
 73
    28
 74
     0
 42
0.00000001
 43
0.00000001
 12
1.0
 22
0.0
 32
0.0
 13
1.0
 23
0.0
 33
0.0
 40
0.0
 40
0.0
 40
0.0
 40
0.0
 40
0.0625000000000014
 40
0.0625000000000014
 40
0.0937500000000029
 40
0.0937500000000029
 40
0.1250000000000045
 40
0.1250000000000045
 40
0.1875000000000055
 40
0.1875000000000055
 40
0.2500000000000065
 40
0.2500000000000065
 40
0.3750000000000079
 40
0.3750000000000079
 40
0.4375000000000077
 40
0.4375000000000077
 40
0.5000000000000074
 40
0.5000000000000074
 40
0.6250000000000075
 40
0.6250000000000075
 40
0.7500000000000075
 40
0.7500000000000075
 40
0.8125000000000063
 40
0.8125000000000063
 40
0.875000000000005
 40
0.875000000000005
 40
1.0
 40
1.0
 40
1.0
 40
1.0
 10
701.3748497140139
 20
583.7545799918427
 30
0.0
 10
701.5829429782248
 20
583.4997763969476
 30
0.0
 10
701.8364726819373
 20
583.1868868357766
 30
0.0
 10
702.2681508473183
 20
582.6457557323603
 30
0.0
 10
702.4215723127991
 20
582.4521825705376
 30
0.0
 10
702.7389531720653
 20
582.0485138474667
 30
0.0
 10
702.9028591607398
 20
581.8385045295447
 30
0.0
 10
703.4074272956452
 20
581.1865230159195
 30
0.0
 10
703.7608128526354
 20
580.7227406700481
 30
0.0
 10
704.4915394018269
 20
579.7451064849031
 30
0.0
 10
704.8698155880537
 20
579.2298351298941
 30
0.0
 10
706.0028620999528
 20
577.6548557948953
 30
0.0
 10
706.7650761012521
 20
576.553782483867
 30
0.0
 10
707.9013525500725
 20
574.8387183285647
 30
0.0
 10
708.2803128264968
 20
574.254334653559
 30
0.0
 10
709.0278237211425
 20
573.075515970383
 30
0.0
 10
709.3956934838881
 20
572.482269993599
 30
0.0
 10
710.4815157647548
 20
570.6911891443875
 30
0.0
 10
711.1816806854445
 20
569.4820233330707
 30
0.0
 10
712.5340092811281
 20
567.0339581353918
 30
0.0
 10
713.1861778785269
 20
565.7950543315746
 30
0.0
 10
714.1279953085116
 20
563.9144961694857
 30
0.0
 10
714.4364631275815
 20
563.2826479180724
 30
0.0
 10
715.037242480031
 20
562.0198991311413
 30
0.0
 10
715.3297378226695
 20
561.3887116439146
 30
0.0
 10
716.1844222231061
 20
559.4952509383704
 30
0.0
 10
716.7238513664363
 20
558.2330327910329
 30
0.0
 10
717.2346558966267
 20
556.9702901963665
 30
0.0
  0
LINE
  5
2FF
330
1F
100
AcDbEntity
  8
0
  6
Continuous
 62
     7
370
    15
100
AcDbLine
 10
691.1325895038
 20
965.4702806596
 30
0.0
 11
685.4142986979
 21
965.4702806596
 31
0.0
  0
LINE
  5
300
330
1F
100
AcDbEntity
  8
0
  6
Continuous
 62
     7
370
    15
100
AcDbLine
 10
691.1325895038
 20
721.470292819
 30
0.0
 11
685.4142986979
 21
721.470292819
 31
0.0
  0
LINE
  5
301
330
1F
100
AcDbEntity
  8
0
  6
Continuous
 62
     7
370
    15
100
AcDbLine
 10
552.632584497
 20
721.470292819
 30
0.0
 11
558.3508753028
 21
721.470292819
 31
0.0
  0
LINE
  5
302
330
1F
100
AcDbEntity
  8
0
  6
Continuous
 62
     7
370
    15
100
AcDbLine
 10
558.3508753028
 20
965.4702806596
 30
0.0
 11
556.5508299317
 21
965.4702806596
 31
0.0
  0
LINE
  5
303
330
1F
100
AcDbEntity
  8
0
  6
Continuous
 62
     7
370
    15
100
AcDbLine
 10
695.882587954
 20
956.9703006868
 30
0.0
 11
695.882587954
 21
729.9703025941
 31
0.0
  0
LINE
  5
304
330
1F
100
AcDbEntity
  8
0
  6
Continuous
 62
     7
370
    15
100
AcDbLine
 10
693.1239359822
 20
943.4702658777
 30
0.0
 11
693.1239359822
 21
743.4702777986
 31
0.0
  0
LINE
  5
305
330
1F
100
AcDbEntity
  8
0
  6
Continuous
 62
     7
370
    15
100
AcDbLine
 10
686.6250180449
 20
956.9703006868
 30
0.0
 11
695.882587954
 21
956.9703006868
 31
0.0
  0
LINE
  5
306
330
1F
100
AcDbEntity
  8
0
  6
Continuous
 62
     7
370
    15
100
AcDbLine
 10
686.6250180449
 20
729.9703025941
 30
0.0
 11
695.882587954
 21
729.9703025941
 31
0.0
  0
LINE
  5
307
330
1F
100
AcDbEntity
  8
0
  6
Continuous
 62
     7
370
    15
100
AcDbLine
 10
693.1239359822
 20
943.4702658777
 30
0.0
 11
686.6250180449
 21
943.4702658777
 31
0.0
  0
LINE
  5
308
330
1F
100
AcDbEntity
  8
0
  6
Continuous
 62
     7
370
    15
100
AcDbLine
 10
693.1239359822
 20
743.4702777986
 30
0.0
 11
686.6250180449
 21
743.4702777986
 31
0.0
  0
LINE
  5
309
330
1F
100
AcDbEntity
  8
0
  6
Continuous
 62
     7
370
    15
100
AcDbLine
 10
550.6412380185
 20
943.4702658777
 30
0.0
 11
550.6412380185
 21
743.4702777986
 31
0.0
  0
LINE
  5
30A
330
1F
100
AcDbEntity
  8
0
  6
Continuous
 62
     7
370
    15
100
AcDbLine
 10
547.8825860467
 20
956.9703006868
 30
0.0
 11
547.8825860467
 21
729.9703025941
 31
0.0
  0
LINE
  5
30B
330
1F
100
AcDbEntity
  8
0
  6
Continuous
 62
     7
370
    15
100
AcDbLine
 10
547.8825860467
 20
956.9703006868
 30
0.0
 11
557.1401559558
 21
956.9703006868
 31
0.0
  0
LINE
  5
30C
330
1F
100
AcDbEntity
  8
0
  6
Continuous
 62
     7
370
    15
100
AcDbLine
 10
547.8825860467
 20
729.9703025941
 30
0.0
 11
557.1401559558
 21
729.9703025941
 31
0.0
  0
LINE
  5
30D
330
1F
100
AcDbEntity
  8
0
  6
Continuous
 62
     7
370
    15
100
AcDbLine
 10
557.1401559558
 20
743.4702777986
 30
0.0
 11
550.6412380185
 21
743.4702777986
 31
0.0
  0
LINE
  5
30E
330
1F
100
AcDbEntity
  8
0
  6
Continuous
 62
     7
370
    15
100
AcDbLine
 10
557.1401559558
 20
943.4702658777
 30
0.0
 11
550.6412380185
 21
943.4702658777
 31
0.0
  0
LINE
  5
30F
330
1F
100
AcDbEntity
  8
0
  6
Continuous
 62
     7
370
    15
100
AcDbLine
 10
537.7937101569
 20
486.4098841075
 30
0.0
 11
537.7937101569
 21
489.5316475753
 31
0.0
  0
LINE
  5
310
330
1F
100
AcDbEntity
  8
0
  6
Continuous
 62
     7
370
    15
100
AcDbLine
 10
703.8544409718
 20
486.4098841075
 30
0.0
 11
703.8544409718
 21
489.5316475753
 31
0.0
  0
LINE
  5
311
330
1F
100
AcDbEntity
  8
0
  6
Continuous
 62
     7
370
    15
100
AcDbLine
 10
555.3825863447
 20
943.4702658777
 30
0.0
 11
555.3825863447
 21
743.4702777986
 31
0.0
  0
LINE
  5
312
330
1F
100
AcDbEntity
  8
0
  6
Continuous
 62
     7
370
    15
100
AcDbLine
 10
688.382587656
 20
943.4702658777
 30
0.0
 11
688.382587656
 21
743.4702777986
 31
0.0
  0
LINE
  5
313
330
1F
100
AcDbEntity
  8
0
  6
Continuous
 62
     7
370
    15
100
AcDbLine
 10
703.3825882521
 20
956.9703006868
 30
0.0
 11
703.3825882521
 21
729.9703025941
 31
0.0
  0
LINE
  5
314
330
1F
100
AcDbEntity
  8
0
  6
Continuous
 62
     7
370
    15
100
AcDbLine
 10
695.882587954
 20
956.9703006868
 30
0.0
 11
703.3825882521
 21
956.9703006868
 31
0.0
  0
LINE
  5
315
330
1F
100
AcDbEntity
  8
0
  6
Continuous
 62
     7
370
    15
100
AcDbLine
 10
695.882587954
 20
729.9703025941
 30
0.0
 11
703.3825882521
 21
729.9703025941
 31
0.0
  0
LINE
  5
316
330
1F
100
AcDbEntity
  8
0
  6
Continuous
 62
     7
370
    15
100
AcDbLine
 10
540.3825857487
 20
956.9703006868
 30
0.0
 11
540.3825857487
 21
729.9703025941
 31
0.0
  0
LINE
  5
317
330
1F
100
AcDbEntity
  8
0
  6
Continuous
 62
     7
370
    15
100
AcDbLine
 10
540.3825857487
 20
956.9703006868
 30
0.0
 11
547.8825860467
 21
956.9703006868
 31
0.0
  0
LINE
  5
318
330
1F
100
AcDbEntity
  8
0
  6
Continuous
 62
     7
370
    15
100
AcDbLine
 10
540.3825857487
 20
729.9703025941
 30
0.0
 11
547.8825860467
 21
729.9703025941
 31
0.0
  0
LINE
  5
319
330
1F
100
AcDbEntity
  8
0
  6
Continuous
 62
     7
370
    15
100
AcDbLine
 10
619.8240755169
 20
996.9337248926
 30
0.0
 11
619.8240755169
 21
970.8191418771
 31
0.0
  0
LINE
  5
31A
330
1F
100
AcDbEntity
  8
0
  6
Continuous
 62
     7
370
    15
100
AcDbLine
 10
545.8240725842
 20
996.9337248926
 30
0.0
 11
545.8240725842
 21
970.8191418771
 31
0.0
  0
LINE
  5
31B
330
1F
100
AcDbEntity
  8
0
  6
Continuous
 62
     7
370
    15
100
AcDbLine
 10
605.8240758997
 20
678.9703035478
 30
0.0
 11
605.8240758997
 21
668.9702832822
 31
0.0
  0
LINE
  5
31C
330
1F
100
AcDbEntity
  8
0
  6
Continuous
 62
     7
370
    15
100
AcDbLine
 10
635.8240752291
 20
678.9703035478
 30
0.0
 11
635.8240752291
 21
668.9702832822
 31
0.0
  0
LINE
  5
31D
330
1F
100
AcDbEntity
  8
0
  6
Continuous
 62
     7
370
    15
100
AcDbLine
 10
648.6240749058
 20
996.8324566011
 30
0.0
 11
648.6240749058
 21
971.6132545595
 31
0.0
  0
LINE
  5
31E
330
1F
100
AcDbEntity
  8
0
  6
Continuous
 62
     7
370
    15
100
AcDbLine
 10
520.8240740743
 20
996.8324566011
 30
0.0
 11
520.8240740743
 21
971.6132545595
 31
0.0
  0
LINE
  5
31F
330
1F
100
AcDbEntity
  8
0
  6
Continuous
 62
     7
370
    15
100
AcDbLine
 10
598.8240756836
 20
678.9703035478
 30
0.0
 11
598.8240756836
 21
661.0526704912
 31
0.0
  0
LINE
  5
320
330
1F
100
AcDbEntity
  8
0
  6
Continuous
 62
     7
370
    15
100
AcDbLine
 10
572.7771029618
 20
660.9702968721
 30
0.0
 11
598.6398023363
 21
660.9702968721
 31
0.0
  0
LINE
  5
321
330
1F
100
AcDbEntity
  8
0
  6
Continuous
 62
     7
370
    15
100
AcDbLine
 10
642.8240754452
 20
678.9703035478
 30
0.0
 11
642.8240754452
 21
661.0526704912
 31
0.0
  0
LINE
  5
322
330
1F
100
AcDbEntity
  8
0
  6
Continuous
 62
     7
370
    15
100
AcDbLine
 10
643.0083487924
 20
660.9702968721
 30
0.0
 11
668.871048167
 21
660.9702968721
 31
0.0
  0
LINE
  5
323
330
1F
100
AcDbEntity
  8
0
  6
Continuous
 62
     7
370
    15
100
AcDbLine
 10
648.6240749058
 20
971.2702894334
 30
0.0
 11
619.8240755169
 21
971.2702894334
 31
0.0
  0
LINE
  5
324
330
1F
100
AcDbEntity
  8
0
  6
Continuous
 62
     7
370
    15
100
AcDbLine
 10
648.6240749058
 20
971.6132545595
 30
0.0
 11
648.6240749058
 21
971.2702894334
 31
0.0
  0
LINE
  5
325
330
1F
100
AcDbEntity
  8
0
  6
Continuous
 62
     7
370
    15
100
AcDbLine
 10
520.8240740743
 20
971.2702894334
 30
0.0
 11
545.8240725842
 21
971.2702894334
 31
0.0
  0
LINE
  5
326
330
1F
100
AcDbEntity
  8
0
  6
Continuous
 62
     7
370
    15
100
AcDbLine
 10
520.8240740743
 20
971.6132545595
 30
0.0
 11
520.8240740743
 21
971.2702894334
 31
0.0
  0
LINE
  5
327
330
1F
100
AcDbEntity
  8
0
  6
Continuous
 62
     7
370
    15
100
AcDbLine
 10
619.8240755169
 20
997.2703123216
 30
0.0
 11
545.8240725842
 21
997.2703123216
 31
0.0
  0
LINE
  5
328
330
1F
100
AcDbEntity
  8
0
  6
Continuous
 62
     7
370
    15
100
AcDbLine
 10
545.8240725842
 20
997.2703123216
 30
0.0
 11
545.8240725842
 21
996.9337248926
 31
0.0
  0
LINE
  5
329
330
1F
100
AcDbEntity
  8
0
  6
Continuous
 62
     7
370
    15
100
AcDbLine
 10
619.8240755169
 20
997.2703123216
 30
0.0
 11
619.8240755169
 21
996.9337248926
 31
0.0
  0
LINE
  5
32A
330
1F
100
AcDbEntity
  8
0
  6
Continuous
 62
     7
370
    15
100
AcDbLine
 10
648.6240749058
 20
997.1702957277
 30
0.0
 11
619.8240755169
 21
997.1702957277
 31
0.0
  0
LINE
  5
32B
330
1F
100
AcDbEntity
  8
0
  6
Continuous
 62
     7
370
    15
100
AcDbLine
 10
648.6240749058
 20
997.1702957277
 30
0.0
 11
648.6240749058
 21
996.8324566011
 31
0.0
  0
LINE
  5
32C
330
1F
100
AcDbEntity
  8
0
  6
Continuous
 62
     7
370
    15
100
AcDbLine
 10
520.8240740743
 20
997.1702957277
 30
0.0
 11
545.8240725842
 21
997.1702957277
 31
0.0
  0
LINE
  5
32D
330
1F
100
AcDbEntity
  8
0
  6
Continuous
 62
     7
370
    15
100
AcDbLine
 10
520.8240740743
 20
997.1702957277
 30
0.0
 11
520.8240740743
 21
996.8324566011
 31
0.0
  0
LINE
  5
32E
330
1F
100
AcDbEntity
  8
0
  6
Continuous
 62
     7
370
    15
100
AcDbLine
 10
545.8240725842
 20
970.8191418771
 30
0.0
 11
545.8240725842
 21
970.6520700578
 31
0.0
  0
LINE
  5
32F
330
1F
100
AcDbEntity
  8
0
  6
Continuous
 62
     7
370
    15
100
AcDbLine
 10
619.8240755169
 20
970.8191418771
 30
0.0
 11
619.8240755169
 21
970.6520700578
 31
0.0
  0
LINE
  5
330
330
1F
100
AcDbEntity
  8
0
  6
Continuous
 62
     7
370
    15
100
AcDbLine
 10
545.8240725842
 20
970.6520700578
 30
0.0
 11
545.8240725842
 21
965.9703040246
 31
0.0
  0
LINE
  5
331
330
1F
100
AcDbEntity
  8
0
  6
Continuous
 62
     7
370
    15
100
AcDbLine
 10
619.8240755169
 20
970.6520700578
 30
0.0
 11
619.8240755169
 21
965.9703040246
 31
0.0
  0
LINE
  5
332
330
1F
100
AcDbEntity
  8
0
  6
Continuous
 62
     7
370
    15
100
AcDbLine
 10
556.5508299317
 20
965.4702806596
 30
0.0
 11
545.8240725842
 21
965.4702806596
 31
0.0
  0
LINE
  5
333
330
1F
100
AcDbEntity
  8
0
  6
Continuous
 62
     7
370
    15
100
AcDbLine
 10
545.8240725842
 20
965.9703040246
 30
0.0
 11
545.8240725842
 21
965.4702806596
 31
0.0
  0
LINE
  5
334
330
1F
100
AcDbEntity
  8
0
  6
Continuous
 62
     7
370
    15
100
AcDbLine
 10
619.8240755169
 20
965.9703040246
 30
0.0
 11
619.8240755169
 21
965.4702806596
 31
0.0
  0
LWPOLYLINE
  5
335
330
1F
100
AcDbEntity
  8
0
  6
Continuous
 62
     7
370
    15
100
AcDbPolyline
 90
        9
 70
   128
 43
0.0
 10
722.5063809004
 20
495.2473008756
 10
722.5067534294
 20
495.2544832353
 10
722.5078635659
 20
495.2756056313
 10
722.5096368041
 20
495.3093865637
 10
722.5119613852
 20
495.3538218264
 10
722.5147106495
 20
495.4062292103
 10
722.5177057829
 20
495.4634794716
 10
722.5207828727
 20
495.5221378927
 10
722.5237482038
 20
495.5786877994
  0
LINE
  5
336
330
1F
100
AcDbEntity
  8
0
  6
Continuous
 62
     7
370
    15
100
AcDbLine
 10
722.5063809004
 20
495.2473008756
 30
0.0
 11
721.0084342208
 21
495.3258076434
 31
0.0
  0
LINE
  5
337
330
1F
100
AcDbEntity
  8
0
  6
Continuous
 62
     7
370
    15
100
AcDbLine
 10
722.5237482038
 20
495.5786877994
 30
0.0
 11
723.0997078862
 21
506.5687039618
 31
0.0
  0
LINE
  5
338
330
1F
100
AcDbEntity
  8
0
  6
Continuous
 62
     7
370
    15
100
AcDbLine
 10
524.3240737166
 20
362.1050214146
 30
0.0
 11
528.7146636095
 21
360.9285691504
 31
0.0
  0
LINE
  5
339
330
1F
100
AcDbEntity
  8
0
  6
Continuous
 62
     7
370
    15
100
AcDbLine
 10
524.3240737166
 20
362.1050214146
 30
0.0
 11
524.3240737166
 21
362.2749728833
 31
0.0
  0
LINE
  5
33A
330
1F
100
AcDbEntity
  8
0
  6
Continuous
 62
     7
370
    15
100
AcDbLine
 10
524.3240737166
 20
423.6656075094
 30
0.0
 11
524.3240737166
 21
442.6384942357
 31
0.0
  0
LINE
  5
33B
330
1F
100
AcDbEntity
  8
0
  6
Continuous
 62
     7
370
    15
100
AcDbLine
 10
524.3240737166
 20
472.423102868
 30
0.0
 11
524.3240737166
 21
493.6360755686
 31
0.0
  0
LINE
  5
33C
330
1F
100
AcDbEntity
  8
0
  6
Continuous
 62
     7
370
    15
100
AcDbLine
 10
717.3240774121
 20
362.1050214146
 30
0.0
 11
717.3240774121
 21
362.2749728833
 31
0.0
  0
LINE
  5
33D
330
1F
100
AcDbEntity
  8
0
  6
Continuous
 62
     7
370
    15
100
AcDbLine
 10
717.3240774121
 20
423.6656075094
 30
0.0
 11
717.3240774121
 21
442.6384942357
 31
0.0
  0
LINE
  5
33E
330
1F
100
AcDbEntity
  8
0
  6
Continuous
 62
     7
370
    15
100
AcDbLine
 10
717.3240774121
 20
472.423102868
 30
0.0
 11
717.3240774121
 21
493.6360755686
 31
0.0
  0
LINE
  5
33F
330
1F
100
AcDbEntity
  8
0
  6
Continuous
 62
     7
370
    15
100
AcDbLine
 10
717.3240774121
 20
362.1050214146
 30
0.0
 11
712.9334875193
 21
360.9285691504
 31
0.0
  0
LINE
  5
340
330
1F
100
AcDbEntity
  8
0
  6
Continuous
 62
     7
370
    15
100
AcDbLine
 10
723.1296368685
 20
507.1397611622
 30
0.0
 11
723.3557247367
 21
511.4538410429
 31
0.0
  0
LINE
  5
341
330
1F
100
AcDbEntity
  8
0
  6
Continuous
 62
     7
370
    15
100
AcDbLine
 10
723.1170751896
 20
506.9000908856
 30
0.0
 11
721.61912851
 21
506.9785976533
 31
0.0
  0
LWPOLYLINE
  5
342
330
1F
100
AcDbEntity
  8
0
  6
Continuous
 62
     7
370
    15
100
AcDbPolyline
 90
        9
 70
   128
 43
0.0
 10
723.1170751896
 20
506.9000908856
 10
723.1173210587
 20
506.9046953444
 10
723.1180288639
 20
506.9183373575
 10
723.1191911545
 20
506.9404879336
 10
723.1207557764
 20
506.970290256
 10
723.1226556745
 20
507.0066118364
 10
723.124831244
 20
507.0480445151
 10
723.1271856275
 20
507.093008769
 10
723.1296368685
 20
507.1397611622
  0
LINE
  5
343
330
1F
100
AcDbEntity
  8
0
  6
Continuous
 62
     7
370
    15
100
AcDbLine
 10
723.3682864156
 20
511.6935113196
 30
0.0
 11
721.8703471866
 21
511.7720180873
 31
0.0
  0
LWPOLYLINE
  5
344
330
1F
100
AcDbEntity
  8
0
  6
Continuous
 62
     7
370
    15
100
AcDbPolyline
 90
        9
 70
   128
 43
0.0
 10
723.3557247367
 20
511.4538410429
 10
723.3581759777
 20
511.5006008868
 10
723.3605378118
 20
511.5455651407
 10
723.3627059307
 20
511.5869978194
 10
723.3646132793
 20
511.6233193998
 10
723.3661704507
 20
511.6531217222
 10
723.3673327413
 20
511.6752722983
 10
723.368047997
 20
511.6889068608
 10
723.3682864156
 20
511.6935113196
  0
LINE
  5
345
330
1F
100
AcDbEntity
  8
0
  6
Continuous
 62
     7
370
    15
100
AcDbLine
 10
723.4735482182
 20
513.7019792323
 30
0.0
 11
723.6996360865
 21
518.0160516624
 31
0.0
  0
LINE
  5
346
330
1F
100
AcDbEntity
  8
0
  6
Continuous
 62
     7
370
    15
100
AcDbLine
 10
723.4609865394
 20
513.462301505
 30
0.0
 11
721.9630398598
 21
513.5408082728
 31
0.0
  0
LWPOLYLINE
  5
347
330
1F
100
AcDbEntity
  8
0
  6
Continuous
 62
     7
370
    15
100
AcDbPolyline
 90
        9
 70
   128
 43
0.0
 10
723.4609865394
 20
513.462301505
 10
723.4612249579
 20
513.4669134144
 10
723.4619402137
 20
513.4805479769
 10
723.4631025043
 20
513.502698553
 10
723.4646671262
 20
513.5325008754
 10
723.4665670242
 20
513.5688224558
 10
723.4687425938
 20
513.6102551345
 10
723.4710969772
 20
513.6552193884
 10
723.4735482182
 20
513.7019792323
  0
LINE
  5
348
330
1F
100
AcDbEntity
  8
0
  6
Continuous
 62
     7
370
    15
100
AcDbLine
 10
723.7121977653
 20
518.255721939
 30
0.0
 11
722.2142585363
 21
518.3342361574
 31
0.0
  0
LWPOLYLINE
  5
349
330
1F
100
AcDbEntity
  8
0
  6
Continuous
 62
     7
370
    15
100
AcDbPolyline
 90
        9
 70
   128
 43
0.0
 10
723.6996360865
 20
518.0160516624
 10
723.7020873275
 20
518.0628115062
 10
723.7044491615
 20
518.1077683095
 10
723.7066172805
 20
518.1492084388
 10
723.7085171785
 20
518.1855225687
 10
723.7100818005
 20
518.2153397922
 10
723.711244091
 20
518.2374829177
 10
723.7119593468
 20
518.2511174802
 10
723.7121977653
 20
518.255721939
  0
LINE
  5
34A
330
1F
100
AcDbEntity
  8
0
  6
Continuous
 62
     7
370
    15
100
AcDbLine
 10
648.6240749058
 20
973.020281804
 30
0.0
 11
677.6240759339
 21
973.020281804
 31
0.0
  0
LINE
  5
34B
330
1F
100
AcDbEntity
  8
0
  6
Continuous
 62
     7
370
    15
100
AcDbLine
 10
648.6240749058
 20
995.020296586
 30
0.0
 11
677.6240759339
 21
995.020296586
 31
0.0
  0
LINE
  5
34C
330
1F
100
AcDbEntity
  8
0
  6
Continuous
 62
     7
370
    15
100
AcDbLine
 10
677.6240759339
 20
995.020296586
 30
0.0
 11
677.6240759339
 21
973.020281804
 31
0.0
  0
LINE
  5
34D
330
1F
100
AcDbEntity
  8
0
  6
Continuous
 62
     7
370
    15
100
AcDbLine
 10
558.3240755644
 20
660.9702968721
 30
0.0
 11
572.7771029618
 21
660.9702968721
 31
0.0
  0
LINE
  5
34E
330
1F
100
AcDbEntity
  8
0
  6
Continuous
 62
     7
370
    15
100
AcDbLine
 10
668.871048167
 20
660.9702968721
 30
0.0
 11
683.3240755644
 21
660.9702968721
 31
0.0
  0
LWPOLYLINE
  5
34F
330
1F
100
AcDbEntity
  8
0
  6
Continuous
 62
     7
370
    15
100
AcDbPolyline
 90
        9
 70
   128
 43
0.0
 10
723.0997078862
 20
506.5687039618
 10
723.1026732173
 20
506.6252538685
 10
723.1057503071
 20
506.6839122896
 10
723.1087454405
 20
506.7411625509
 10
723.1114947047
 20
506.7935773854
 10
723.1138192859
 20
506.8380051975
 10
723.1155925241
 20
506.8717935805
 10
723.1167026606
 20
506.8929085259
 10
723.1170751896
 20
506.9000908856
  0
LINE
  5
350
330
1F
100
AcDbEntity
  8
0
  6
Continuous
 62
     7
370
    15
100
AcDbLine
 10
679.4740737226
 20
994.7703147058
 30
0.0
 11
679.4740737226
 21
973.2702636842
 31
0.0
  0
LINE
  5
351
330
1F
100
AcDbEntity
  8
0
  6
Continuous
 62
     7
370
    15
100
AcDbLine
 10
682.7740737047
 20
994.7703147058
 30
0.0
 11
682.7740737047
 21
973.2702636842
 31
0.0
  0
LINE
  5
352
330
1F
100
AcDbEntity
  8
0
  6
Continuous
 62
     7
370
    15
100
AcDbLine
 10
682.9740770903
 20
994.5702815179
 30
0.0
 11
682.9740770903
 21
973.4702968721
 31
0.0
  0
LINE
  5
353
330
1F
100
AcDbEntity
  8
0
  6
Continuous
 62
     7
370
    15
100
AcDbLine
 10
677.7740747478
 20
994.520273221
 30
0.0
 11
677.7740747478
 21
973.5203051691
 31
0.0
  0
LINE
  5
354
330
1F
100
AcDbEntity
  8
0
  6
Continuous
 62
     7
370
    15
100
AcDbLine
 10
678.2740757611
 20
994.520273221
 30
0.0
 11
678.2740757611
 21
973.5203051691
 31
0.0
  0
LWPOLYLINE
  5
355
330
1F
100
AcDbEntity
  8
0
  6
Continuous
 62
     7
370
    15
100
AcDbPolyline
 90
        9
 70
   128
 43
0.0
 10
723.453230485
 20
513.3143553261
 10
723.4548845139
 20
513.3458489303
 10
723.4563969817
 20
513.3746826772
 10
723.4577306356
 20
513.4002158169
 10
723.4588705745
 20
513.4219119076
 10
723.4597795453
 20
513.4392941122
 10
723.460442647
 20
513.4519824509
 10
723.4608524289
 20
513.459708703
 10
723.4609865394
 20
513.462301505
  0
LINE
  5
356
330
1F
100
AcDbEntity
  8
0
  6
Continuous
 62
     7
370
    15
100
AcDbLine
 10
723.3682864156
 20
511.6935113196
 30
0.0
 11
723.453230485
 21
513.3143553261
 31
0.0
  0
LINE
  5
357
330
1F
100
AcDbEntity
  8
0
  6
Continuous
 62
     8
370
     0
100
AcDbLine
 10
633.2515909147
 20
943.4702658777
 30
0.0
 11
633.2515909147
 21
743.4702777986
 31
0.0
  0
LINE
  5
358
330
1F
100
AcDbEntity
  8
0
  6
Continuous
 62
     8
370
     0
100
AcDbLine
 10
630.1550113406
 20
943.4702658777
 30
0.0
 11
630.1550113406
 21
743.4702777986
 31
0.0
  0
LINE
  5
359
330
1F
100
AcDbEntity
  8
0
  6
Continuous
 62
     8
370
     0
100
AcDbLine
 10
610.51358588
 20
943.4702658777
 30
0.0
 11
610.51358588
 21
743.4702777986
 31
0.0
  0
LINE
  5
35A
330
1F
100
AcDbEntity
  8
0
  6
Continuous
 62
     8
370
     0
100
AcDbLine
 10
613.6101645228
 20
943.4702658777
 30
0.0
 11
613.6101645228
 21
743.4702777986
 31
0.0
  0
LINE
  5
35B
330
1F
100
AcDbEntity
  8
0
  6
Continuous
 62
     8
370
     0
100
AcDbLine
 10
633.4725611653
 20
943.4702658777
 30
0.0
 11
633.4725611653
 21
743.4702777986
 31
0.0
  0
LINE
  5
35C
330
1F
100
AcDbEntity
  8
0
  6
Continuous
 62
     8
370
     0
100
AcDbLine
 10
610.2926146981
 20
943.4702658777
 30
0.0
 11
610.2926146981
 21
743.4702777986
 31
0.0
  0
LINE
  5
35D
330
1F
100
AcDbEntity
  8
0
  6
Continuous
 62
     8
370
     0
100
AcDbLine
 10
640.2977828678
 20
943.4702658777
 30
0.0
 11
640.2977828678
 21
743.4702777986
 31
0.0
  0
LINE
  5
35E
330
1F
100
AcDbEntity
  8
0
  6
Continuous
 62
     8
370
     0
100
AcDbLine
 10
603.4673948582
 20
943.4702658777
 30
0.0
 11
603.4673948582
 21
743.4702777986
 31
0.0
  0
LINE
  5
35F
330
1F
100
AcDbEntity
  8
0
  6
Continuous
 62
     8
370
     0
100
AcDbLine
 10
630.1374801245
 20
943.4702658777
 30
0.0
 11
630.1374801245
 21
743.4702777986
 31
0.0
  0
LINE
  5
360
330
1F
100
AcDbEntity
  8
0
  6
Continuous
 62
     8
370
     0
100
AcDbLine
 10
613.6276962046
 20
943.4702658777
 30
0.0
 11
613.6276962046
 21
743.4702777986
 31
0.0
  0
LINE
  5
361
330
1F
100
AcDbEntity
  8
0
  6
Continuous
 62
     8
370
     0
100
AcDbLine
 10
561.5747713294
 20
743.4702777986
 30
0.0
 11
561.5747713294
 21
721.470292819
 31
0.0
  0
LINE
  5
362
330
1F
100
AcDbEntity
  8
0
  6
Continuous
 62
     8
370
     0
100
AcDbLine
 10
561.5747713294
 20
965.4702806596
 30
0.0
 11
561.5747713294
 21
943.4702658777
 31
0.0
  0
LINE
  5
363
330
1F
100
AcDbEntity
  8
0
  6
Continuous
 62
     8
370
     0
100
AcDbLine
 10
682.1904026713
 20
965.4702806596
 30
0.0
 11
682.1904026713
 21
943.4702658777
 31
0.0
  0
LINE
  5
364
330
1F
100
AcDbEntity
  8
0
  6
Continuous
 62
     8
370
     0
100
AcDbLine
 10
682.1904026713
 20
743.4702777986
 30
0.0
 11
682.1904026713
 21
721.470292819
 31
0.0
  0
LINE
  5
365
330
1F
100
AcDbEntity
  8
0
  6
Continuous
 62
     8
370
     0
100
AcDbLine
 10
601.0743726786
 20
943.4702658777
 30
0.0
 11
601.0743726786
 21
743.4702777986
 31
0.0
  0
LINE
  5
366
330
1F
100
AcDbEntity
  8
0
  6
Continuous
 62
     8
370
     0
100
AcDbLine
 10
642.6908031847
 20
943.4702658777
 30
0.0
 11
642.6908031847
 21
743.4702777986
 31
0.0
  0
LINE
  5
367
330
1F
100
AcDbEntity
  8
0
  6
Continuous
 62
     8
370
     0
100
AcDbLine
 10
558.3240755644
 20
689.9702811365
 30
0.0
 11
683.3240755644
 21
689.9702811365
 31
0.0
  0
LINE
  5
368
330
1F
100
AcDbEntity
  8
0
  6
Continuous
 62
     8
370
     0
100
AcDbLine
 10
716.5815600004
 20
537.2837746267
 30
0.0
 11
717.0189612355
 21
536.9702839975
 31
0.0
  0
LINE
  5
369
330
1F
100
AcDbEntity
  8
0
  6
Continuous
 62
     8
370
     0
100
AcDbLine
 10
525.0665911283
 20
537.2837746267
 30
0.0
 11
524.6291898932
 21
536.9702839975
 31
0.0
  0
LINE
  5
36A
330
1F
100
AcDbEntity
  8
0
  6
Continuous
 62
     8
370
     0
100
AcDbLine
 10
524.6291898932
 20
529.9702847127
 30
0.0
 11
524.6291898932
 21
536.9702839975
 31
0.0
  0
LINE
  5
36B
330
1F
100
AcDbEntity
  8
0
  6
Continuous
 62
     8
370
     0
100
AcDbLine
 10
717.0189612355
 20
529.9702847127
 30
0.0
 11
717.0189612355
 21
536.9702839975
 31
0.0
  0
LINE
  5
36C
330
1F
100
AcDbEntity
  8
0
  6
Continuous
 62
     8
370
     0
100
AcDbLine
 10
526.2108214941
 20
522.4003309135
 30
0.0
 11
526.114485487
 21
529.9702847127
 31
0.0
  0
LINE
  5
36D
330
1F
100
AcDbEntity
  8
0
  6
Continuous
 62
     8
370
     0
100
AcDbLine
 10
715.4373296347
 20
522.4003309135
 30
0.0
 11
715.5336656418
 21
529.9702847127
 31
0.0
  0
LINE
  5
36E
330
1F
100
AcDbEntity
  8
0
  6
Continuous
 62
     8
370
     0
100
AcDbLine
 10
527.3872011151
 20
521.5461814527
 30
0.0
 11
526.2108214941
 21
522.4003309135
 31
0.0
  0
LINE
  5
36F
330
1F
100
AcDbEntity
  8
0
  6
Continuous
 62
     8
370
     0
100
AcDbLine
 10
714.2609500136
 20
521.5461814527
 30
0.0
 11
715.4373296347
 21
522.4003309135
 31
0.0
  0
LINE
  5
370
330
1F
100
AcDbEntity
  8
0
  6
Continuous
 62
     8
370
     0
100
AcDbLine
 10
513.7228512015
 20
529.9702847127
 30
0.0
 11
513.7228512015
 21
536.9702839975
 31
0.0
  0
LINE
  5
371
330
1F
100
AcDbEntity
  8
0
  6
Continuous
 62
     8
370
     0
100
AcDbLine
 10
515.4766955223
 20
537.2880810623
 30
0.0
 11
513.7228512015
 21
536.9702839975
 31
0.0
  0
LINE
  5
372
330
1F
100
AcDbEntity
  8
0
  6
Continuous
 62
     8
370
     0
100
AcDbLine
 10
726.1714556065
 20
537.2880810623
 30
0.0
 11
727.9252999272
 21
536.9702839975
 31
0.0
  0
LINE
  5
373
330
1F
100
AcDbEntity
  8
0
  6
Continuous
 62
     8
370
     0
100
AcDbLine
 10
727.9252999272
 20
529.9702847127
 30
0.0
 11
727.9252999272
 21
536.9702839975
 31
0.0
  0
LINE
  5
374
330
1F
100
AcDbEntity
  8
0
  6
Continuous
 62
     8
370
     0
100
AcDbLine
 10
541.6060306873
 20
538.8143473987
 30
0.0
 11
540.8562266078
 21
556.9702947263
 31
0.0
  0
LINE
  5
375
330
1F
100
AcDbEntity
  8
0
  6
Continuous
 62
     8
370
     0
100
AcDbLine
 10
700.0421204414
 20
538.8143473987
 30
0.0
 11
700.791924521
 21
556.9702947263
 31
0.0
  0
LINE
  5
376
330
1F
100
AcDbEntity
  8
0
  6
Continuous
 62
     8
370
     0
100
AcDbLine
 10
514.7838734832
 20
522.4003309135
 30
0.0
 11
514.3969946351
 21
529.9702847127
 31
0.0
  0
LINE
  5
377
330
1F
100
AcDbEntity
  8
0
  6
Continuous
 62
     8
370
     0
100
AcDbLine
 10
726.8642776456
 20
522.4003309135
 30
0.0
 11
727.2511564937
 21
529.9702847127
 31
0.0
  0
LINE
  5
378
330
1F
100
AcDbEntity
  8
0
  6
Continuous
 62
     8
370
     0
100
AcDbLine
 10
519.5014544573
 20
521.5473288421
 30
0.0
 11
514.7838734832
 21
522.4003309135
 31
0.0
  0
LINE
  5
379
330
1F
100
AcDbEntity
  8
0
  6
Continuous
 62
     8
370
     0
100
AcDbLine
 10
722.1466966715
 20
521.5473288421
 30
0.0
 11
726.8642776456
 21
522.4003309135
 31
0.0
  0
LINE
  5
37A
330
1F
100
AcDbEntity
  8
0
  6
Continuous
 62
     8
370
     0
100
AcDbLine
 10
529.6161317077
 20
494.970288289
 30
0.0
 11
529.5845859494
 21
521.5010905389
 31
0.0
  0
LINE
  5
37B
330
1F
100
AcDbEntity
  8
0
  6
Continuous
 62
     8
370
     0
100
AcDbLine
 10
712.0320194211
 20
494.970288289
 30
0.0
 11
712.0635651793
 21
521.5010905389
 31
0.0
  0
LINE
  5
37C
330
1F
100
AcDbEntity
  8
0
  6
Continuous
 62
     8
370
     0
100
AcDbLine
 10
529.8240774121
 20
491.6342386727
 30
0.0
 11
529.6161317077
 21
494.970288289
 31
0.0
  0
LINE
  5
37D
330
1F
100
AcDbEntity
  8
0
  6
Continuous
 62
     8
370
     0
100
AcDbLine
 10
711.8240737166
 20
491.6342386727
 30
0.0
 11
712.0320194211
 21
494.970288289
 31
0.0
  0
LINE
  5
37E
330
1F
100
AcDbEntity
  8
0
  6
Continuous
 62
     8
370
     0
100
AcDbLine
 10
649.1282463815
 20
650.9702766065
 30
0.0
 11
592.5199047472
 21
650.9702766065
 31
0.0
  0
LINE
  5
37F
330
1F
100
AcDbEntity
  8
0
  6
Continuous
 62
     8
370
     0
100
AcDbLine
 10
686.6250180449
 20
743.4702777986
 30
0.0
 11
686.6250180449
 21
729.9703025941
 31
0.0
  0
LINE
  5
380
330
1F
100
AcDbEntity
  8
0
  6
Continuous
 62
     8
370
     0
100
AcDbLine
 10
557.1401559558
 20
956.9703006868
 30
0.0
 11
557.1401559558
 21
943.4702658777
 31
0.0
  0
LINE
  5
381
330
1F
100
AcDbEntity
  8
0
  6
Continuous
 62
     8
370
     0
100
AcDbLine
 10
686.6250180449
 20
956.9703006868
 30
0.0
 11
686.6250180449
 21
943.4702658777
 31
0.0
  0
LINE
  5
382
330
1F
100
AcDbEntity
  8
0
  6
Continuous
 62
     8
370
     0
100
AcDbLine
 10
557.1401559558
 20
743.4702777986
 30
0.0
 11
557.1401559558
 21
729.9703025941
 31
0.0
  0
LINE
  5
383
330
1F
100
AcDbEntity
  8
0
  6
Continuous
 62
     8
370
     0
100
AcDbLine
 10
619.8240755169
 20
970.8191418771
 30
0.0
 11
545.8240725842
 21
970.8191418771
 31
0.0
  0
LINE
  5
384
330
1F
100
AcDbEntity
  8
0
  6
Continuous
 62
     8
370
     0
100
AcDbLine
 10
619.8240755169
 20
996.9337248926
 30
0.0
 11
545.8240725842
 21
996.9337248926
 31
0.0
  0
LINE
  5
385
330
1F
100
AcDbEntity
  8
0
  6
Continuous
 62
     8
370
     0
100
AcDbLine
 10
648.6240749058
 20
996.8324566011
 30
0.0
 11
619.8240755169
 21
996.8324566011
 31
0.0
  0
LINE
  5
386
330
1F
100
AcDbEntity
  8
0
  6
Continuous
 62
     8
370
     0
100
AcDbLine
 10
648.6240749058
 20
971.6132545595
 30
0.0
 11
619.8240755169
 21
971.6132545595
 31
0.0
  0
LINE
  5
387
330
1F
100
AcDbEntity
  8
0
  6
Continuous
 62
     8
370
     0
100
AcDbLine
 10
520.8240740743
 20
971.6132545595
 30
0.0
 11
545.8240725842
 21
971.6132545595
 31
0.0
  0
LINE
  5
388
330
1F
100
AcDbEntity
  8
0
  6
Continuous
 62
     8
370
     0
100
AcDbLine
 10
520.8240740743
 20
996.8324566011
 30
0.0
 11
545.8240725842
 21
996.8324566011
 31
0.0
  0
LINE
  5
389
330
1F
100
AcDbEntity
  8
0
  6
Continuous
 62
     8
370
     0
100
AcDbLine
 10
572.7771029618
 20
678.9703035478
 30
0.0
 11
572.7771029618
 21
660.9702968721
 31
0.0
  0
LINE
  5
38A
330
1F
100
AcDbEntity
  8
0
  6
Continuous
 62
     8
370
     0
100
AcDbLine
 10
668.871048167
 20
678.9703035478
 30
0.0
 11
668.871048167
 21
660.9702968721
 31
0.0
  0
LINE
  5
38B
330
1F
100
AcDbEntity
  8
0
  6
Continuous
 62
     8
370
     0
100
AcDbLine
 10
619.8240755169
 20
970.6520700578
 30
0.0
 11
545.8240725842
 21
970.6520700578
 31
0.0
  0
LINE
  5
38C
330
1F
100
AcDbEntity
  8
0
  6
Continuous
 62
     8
370
     0
100
AcDbLine
 10
619.8240755169
 20
965.9703040246
 30
0.0
 11
545.8240725842
 21
965.9703040246
 31
0.0
  0
LINE
  5
38D
330
1F
100
AcDbEntity
  8
0
  6
Continuous
 62
     8
370
     0
100
AcDbLine
 10
722.5237482038
 20
495.5786877994
 30
0.0
 11
721.0258015242
 21
495.6571945672
 31
0.0
  0
LINE
  5
38E
330
1F
100
AcDbEntity
  8
0
  6
Continuous
 62
     8
370
     0
100
AcDbLine
 10
723.0997078862
 20
506.5687039618
 30
0.0
 11
721.6017612066
 21
506.6472107295
 31
0.0
  0
LINE
  5
38F
330
1F
100
AcDbEntity
  8
0
  6
Continuous
 62
     8
370
     0
100
AcDbLine
 10
723.3557247367
 20
511.4538410429
 30
0.0
 11
721.8577855077
 21
511.5323478107
 31
0.0
  0
LINE
  5
390
330
1F
100
AcDbEntity
  8
0
  6
Continuous
 62
     8
370
     0
100
AcDbLine
 10
723.1296368685
 20
507.1397611622
 30
0.0
 11
721.6316901889
 21
507.21826793
 31
0.0
  0
LINE
  5
391
330
1F
100
AcDbEntity
  8
0
  6
Continuous
 62
     8
370
     0
100
AcDbLine
 10
723.6996360865
 20
518.0160516624
 30
0.0
 11
722.2016968575
 21
518.0945658807
 31
0.0
  0
LINE
  5
392
330
1F
100
AcDbEntity
  8
0
  6
Continuous
 62
     8
370
     0
100
AcDbLine
 10
723.4735482182
 20
513.7019792323
 30
0.0
 11
721.9756015387
 21
513.7804785494
 31
0.0
  0
LINE
  5
393
330
1F
100
AcDbEntity
  8
0
  6
Continuous
 62
     8
370
     0
100
AcDbLine
 10
575.0457041707
 20
660.9702968721
 30
0.0
 11
575.0457041707
 21
650.9702766065
 31
0.0
  0
LINE
  5
394
330
1F
100
AcDbEntity
  8
0
  6
Continuous
 62
     8
370
     0
100
AcDbLine
 10
575.0457041707
 20
650.9702766065
 30
0.0
 11
592.5199047472
 21
650.9702766065
 31
0.0
  0
LINE
  5
395
330
1F
100
AcDbEntity
  8
0
  6
Continuous
 62
     8
370
     0
100
AcDbLine
 10
575.0457041707
 20
611.3530510787
 30
0.0
 11
575.0457041707
 21
650.9702766065
 31
0.0
  0
LINE
  5
396
330
1F
100
AcDbEntity
  8
0
  6
Continuous
 62
     8
370
     0
100
AcDbLine
 10
666.6024469581
 20
650.9702766065
 30
0.0
 11
649.1282463815
 21
650.9702766065
 31
0.0
  0
LINE
  5
397
330
1F
100
AcDbEntity
  8
0
  6
Continuous
 62
     8
370
     0
100
AcDbLine
 10
666.6024469581
 20
611.3530510787
 30
0.0
 11
666.6024469581
 21
650.9702766065
 31
0.0
  0
LINE
  5
398
330
1F
100
AcDbEntity
  8
0
  6
Continuous
 62
     8
370
     0
100
AcDbLine
 10
666.6024469581
 20
660.9702968721
 30
0.0
 11
666.6024469581
 21
650.9702766065
 31
0.0
  0
LINE
  5
399
330
1F
100
AcDbEntity
  8
0
  6
Continuous
 62
     8
370
     0
100
AcDbLine
 10
561.8240752068
 20
650.9702766065
 30
0.0
 11
575.0457041707
 21
650.9702766065
 31
0.0
  0
LINE
  5
39A
330
1F
100
AcDbEntity
  8
0
  6
Continuous
 62
     8
370
     0
100
AcDbLine
 10
666.6024469581
 20
650.9702766065
 30
0.0
 11
679.824075922
 21
650.9702766065
 31
0.0
  0
LINE
  5
39B
330
1F
100
AcDbEntity
  8
0
  6
Continuous
 62
     8
370
     0
100
AcDbLine
 10
679.2740740623
 20
989.020314229
 30
0.0
 11
679.2740740623
 21
979.0202641611
 31
0.0
  0
LINE
  5
39C
330
1F
100
AcDbEntity
  8
0
  6
Continuous
 62
     8
370
     0
100
AcDbLine
 10
723.453230485
 20
513.3143553261
 30
0.0
 11
721.9552912559
 21
513.3928546433
 31
0.0
  0
INSERT
  5
3A8
330
1F
100
AcDbEntity
  8
FORMAT
100
AcDbBlockReference
  2
SW_CENTERMARKSYMBOL_0
 10
620.8240755644
 20
392.9702901964
 30
0.0
  0
LINE
  5
3A9
330
1F
100
AcDbEntity
  8
0
  6
Continuous
 62
     7
370
    15
100
AcDbLine
 10
-44.2111833449
 20
33.6731339357
 30
0.0
 11
-44.2111833449
 21
-40.326868997
 31
0.0
  0
LINE
  5
3AA
330
1F
100
AcDbEntity
  8
0
  6
Continuous
 62
     7
370
    15
100
AcDbLine
 10
-44.1111835148
 20
58.6731324456
 30
0.0
 11
-44.1111835148
 21
33.6731339357
 31
0.0
  0
LINE
  5
3AB
330
1F
100
AcDbEntity
  8
0
  6
Continuous
 62
     7
370
    15
100
AcDbLine
 10
-44.1111835148
 20
-40.326868997
 30
0.0
 11
-44.1111835148
 21
-69.1268683859
 31
0.0
  0
LINE
  5
3AC
330
1F
100
AcDbEntity
  8
0
  6
Continuous
 62
     7
370
    15
100
AcDbLine
 10
-33.3611831497
 20
-103.2768671849
 30
0.0
 11
-33.1611825581
 21
-103.4768705704
 31
0.0
  0
LINE
  5
3AD
330
1F
100
AcDbEntity
  8
0
  6
Continuous
 62
     7
370
    15
100
AcDbLine
 10
-12.0611830111
 20
-103.4768705704
 30
0.0
 11
-11.8611828852
 21
-103.2768671849
 31
0.0
  0
LINE
  5
3AE
330
1F
100
AcDbEntity
  8
0
  6
Continuous
 62
     7
370
    15
100
AcDbLine
 10
-11.8611828852
 20
-103.2768671849
 30
0.0
 11
-11.8611828852
 21
-99.9768672027
 31
0.0
  0
LINE
  5
3AF
330
1F
100
AcDbEntity
  8
0
  6
Continuous
 62
     7
370
    15
100
AcDbLine
 10
-33.3611831497
 20
-99.9768672027
 30
0.0
 11
-33.3611831497
 21
-103.2768671849
 31
0.0
  0
LINE
  5
3B0
330
1F
100
AcDbEntity
  8
0
  6
Continuous
 62
     7
370
    15
100
AcDbLine
 10
-12.1111829262
 20
-98.7768692412
 30
0.0
 11
-12.1111829262
 21
-98.2768682279
 31
0.0
  0
LINE
  5
3B1
330
1F
100
AcDbEntity
  8
0
  6
Continuous
 62
     7
370
    15
100
AcDbLine
 10
-33.1111826431
 20
-98.2768682279
 30
0.0
 11
-33.1111826431
 21
-98.7768692412
 31
0.0
  0
ARC
  5
3B2
330
1F
100
AcDbEntity
  8
0
  6
Continuous
 62
     7
370
    15
100
AcDbCircle
 10
-17.4111828085
 20
-99.7768690445
 30
0.0
 40
0.2000000000000313
100
AcDbArc
 50
180.0
 51
270.0
  0
ARC
  5
3B3
330
1F
100
AcDbEntity
  8
0
  6
Continuous
 62
     7
370
    15
100
AcDbCircle
 10
-27.8111828085
 20
-99.7768690445
 30
0.0
 40
0.2000000000000313
100
AcDbArc
 50
270.0
 51
360.0
  0
ARC
  5
3B4
330
1F
100
AcDbEntity
  8
0
  6
Continuous
 62
     7
370
    15
100
AcDbCircle
 10
-17.4111828085
 20
-98.0768690445
 30
0.0
 40
0.200000000000032
100
AcDbArc
 50
194.4775121859
 51
270.0
  0
ARC
  5
3B5
330
1F
100
AcDbEntity
  8
0
  6
Continuous
 62
     7
370
    15
100
AcDbCircle
 10
-27.8111828085
 20
-98.0768690445
 30
0.0
 40
0.2000000000000354
100
AcDbArc
 50
270.0
 51
345.5224878141
  0
LINE
  5
3B6
330
1F
100
AcDbEntity
  8
0
  6
Continuous
 62
     7
370
    15
100
AcDbLine
 10
-17.61118278
 20
-99.7768675425
 30
0.0
 11
-17.61118278
 21
-98.7768692412
 31
0.0
  0
LINE
  5
3B7
330
1F
100
AcDbEntity
  8
0
  6
Continuous
 62
     7
370
    15
100
AcDbLine
 10
-27.6111826729
 20
-98.7768692412
 30
0.0
 11
-27.6111826729
 21
-99.7768675425
 31
0.0
  0
LINE
  5
3B8
330
1F
100
AcDbEntity
  8
0
  6
Continuous
 62
     7
370
    15
100
AcDbLine
 10
78.7888200525
 20
83.6731309555
 30
0.0
 11
62.7888174299
 21
83.6731309555
 31
0.0
  0
LINE
  5
3B9
330
1F
100
AcDbEntity
  8
0
  6
Continuous
 62
     7
370
    15
100
AcDbLine
 10
62.7888174299
 20
-166.3268690445
 30
0.0
 11
78.7888200525
 21
-166.3268690445
 31
0.0
  0
LINE
  5
3BA
330
1F
100
AcDbEntity
  8
0
  6
Continuous
 62
     7
370
    15
100
AcDbLine
 10
-115.2111856695
 20
-166.3268690445
 30
0.0
 11
-99.2111830469
 21
-166.3268690445
 31
0.0
  0
LINE
  5
3BB
330
1F
100
AcDbEntity
  8
0
  6
Continuous
 62
     7
370
    15
100
AcDbLine
 10
-99.2111830469
 20
83.6731309555
 30
0.0
 11
-115.2111856695
 21
83.6731309555
 31
0.0
  0
LINE
  5
3BC
330
1F
100
AcDbEntity
  8
0
  6
Continuous
 62
     7
370
    15
100
AcDbLine
 10
-115.2111856695
 20
53.1731287501
 30
0.0
 11
-118.2111842986
 21
50.173130121
 31
0.0
  0
LINE
  5
3BD
330
1F
100
AcDbEntity
  8
0
  6
Continuous
 62
     7
370
    15
100
AcDbLine
 10
-118.2111842986
 20
-132.8268682101
 30
0.0
 11
-115.2111856695
 21
-135.8268668392
 31
0.0
  0
LINE
  5
3BE
330
1F
100
AcDbEntity
  8
0
  6
Continuous
 62
     7
370
    15
100
AcDbLine
 10
78.7888200525
 20
-135.8268668392
 30
0.0
 11
81.7888186816
 21
-132.8268682101
 31
0.0
  0
LINE
  5
3BF
330
1F
100
AcDbEntity
  8
0
  6
Continuous
 62
     7
370
    15
100
AcDbLine
 10
81.7888186816
 20
50.173130121
 30
0.0
 11
78.7888200525
 21
53.1731287501
 31
0.0
  0
ARC
  5
3C0
330
1F
100
AcDbEntity
  8
0
  6
Continuous
 62
     7
370
    15
100
AcDbCircle
 10
-93.2111828085
 20
-121.3268690445
 30
0.0
 40
6.0
100
AcDbArc
 50
101.0
 51
180.0
  0
ARC
  5
3C1
330
1F
100
AcDbEntity
  8
0
  6
Continuous
 62
     7
370
    15
100
AcDbCircle
 10
-93.2111828085
 20
38.6731309555
 30
0.0
 40
6.0
100
AcDbArc
 50
180.0
 51
259.0
  0
ARC
  5
3C2
330
1F
100
AcDbEntity
  8
0
  6
Continuous
 62
     7
370
    15
100
AcDbCircle
 10
56.7888171915
 20
38.6731309555
 30
0.0
 40
6.0
100
AcDbArc
 50
281.0
 51
0.0
  0
ARC
  5
3C3
330
1F
100
AcDbEntity
  8
0
  6
Continuous
 62
     7
370
    15
100
AcDbCircle
 10
56.7888171915
 20
-121.3268690445
 30
0.0
 40
6.0
100
AcDbArc
 50
0.0
 51
79.0
  0
LINE
  5
3C4
330
1F
100
AcDbEntity
  8
0
  6
Continuous
 62
     7
370
    15
100
AcDbLine
 10
-94.3560345526
 20
-115.4371087887
 30
0.0
 11
-68.5576541777
 21
-110.422406111
 31
0.0
  0
LINE
  5
3C5
330
1F
100
AcDbEntity
  8
0
  6
Continuous
 62
     7
370
    15
100
AcDbLine
 10
-68.5576541777
 20
27.7686680219
 30
0.0
 11
-94.3560345526
 21
32.7833706997
 31
0.0
  0
LINE
  5
3C6
330
1F
100
AcDbEntity
  8
0
  6
Continuous
 62
     7
370
    15
100
AcDbLine
 10
57.9336689357
 20
32.7833706997
 30
0.0
 11
32.1352885608
 21
27.7686680219
 31
0.0
  0
LINE
  5
3C7
330
1F
100
AcDbEntity
  8
0
  6
Continuous
 62
     7
370
    15
100
AcDbLine
 10
32.1352885608
 20
-110.422406111
 30
0.0
 11
57.9336689357
 21
-115.4371087887
 31
0.0
  0
LINE
  5
3C8
330
1F
100
AcDbEntity
  8
0
  6
Continuous
 62
     7
370
    15
100
AcDbLine
 10
5.5888177399
 20
-40.326868997
 30
0.0
 11
-41.5681699719
 21
-40.326868997
 31
0.0
  0
LINE
  5
3C9
330
1F
100
AcDbEntity
  8
0
  6
Continuous
 62
     7
370
    15
100
AcDbLine
 10
5.5888177399
 20
33.6731339357
 30
0.0
 11
-41.5681699719
 21
33.6731339357
 31
0.0
  0
LINE
  5
3CA
330
1F
100
AcDbEntity
  8
0
  6
Continuous
 62
     7
370
    15
100
AcDbLine
 10
5.5888177399
 20
-40.326868997
 30
0.0
 11
5.5888177399
 21
33.6731339357
 31
0.0
  0
LINE
  5
3CB
330
1F
100
AcDbEntity
  8
0
  6
Continuous
 62
     7
370
    15
100
AcDbLine
 10
-41.5681699719
 20
-40.326868997
 30
0.0
 11
-42.0406951066
 21
-40.326868997
 31
0.0
  0
LINE
  5
3CC
330
1F
100
AcDbEntity
  8
0
  6
Continuous
 62
     7
370
    15
100
AcDbLine
 10
-41.5681699719
 20
33.6731339357
 30
0.0
 11
-42.0406951066
 21
33.6731339357
 31
0.0
  0
LINE
  5
3CD
330
1F
100
AcDbEntity
  8
0
  6
Continuous
 62
     7
370
    15
100
AcDbLine
 10
-41.5026104506
 20
58.6731324456
 30
0.0
 11
-41.9755788948
 21
58.6731324456
 31
0.0
  0
LINE
  5
3CE
330
1F
100
AcDbEntity
  8
0
  6
Continuous
 62
     7
370
    15
100
AcDbLine
 10
5.4888179098
 20
58.6731324456
 30
0.0
 11
-41.5026104506
 21
58.6731324456
 31
0.0
  0
LINE
  5
3CF
330
1F
100
AcDbEntity
  8
0
  6
Continuous
 62
     7
370
    15
100
AcDbLine
 10
5.4888179098
 20
58.6731324456
 30
0.0
 11
5.4888179098
 21
33.6731339357
 31
0.0
  0
LINE
  5
3D0
330
1F
100
AcDbEntity
  8
0
  6
Continuous
 62
     7
370
    15
100
AcDbLine
 10
5.4888179098
 20
-69.1268683859
 30
0.0
 11
5.4888179098
 21
-40.326868997
 31
0.0
  0
LINE
  5
3D1
330
1F
100
AcDbEntity
  8
0
  6
Continuous
 62
     7
370
    15
100
AcDbLine
 10
5.4888179098
 20
-69.1268683859
 30
0.0
 11
-41.5026104506
 21
-69.1268683859
 31
0.0
  0
LINE
  5
3D2
330
1F
100
AcDbEntity
  8
0
  6
Continuous
 62
     7
370
    15
100
AcDbLine
 10
-41.5026104506
 20
-69.1268683859
 30
0.0
 11
-41.9755788948
 21
-69.1268683859
 31
0.0
  0
LINE
  5
3D3
330
1F
100
AcDbEntity
  8
0
  6
Continuous
 62
     7
370
    15
100
AcDbLine
 10
-42.0406951066
 20
-40.326868997
 30
0.0
 11
-44.2111833449
 21
-40.326868997
 31
0.0
  0
LINE
  5
3D4
330
1F
100
AcDbEntity
  8
0
  6
Continuous
 62
     7
370
    15
100
AcDbLine
 10
-42.0406951066
 20
33.6731339357
 30
0.0
 11
-44.2111833449
 21
33.6731339357
 31
0.0
  0
LINE
  5
3D5
330
1F
100
AcDbEntity
  8
0
  6
Continuous
 62
     7
370
    15
100
AcDbLine
 10
-41.9755788948
 20
58.6731324456
 30
0.0
 11
-44.1111835148
 21
58.6731324456
 31
0.0
  0
LINE
  5
3D6
330
1F
100
AcDbEntity
  8
0
  6
Continuous
 62
     7
370
    15
100
AcDbLine
 10
-41.9755788948
 20
-69.1268683859
 30
0.0
 11
-44.1111835148
 21
-69.1268683859
 31
0.0
  0
LINE
  5
3D7
330
1F
100
AcDbEntity
  8
0
  6
Continuous
 62
     7
370
    15
100
AcDbLine
 10
-39.6111837085
 20
-69.1268683859
 30
0.0
 11
-39.6111837085
 21
-98.1268694141
 31
0.0
  0
LINE
  5
3D8
330
1F
100
AcDbEntity
  8
0
  6
Continuous
 62
     7
370
    15
100
AcDbLine
 10
-11.6111828442
 20
-98.1268694141
 30
0.0
 11
-39.6111837085
 21
-98.1268694141
 31
0.0
  0
LINE
  5
3D9
330
1F
100
AcDbEntity
  8
0
  6
Continuous
 62
     7
370
    15
100
AcDbLine
 10
-10.1111825984
 20
-69.1268683859
 30
0.0
 11
-10.1111825984
 21
-98.1268694141
 31
0.0
  0
LINE
  5
3DA
330
1F
100
AcDbEntity
  8
0
  6
Continuous
 62
     7
370
    15
100
AcDbLine
 10
-10.1111825984
 20
-98.1268694141
 30
0.0
 11
-11.6111828442
 21
-98.1268694141
 31
0.0
  0
LINE
  5
3DB
330
1F
100
AcDbEntity
  8
0
  6
Continuous
 62
     7
370
    15
100
AcDbLine
 10
-22.6111827846
 20
-103.2768671849
 30
0.0
 11
-33.3611831497
 21
-103.2768671849
 31
0.0
  0
LINE
  5
3DC
330
1F
100
AcDbEntity
  8
0
  6
Continuous
 62
     7
370
    15
100
AcDbLine
 10
-11.8611828852
 20
-103.2768671849
 30
0.0
 11
-22.6111827846
 21
-103.2768671849
 31
0.0
  0
LINE
  5
3DD
330
1F
100
AcDbEntity
  8
0
  6
Continuous
 62
     7
370
    15
100
AcDbLine
 10
-22.6111827846
 20
-103.4768705704
 30
0.0
 11
-33.1611825581
 21
-103.4768705704
 31
0.0
  0
LINE
  5
3DE
330
1F
100
AcDbEntity
  8
0
  6
Continuous
 62
     7
370
    15
100
AcDbLine
 10
-12.0611830111
 20
-103.4768705704
 30
0.0
 11
-22.6111827846
 21
-103.4768705704
 31
0.0
  0
LINE
  5
3DF
330
1F
100
AcDbEntity
  8
0
  6
Continuous
 62
     7
370
    15
100
AcDbLine
 10
-22.6111827846
 20
-99.9768672027
 30
0.0
 11
-33.3611831497
 21
-99.9768672027
 31
0.0
  0
LINE
  5
3E0
330
1F
100
AcDbEntity
  8
0
  6
Continuous
 62
     7
370
    15
100
AcDbLine
 10
-11.8611828852
 20
-99.9768672027
 30
0.0
 11
-22.6111827846
 21
-99.9768672027
 31
0.0
  0
LINE
  5
3E1
330
1F
100
AcDbEntity
  8
0
  6
Continuous
 62
     7
370
    15
100
AcDbLine
 10
-22.6111827846
 20
-98.2768682279
 30
0.0
 11
-33.1111826431
 21
-98.2768682279
 31
0.0
  0
LINE
  5
3E2
330
1F
100
AcDbEntity
  8
0
  6
Continuous
 62
     7
370
    15
100
AcDbLine
 10
-12.1111829262
 20
-98.2768682279
 30
0.0
 11
-22.6111827846
 21
-98.2768682279
 31
0.0
  0
LINE
  5
3E3
330
1F
100
AcDbEntity
  8
0
  6
Continuous
 62
     7
370
    15
100
AcDbLine
 10
-22.6111827846
 20
-98.7768692412
 30
0.0
 11
-33.1111826431
 21
-98.7768692412
 31
0.0
  0
LINE
  5
3E4
330
1F
100
AcDbEntity
  8
0
  6
Continuous
 62
     7
370
    15
100
AcDbLine
 10
-12.1111829262
 20
-98.7768692412
 30
0.0
 11
-22.6111827846
 21
-98.7768692412
 31
0.0
  0
ARC
  5
3E5
330
1F
100
AcDbEntity
  8
0
  6
Continuous
 62
     7
370
    15
100
AcDbCircle
 10
-18.4476443194
 20
-42.3853815858
 30
0.0
 40
69.25000000000003
100
AcDbArc
 50
66.5525559302
 51
69.6901479492
  0
ARC
  5
3E6
330
1F
100
AcDbEntity
  8
0
  6
Continuous
 62
     7
370
    15
100
AcDbCircle
 10
14.3413590735
 20
22.8364035515
 30
0.0
 40
5.499999999999587
100
AcDbArc
 50
197.8957445943
 51
243.3099127215
  0
ARC
  5
3E7
330
1F
100
AcDbEntity
  8
0
  6
Continuous
 62
     7
370
    15
100
AcDbCircle
 10
-18.4476443194
 20
-42.3853815858
 30
0.0
 40
67.50000000000009
100
AcDbArc
 50
296.6900872785
 51
63.3099127215
  0
ARC
  5
3E8
330
1F
100
AcDbEntity
  8
0
  6
Continuous
 62
     7
370
    15
100
AcDbCircle
 10
14.3413590735
 20
-107.6071667231
 30
0.0
 40
5.499999999999551
100
AcDbArc
 50
116.6900872785
 51
162.1042554057
  0
ARC
  5
3E9
330
1F
100
AcDbEntity
  8
0
  6
Continuous
 62
     7
370
    15
100
AcDbCircle
 10
-18.4476443194
 20
-42.3853815858
 30
0.0
 40
69.25000000000003
100
AcDbArc
 50
246.5525559302
 51
293.4474440698
  0
ARC
  5
3EA
330
1F
100
AcDbEntity
  8
0
  6
Continuous
 62
     7
370
    15
100
AcDbCircle
 10
-51.2366477124
 20
-107.6071667231
 30
0.0
 40
5.499999999999598
100
AcDbArc
 50
17.8957445943
 51
63.3099127215
  0
ARC
  5
3EB
330
1F
100
AcDbEntity
  8
0
  6
Continuous
 62
     7
370
    15
100
AcDbCircle
 10
-18.4476443194
 20
-42.3853815858
 30
0.0
 40
67.50000000000075
100
AcDbArc
 50
116.6900872785
 51
243.3099127215
  0
ARC
  5
3EC
330
1F
100
AcDbEntity
  8
0
  6
Continuous
 62
     7
370
    15
100
AcDbCircle
 10
-51.2366477124
 20
22.8364035515
 30
0.0
 40
5.499999999999542
100
AcDbArc
 50
296.6900872785
 51
342.1042554057
  0
ARC
  5
3ED
330
1F
100
AcDbEntity
  8
0
  6
Continuous
 62
     7
370
    15
100
AcDbCircle
 10
-18.4476443194
 20
-42.3853815858
 30
0.0
 40
69.25000000000004
100
AcDbArc
 50
111.8412781366
 51
113.4474440698
  0
LINE
  5
3EE
330
1F
100
AcDbEntity
  8
0
  6
Continuous
 62
     7
370
    15
100
AcDbLine
 10
-44.9476434346
 20
31.6146204732
 30
0.0
 11
-45.7575774248
 21
22.3570505641
 31
0.0
  0
ARC
  5
3EF
330
1F
100
AcDbEntity
  8
0
  6
Continuous
 62
     7
370
    15
100
AcDbCircle
 10
-37.4476443194
 20
31.6146184142
 30
0.0
 40
7.5000000000004
100
AcDbArc
 50
152.6818375426
 51
179.9999999997
  0
LINE
  5
3F0
330
1F
100
AcDbEntity
  8
0
  6
Continuous
 62
     7
370
    15
100
AcDbLine
 10
8.8622880671
 20
22.3570505641
 30
0.0
 11
8.0523559396
 21
31.6146204732
 31
0.0
  0
ARC
  5
3F1
330
1F
100
AcDbEntity
  8
0
  6
Continuous
 62
     7
370
    15
100
AcDbCircle
 10
0.5523556806
 20
31.6146184142
 30
0.0
 40
7.500000000000389
100
AcDbArc
 50
0.0
 51
48.8376519477
  0
ARC
  5
3F2
330
1F
100
AcDbEntity
  8
0
  6
Continuous
 62
     7
370
    15
100
AcDbCircle
 10
14.3413590735
 20
22.8364035515
 30
0.0
 40
5.4999999999996
100
AcDbArc
 50
185.0
 51
197.8957445943
  0
ARC
  5
3F3
330
1F
100
AcDbEntity
  8
0
  6
Continuous
 62
     7
370
    15
100
AcDbCircle
 10
-51.2366477124
 20
22.8364035515
 30
0.0
 40
5.499999999999562
100
AcDbArc
 50
342.1042554057
 51
355.0
  0
ARC
  5
3F4
330
1F
100
AcDbEntity
  8
0
  6
Continuous
 62
     7
370
    15
100
AcDbCircle
 10
0.5523556806
 20
-116.3853815858
 30
0.0
 40
7.500000000000384
100
AcDbArc
 50
269.9999999999
 51
359.9999999995
  0
LINE
  5
3F5
330
1F
100
AcDbEntity
  8
0
  6
Continuous
 62
     7
370
    15
100
AcDbLine
 10
-37.4476449992
 20
-123.8853817322
 30
0.0
 11
0.5523556415
 21
-123.8853817322
 31
0.0
  0
ARC
  5
3F6
330
1F
100
AcDbEntity
  8
0
  6
Continuous
 62
     7
370
    15
100
AcDbCircle
 10
-37.4476443194
 20
-116.3853815858
 30
0.0
 40
7.500000000000391
100
AcDbArc
 50
180.0000000001
 51
269.9999999995
  0
LINE
  5
3F7
330
1F
100
AcDbEntity
  8
0
  6
Continuous
 62
     7
370
    15
100
AcDbLine
 10
-45.7575774248
 20
-107.1278115251
 30
0.0
 11
-44.9476434346
 21
-116.3853814342
 31
0.0
  0
LINE
  5
3F8
330
1F
100
AcDbEntity
  8
0
  6
Continuous
 62
     7
370
    15
100
AcDbLine
 10
8.0523559396
 20
-116.3853814342
 30
0.0
 11
8.8622880671
 21
-107.1278115251
 31
0.0
  0
ARC
  5
3F9
330
1F
100
AcDbEntity
  8
0
  6
Continuous
 62
     7
370
    15
100
AcDbCircle
 10
-51.2366477124
 20
-107.6071667231
 30
0.0
 40
5.499999999999602
100
AcDbArc
 50
5.0
 51
17.8957445943
  0
ARC
  5
3FA
330
1F
100
AcDbEntity
  8
0
  6
Continuous
 62
     7
370
    15
100
AcDbCircle
 10
14.3413590735
 20
-107.6071667231
 30
0.0
 40
5.499999999999538
100
AcDbArc
 50
162.1042554057
 51
175.0
  0
ARC
  5
3FB
330
1F
100
AcDbEntity
  8
0
  6
Continuous
 62
     7
370
    15
100
AcDbCircle
 10
53.7725661802
 20
-31.0782512962
 30
0.0
 40
0.3999999999917963
100
AcDbArc
 50
8.8982554519
 51
44.9999999879
  0
ARC
  5
3FC
330
1F
100
AcDbEntity
  8
0
  6
Continuous
 62
     7
370
    15
100
AcDbCircle
 10
-18.4476443193
 20
-42.3853815859
 30
0.0
 40
73.49999999981989
100
AcDbArc
 50
6.5272124148
 51
8.8982554635
  0
LINE
  5
3FD
330
1F
100
AcDbEntity
  8
0
  6
Continuous
 62
     7
370
    15
100
AcDbLine
 10
54.5759306792
 20
-34.0302621462
 30
0.0
 11
53.5251752977
 21
-34.1129580029
 31
0.0
  0
ARC
  5
3FE
330
1F
100
AcDbEntity
  8
0
  6
Continuous
 62
     7
370
    15
100
AcDbCircle
 10
53.5094851748
 20
-33.9135745207
 30
0.0
 40
0.1999999999990274
100
AcDbArc
 50
184.4999999997
 51
274.5000000002
  0
LINE
  5
3FF
330
1F
100
AcDbEntity
  8
0
  6
Continuous
 62
     7
370
    15
100
AcDbLine
 10
53.3100993876
 20
-33.9292662666
 30
0.0
 11
53.2904894594
 21
-33.680036895
 31
0.0
  0
ARC
  5
400
330
1F
100
AcDbEntity
  8
0
  6
Continuous
 62
     7
370
    15
100
AcDbCircle
 10
53.0911034673
 20
-33.6957288256
 30
0.0
 40
0.200000000000606
100
AcDbArc
 50
4.5000000002
 51
94.4999999998
  0
LINE
  5
401
330
1F
100
AcDbEntity
  8
0
  6
Continuous
 62
     7
370
    15
100
AcDbLine
 10
53.0754135493
 20
-33.4963451587
 30
0.0
 11
50.4834236149
 21
-33.7003387959
 31
0.0
  0
ARC
  5
402
330
1F
100
AcDbEntity
  8
0
  6
Continuous
 62
     7
370
    15
100
AcDbCircle
 10
50.5148102188
 20
-34.0991059412
 30
0.0
 40
0.400000000001299
100
AcDbArc
 50
94.5000000001
 51
184.4999999998
  0
LINE
  5
403
330
1F
100
AcDbEntity
  8
0
  6
Continuous
 62
     7
370
    15
100
AcDbLine
 10
50.1160429362
 20
-34.1304896847
 30
0.0
 11
50.563256586
 21
-39.8129184014
 31
0.0
  0
ARC
  5
404
330
1F
100
AcDbEntity
  8
0
  6
Continuous
 62
     7
370
    15
100
AcDbCircle
 10
50.9620270644
 20
-39.7815347435
 30
0.0
 40
0.3999999999997527
100
AcDbArc
 50
184.5
 51
274.5000000001
  0
LINE
  5
405
330
1F
100
AcDbEntity
  8
0
  6
Continuous
 62
     7
370
    15
100
AcDbLine
 10
50.9934084062
 20
-40.1803016412
 30
0.0
 11
53.5853983406
 21
-39.9763080041
 31
0.0
  0
ARC
  5
406
330
1F
100
AcDbEntity
  8
0
  6
Continuous
 62
     7
370
    15
100
AcDbCircle
 10
53.5697039513
 20
-39.7769245613
 30
0.0
 40
0.2000000000007266
100
AcDbArc
 50
274.5000000002
 51
4.4999999998
  0
LINE
  5
407
330
1F
100
AcDbEntity
  8
0
  6
Continuous
 62
     7
370
    15
100
AcDbLine
 10
53.7690849547
 20
-39.7612327925
 30
0.0
 11
53.7494750265
 21
-39.5120034209
 31
0.0
  0
ARC
  5
408
330
1F
100
AcDbEntity
  8
0
  6
Continuous
 62
     7
370
    15
100
AcDbCircle
 10
53.9488561108
 20
-39.4963115896
 30
0.0
 40
0.1999999999987519
100
AcDbArc
 50
94.4999999997
 51
184.5000000004
  0
LINE
  5
409
330
1F
100
AcDbEntity
  8
0
  6
Continuous
 62
     7
370
    15
100
AcDbLine
 10
53.9331616406
 20
-39.2969280929
 30
0.0
 11
54.9839170222
 21
-39.2142322362
 31
0.0
  0
ARC
  5
40A
330
1F
100
AcDbEntity
  8
0
  6
Continuous
 62
     7
370
    15
100
AcDbCircle
 10
-18.4476443193
 20
-42.3853815859
 30
0.0
 40
73.4999999998188
100
AcDbArc
 50
357.5272124148
 51
2.4727875852
  0
LINE
  5
40B
330
1F
100
AcDbEntity
  8
0
  6
Continuous
 62
     7
370
    15
100
AcDbLine
 10
54.9839170222
 20
-45.5565310531
 30
0.0
 11
53.9331616406
 21
-45.4738351964
 31
0.0
  0
ARC
  5
40C
330
1F
100
AcDbEntity
  8
0
  6
Continuous
 62
     7
370
    15
100
AcDbCircle
 10
53.9488561108
 20
-45.2744515821
 30
0.0
 40
0.1999999999987633
100
AcDbArc
 50
175.4999999996
 51
265.5000000003
  0
LINE
  5
40D
330
1F
100
AcDbEntity
  8
0
  6
Continuous
 62
     7
370
    15
100
AcDbLine
 10
53.7494750265
 20
-45.258759752
 30
0.0
 11
53.7690849547
 21
-45.0095303804
 31
0.0
  0
ARC
  5
40E
330
1F
100
AcDbEntity
  8
0
  6
Continuous
 62
     7
370
    15
100
AcDbCircle
 10
53.5697039513
 20
-44.9938386104
 30
0.0
 40
0.2000000000007141
100
AcDbArc
 50
355.5000000002
 51
85.4999999998
  0
LINE
  5
40F
330
1F
100
AcDbEntity
  8
0
  6
Continuous
 62
     7
370
    15
100
AcDbLine
 10
53.5853983406
 20
-44.7944551688
 30
0.0
 11
50.9934084062
 21
-44.5904615317
 31
0.0
  0
ARC
  5
410
330
1F
100
AcDbEntity
  8
0
  6
Continuous
 62
     7
370
    15
100
AcDbCircle
 10
50.9620270644
 20
-44.9892284282
 30
0.0
 40
0.3999999999997515
100
AcDbArc
 50
85.4999999999
 51
175.5
  0
LINE
  5
411
330
1F
100
AcDbEntity
  8
0
  6
Continuous
 62
     7
370
    15
100
AcDbLine
 10
50.563256586
 20
-44.9578447715
 30
0.0
 11
50.1160429362
 21
-50.6402736046
 31
0.0
  0
ARC
  5
412
330
1F
100
AcDbEntity
  8
0
  6
Continuous
 62
     7
370
    15
100
AcDbCircle
 10
50.5148102188
 20
-50.6716572305
 30
0.0
 40
0.4000000000013024
100
AcDbArc
 50
175.5000000002
 51
265.4999999999
  0
LINE
  5
413
330
1F
100
AcDbEntity
  8
0
  6
Continuous
 62
     7
370
    15
100
AcDbLine
 10
50.4834236149
 20
-51.0704244935
 30
0.0
 11
53.0754135493
 21
-51.2744176649
 31
0.0
  0
ARC
  5
414
330
1F
100
AcDbEntity
  8
0
  6
Continuous
 62
     7
370
    15
100
AcDbCircle
 10
53.0911034673
 20
-51.0750343462
 30
0.0
 40
0.2000000000005782
100
AcDbArc
 50
265.5000000002
 51
355.4999999998
  0
LINE
  5
415
330
1F
100
AcDbEntity
  8
0
  6
Continuous
 62
     7
370
    15
100
AcDbLine
 10
53.2904894594
 20
-51.0907263943
 30
0.0
 11
53.3100993876
 21
-50.8414970227
 31
0.0
  0
ARC
  5
416
330
1F
100
AcDbEntity
  8
0
  6
Continuous
 62
     7
370
    15
100
AcDbCircle
 10
53.5094851748
 20
-50.857188651
 30
0.0
 40
0.1999999999990208
100
AcDbArc
 50
85.4999999998
 51
175.5000000003
  0
LINE
  5
417
330
1F
100
AcDbEntity
  8
0
  6
Continuous
 62
     7
370
    15
100
AcDbLine
 10
53.5251752977
 20
-50.6578048208
 30
0.0
 11
54.5759306792
 21
-50.7405006774
 31
0.0
  0
ARC
  5
418
330
1F
100
AcDbEntity
  8
0
  6
Continuous
 62
     7
370
    15
100
AcDbCircle
 10
-18.4476443193
 20
-42.3853815859
 30
0.0
 40
73.4999999998199
100
AcDbArc
 50
351.1017445365
 51
353.4727875852
  0
ARC
  5
419
330
1F
100
AcDbEntity
  8
0
  6
Continuous
 62
     7
370
    15
100
AcDbCircle
 10
53.7725661802
 20
-53.6925118755
 30
0.0
 40
0.3999999999918398
100
AcDbArc
 50
315.0000000121
 51
351.1017445481
  0
LINE
  5
41A
330
1F
100
AcDbEntity
  8
0
  6
Continuous
 62
     7
370
    15
100
AcDbLine
 10
54.055410767
 20
-53.9753546455
 30
0.0
 11
47.2301872019
 21
-60.8005763479
 31
0.0
  0
ARC
  5
41B
330
1F
100
AcDbEntity
  8
0
  6
Continuous
 62
     7
370
    15
100
AcDbCircle
 10
51.4728285454
 20
-65.0432163095
 30
0.0
 40
6.000000000006003
100
AcDbArc
 50
135.0
 51
162.0450048735
  0
ARC
  5
41C
330
1F
100
AcDbEntity
  8
0
  6
Continuous
 62
     7
370
    15
100
AcDbCircle
 10
51.4728285454
 20
-19.7275468622
 30
0.0
 40
5.99999999999693
100
AcDbArc
 50
197.9549951265
 51
225.0
  0
LINE
  5
41D
330
1F
100
AcDbEntity
  8
0
  6
Continuous
 62
     7
370
    15
100
AcDbLine
 10
47.2301872019
 20
-23.9701883384
 30
0.0
 11
54.055410767
 21
-30.7954081782
 31
0.0
  0
LINE
  5
41E
330
1F
100
AcDbEntity
  8
0
  6
Continuous
 62
     7
370
    15
100
AcDbLine
 10
-84.1254784222
 20
-60.8005763479
 30
0.0
 11
-90.9506945368
 21
-53.9753546455
 31
0.0
  0
ARC
  5
41F
330
1F
100
AcDbEntity
  8
0
  6
Continuous
 62
     7
370
    15
100
AcDbCircle
 10
-90.6678548191
 20
-53.6925118754
 30
0.0
 40
0.3999999999917895
100
AcDbArc
 50
188.898255463
 51
225.0000000002
  0
ARC
  5
420
330
1F
100
AcDbEntity
  8
0
  6
Continuous
 62
     7
370
    15
100
AcDbCircle
 10
-18.4476443193
 20
-42.3853815859
 30
0.0
 40
73.50000000012861
100
AcDbArc
 50
186.5272124148
 51
188.8982554635
  0
LINE
  5
421
330
1F
100
AcDbEntity
  8
0
  6
Continuous
 62
     7
370
    15
100
AcDbLine
 10
-91.471214449
 20
-50.7405006774
 30
0.0
 11
-90.420466518
 21
-50.6578048208
 31
0.0
  0
ARC
  5
422
330
1F
100
AcDbEntity
  8
0
  6
Continuous
 62
     7
370
    15
100
AcDbCircle
 10
-90.4047738137
 20
-50.857188651
 30
0.0
 40
0.1999999999990281
100
AcDbArc
 50
4.4999999997
 51
94.5000000002
  0
LINE
  5
423
330
1F
100
AcDbEntity
  8
0
  6
Continuous
 62
     7
370
    15
100
AcDbLine
 10
-90.2053906079
 20
-50.8414970227
 30
0.0
 11
-90.1857732292
 21
-51.0907263943
 31
0.0
  0
ARC
  5
424
330
1F
100
AcDbEntity
  8
0
  6
Continuous
 62
     7
370
    15
100
AcDbCircle
 10
-89.9863921062
 20
-51.0750343461
 30
0.0
 40
0.200000000000606
100
AcDbArc
 50
184.5000000002
 51
274.4999999998
  0
LINE
  5
425
330
1F
100
AcDbEntity
  8
0
  6
Continuous
 62
     7
370
    15
100
AcDbLine
 10
-89.9706973191
 20
-51.2744176649
 30
0.0
 11
-87.3787148352
 21
-51.0704244935
 31
0.0
  0
ARC
  5
426
330
1F
100
AcDbEntity
  8
0
  6
Continuous
 62
     7
370
    15
100
AcDbCircle
 10
-87.4100988577
 20
-50.6716572305
 30
0.0
 40
0.400000000001316
100
AcDbArc
 50
274.5000000001
 51
4.4999999998
  0
LINE
  5
427
330
1F
100
AcDbEntity
  8
0
  6
Continuous
 62
     7
370
    15
100
AcDbLine
 10
-87.0113341566
 20
-50.6402736046
 30
0.0
 11
-87.4585478063
 21
-44.9578447715
 31
0.0
  0
ARC
  5
428
330
1F
100
AcDbEntity
  8
0
  6
Continuous
 62
     7
370
    15
100
AcDbCircle
 10
-87.8573157033
 20
-44.9892284282
 30
0.0
 40
0.3999999999997468
100
AcDbArc
 50
4.5
 51
94.5000000001
  0
LINE
  5
429
330
1F
100
AcDbEntity
  8
0
  6
Continuous
 62
     7
370
    15
100
AcDbLine
 10
-87.8886996265
 20
-44.5904615317
 30
0.0
 11
-90.4806821104
 21
-44.7944551688
 31
0.0
  0
ARC
  5
42A
330
1F
100
AcDbEntity
  8
0
  6
Continuous
 62
     7
370
    15
100
AcDbCircle
 10
-90.4649925902
 20
-44.9938386104
 30
0.0
 40
0.2000000000007408
100
AcDbArc
 50
94.5000000002
 51
184.4999999998
  0
LINE
  5
42B
330
1F
100
AcDbEntity
  8
0
  6
Continuous
 62
     7
370
    15
100
AcDbLine
 10
-90.664376175
 20
-45.0095303804
 30
0.0
 11
-90.6447587963
 21
-45.258759752
 31
0.0
  0
ARC
  5
42C
330
1F
100
AcDbEntity
  8
0
  6
Continuous
 62
     7
370
    15
100
AcDbCircle
 10
-90.8441447497
 20
-45.2744515821
 30
0.0
 40
0.1999999999987421
100
AcDbArc
 50
274.4999999997
 51
4.5000000004
  0
LINE
  5
42D
330
1F
100
AcDbEntity
  8
0
  6
Continuous
 62
     7
370
    15
100
AcDbLine
 10
-90.8284528609
 20
-45.4738351964
 30
0.0
 11
-91.8792007919
 21
-45.5565310531
 31
0.0
  0
ARC
  5
42E
330
1F
100
AcDbEntity
  8
0
  6
Continuous
 62
     7
370
    15
100
AcDbCircle
 10
-18.4476443193
 20
-42.3853815859
 30
0.0
 40
73.50000000012996
100
AcDbArc
 50
177.5272124148
 51
182.4727875852
  0
LINE
  5
42F
330
1F
100
AcDbEntity
  8
0
  6
Continuous
 62
     7
370
    15
100
AcDbLine
 10
-91.8792007919
 20
-39.2142322362
 30
0.0
 11
-90.8284528609
 21
-39.2969280929
 31
0.0
  0
ARC
  5
430
330
1F
100
AcDbEntity
  8
0
  6
Continuous
 62
     7
370
    15
100
AcDbCircle
 10
-90.8441447497
 20
-39.4963115896
 30
0.0
 40
0.1999999999989293
100
AcDbArc
 50
355.4999999997
 51
85.5000000003
  0
LINE
  5
431
330
1F
100
AcDbEntity
  8
0
  6
Continuous
 62
     7
370
    15
100
AcDbLine
 10
-90.6447587963
 20
-39.5120034209
 30
0.0
 11
-90.664376175
 21
-39.7612327925
 31
0.0
  0
ARC
  5
432
330
1F
100
AcDbEntity
  8
0
  6
Continuous
 62
     7
370
    15
100
AcDbCircle
 10
-90.4649925902
 20
-39.7769245613
 30
0.0
 40
0.2000000000007141
100
AcDbArc
 50
175.5000000002
 51
265.4999999998
  0
LINE
  5
433
330
1F
100
AcDbEntity
  8
0
  6
Continuous
 62
     7
370
    15
100
AcDbLine
 10
-90.4806821104
 20
-39.9763080041
 30
0.0
 11
-87.8886996265
 21
-40.1803016412
 31
0.0
  0
ARC
  5
434
330
1F
100
AcDbEntity
  8
0
  6
Continuous
 62
     7
370
    15
100
AcDbCircle
 10
-87.8573157033
 20
-39.7815347435
 30
0.0
 40
0.3999999999997473
100
AcDbArc
 50
265.4999999999
 51
355.5
  0
LINE
  5
435
330
1F
100
AcDbEntity
  8
0
  6
Continuous
 62
     7
370
    15
100
AcDbLine
 10
-87.4585478063
 20
-39.8129184014
 30
0.0
 11
-87.0113341566
 21
-34.1304896847
 31
0.0
  0
ARC
  5
436
330
1F
100
AcDbEntity
  8
0
  6
Continuous
 62
     7
370
    15
100
AcDbCircle
 10
-87.4100988577
 20
-34.0991059412
 30
0.0
 40
0.4000000000013166
100
AcDbArc
 50
355.5000000002
 51
85.4999999999
  0
LINE
  5
437
330
1F
100
AcDbEntity
  8
0
  6
Continuous
 62
     7
370
    15
100
AcDbLine
 10
-87.3787148352
 20
-33.7003387959
 30
0.0
 11
-89.9706973191
 21
-33.4963451587
 31
0.0
  0
ARC
  5
438
330
1F
100
AcDbEntity
  8
0
  6
Continuous
 62
     7
370
    15
100
AcDbCircle
 10
-89.9863921062
 20
-33.6957288256
 30
0.0
 40
0.2000000000005788
100
AcDbArc
 50
85.5000000002
 51
175.4999999998
  0
LINE
  5
439
330
1F
100
AcDbEntity
  8
0
  6
Continuous
 62
     7
370
    15
100
AcDbLine
 10
-90.1857732292
 20
-33.680036895
 30
0.0
 11
-90.2053906079
 21
-33.9292662666
 31
0.0
  0
ARC
  5
43A
330
1F
100
AcDbEntity
  8
0
  6
Continuous
 62
     7
370
    15
100
AcDbCircle
 10
-90.4047738137
 20
-33.9135745207
 30
0.0
 40
0.1999999999990203
100
AcDbArc
 50
265.4999999998
 51
355.5000000003
  0
LINE
  5
43B
330
1F
100
AcDbEntity
  8
0
  6
Continuous
 62
     7
370
    15
100
AcDbLine
 10
-90.420466518
 20
-34.1129580029
 30
0.0
 11
-91.471214449
 21
-34.0302621462
 31
0.0
  0
ARC
  5
43C
330
1F
100
AcDbEntity
  8
0
  6
Continuous
 62
     7
370
    15
100
AcDbCircle
 10
-18.4476443193
 20
-42.3853815859
 30
0.0
 40
73.50000000012886
100
AcDbArc
 50
171.1017445365
 51
173.4727875852
  0
ARC
  5
43D
330
1F
100
AcDbEntity
  8
0
  6
Continuous
 62
     7
370
    15
100
AcDbCircle
 10
-90.6678548191
 20
-31.0782512963
 30
0.0
 40
0.3999999999918303
100
AcDbArc
 50
134.9999999998
 51
171.101744537
  0
ARC
  5
43E
330
1F
100
AcDbEntity
  8
0
  6
Continuous
 62
     7
370
    15
100
AcDbCircle
 10
-88.3681171842
 20
-65.0432163095
 30
0.0
 40
5.999999999996978
100
AcDbArc
 50
17.9549951265
 51
45.0
  0
ARC
  5
43F
330
1F
100
AcDbEntity
  8
0
  6
Continuous
 62
     7
370
    15
100
AcDbCircle
 10
-88.3681171842
 20
-19.7275468622
 30
0.0
 40
5.999999999997026
100
AcDbArc
 50
315.0
 51
342.0450048735
  0
LINE
  5
440
330
1F
100
AcDbEntity
  8
0
  6
Continuous
 62
     7
370
    15
100
AcDbLine
 10
-90.9506945368
 20
-30.7954081782
 30
0.0
 11
-84.1254784222
 21
-23.9701883384
 31
0.0
  0
LINE
  5
441
330
1F
100
AcDbEntity
  8
0
  6
Continuous
 62
     7
370
    15
100
AcDbLine
 10
-37.1338339951
 20
-137.7374490239
 30
0.0
 11
-22.7302989419
 21
-137.7374490239
 31
0.0
  0
SPLINE
  5
442
330
1F
100
AcDbEntity
  8
0
  6
Continuous
 62
     7
370
    15
100
AcDbSpline
210
0.0
220
0.0
230
1.0
 70
     8
 71
     3
 72
    32
 73
    28
 74
     0
 42
0.00000001
 43
0.00000001
 12
1.0
 22
0.0
 32
0.0
 13
1.0
 23
0.0
 33
0.0
 40
0.0
 40
0.0
 40
0.0
 40
0.0
 40
0.0625000000000014
 40
0.0625000000000014
 40
0.0937500000000029
 40
0.0937500000000029
 40
0.1250000000000045
 40
0.1250000000000045
 40
0.1875000000000055
 40
0.1875000000000055
 40
0.2500000000000065
 40
0.2500000000000065
 40
0.3750000000000079
 40
0.3750000000000079
 40
0.4375000000000077
 40
0.4375000000000077
 40
0.5000000000000074
 40
0.5000000000000074
 40
0.6250000000000075
 40
0.6250000000000075
 40
0.7500000000000075
 40
0.7500000000000075
 40
0.8125000000000063
 40
0.8125000000000063
 40
0.875000000000005
 40
0.875000000000005
 40
1.0
 40
1.0
 40
1.0
 40
1.0
 10
-43.27407950365816
 20
-121.8776431941558
 30
0.0
 10
-42.64144983767393
 20
-122.0857364583667
 30
0.0
 10
-42.06143664829432
 20
-122.3392661620792
 30
0.0
 10
-41.25431644812821
 20
-122.7709443274602
 30
0.0
 10
-40.9946592958044
 20
-122.9243657929411
 30
0.0
 10
-40.50261940108624
 20
-123.2417466522072
 30
0.0
 10
-40.2699861002987
 20
-123.4056526408817
 30
0.0
 10
-39.60706424692539
 20
-123.9102207757871
 30
0.0
 10
-39.21148927781358
 20
-124.2636063327773
 30
0.0
 10
-38.495616970548
 20
-124.994332881969
 30
0.0
 10
-38.17536038623216
 20
-125.3726090681956
 30
0.0
 10
-37.33027353637969
 20
-126.5056555800949
 30
0.0
 10
-36.90894095288385
 20
-127.2678695813941
 30
0.0
 10
-36.42616460752541
 20
-128.4041460302144
 30
0.0
 10
-36.29033394973279
 20
-128.7831063066388
 30
0.0
 10
-36.06537044358934
 20
-129.5306172012844
 30
0.0
 10
-35.9762513306522
 20
-129.8984869640301
 30
0.0
 10
-35.76857312732049
 20
-130.9843092448968
 30
0.0
 10
-35.70915884530673
 20
-131.6844741655865
 30
0.0
 10
-35.71331044221967
 20
-133.0368027612701
 30
0.0
 10
-35.77718778580761
 20
-133.6889713586688
 30
0.0
 10
-35.95042789629107
 20
-134.6307887886535
 30
0.0
 10
-36.0213526280176
 20
-134.9392566077235
 30
0.0
 10
-36.18632668406373
 20
-135.5400359601729
 30
0.0
 10
-36.2803422889863
 20
-135.8325313028115
 30
0.0
 10
-36.59407925733471
 20
-136.6872157032482
 30
0.0
 10
-36.84526208100676
 20
-137.2266448465783
 30
0.0
 10
-37.13383346388422
 20
-137.7374493767687
 30
0.0
  0
LINE
  5
443
330
1F
100
AcDbEntity
  8
0
  6
Continuous
 62
     7
370
    15
100
AcDbLine
 10
-43.2740791198
 20
-121.8776439764
 30
0.0
 11
-43.9959845002
 21
-119.832310591
 31
0.0
  0
SPLINE
  5
444
330
1F
100
AcDbEntity
  8
0
  6
Continuous
 62
     7
370
    15
100
AcDbSpline
210
0.0
220
0.0
230
1.0
 70
     8
 71
     3
 72
    10
 73
     6
 74
     0
 42
0.00000001
 43
0.00000001
 12
1.0
 22
0.0
 32
0.0
 13
1.0
 23
0.0
 33
0.0
 40
0.0
 40
0.0
 40
0.0
 40
0.0
 40
0.2485428230488602
 40
0.7150411777374166
 40
1.0
 40
1.0
 40
1.0
 40
1.0
 10
-45.09821594317368
 20
-116.545688126308
 30
0.0
 10
-45.45853064188063
 20
-115.4747882136635
 30
0.0
 10
-46.49513207482113
 20
-112.3938803629238
 30
0.0
 10
-47.9454996285918
 20
-107.643716171399
 30
0.0
 10
-48.97345855252407
 20
-103.7961074193499
 30
0.0
 10
-49.36326914091519
 20
-102.3370621242347
 30
0.0
  0
SPLINE
  5
445
330
1F
100
AcDbEntity
  8
0
  6
Continuous
 62
     7
370
    15
100
AcDbSpline
210
0.0
220
0.0
230
1.0
 70
     8
 71
     3
 72
    11
 73
     7
 74
     0
 42
0.00000001
 43
0.00000001
 12
1.0
 22
0.0
 32
0.0
 13
1.0
 23
0.0
 33
0.0
 40
0.0
 40
0.0
 40
0.0
 40
0.0
 40
0.2092102523573653
 40
0.5192793463147156
 40
0.8298029952964858
 40
1.0
 40
1.0
 40
1.0
 40
1.0
 10
-49.97757509906701
 20
17.27563911296694
 30
0.0
 10
-49.5951535462561
 20
18.80318375578889
 30
0.0
 10
-48.64594760762412
 20
22.59469193788398
 30
0.0
 10
-46.9957214699527
 20
28.08559102064716
 30
0.0
 10
-45.40860195707496
 20
33.10589317870047
 30
0.0
 10
-44.4504226334068
 20
35.83835269007626
 30
0.0
 10
-44.11118351478986
 20
36.8057678005871
 30
0.0
  0
ELLIPSE
  5
446
330
1F
100
AcDbEntity
  8
0
  6
Continuous
 62
     7
370
    15
100
AcDbEllipse
 10
221.3503941166
 20
-41.3268690445
 30
0.0
 11
257.8118775172143
 21
-103.8773431526488
 31
0.0
210
0.0
220
0.0
230
1.0
 40
0.0195860363
 41
3.290774412628185
 42
3.371267371908177
  0
SPLINE
  5
447
330
1F
100
AcDbEntity
  8
0
  6
Continuous
 62
     7
370
    15
100
AcDbSpline
210
0.0
220
0.0
230
1.0
 70
     8
 71
     3
 72
     8
 73
     4
 74
     0
 42
0.00000001
 43
0.00000001
 12
1.0
 22
0.0
 32
0.0
 13
1.0
 23
0.0
 33
0.0
 40
0.0
 40
0.0
 40
0.0
 40
0.0
 40
1.0
 40
1.0
 40
1.0
 40
1.0
 10
-33.90036540117025
 20
60.64620669299745
 30
0.0
 10
-23.44421169109233
 20
60.60232114112234
 30
0.0
 10
-12.97951698823387
 20
60.60231542020941
 30
0.0
 10
-2.522000215779814
 20
60.64620669299737
 30
0.0
  0
ELLIPSE
  5
448
330
1F
100
AcDbEntity
  8
0
  6
Continuous
 62
     7
370
    15
100
AcDbEllipse
 10
-257.7727597336
 20
-41.3268690445
 30
0.0
 11
257.8118775172143
 21
103.8773431526488
 31
0.0
210
0.0
220
0.0
230
1.0
 40
0.0195860363
 41
6.05351058886254
 42
6.134003548142596
  0
LINE
  5
449
330
1F
100
AcDbEntity
  8
0
  6
Continuous
 62
     7
370
    15
100
AcDbLine
 10
6.8517135028
 20
39.2239058874
 30
0.0
 11
5.4888179098
 21
39.8520717881
 31
0.0
  0
SPLINE
  5
44A
330
1F
100
AcDbEntity
  8
0
  6
Continuous
 62
     7
370
    15
100
AcDbSpline
210
0.0
220
0.0
230
1.0
 70
     8
 71
     3
 72
    11
 73
     7
 74
     0
 42
0.00000001
 43
0.00000001
 12
1.0
 22
0.0
 32
0.0
 13
1.0
 23
0.0
 33
0.0
 40
0.0
 40
0.0
 40
0.0
 40
0.0
 40
0.1423936289357756
 40
0.4657715551417012
 40
0.7902754588758983
 40
0.9999999999999999
 40
0.9999999999999999
 40
0.9999999999999999
 40
0.9999999999999999
 10
6.851713502808297
 20
-121.8776439764324
 30
0.0
 10
7.145719133951403
 20
-121.0508749367963
 30
0.0
 10
8.10741567235276
 20
-118.3465018253561
 30
0.0
 10
9.76086333014
 20
-113.3575155270735
 30
0.0
 10
11.54638384671665
 20
-107.5727473751863
 30
0.0
 10
12.59688087047202
 20
-103.6323035612438
 30
0.0
 10
13.00927936474868
 20
-102.085385236961
 30
0.0
  0
SPLINE
  5
44B
330
1F
100
AcDbEntity
  8
0
  6
Continuous
 62
     7
370
    15
100
AcDbSpline
210
0.0
220
0.0
230
1.0
 70
     8
 71
     3
 72
    11
 73
     7
 74
     0
 42
0.00000001
 43
0.00000001
 12
1.0
 22
0.0
 32
0.0
 13
1.0
 23
0.0
 33
0.0
 40
0.0
 40
0.0
 40
0.0
 40
0.0
 40
0.1972951133391138
 40
0.4647310157759807
 40
0.7325589738402287
 40
1.0
 40
1.0
 40
1.0
 40
1.0
 10
13.66361170451232
 20
16.853086884993
 30
0.0
 10
13.24573621838729
 20
18.52388658765726
 30
0.0
 10
12.26142547775088
 20
22.45947541110035
 30
0.0
 10
10.57348847959756
 20
28.0955820647949
 30
0.0
 10
8.706090675983113
 20
33.96138386298819
 30
0.0
 10
7.469541270826302
 20
37.47057744724098
 30
0.0
 10
6.851713502808297
 20
39.22390588738291
 30
0.0
  0
SPLINE
  5
44C
330
1F
100
AcDbEntity
  8
0
  6
Continuous
 62
     7
370
    15
100
AcDbSpline
210
0.0
220
0.0
230
1.0
 70
     8
 71
     3
 72
    32
 73
    28
 74
     0
 42
0.00000001
 43
0.00000001
 12
1.0
 22
0.0
 32
0.0
 13
1.0
 23
0.0
 33
0.0
 40
0.0
 40
0.0
 40
0.0
 40
0.0
 40
0.0625000000000015
 40
0.0625000000000015
 40
0.0937500000000032
 40
0.0937500000000032
 40
0.1250000000000048
 40
0.1250000000000048
 40
0.1875000000000058
 40
0.1875000000000058
 40
0.2500000000000068
 40
0.2500000000000068
 40
0.3750000000000082
 40
0.3750000000000082
 40
0.4375000000000078
 40
0.4375000000000078
 40
0.5000000000000075
 40
0.5000000000000075
 40
0.6250000000000075
 40
0.6250000000000075
 40
0.7500000000000077
 40
0.7500000000000077
 40
0.8125000000000063
 40
0.8125000000000063
 40
0.8750000000000049
 40
0.8750000000000049
 40
1.0
 40
1.0
 40
1.0
 40
1.0
 10
6.851713886708091
 20
-121.8776431941558
 30
0.0
 10
6.219084220723863
 20
-122.0857364583667
 30
0.0
 10
5.639071031344249
 20
-122.3392661620792
 30
0.0
 10
4.831950831178152
 20
-122.7709443274602
 30
0.0
 10
4.572293678854339
 20
-122.9243657929411
 30
0.0
 10
4.080253784136175
 20
-123.2417466522072
 30
0.0
 10
3.847620483348635
 20
-123.4056526408817
 30
0.0
 10
3.184698629975322
 20
-123.9102207757871
 30
0.0
 10
2.789123660863511
 20
-124.2636063327773
 30
0.0
 10
2.073251353597934
 20
-124.994332881969
 30
0.0
 10
1.752994769282101
 20
-125.3726090681956
 30
0.0
 10
0.9079079194296396
 20
-126.5056555800949
 30
0.0
 10
0.4865753359337907
 20
-127.2678695813941
 30
0.0
 10
0.0037989905753329
 20
-128.4041460302144
 30
0.0
 10
-0.1320316672172722
 20
-128.7831063066388
 30
0.0
 10
-0.3569951733607274
 20
-129.5306172012844
 30
0.0
 10
-0.4461142862978648
 20
-129.8984869640301
 30
0.0
 10
-0.6537924896295698
 20
-130.9843092448968
 30
0.0
 10
-0.7132067716433266
 20
-131.6844741655865
 30
0.0
 10
-0.7090551747303935
 20
-133.0368027612701
 30
0.0
 10
-0.6451778311424503
 20
-133.6889713586688
 30
0.0
 10
-0.4719377206590034
 20
-134.6307887886535
 30
0.0
 10
-0.4010129889324629
 20
-134.9392566077235
 30
0.0
 10
-0.236038932886342
 20
-135.5400359601729
 30
0.0
 10
-0.1420233279637619
 20
-135.8325313028115
 30
0.0
 10
0.1717136403846416
 20
-136.6872157032481
 30
0.0
 10
0.4228964640566948
 20
-137.2266448465783
 30
0.0
 10
0.7114678469341447
 20
-137.7374493767687
 30
0.0
  0
LINE
  5
44D
330
1F
100
AcDbEntity
  8
0
  6
Continuous
 62
     7
370
    15
100
AcDbLine
 10
0.7114683781
 20
-137.7374490239
 30
0.0
 11
-13.692066675
 21
-137.7374490239
 31
0.0
  0
ELLIPSE
  5
44E
330
1F
100
AcDbEntity
  8
0
  6
Continuous
 62
     7
370
    15
100
AcDbEllipse
 10
-257.7727597336
 20
-41.3268690445
 30
0.0
 11
257.8118775172143
 21
-103.8773431526488
 31
0.0
210
0.0
220
0.0
230
1.0
 40
0.0195860363
 41
0.1491817590376951
 42
0.3358246700785056
  0
SPLINE
  5
44F
330
1F
100
AcDbEntity
  8
0
  6
Continuous
 62
     7
370
    15
100
AcDbSpline
210
0.0
220
0.0
230
1.0
 70
     8
 71
     3
 72
     8
 73
     4
 74
     0
 42
0.00000001
 43
0.00000001
 12
1.0
 22
0.0
 32
0.0
 13
1.0
 23
0.0
 33
0.0
 40
0.0
 40
0.0
 40
0.0
 40
0.0
 40
1.0
 40
1.0
 40
1.0
 40
1.0
 10
-2.522000215779814
 20
-143.2999447820473
 30
0.0
 10
-12.97815392585773
 20
-143.2560592301722
 30
0.0
 10
-23.4428486287162
 20
-143.2560535092593
 30
0.0
 10
-33.90036540117025
 20
-143.2999447820473
 30
0.0
  0
ELLIPSE
  5
450
330
1F
100
AcDbEntity
  8
0
  6
Continuous
 62
     7
370
    15
100
AcDbEllipse
 10
221.3503941166
 20
-41.3268690445
 30
0.0
 11
257.8118775172143
 21
103.8773431526488
 31
0.0
210
0.0
220
0.0
230
1.0
 40
0.0195860363
 41
2.805767983511283
 42
2.992410894552099
  0
LINE
  5
451
330
1F
100
AcDbEntity
  8
0
  6
Continuous
 62
     7
370
    15
100
AcDbLine
 10
-43.2740791198
 20
-121.8776439764
 30
0.0
 11
-43.3028160091
 21
-121.8682338931
 31
0.0
  0
SPLINE
  5
452
330
1F
100
AcDbEntity
  8
0
  6
Continuous
 62
     7
370
    15
100
AcDbSpline
210
0.0
220
0.0
230
1.0
 70
     8
 71
     3
 72
    10
 73
     6
 74
     0
 42
0.00000001
 43
0.00000001
 12
1.0
 22
0.0
 32
0.0
 13
1.0
 23
0.0
 33
0.0
 40
0.0
 40
0.0
 40
0.0
 40
0.0
 40
0.4392923419074721
 40
0.9927286389890086
 40
1.0
 40
1.0
 40
1.0
 40
1.0
 10
-44.11118351478986
 20
36.97783895947305
 30
0.0
 10
-45.17536595374829
 20
34.0925751428493
 30
0.0
 10
-47.5802437161877
 20
27.57235216476599
 30
0.0
 10
-49.72687428235572
 20
20.85388331333469
 30
0.0
 10
-50.68902595071834
 20
16.93985340751445
 30
0.0
 10
-50.70150331218652
 20
16.88909554101794
 30
0.0
  0
SPLINE
  5
453
330
1F
100
AcDbEntity
  8
0
  6
Continuous
 62
     7
370
    15
100
AcDbSpline
210
0.0
220
0.0
230
1.0
 70
     8
 71
     3
 72
     9
 73
     5
 74
     0
 42
0.00000001
 43
0.00000001
 12
1.0
 22
0.0
 32
0.0
 13
1.0
 23
0.0
 33
0.0
 40
0.0
 40
0.0
 40
0.0
 40
0.0
 40
0.4116302571171526
 40
1.0
 40
1.0
 40
1.0
 40
1.0
 10
-49.89706039984635
 20
-102.018646661264
 30
0.0
 10
-49.26542301377572
 20
-104.3251652474689
 30
0.0
 10
-47.73094546954881
 20
-109.9285399905175
 30
0.0
 10
-45.72213411656044
 20
-115.2568460031723
 30
0.0
 10
-44.54021029730252
 20
-118.3918600418392
 30
0.0
  0
LINE
  5
454
330
1F
100
AcDbEntity
  8
0
  6
Continuous
 62
     7
370
    15
100
AcDbLine
 10
-44.061510494
 20
-119.7367345431
 30
0.0
 11
-43.3028160091
 21
-121.8682338931
 31
0.0
  0
LINE
  5
455
330
1F
100
AcDbEntity
  8
0
  6
Continuous
 62
     7
370
    15
100
AcDbLine
 10
6.8517135028
 20
39.2239058874
 30
0.0
 11
6.8804503922
 21
39.2144958041
 31
0.0
  0
SPLINE
  5
456
330
1F
100
AcDbEntity
  8
0
  6
Continuous
 62
     7
370
    15
100
AcDbSpline
210
0.0
220
0.0
230
1.0
 70
     8
 71
     3
 72
    10
 73
     6
 74
     0
 42
0.00000001
 43
0.00000001
 12
1.0
 22
0.0
 32
0.0
 13
1.0
 23
0.0
 33
0.0
 40
0.0
 40
0.0
 40
0.0
 40
0.0
 40
0.4864163989310163
 40
0.9737246718510366
 40
1.0
 40
1.0
 40
1.0
 40
1.0
 10
6.880450392170633
 20
39.21449580408899
 30
0.0
 10
8.222060850183688
 20
35.58808193128657
 30
0.0
 10
10.90774169040954
 20
28.32860493575182
 30
0.0
 10
13.34677305582033
 20
20.69849198057894
 30
0.0
 10
14.3444124434071
 20
16.62493744312814
 30
0.0
 10
14.39545243422576
 20
16.41653129078715
 30
0.0
  0
SPLINE
  5
457
330
1F
100
AcDbEntity
  8
0
  6
Continuous
 62
     7
370
    15
100
AcDbSpline
210
0.0
220
0.0
230
1.0
 70
     8
 71
     3
 72
     9
 73
     5
 74
     0
 42
0.00000001
 43
0.00000001
 12
1.0
 22
0.0
 32
0.0
 13
1.0
 23
0.0
 33
0.0
 40
0.0
 40
0.0
 40
0.0
 40
0.0
 40
0.3456313658313767
 40
1.0
 40
1.0
 40
1.0
 40
1.0
 10
13.53640421669075
 20
-101.803924653751
 30
0.0
 10
12.8806043287809
 20
-104.1799340419649
 30
0.0
 10
10.98320741188821
 20
-111.0543373024983
 30
0.0
 10
8.503254071997098
 20
-117.5909074279798
 30
0.0
 10
6.880450392170633
 20
-121.8682338931385
 30
0.0
  0
LINE
  5
458
330
1F
100
AcDbEntity
  8
0
  6
Continuous
 62
     7
370
    15
100
AcDbLine
 10
6.8517135028
 20
-121.8776439764
 30
0.0
 11
6.8804503922
 21
-121.8682338931
 31
0.0
  0
ARC
  5
459
330
1F
100
AcDbEntity
  8
0
  6
Continuous
 62
     7
370
    15
100
AcDbCircle
 10
244.7888171915
 20
-41.3268690445
 30
0.0
 40
303.5045304439458
100
AcDbArc
 50
194.3487764531
 51
195.2970217834
  0
ARC
  5
45A
330
1F
100
AcDbEntity
  8
0
  6
Continuous
 62
     7
370
    15
100
AcDbCircle
 10
-50.7237375446
 20
-111.3853337504
 30
0.0
 40
5.364204722574595
100
AcDbArc
 50
267.4014563025
 51
285.9693273075
  0
SPLINE
  5
45B
330
1F
100
AcDbEntity
  8
0
  6
Continuous
 62
     7
370
    15
100
AcDbSpline
210
0.0
220
0.0
230
1.0
 70
     8
 71
     3
 72
     9
 73
     5
 74
     0
 42
0.00000001
 43
0.00000001
 12
1.0
 22
0.0
 32
0.0
 13
1.0
 23
0.0
 33
0.0
 40
0.0
 40
0.0
 40
0.0
 40
0.0
 40
0.9158417266052591
 40
1.0
 40
1.0
 40
1.0
 40
1.0
 10
-50.96693769653253
 20
34.09028449274866
 30
0.0
 10
-52.51258001959554
 20
27.97479481693453
 30
0.0
 10
-54.20025407741798
 20
21.29734226355247
 30
0.0
 10
-55.25945047773421
 20
14.50005548790002
 30
0.0
 10
-55.34859061797075
 20
13.92800756909221
 30
0.0
  0
LINE
  5
45C
330
1F
100
AcDbEntity
  8
0
  6
Continuous
 62
     7
370
    15
100
AcDbLine
 10
-54.9037835058
 20
-99.032055352
 30
0.0
 11
-50.9669376965
 21
-116.7440225818
 31
0.0
  0
ARC
  5
45D
330
1F
100
AcDbEntity
  8
0
  6
Continuous
 62
     7
370
    15
100
AcDbCircle
 10
-50.7237375446
 20
28.7315956613
 30
0.0
 40
5.364204722574613
100
AcDbArc
 50
74.0306726925
 51
92.5985436975
  0
ARC
  5
45E
330
1F
100
AcDbEntity
  8
0
  6
Continuous
 62
     7
370
    15
100
AcDbCircle
 10
244.7888171915
 20
-41.3268690445
 30
0.0
 40
303.5045304439458
100
AcDbArc
 50
164.7029782166
 51
165.6512235469
  0
SPLINE
  5
45F
330
1F
100
AcDbEntity
  8
0
  6
Continuous
 62
     7
370
    15
100
AcDbSpline
210
0.0
220
0.0
230
1.0
 70
     8
 71
     3
 72
    10
 73
     6
 74
     0
 42
0.00000001
 43
0.00000001
 12
1.0
 22
0.0
 32
0.0
 13
1.0
 23
0.0
 33
0.0
 40
0.0
 40
0.0
 40
0.0
 40
0.0
 40
0.2685112106022597
 40
0.7189675937666286
 40
1.0
 40
1.0
 40
1.0
 40
1.0
 10
-47.96289153953008
 20
38.74458023526041
 30
0.0
 10
-47.69483591847053
 20
38.72154264386379
 30
0.0
 10
-46.97708821461666
 20
38.65985701958216
 30
0.0
 10
-45.76159081248169
 20
38.63298933908273
 30
0.0
 10
-44.56926571211743
 20
38.92532196113875
 30
0.0
 10
-44.11118351478986
 20
39.03763392187921
 30
0.0
  0
SPLINE
  5
460
330
1F
100
AcDbEntity
  8
0
  6
Continuous
 62
     7
370
    15
100
AcDbSpline
210
0.0
220
0.0
230
1.0
 70
     8
 71
     3
 72
    12
 73
     8
 74
     0
 42
0.00000001
 43
0.00000001
 12
1.0
 22
0.0
 32
0.0
 13
1.0
 23
0.0
 33
0.0
 40
0.0
 40
0.0
 40
0.0
 40
0.0
 40
0.5
 40
0.5
 40
0.75
 40
0.75
 40
1.0
 40
1.0
 40
1.0
 40
1.0
 10
-47.96289166800844
 20
-121.3983181373382
 30
0.0
 10
-47.41009254205012
 20
-121.3350029211324
 30
0.0
 10
-46.75498373144359
 20
-121.2999334376049
 30
0.0
 10
-45.60024246218356
 20
-121.3763157070451
 30
0.0
 10
-45.18647705556997
 20
-121.4236344896734
 30
0.0
 10
-44.29503909237757
 20
-121.5859425977879
 30
0.0
 10
-43.81748665121081
 20
-121.7005083955673
 30
0.0
 10
-43.30281586516963
 20
-121.8682345839565
 30
0.0
  0
SPLINE
  5
461
330
1F
100
AcDbEntity
  8
0
  6
Continuous
 62
     7
370
    15
100
AcDbSpline
210
0.0
220
0.0
230
1.0
 70
     8
 71
     3
 72
    12
 73
     8
 74
     0
 42
0.00000001
 43
0.00000001
 12
1.0
 22
0.0
 32
0.0
 13
1.0
 23
0.0
 33
0.0
 40
0.0
 40
0.0
 40
0.0
 40
0.0
 40
0.5
 40
0.5
 40
0.75
 40
0.75
 40
1.0
 40
1.0
 40
1.0
 40
1.0
 10
11.54052605105832
 20
38.74458004828835
 30
0.0
 10
10.98772692509998
 20
38.68126483208256
 30
0.0
 10
10.33261811449352
 20
38.64619534855503
 30
0.0
 10
9.177876845233495
 20
38.72257761799528
 30
0.0
 10
8.764111438619903
 20
38.76989640062349
 30
0.0
 10
7.872673475427507
 20
38.9322045087381
 30
0.0
 10
7.395121034260685
 20
39.04677030651742
 30
0.0
 10
6.880450248219494
 20
39.2144964949067
 30
0.0
  0
ARC
  5
462
330
1F
100
AcDbEntity
  8
0
  6
Continuous
 62
     7
370
    15
100
AcDbCircle
 10
-281.2111828085
 20
-41.3268690445
 30
0.0
 40
303.5045304439459
100
AcDbArc
 50
14.3487764531
 51
15.2970217834
  0
ARC
  5
463
330
1F
100
AcDbEntity
  8
0
  6
Continuous
 62
     7
370
    15
100
AcDbCircle
 10
14.3013719276
 20
28.7315956613
 30
0.0
 40
5.364204722574613
100
AcDbArc
 50
87.4014563025
 51
105.9693273075
  0
SPLINE
  5
464
330
1F
100
AcDbEntity
  8
0
  6
Continuous
 62
     7
370
    15
100
AcDbSpline
210
0.0
220
0.0
230
1.0
 70
     8
 71
     3
 72
     9
 73
     5
 74
     0
 42
0.00000001
 43
0.00000001
 12
1.0
 22
0.0
 32
0.0
 13
1.0
 23
0.0
 33
0.0
 40
0.0
 40
0.0
 40
0.0
 40
0.0
 40
0.905335988020435
 40
1.0
 40
1.0
 40
1.0
 40
1.0
 10
14.54457207958289
 20
34.09028449274866
 30
0.0
 10
16.08819829889158
 20
27.97441032245454
 30
0.0
 10
17.7932296239844
 20
21.21904629051455
 30
0.0
 10
18.86249193689579
 20
14.34245804535179
 30
0.0
 10
18.96371259729453
 20
13.69149261333316
 30
0.0
  0
LINE
  5
465
330
1F
100
AcDbEntity
  8
0
  6
Continuous
 62
     7
370
    15
100
AcDbLine
 10
18.5732351188
 20
-98.6189765372
 30
0.0
 11
14.5445720796
 21
-116.7440225818
 31
0.0
  0
ARC
  5
466
330
1F
100
AcDbEntity
  8
0
  6
Continuous
 62
     7
370
    15
100
AcDbCircle
 10
14.3013719276
 20
-111.3853337504
 30
0.0
 40
5.364204722574595
100
AcDbArc
 50
254.0306726925
 51
272.5985436975
  0
ARC
  5
467
330
1F
100
AcDbEntity
  8
0
  6
Continuous
 62
     7
370
    15
100
AcDbCircle
 10
-281.2111828085
 20
-41.3268690445
 30
0.0
 40
303.5045304439459
100
AcDbArc
 50
344.7029782166
 51
345.6512235469
  0
SPLINE
  5
468
330
1F
100
AcDbEntity
  8
0
  6
Continuous
 62
     7
370
    15
100
AcDbSpline
210
0.0
220
0.0
230
1.0
 70
     8
 71
     3
 72
    12
 73
     8
 74
     0
 42
0.00000001
 43
0.00000001
 12
1.0
 22
0.0
 32
0.0
 13
1.0
 23
0.0
 33
0.0
 40
0.0
 40
0.0
 40
0.0
 40
0.0
 40
0.5
 40
0.5
 40
0.75
 40
0.75
 40
1.0
 40
1.0
 40
1.0
 40
1.0
 10
11.54052605105832
 20
-121.3983181373382
 30
0.0
 10
10.98772692509998
 20
-121.3350029211324
 30
0.0
 10
10.33261811449352
 20
-121.2999334376049
 30
0.0
 10
9.177876845233495
 20
-121.3763157070451
 30
0.0
 10
8.764111438619903
 20
-121.4236344896734
 30
0.0
 10
7.872673475427507
 20
-121.5859425977879
 30
0.0
 10
7.395121034260685
 20
-121.7005083955673
 30
0.0
 10
6.880450248219494
 20
-121.8682345839565
 30
0.0
  0
LINE
  5
469
330
1F
100
AcDbEntity
  8
0
  6
Continuous
 62
     7
370
    15
100
AcDbLine
 10
5.0443255846
 20
62.653701987
 30
0.0
 11
-4.8079412859
 21
58.6731324456
 31
0.0
  0
ARC
  5
46A
330
1F
100
AcDbEntity
  8
0
  6
Continuous
 62
     7
370
    15
100
AcDbCircle
 10
10.2888171915
 20
49.6731309555
 30
0.0
 40
14.0
100
AcDbArc
 50
308.0
 51
112.0
  0
LINE
  5
46B
330
1F
100
AcDbEntity
  8
0
  6
Continuous
 62
     7
370
    15
100
AcDbLine
 10
12.8255573605
 20
33.8887909911
 30
0.0
 11
18.908079112
 21
38.6409799121
 31
0.0
  0
SPLINE
  5
46C
330
1F
100
AcDbEntity
  8
0
  6
Continuous
 62
     7
370
    15
100
AcDbSpline
210
0.0
220
0.0
230
1.0
 70
     8
 71
     3
 72
    24
 73
    20
 74
     0
 42
0.00000001
 43
0.00000001
 12
1.0
 22
0.0
 32
0.0
 13
1.0
 23
0.0
 33
0.0
 40
0.0
 40
0.0
 40
0.0
 40
0.0
 40
0.1249999999999998
 40
0.1249999999999998
 40
0.2499999999999997
 40
0.2499999999999997
 40
0.3749999999999995
 40
0.3749999999999995
 40
0.4374999999999983
 40
0.4374999999999983
 40
0.499999999999997
 40
0.499999999999997
 40
0.7499999999999992
 40
0.7499999999999992
 40
0.8125
 40
0.8125
 40
0.8750000000000008
 40
0.8750000000000008
 40
1.0
 40
1.0
 40
1.0
 40
1.0
 10
24.54781960803484
 20
54.43061397132268
 30
0.0
 10
24.36062059933981
 20
54.99040526517668
 30
0.0
 10
24.13981462346992
 20
55.54142320415546
 30
0.0
 10
23.62955271764446
 20
56.62242531684733
 30
0.0
 10
23.34488129096
 20
57.14241158330786
 30
0.0
 10
22.71866753858188
 20
58.1428895879809
 30
0.0
 10
22.37711835043385
 20
58.62337656008066
 30
0.0
 10
21.82196512322666
 20
59.31436383367839
 30
0.0
 10
21.62975761680498
 20
59.53972309463239
 30
0.0
 10
21.23077476966376
 20
59.98032490006292
 30
0.0
 10
21.02326334339218
 20
60.19626287055203
 30
0.0
 10
19.95909277505501
 20
61.2395578435318
 30
0.0
 10
19.02496656119064
 20
61.95974624292898
 30
0.0
 10
17.7561038727966
 20
62.72007773487942
 30
0.0
 10
17.49720460364579
 20
62.86505692831285
 30
0.0
 10
16.96893819944371
 20
63.14054474576071
 30
0.0
 10
16.69926148954213
 20
63.27111551491667
 30
0.0
 10
15.88562356502991
 20
63.63569301775264
 30
0.0
 10
15.33350100802668
 20
63.84464509637569
 30
0.0
 10
14.77196950982317
 20
64.02051254408389
 30
0.0
  0
SPLINE
  5
46D
330
1F
100
AcDbEntity
  8
0
  6
Continuous
 62
     7
370
    15
100
AcDbSpline
210
0.0
220
0.0
230
1.0
 70
     8
 71
     3
 72
    28
 73
    24
 74
     0
 42
0.00000001
 43
0.00000001
 12
1.0
 22
0.0
 32
0.0
 13
1.0
 23
0.0
 33
0.0
 40
0.0
 40
0.0
 40
0.0
 40
0.0
 40
0.1249999999999969
 40
0.1249999999999969
 40
0.1874999999999962
 40
0.1874999999999962
 40
0.2499999999999956
 40
0.2499999999999956
 40
0.3749999999999942
 40
0.3749999999999942
 40
0.4999999999999928
 40
0.4999999999999928
 40
0.562499999999993
 40
0.562499999999993
 40
0.6249999999999932
 40
0.6249999999999932
 40
0.7499999999999933
 40
0.7499999999999933
 40
0.8124999999999946
 40
0.8124999999999946
 40
0.8749999999999957
 40
0.8749999999999957
 40
1.0
 40
1.0
 40
1.0
 40
1.0
 10
19.49388773036973
 20
37.89117794553339
 30
0.0
 10
20.10088426089501
 20
38.35731544240174
 30
0.0
 10
20.66683094760594
 20
38.86586936044765
 30
0.0
 10
21.45522395229189
 20
39.69121793357724
 30
0.0
 10
21.70788925473174
 20
39.97679971269812
 30
0.0
 10
22.19258784094946
 20
40.56926926645987
 30
0.0
 10
22.42525473947236
 20
40.87707596919824
 30
0.0
 10
23.08688427776482
 20
41.82739146114677
 30
0.0
 10
23.47404623184871
 20
42.48787553526319
 30
0.0
 10
24.14386148841161
 20
43.86103422189394
 30
0.0
 10
24.4265203498095
 20
44.5737061487793
 30
0.0
 10
24.76891108766282
 20
45.68344754261793
 30
0.0
 10
24.86899718206876
 20
46.05948576331362
 30
0.0
 10
25.03827799596517
 20
46.81192070334738
 30
0.0
 10
25.1079962024262
 20
47.18992233093805
 30
0.0
 10
25.27304259672333
 20
48.32919950273396
 30
0.0
 10
25.32452979270714
 20
49.09571533074629
 30
0.0
 10
25.31177297632605
 20
50.25624067231542
 30
0.0
 10
25.29225451986082
 20
50.64651448192728
 30
0.0
 10
25.22305851711404
 20
51.41994841386919
 30
0.0
 10
25.17352476436552
 20
51.80355157692865
 30
0.0
 10
24.98092137756361
 20
52.9451874583778
 30
0.0
 10
24.79411552805245
 20
53.69410199565172
 30
0.0
 10
24.54781960803485
 20
54.43061397132266
 30
0.0
  0
SPLINE
  5
46E
330
1F
100
AcDbEntity
  8
0
  6
Continuous
 62
     7
370
    15
100
AcDbSpline
210
0.0
220
0.0
230
1.0
 70
     8
 71
     3
 72
    18
 73
    14
 74
     0
 42
0.00000001
 43
0.00000001
 12
1.0
 22
0.0
 32
0.0
 13
1.0
 23
0.0
 33
0.0
 40
0.0
 40
0.0
 40
0.0
 40
0.0
 40
0.2500000000000005
 40
0.2500000000000005
 40
0.3750000000000007
 40
0.3750000000000007
 40
0.5000000000000009
 40
0.5000000000000009
 40
0.75
 40
0.75
 40
0.8750000000000001
 40
0.8750000000000001
 40
1.0
 40
1.0
 40
1.0
 40
1.0
 10
14.7719695098232
 20
64.02051254408387
 30
0.0
 10
13.94656301832874
 20
64.27902365778877
 30
0.0
 10
13.10879660911512
 20
64.46311890449411
 30
0.0
 10
11.8341067831291
 20
64.63064599083341
 30
0.0
 10
11.40618642118038
 20
64.66828297735215
 30
0.0
 10
10.54417562728499
 20
64.70640717839522
 30
0.0
 10
10.10835012123889
 20
64.70669044799844
 30
0.0
 10
8.815370247925975
 20
64.65119693097876
 30
0.0
 10
7.9665330277645
 20
64.54035209888914
 30
0.0
 10
6.712543518089559
 20
64.26597838224897
 30
0.0
 10
6.297776153490607
 20
64.15640156804636
 30
0.0
 10
5.474843304030162
 20
63.90022582518813
 30
0.0
 10
5.066465715901705
 20
63.75339863199638
 30
0.0
 10
4.666261323683959
 20
63.58944506656654
 30
0.0
  0
SPLINE
  5
46F
330
1F
100
AcDbEntity
  8
0
  6
Continuous
 62
     7
370
    15
100
AcDbSpline
210
0.0
220
0.0
230
1.0
 70
     8
 71
     3
 72
     8
 73
     4
 74
     0
 42
0.00000001
 43
0.00000001
 12
1.0
 22
0.0
 32
0.0
 13
1.0
 23
0.0
 33
0.0
 40
0.0
 40
0.0
 40
0.0
 40
0.0
 40
1.0
 40
1.0
 40
1.0
 40
1.0
 10
-41.08862694063401
 20
63.58944506656654
 30
0.0
 10
-38.69341539405097
 20
62.60818778739267
 30
0.0
 10
-36.29735397123768
 20
61.62710309887022
 30
0.0
 10
-33.90036540117025
 20
60.64620669299746
 30
0.0
  0
LINE
  5
470
330
1F
100
AcDbEntity
  8
0
  6
Continuous
 62
     7
370
    15
100
AcDbLine
 10
-41.4666912015
 20
62.653701987
 30
0.0
 11
-31.6144243311
 21
58.6731324456
 31
0.0
  0
LINE
  5
471
330
1F
100
AcDbEntity
  8
0
  6
Continuous
 62
     7
370
    15
100
AcDbLine
 10
-49.2479229774
 20
33.8887909911
 30
0.0
 11
-55.3304447289
 21
38.6409799121
 31
0.0
  0
ARC
  5
472
330
1F
100
AcDbEntity
  8
0
  6
Continuous
 62
     7
370
    15
100
AcDbCircle
 10
-46.7111828085
 20
49.6731309555
 30
0.0
 40
14.00000000000001
100
AcDbArc
 50
68.0
 51
232.0
  0
SPLINE
  5
473
330
1F
100
AcDbEntity
  8
0
  6
Continuous
 62
     7
370
    15
100
AcDbSpline
210
0.0
220
0.0
230
1.0
 70
     8
 71
     3
 72
    28
 73
    24
 74
     0
 42
0.00000001
 43
0.00000001
 12
1.0
 22
0.0
 32
0.0
 13
1.0
 23
0.0
 33
0.0
 40
0.0
 40
0.0
 40
0.0
 40
0.0
 40
0.124999999999999
 40
0.124999999999999
 40
0.1874999999999985
 40
0.1874999999999985
 40
0.2499999999999981
 40
0.2499999999999981
 40
0.3749999999999966
 40
0.3749999999999966
 40
0.4999999999999951
 40
0.4999999999999951
 40
0.5624999999999954
 40
0.5624999999999954
 40
0.624999999999996
 40
0.624999999999996
 40
0.7499999999999966
 40
0.7499999999999966
 40
0.812499999999998
 40
0.812499999999998
 40
0.8749999999999993
 40
0.8749999999999993
 40
1.0
 40
1.0
 40
1.0
 40
1.0
 10
-55.9162533473198
 20
37.89117794553339
 30
0.0
 10
-56.52324987784507
 20
38.35731544240177
 30
0.0
 10
-57.08919656455601
 20
38.86586936044765
 30
0.0
 10
-57.87758956924196
 20
39.69121793357723
 30
0.0
 10
-58.1302548716818
 20
39.9767997126981
 30
0.0
 10
-58.61495345789952
 20
40.56926926645987
 30
0.0
 10
-58.84762035642242
 20
40.87707596919824
 30
0.0
 10
-59.50924989471489
 20
41.82739146114677
 30
0.0
 10
-59.89641184879878
 20
42.4878755352632
 30
0.0
 10
-60.56622710536168
 20
43.86103422189394
 30
0.0
 10
-60.84888596675955
 20
44.57370614877927
 30
0.0
 10
-61.19127670461292
 20
45.68344754261798
 30
0.0
 10
-61.29136279901883
 20
46.05948576331363
 30
0.0
 10
-61.46064361291523
 20
46.81192070334738
 30
0.0
 10
-61.53036181937625
 20
47.18992233093802
 30
0.0
 10
-61.6954082136734
 20
48.32919950273401
 30
0.0
 10
-61.74689540965722
 20
49.09571533074632
 30
0.0
 10
-61.73413859327614
 20
50.25624067231545
 30
0.0
 10
-61.7146201368109
 20
50.6465144819273
 30
0.0
 10
-61.64542413406411
 20
51.41994841386919
 30
0.0
 10
-61.59589038131559
 20
51.80355157692861
 30
0.0
 10
-61.40328699451367
 20
52.94518745837779
 30
0.0
 10
-61.21648114500253
 20
53.69410199565174
 30
0.0
 10
-60.97018522498492
 20
54.43061397132266
 30
0.0
  0
SPLINE
  5
474
330
1F
100
AcDbEntity
  8
0
  6
Continuous
 62
     7
370
    15
100
AcDbSpline
210
0.0
220
0.0
230
1.0
 70
     8
 71
     3
 72
    24
 73
    20
 74
     0
 42
0.00000001
 43
0.00000001
 12
1.0
 22
0.0
 32
0.0
 13
1.0
 23
0.0
 33
0.0
 40
0.0
 40
0.0
 40
0.0
 40
0.0
 40
0.1250000000000005
 40
0.1250000000000005
 40
0.2500000000000011
 40
0.2500000000000011
 40
0.3750000000000016
 40
0.3750000000000016
 40
0.4375000000000007
 40
0.4375000000000007
 40
0.4999999999999998
 40
0.4999999999999998
 40
0.7499999999999991
 40
0.7499999999999991
 40
0.8124999999999993
 40
0.8124999999999993
 40
0.8749999999999994
 40
0.8749999999999994
 40
1.0
 40
1.0
 40
1.0
 40
1.0
 10
-60.97018522498491
 20
54.43061397132268
 30
0.0
 10
-60.78298621628988
 20
54.99040526517669
 30
0.0
 10
-60.56218024041998
 20
55.54142320415549
 30
0.0
 10
-60.05191833459455
 20
56.62242531684732
 30
0.0
 10
-59.76724690791006
 20
57.14241158330785
 30
0.0
 10
-59.14103315553191
 20
58.14288958798089
 30
0.0
 10
-58.79948396738393
 20
58.62337656008068
 30
0.0
 10
-58.24433074017674
 20
59.3143638336784
 30
0.0
 10
-58.05212323375505
 20
59.53972309463239
 30
0.0
 10
-57.65314038661383
 20
59.98032490006297
 30
0.0
 10
-57.44562896034225
 20
60.19626287055203
 30
0.0
 10
-56.38145839200509
 20
61.2395578435318
 30
0.0
 10
-55.44733217814071
 20
61.95974624292895
 30
0.0
 10
-54.17846948974666
 20
62.72007773487945
 30
0.0
 10
-53.91957022059584
 20
62.8650569283128
 30
0.0
 10
-53.39130381639379
 20
63.14054474576069
 30
0.0
 10
-53.1216271064922
 20
63.27111551491667
 30
0.0
 10
-52.30798918197998
 20
63.63569301775263
 30
0.0
 10
-51.75586662497675
 20
63.84464509637565
 30
0.0
 10
-51.19433512677324
 20
64.02051254408389
 30
0.0
  0
SPLINE
  5
475
330
1F
100
AcDbEntity
  8
0
  6
Continuous
 62
     7
370
    15
100
AcDbSpline
210
0.0
220
0.0
230
1.0
 70
     8
 71
     3
 72
    18
 73
    14
 74
     0
 42
0.00000001
 43
0.00000001
 12
1.0
 22
0.0
 32
0.0
 13
1.0
 23
0.0
 33
0.0
 40
0.0
 40
0.0
 40
0.0
 40
0.0
 40
0.2500000000000002
 40
0.2500000000000002
 40
0.3749999999999998
 40
0.3749999999999998
 40
0.4999999999999993
 40
0.4999999999999993
 40
0.7499999999999992
 40
0.7499999999999992
 40
0.8749999999999997
 40
0.8749999999999997
 40
1.0
 40
1.0
 40
1.0
 40
1.0
 10
-51.19433512677328
 20
64.02051254408387
 30
0.0
 10
-50.36892863527881
 20
64.27902365778874
 30
0.0
 10
-49.53116222606521
 20
64.46311890449414
 30
0.0
 10
-48.25647240007918
 20
64.63064599083341
 30
0.0
 10
-47.82855203813044
 20
64.66828297735216
 30
0.0
 10
-46.96654124423507
 20
64.70640717839524
 30
0.0
 10
-46.53071573818894
 20
64.70669044799841
 30
0.0
 10
-45.23773586487604
 20
64.65119693097871
 30
0.0
 10
-44.38889864471456
 20
64.5403520988891
 30
0.0
 10
-43.13490913503962
 20
64.26597838224895
 30
0.0
 10
-42.72014177044067
 20
64.15640156804638
 30
0.0
 10
-41.89720892098022
 20
63.9002258251881
 30
0.0
 10
-41.48883133285177
 20
63.75339863199636
 30
0.0
 10
-41.08862694063402
 20
63.58944506656654
 30
0.0
  0
SPLINE
  5
476
330
1F
100
AcDbEntity
  8
0
  6
Continuous
 62
     7
370
    15
100
AcDbSpline
210
0.0
220
0.0
230
1.0
 70
     8
 71
     3
 72
     8
 73
     4
 74
     0
 42
0.00000001
 43
0.00000001
 12
1.0
 22
0.0
 32
0.0
 13
1.0
 23
0.0
 33
0.0
 40
0.0
 40
0.0
 40
0.0
 40
0.0
 40
1.0
 40
1.0
 40
1.0
 40
1.0
 10
4.666261323683953
 20
63.58944506656654
 30
0.0
 10
2.271049777100909
 20
62.60818778739267
 30
0.0
 10
-0.1250116457123807
 20
61.62710309887022
 30
0.0
 10
-2.522000215779811
 20
60.64620669299746
 30
0.0
  0
SPLINE
  5
477
330
1F
100
AcDbEntity
  8
0
  6
Continuous
 62
     7
370
    15
100
AcDbSpline
210
0.0
220
0.0
230
1.0
 70
     8
 71
     3
 72
     8
 73
     4
 74
     0
 42
0.00000001
 43
0.00000001
 12
1.0
 22
0.0
 32
0.0
 13
1.0
 23
0.0
 33
0.0
 40
0.0
 40
0.0
 40
0.0
 40
0.0
 40
1.0
 40
1.0
 40
1.0
 40
1.0
 10
14.54457180770546
 20
34.09028286904424
 30
0.0
 10
16.19439586622114
 20
35.35732601683869
 30
0.0
 10
17.84416706347132
 20
36.62428987694001
 30
0.0
 10
19.49388773036972
 20
37.89117794553339
 30
0.0
  0
SPLINE
  5
478
330
1F
100
AcDbEntity
  8
0
  6
Continuous
 62
     7
370
    15
100
AcDbSpline
210
0.0
220
0.0
230
1.0
 70
     8
 71
     3
 72
     8
 73
     4
 74
     0
 42
0.00000001
 43
0.00000001
 12
1.0
 22
0.0
 32
0.0
 13
1.0
 23
0.0
 33
0.0
 40
0.0
 40
0.0
 40
0.0
 40
0.0
 40
1.0
 40
1.0
 40
1.0
 40
1.0
 10
-50.96693742465553
 20
34.09028286904424
 30
0.0
 10
-52.61676148317122
 20
35.35732601683869
 30
0.0
 10
-54.2665326804214
 20
36.62428987694003
 30
0.0
 10
-55.91625334731979
 20
37.89117794553339
 30
0.0
  0
LINE
  5
479
330
1F
100
AcDbEntity
  8
0
  6
Continuous
 62
     7
370
    15
100
AcDbLine
 10
-41.4666912015
 20
-145.3074400761
 30
0.0
 11
-22.7302989419
 21
-137.7374490239
 31
0.0
  0
ARC
  5
47A
330
1F
100
AcDbEntity
  8
0
  6
Continuous
 62
     7
370
    15
100
AcDbCircle
 10
-46.7111828085
 20
-132.3268690445
 30
0.0
 40
14.00000000000002
100
AcDbArc
 50
128.0
 51
292.0
  0
LINE
  5
47B
330
1F
100
AcDbEntity
  8
0
  6
Continuous
 62
     7
370
    15
100
AcDbLine
 10
-49.2479229774
 20
-116.5425290801
 30
0.0
 11
-55.3304447289
 21
-121.2947180011
 31
0.0
  0
SPLINE
  5
47C
330
1F
100
AcDbEntity
  8
0
  6
Continuous
 62
     7
370
    15
100
AcDbSpline
210
0.0
220
0.0
230
1.0
 70
     8
 71
     3
 72
     8
 73
     4
 74
     0
 42
0.00000001
 43
0.00000001
 12
1.0
 22
0.0
 32
0.0
 13
1.0
 23
0.0
 33
0.0
 40
0.0
 40
0.0
 40
0.0
 40
0.0
 40
1.0
 40
1.0
 40
1.0
 40
1.0
 10
-50.96693742465553
 20
-116.7440209580941
 30
0.0
 10
-52.61676148317122
 20
-118.0110641058886
 30
0.0
 10
-54.2665326804214
 20
-119.2780279659899
 30
0.0
 10
-55.91625334731979
 20
-120.5449160345832
 30
0.0
  0
LINE
  5
47D
330
1F
100
AcDbEntity
  8
0
  6
Continuous
 62
     7
370
    15
100
AcDbLine
 10
12.8255573605
 20
-116.5425290801
 30
0.0
 11
18.908079112
 21
-121.2947180011
 31
0.0
  0
SPLINE
  5
47E
330
1F
100
AcDbEntity
  8
0
  6
Continuous
 62
     7
370
    15
100
AcDbSpline
210
0.0
220
0.0
230
1.0
 70
     8
 71
     3
 72
     8
 73
     4
 74
     0
 42
0.00000001
 43
0.00000001
 12
1.0
 22
0.0
 32
0.0
 13
1.0
 23
0.0
 33
0.0
 40
0.0
 40
0.0
 40
0.0
 40
0.0
 40
1.0
 40
1.0
 40
1.0
 40
1.0
 10
14.54457180770546
 20
-116.7440209580941
 30
0.0
 10
16.19439586622114
 20
-118.0110641058886
 30
0.0
 10
17.84416706347132
 20
-119.2780279659899
 30
0.0
 10
19.49388773036972
 20
-120.5449160345832
 30
0.0
  0
ARC
  5
47F
330
1F
100
AcDbEntity
  8
0
  6
Continuous
 62
     7
370
    15
100
AcDbCircle
 10
10.2888171915
 20
-132.3268690445
 30
0.0
 40
14.00000000000001
100
AcDbArc
 50
248.0
 51
52.0
  0
LINE
  5
480
330
1F
100
AcDbEntity
  8
0
  6
Continuous
 62
     7
370
    15
100
AcDbLine
 10
5.0443255846
 20
-145.3074400761
 30
0.0
 11
-13.692066675
 21
-137.7374490239
 31
0.0
  0
SPLINE
  5
481
330
1F
100
AcDbEntity
  8
0
  6
Continuous
 62
     7
370
    15
100
AcDbSpline
210
0.0
220
0.0
230
1.0
 70
     8
 71
     3
 72
    24
 73
    20
 74
     0
 42
0.00000001
 43
0.00000001
 12
1.0
 22
0.0
 32
0.0
 13
1.0
 23
0.0
 33
0.0
 40
0.0
 40
0.0
 40
0.0
 40
0.0
 40
0.1250000000000005
 40
0.1250000000000005
 40
0.2500000000000011
 40
0.2500000000000011
 40
0.3750000000000016
 40
0.3750000000000016
 40
0.4375000000000007
 40
0.4375000000000007
 40
0.4999999999999998
 40
0.4999999999999998
 40
0.7499999999999991
 40
0.7499999999999991
 40
0.8124999999999993
 40
0.8124999999999993
 40
0.8749999999999994
 40
0.8749999999999994
 40
1.0
 40
1.0
 40
1.0
 40
1.0
 10
-60.97018522498491
 20
-137.0843520603725
 30
0.0
 10
-60.78298621628988
 20
-137.6441433542265
 30
0.0
 10
-60.56218024041998
 20
-138.1951612932053
 30
0.0
 10
-60.05191833459455
 20
-139.2761634058972
 30
0.0
 10
-59.76724690791006
 20
-139.7961496723577
 30
0.0
 10
-59.14103315553191
 20
-140.7966276770308
 30
0.0
 10
-58.79948396738393
 20
-141.2771146491305
 30
0.0
 10
-58.24433074017674
 20
-141.9681019227283
 30
0.0
 10
-58.05212323375505
 20
-142.1934611836822
 30
0.0
 10
-57.65314038661383
 20
-142.6340629891128
 30
0.0
 10
-57.44562896034225
 20
-142.8500009596019
 30
0.0
 10
-56.38145839200509
 20
-143.8932959325817
 30
0.0
 10
-55.44733217814071
 20
-144.6134843319788
 30
0.0
 10
-54.17846948974666
 20
-145.3738158239293
 30
0.0
 10
-53.91957022059584
 20
-145.5187950173626
 30
0.0
 10
-53.39130381639379
 20
-145.7942828348106
 30
0.0
 10
-53.1216271064922
 20
-145.9248536039665
 30
0.0
 10
-52.30798918197998
 20
-146.2894311068025
 30
0.0
 10
-51.75586662497675
 20
-146.4983831854255
 30
0.0
 10
-51.19433512677324
 20
-146.6742506331337
 30
0.0
  0
SPLINE
  5
482
330
1F
100
AcDbEntity
  8
0
  6
Continuous
 62
     7
370
    15
100
AcDbSpline
210
0.0
220
0.0
230
1.0
 70
     8
 71
     3
 72
    28
 73
    24
 74
     0
 42
0.00000001
 43
0.00000001
 12
1.0
 22
0.0
 32
0.0
 13
1.0
 23
0.0
 33
0.0
 40
0.0
 40
0.0
 40
0.0
 40
0.0
 40
0.124999999999999
 40
0.124999999999999
 40
0.1874999999999985
 40
0.1874999999999985
 40
0.2499999999999981
 40
0.2499999999999981
 40
0.3749999999999966
 40
0.3749999999999966
 40
0.4999999999999951
 40
0.4999999999999951
 40
0.5624999999999954
 40
0.5624999999999954
 40
0.624999999999996
 40
0.624999999999996
 40
0.7499999999999966
 40
0.7499999999999966
 40
0.812499999999998
 40
0.812499999999998
 40
0.8749999999999993
 40
0.8749999999999993
 40
1.0
 40
1.0
 40
1.0
 40
1.0
 10
-55.9162533473198
 20
-120.5449160345832
 30
0.0
 10
-56.52324987784507
 20
-121.0110535314516
 30
0.0
 10
-57.08919656455601
 20
-121.5196074494975
 30
0.0
 10
-57.87758956924196
 20
-122.3449560226271
 30
0.0
 10
-58.1302548716818
 20
-122.630537801748
 30
0.0
 10
-58.61495345789952
 20
-123.2230073555097
 30
0.0
 10
-58.84762035642242
 20
-123.5308140582481
 30
0.0
 10
-59.50924989471489
 20
-124.4811295501966
 30
0.0
 10
-59.89641184879878
 20
-125.1416136243131
 30
0.0
 10
-60.56622710536168
 20
-126.5147723109438
 30
0.0
 10
-60.84888596675955
 20
-127.2274442378291
 30
0.0
 10
-61.19127670461292
 20
-128.3371856316678
 30
0.0
 10
-61.29136279901883
 20
-128.7132238523635
 30
0.0
 10
-61.46064361291523
 20
-129.4656587923972
 30
0.0
 10
-61.53036181937625
 20
-129.8436604199879
 30
0.0
 10
-61.6954082136734
 20
-130.9829375917839
 30
0.0
 10
-61.74689540965722
 20
-131.7494534197962
 30
0.0
 10
-61.73413859327614
 20
-132.9099787613653
 30
0.0
 10
-61.7146201368109
 20
-133.3002525709772
 30
0.0
 10
-61.64542413406411
 20
-134.0736865029191
 30
0.0
 10
-61.59589038131559
 20
-134.4572896659785
 30
0.0
 10
-61.40328699451367
 20
-135.5989255474276
 30
0.0
 10
-61.21648114500253
 20
-136.3478400847016
 30
0.0
 10
-60.97018522498492
 20
-137.0843520603725
 30
0.0
  0
SPLINE
  5
483
330
1F
100
AcDbEntity
  8
0
  6
Continuous
 62
     7
370
    15
100
AcDbSpline
210
0.0
220
0.0
230
1.0
 70
     8
 71
     3
 72
    18
 73
    14
 74
     0
 42
0.00000001
 43
0.00000001
 12
1.0
 22
0.0
 32
0.0
 13
1.0
 23
0.0
 33
0.0
 40
0.0
 40
0.0
 40
0.0
 40
0.0
 40
0.2500000000000002
 40
0.2500000000000002
 40
0.3749999999999998
 40
0.3749999999999998
 40
0.4999999999999993
 40
0.4999999999999993
 40
0.7499999999999992
 40
0.7499999999999992
 40
0.8749999999999997
 40
0.8749999999999997
 40
1.0
 40
1.0
 40
1.0
 40
1.0
 10
-51.19433512677328
 20
-146.6742506331337
 30
0.0
 10
-50.36892863527881
 20
-146.9327617468386
 30
0.0
 10
-49.53116222606521
 20
-147.116856993544
 30
0.0
 10
-48.25647240007918
 20
-147.2843840798833
 30
0.0
 10
-47.82855203813044
 20
-147.322021066402
 30
0.0
 10
-46.96654124423507
 20
-147.3601452674451
 30
0.0
 10
-46.53071573818894
 20
-147.3604285370483
 30
0.0
 10
-45.23773586487604
 20
-147.3049350200286
 30
0.0
 10
-44.38889864471456
 20
-147.194090187939
 30
0.0
 10
-43.13490913503962
 20
-146.9197164712988
 30
0.0
 10
-42.72014177044067
 20
-146.8101396570962
 30
0.0
 10
-41.89720892098022
 20
-146.553963914238
 30
0.0
 10
-41.48883133285177
 20
-146.4071367210462
 30
0.0
 10
-41.08862694063402
 20
-146.2431831556164
 30
0.0
  0
SPLINE
  5
484
330
1F
100
AcDbEntity
  8
0
  6
Continuous
 62
     7
370
    15
100
AcDbSpline
210
0.0
220
0.0
230
1.0
 70
     8
 71
     3
 72
    28
 73
    24
 74
     0
 42
0.00000001
 43
0.00000001
 12
1.0
 22
0.0
 32
0.0
 13
1.0
 23
0.0
 33
0.0
 40
0.0
 40
0.0
 40
0.0
 40
0.0
 40
0.1249999999999969
 40
0.1249999999999969
 40
0.1874999999999962
 40
0.1874999999999962
 40
0.2499999999999956
 40
0.2499999999999956
 40
0.3749999999999942
 40
0.3749999999999942
 40
0.4999999999999928
 40
0.4999999999999928
 40
0.562499999999993
 40
0.562499999999993
 40
0.6249999999999932
 40
0.6249999999999932
 40
0.7499999999999933
 40
0.7499999999999933
 40
0.8124999999999946
 40
0.8124999999999946
 40
0.8749999999999957
 40
0.8749999999999957
 40
1.0
 40
1.0
 40
1.0
 40
1.0
 10
19.49388773036973
 20
-120.5449160345832
 30
0.0
 10
20.10088426089501
 20
-121.0110535314516
 30
0.0
 10
20.66683094760594
 20
-121.5196074494975
 30
0.0
 10
21.45522395229189
 20
-122.3449560226271
 30
0.0
 10
21.70788925473174
 20
-122.630537801748
 30
0.0
 10
22.19258784094946
 20
-123.2230073555097
 30
0.0
 10
22.42525473947236
 20
-123.5308140582481
 30
0.0
 10
23.08688427776482
 20
-124.4811295501966
 30
0.0
 10
23.47404623184871
 20
-125.141613624313
 30
0.0
 10
24.14386148841161
 20
-126.5147723109438
 30
0.0
 10
24.4265203498095
 20
-127.2274442378292
 30
0.0
 10
24.76891108766282
 20
-128.3371856316678
 30
0.0
 10
24.86899718206876
 20
-128.7132238523635
 30
0.0
 10
25.03827799596517
 20
-129.4656587923972
 30
0.0
 10
25.1079962024262
 20
-129.8436604199879
 30
0.0
 10
25.27304259672333
 20
-130.9829375917838
 30
0.0
 10
25.32452979270714
 20
-131.7494534197961
 30
0.0
 10
25.31177297632605
 20
-132.9099787613653
 30
0.0
 10
25.29225451986082
 20
-133.3002525709772
 30
0.0
 10
25.22305851711404
 20
-134.0736865029191
 30
0.0
 10
25.17352476436552
 20
-134.4572896659785
 30
0.0
 10
24.98092137756361
 20
-135.5989255474277
 30
0.0
 10
24.79411552805245
 20
-136.3478400847016
 30
0.0
 10
24.54781960803485
 20
-137.0843520603725
 30
0.0
  0
SPLINE
  5
485
330
1F
100
AcDbEntity
  8
0
  6
Continuous
 62
     7
370
    15
100
AcDbSpline
210
0.0
220
0.0
230
1.0
 70
     8
 71
     3
 72
    24
 73
    20
 74
     0
 42
0.00000001
 43
0.00000001
 12
1.0
 22
0.0
 32
0.0
 13
1.0
 23
0.0
 33
0.0
 40
0.0
 40
0.0
 40
0.0
 40
0.0
 40
0.1249999999999998
 40
0.1249999999999998
 40
0.2499999999999997
 40
0.2499999999999997
 40
0.3749999999999995
 40
0.3749999999999995
 40
0.4374999999999983
 40
0.4374999999999983
 40
0.499999999999997
 40
0.499999999999997
 40
0.7499999999999992
 40
0.7499999999999992
 40
0.8125
 40
0.8125
 40
0.8750000000000008
 40
0.8750000000000008
 40
1.0
 40
1.0
 40
1.0
 40
1.0
 10
24.54781960803484
 20
-137.0843520603725
 30
0.0
 10
24.36062059933981
 20
-137.6441433542265
 30
0.0
 10
24.13981462346992
 20
-138.1951612932053
 30
0.0
 10
23.62955271764446
 20
-139.2761634058972
 30
0.0
 10
23.34488129096
 20
-139.7961496723577
 30
0.0
 10
22.71866753858188
 20
-140.7966276770308
 30
0.0
 10
22.37711835043385
 20
-141.2771146491305
 30
0.0
 10
21.82196512322666
 20
-141.9681019227282
 30
0.0
 10
21.62975761680498
 20
-142.1934611836822
 30
0.0
 10
21.23077476966376
 20
-142.6340629891127
 30
0.0
 10
21.02326334339218
 20
-142.8500009596019
 30
0.0
 10
19.95909277505501
 20
-143.8932959325817
 30
0.0
 10
19.02496656119064
 20
-144.6134843319788
 30
0.0
 10
17.7561038727966
 20
-145.3738158239293
 30
0.0
 10
17.49720460364579
 20
-145.5187950173627
 30
0.0
 10
16.96893819944371
 20
-145.7942828348106
 30
0.0
 10
16.69926148954213
 20
-145.9248536039665
 30
0.0
 10
15.88562356502991
 20
-146.2894311068025
 30
0.0
 10
15.33350100802668
 20
-146.4983831854255
 30
0.0
 10
14.77196950982317
 20
-146.6742506331337
 30
0.0
  0
SPLINE
  5
486
330
1F
100
AcDbEntity
  8
0
  6
Continuous
 62
     7
370
    15
100
AcDbSpline
210
0.0
220
0.0
230
1.0
 70
     8
 71
     3
 72
    18
 73
    14
 74
     0
 42
0.00000001
 43
0.00000001
 12
1.0
 22
0.0
 32
0.0
 13
1.0
 23
0.0
 33
0.0
 40
0.0
 40
0.0
 40
0.0
 40
0.0
 40
0.2500000000000005
 40
0.2500000000000005
 40
0.3750000000000007
 40
0.3750000000000007
 40
0.5000000000000009
 40
0.5000000000000009
 40
0.75
 40
0.75
 40
0.8750000000000001
 40
0.8750000000000001
 40
1.0
 40
1.0
 40
1.0
 40
1.0
 10
14.7719695098232
 20
-146.6742506331337
 30
0.0
 10
13.94656301832874
 20
-146.9327617468386
 30
0.0
 10
13.10879660911512
 20
-147.116856993544
 30
0.0
 10
11.8341067831291
 20
-147.2843840798833
 30
0.0
 10
11.40618642118038
 20
-147.322021066402
 30
0.0
 10
10.54417562728499
 20
-147.3601452674451
 30
0.0
 10
10.10835012123889
 20
-147.3604285370483
 30
0.0
 10
8.815370247925975
 20
-147.3049350200286
 30
0.0
 10
7.9665330277645
 20
-147.194090187939
 30
0.0
 10
6.712543518089559
 20
-146.9197164712988
 30
0.0
 10
6.297776153490607
 20
-146.8101396570962
 30
0.0
 10
5.474843304030162
 20
-146.553963914238
 30
0.0
 10
5.066465715901705
 20
-146.4071367210462
 30
0.0
 10
4.666261323683959
 20
-146.2431831556164
 30
0.0
  0
SPLINE
  5
487
330
1F
100
AcDbEntity
  8
0
  6
Continuous
 62
     7
370
    15
100
AcDbSpline
210
0.0
220
0.0
230
1.0
 70
     8
 71
     3
 72
     8
 73
     4
 74
     0
 42
0.00000001
 43
0.00000001
 12
1.0
 22
0.0
 32
0.0
 13
1.0
 23
0.0
 33
0.0
 40
0.0
 40
0.0
 40
0.0
 40
0.0
 40
1.0
 40
1.0
 40
1.0
 40
1.0
 10
4.666261323683953
 20
-146.2431831556164
 30
0.0
 10
2.271049777100909
 20
-145.2619258764425
 30
0.0
 10
-0.1250116457123807
 20
-144.2808411879201
 30
0.0
 10
-2.522000215779811
 20
-143.2999447820473
 30
0.0
  0
SPLINE
  5
488
330
1F
100
AcDbEntity
  8
0
  6
Continuous
 62
     7
370
    15
100
AcDbSpline
210
0.0
220
0.0
230
1.0
 70
     8
 71
     3
 72
     8
 73
     4
 74
     0
 42
0.00000001
 43
0.00000001
 12
1.0
 22
0.0
 32
0.0
 13
1.0
 23
0.0
 33
0.0
 40
0.0
 40
0.0
 40
0.0
 40
0.0
 40
1.0
 40
1.0
 40
1.0
 40
1.0
 10
-41.08862694063401
 20
-146.2431831556164
 30
0.0
 10
-38.69341539405097
 20
-145.2619258764425
 30
0.0
 10
-36.29735397123768
 20
-144.2808411879201
 30
0.0
 10
-33.90036540117025
 20
-143.2999447820473
 30
0.0
  0
ARC
  5
489
330
1F
100
AcDbEntity
  8
0
  6
Continuous
 62
     7
370
    15
100
AcDbCircle
 10
316.2888171915
 20
-41.3268690445
 30
0.0
 40
391.0000000000001
100
AcDbArc
 50
186.0901911506
 51
194.2422814964
  0
ARC
  5
48A
330
1F
100
AcDbEntity
  8
0
  6
Continuous
 62
     7
370
    15
100
AcDbCircle
 10
316.2888171915
 20
-41.3268690445
 30
0.0
 40
391.0000000000001
100
AcDbArc
 50
165.7577185036
 51
174.2721721172
  0
ARC
  5
48B
330
1F
100
AcDbEntity
  8
0
  6
Continuous
 62
     7
370
    15
100
AcDbCircle
 10
-352.7111828085
 20
-41.3268690445
 30
0.0
 40
391.0000000000002
100
AcDbArc
 50
345.7577185036
 51
354.0201782502
  0
ARC
  5
48C
330
1F
100
AcDbEntity
  8
0
  6
Continuous
 62
     7
370
    15
100
AcDbCircle
 10
-352.7111828085
 20
-41.3268690445
 30
0.0
 40
391.0000000000002
100
AcDbArc
 50
5.6169458063
 51
14.2422814964
  0
ARC
  5
48D
330
1F
100
AcDbEntity
  8
0
  6
Continuous
 62
     7
370
    15
100
AcDbCircle
 10
-18.2111828085
 20
-75.3268690445
 30
0.0
 40
145.0
100
AcDbArc
 50
76.6833237466
 51
103.3166762534
  0
ARC
  5
48E
330
1F
100
AcDbEntity
  8
0
  6
Continuous
 62
     7
370
    15
100
AcDbCircle
 10
-18.2111828085
 20
-7.3268690445
 30
0.0
 40
145.0
100
AcDbArc
 50
256.6833237466
 51
283.3166762534
  0
ARC
  5
48F
330
1F
100
AcDbEntity
  8
0
  6
Continuous
 62
     7
370
    15
100
AcDbCircle
 10
11.7321041405
 20
51.1776746157
 30
0.0
 40
15.00000000000011
100
AcDbArc
 50
14.2422814964
 51
76.6833237466
  0
ARC
  5
490
330
1F
100
AcDbEntity
  8
0
  6
Continuous
 62
     7
370
    15
100
AcDbCircle
 10
-48.1544697575
 20
51.1776746157
 30
0.0
 40
15.00000000000011
100
AcDbArc
 50
103.3166762534
 51
165.7577185036
  0
ARC
  5
491
330
1F
100
AcDbEntity
  8
0
  6
Continuous
 62
     7
370
    15
100
AcDbCircle
 10
11.7321041405
 20
-133.8314127048
 30
0.0
 40
15.0000000000001
100
AcDbArc
 50
283.3166762534
 51
345.7577185036
  0
ARC
  5
492
330
1F
100
AcDbEntity
  8
0
  6
Continuous
 62
     7
370
    15
100
AcDbCircle
 10
-48.1544697575
 20
-133.8314127048
 30
0.0
 40
15.0000000000001
100
AcDbArc
 50
194.2422814964
 51
256.6833237466
  0
LINE
  5
493
330
1F
100
AcDbEntity
  8
0
  6
Continuous
 62
     7
370
    15
100
AcDbLine
 10
78.7888200525
 20
83.6731309555
 30
0.0
 11
78.7888200525
 21
-166.3268690445
 31
0.0
  0
LINE
  5
494
330
1F
100
AcDbEntity
  8
0
  6
Continuous
 62
     7
370
    15
100
AcDbLine
 10
62.7888174299
 20
83.6731309555
 30
0.0
 11
62.7888174299
 21
-166.3268690445
 31
0.0
  0
LINE
  5
495
330
1F
100
AcDbEntity
  8
0
  6
Continuous
 62
     7
370
    15
100
AcDbLine
 10
-99.2111830469
 20
83.6731309555
 30
0.0
 11
-99.2111830469
 21
-166.3268690445
 31
0.0
  0
LINE
  5
496
330
1F
100
AcDbEntity
  8
0
  6
Continuous
 62
     7
370
    15
100
AcDbLine
 10
-115.2111856695
 20
83.6731309555
 30
0.0
 11
-115.2111856695
 21
-166.3268690445
 31
0.0
  0
LINE
  5
497
330
1F
100
AcDbEntity
  8
0
  6
Continuous
 62
     7
370
    15
100
AcDbLine
 10
-118.2111842986
 20
50.173130121
 30
0.0
 11
-118.2111842986
 21
-132.8268682101
 31
0.0
  0
LINE
  5
498
330
1F
100
AcDbEntity
  8
0
  6
Continuous
 62
     7
370
    15
100
AcDbLine
 10
81.7888186816
 20
50.173130121
 30
0.0
 11
81.7888186816
 21
-132.8268682101
 31
0.0
  0
LINE
  5
499
330
1F
100
AcDbEntity
  8
0
  6
Continuous
 62
     8
370
     0
100
AcDbLine
 10
-41.5681699719
 20
-40.326868997
 30
0.0
 11
-41.5681699719
 21
33.6731339357
 31
0.0
  0
LINE
  5
49A
330
1F
100
AcDbEntity
  8
0
  6
Continuous
 62
     8
370
     0
100
AcDbLine
 10
-42.0406951066
 20
-40.326868997
 30
0.0
 11
-42.0406951066
 21
33.6731339357
 31
0.0
  0
LINE
  5
49B
330
1F
100
AcDbEntity
  8
0
  6
Continuous
 62
     8
370
     0
100
AcDbLine
 10
-41.9755788948
 20
58.6731324456
 30
0.0
 11
-41.9755788948
 21
33.6731339357
 31
0.0
  0
LINE
  5
49C
330
1F
100
AcDbEntity
  8
0
  6
Continuous
 62
     8
370
     0
100
AcDbLine
 10
-41.5026104506
 20
58.6731324456
 30
0.0
 11
-41.5026104506
 21
33.6731339357
 31
0.0
  0
LINE
  5
49D
330
1F
100
AcDbEntity
  8
0
  6
Continuous
 62
     8
370
     0
100
AcDbLine
 10
-41.5026104506
 20
-69.1268683859
 30
0.0
 11
-41.5026104506
 21
-40.326868997
 31
0.0
  0
LINE
  5
49E
330
1F
100
AcDbEntity
  8
0
  6
Continuous
 62
     8
370
     0
100
AcDbLine
 10
-41.9755788948
 20
-69.1268683859
 30
0.0
 11
-41.9755788948
 21
-40.326868997
 31
0.0
  0
LINE
  5
49F
330
1F
100
AcDbEntity
  8
0
  6
Continuous
 62
     8
370
     0
100
AcDbLine
 10
-11.6111828442
 20
-69.1268683859
 30
0.0
 11
-11.6111828442
 21
-98.1268694141
 31
0.0
  0
LINE
  5
4A0
330
1F
100
AcDbEntity
  8
0
  6
Continuous
 62
     8
370
     0
100
AcDbLine
 10
-22.6111827846
 20
-99.7768675425
 30
0.0
 11
-27.6111826729
 21
-99.7768675425
 31
0.0
  0
LINE
  5
4A1
330
1F
100
AcDbEntity
  8
0
  6
Continuous
 62
     8
370
     0
100
AcDbLine
 10
-17.61118278
 20
-99.7768675425
 30
0.0
 11
-22.6111827846
 21
-99.7768675425
 31
0.0
  0
LINE
  5
4A2
330
1F
100
AcDbEntity
  8
0
  6
Continuous
 62
     8
370
     0
100
AcDbLine
 10
19.493888462
 20
37.8911758325
 30
0.0
 11
18.908079112
 21
38.6409799121
 31
0.0
  0
LINE
  5
4A3
330
1F
100
AcDbEntity
  8
0
  6
Continuous
 62
     8
370
     0
100
AcDbLine
 10
4.6662607733
 20
63.589442756
 30
0.0
 11
5.0443255846
 21
62.653701987
 31
0.0
  0
LINE
  5
4A4
330
1F
100
AcDbEntity
  8
0
  6
Continuous
 62
     8
370
     0
100
AcDbLine
 10
-41.0886263903
 20
63.589442756
 30
0.0
 11
-41.4666912015
 21
62.653701987
 31
0.0
  0
LINE
  5
4A5
330
1F
100
AcDbEntity
  8
0
  6
Continuous
 62
     8
370
     0
100
AcDbLine
 10
-55.9162540789
 20
37.8911758325
 30
0.0
 11
-55.3304447289
 21
38.6409799121
 31
0.0
  0
LINE
  5
4A6
330
1F
100
AcDbEntity
  8
0
  6
Continuous
 62
     8
370
     0
100
AcDbLine
 10
-55.9162540789
 20
-120.5449139216
 30
0.0
 11
-55.3304447289
 21
-121.2947180011
 31
0.0
  0
LINE
  5
4A7
330
1F
100
AcDbEntity
  8
0
  6
Continuous
 62
     8
370
     0
100
AcDbLine
 10
19.493888462
 20
-120.5449139216
 30
0.0
 11
18.908079112
 21
-121.2947180011
 31
0.0
  0
LINE
  5
4A8
330
1F
100
AcDbEntity
  8
0
  6
Continuous
 62
     8
370
     0
100
AcDbLine
 10
-41.0886263903
 20
-146.243180845
 30
0.0
 11
-41.4666912015
 21
-145.3074400761
 31
0.0
  0
LINE
  5
4A9
330
1F
100
AcDbEntity
  8
0
  6
Continuous
 62
     8
370
     0
100
AcDbLine
 10
4.6662607733
 20
-146.243180845
 30
0.0
 11
5.0443255846
 21
-145.3074400761
 31
0.0
  0
LINE
  5
4AA
330
1F
100
AcDbEntity
  8
0
  6
Continuous
 62
     8
370
     0
100
AcDbLine
 10
-60.9701840635
 20
-137.0843534806
 30
0.0
 11
-62.6934288498
 21
-137.5217547157
 31
0.0
  0
LINE
  5
4AB
330
1F
100
AcDbEntity
  8
0
  6
Continuous
 62
     8
370
     0
100
AcDbLine
 10
-60.9701840635
 20
54.4306153915
 30
0.0
 11
-62.6934288498
 21
54.8680166266
 31
0.0
  0
LINE
  5
4AC
330
1F
100
AcDbEntity
  8
0
  6
Continuous
 62
     8
370
     0
100
AcDbLine
 10
24.5478184466
 20
-137.0843534806
 30
0.0
 11
26.2710632328
 21
-137.5217547157
 31
0.0
  0
LINE
  5
4AD
330
1F
100
AcDbEntity
  8
0
  6
Continuous
 62
     8
370
     0
100
AcDbLine
 10
24.5478184466
 20
54.4306153915
 30
0.0
 11
26.2710632328
 21
54.8680166266
 31
0.0
  0
LINE
  5
4AE
330
1F
100
AcDbEntity
  8
0
  6
Continuous
 62
     8
370
     0
100
AcDbLine
 10
-51.1943368669
 20
64.0205109976
 30
0.0
 11
-51.6094645913
 21
65.7743553183
 31
0.0
  0
LINE
  5
4AF
330
1F
100
AcDbEntity
  8
0
  6
Continuous
 62
     8
370
     0
100
AcDbLine
 10
14.77197125
 20
64.0205109976
 30
0.0
 11
15.1870989744
 21
65.7743553183
 31
0.0
  0
LINE
  5
4B0
330
1F
100
AcDbEntity
  8
0
  6
Continuous
 62
     8
370
     0
100
AcDbLine
 10
14.77197125
 20
-146.6742490866
 30
0.0
 11
15.1870989744
 21
-148.4280934074
 31
0.0
  0
LINE
  5
4B1
330
1F
100
AcDbEntity
  8
0
  6
Continuous
 62
     8
370
     0
100
AcDbLine
 10
-51.1943368669
 20
-146.6742490866
 30
0.0
 11
-51.6094645913
 21
-148.4280934074
 31
0.0
  0
LINE
  5
4B2
330
1F
100
AcDbEntity
  8
0
  6
Continuous
 62
     8
370
     0
100
AcDbLine
 10
-94.3560345526
 20
32.7833706997
 30
0.0
 11
-94.3560345526
 21
-115.4371087887
 31
0.0
  0
LINE
  5
4B3
330
1F
100
AcDbEntity
  8
0
  6
Continuous
 62
     8
370
     0
100
AcDbLine
 10
57.9336689357
 20
32.7833706997
 30
0.0
 11
57.9336689357
 21
-115.4371087887
 31
0.0
  0
INSERT
  5
4BF
330
1F
100
AcDbEntity
  8
FORMAT
100
AcDbBlockReference
  2
SW_CENTERMARKSYMBOL_1
 10
-18.4476443194
 20
-42.3853815858
 30
0.0
  0
ENDSEC
  0
SECTION
  2
OBJECTS
  0
DICTIONARY
  5
C
330
0
100
AcDbDictionary
281
     1
  3
ACAD_GROUP
350
D
  3
ACAD_LAYOUT
350
1A
  3
ACAD_MLINESTYLE
350
17
  3
ACAD_PLOTSETTINGS
350
19
  3
ACAD_PLOTSTYLENAME
350
E
  0
DICTIONARY
  5
D
102
{ACAD_REACTORS
330
C
102
}
330
C
100
AcDbDictionary
281
     1
  0
DICTIONARY
  5
1A
102
{ACAD_REACTORS
330
C
102
}
330
C
100
AcDbDictionary
281
     1
  3
Layout1
350
1E
  3
Layout2
350
26
  3
Model
350
22
  0
DICTIONARY
  5
17
102
{ACAD_REACTORS
330
C
102
}
330
C
100
AcDbDictionary
281
     1
  3
Standard
350
18
  0
DICTIONARY
  5
19
102
{ACAD_REACTORS
330
C
102
}
330
C
100
AcDbDictionary
281
     1
  0
ACDBDICTIONARYWDFLT
  5
E
102
{ACAD_REACTORS
330
C
102
}
330
C
100
AcDbDictionary
281
     1
  3
Normal
350
F
100
AcDbDictionaryWithDefault
340
F
  0
LAYOUT
  5
1E
102
{ACAD_REACTORS
330
1A
102
}
330
1A
100
AcDbPlotSettings
  1

  2
none_device
  4

  6

 40
0.0
 41
0.0
 42
0.0
 43
0.0
 44
0.0
 45
0.0
 46
0.0
 47
0.0
 48
0.0
 49
0.0
140
0.0
141
0.0
142
1.0
143
1.0
 70
   688
 72
     0
 73
     0
 74
     5
  7

 75
    16
147
1.0
148
0.0
149
0.0
100
AcDbLayout
  1
Layout1
 70
     1
 71
     1
 10
0.0
 20
0.0
 11
420.0
 21
297.0
 12
0.0
 22
0.0
 32
0.0
 14
1.0000000000E+20
 24
1.0000000000E+20
 34
1.0000000000E+20
 15
-1.0000000000E+20
 25
-1.0000000000E+20
 35
-1.0000000000E+20
146
0.0
 13
0.0
 23
0.0
 33
0.0
 16
1.0
 26
0.0
 36
0.0
 17
0.0
 27
1.0
 37
0.0
 76
     0
330
1B
  0
LAYOUT
  5
26
102
{ACAD_REACTORS
330
1A
102
}
330
1A
100
AcDbPlotSettings
  1

  2
none_device
  4

  6

 40
0.0
 41
0.0
 42
0.0
 43
0.0
 44
0.0
 45
0.0
 46
0.0
 47
0.0
 48
0.0
 49
0.0
140
0.0
141
0.0
142
1.0
143
1.0
 70
   688
 72
     0
 73
     0
 74
     5
  7

 75
    16
147
1.0
148
0.0
149
0.0
100
AcDbLayout
  1
Layout2
 70
     1
 71
     2
 10
0.0
 20
0.0
 11
0.0
 21
0.0
 12
0.0
 22
0.0
 32
0.0
 14
0.0
 24
0.0
 34
0.0
 15
0.0
 25
0.0
 35
0.0
146
0.0
 13
0.0
 23
0.0
 33
0.0
 16
1.0
 26
0.0
 36
0.0
 17
0.0
 27
1.0
 37
0.0
 76
     0
330
23
  0
LAYOUT
  5
22
102
{ACAD_REACTORS
330
1A
102
}
330
1A
100
AcDbPlotSettings
  1

  2
none_device
  4

  6

 40
0.0
 41
0.0
 42
0.0
 43
0.0
 44
0.0
 45
0.0
 46
0.0
 47
0.0
 48
0.0
 49
0.0
140
0.0
141
0.0
142
1.0
143
1.0
 70
  1712
 72
     0
 73
     0
 74
     0
  7

 75
     0
147
1.0
148
0.0
149
0.0
100
AcDbLayout
  1
Model
 70
     1
 71
     0
 10
0.0
 20
0.0
 11
594.0
 21
420.0
 12
0.0
 22
0.0
 32
0.0
 14
0.0
 24
0.0
 34
0.0
 15
594.0
 25
420.0
 35
0.0
146
0.0
 13
0.0
 23
0.0
 33
0.0
 16
1.0
 26
0.0
 36
0.0
 17
0.0
 27
1.0
 37
0.0
 76
     0
330
1F
331
29
  0
MLINESTYLE
  5
18
102
{ACAD_REACTORS
330
17
102
}
330
17
100
AcDbMlineStyle
  2
Standard
 70
     0
  3

 62
   256
 51
90.0
 52
90.0
 71
     2
 49
0.5
 62
   256
  6
BYLAYER
 49
-0.5
 62
   256
  6
BYLAYER
  0
ACDBPLACEHOLDER
  5
F
102
{ACAD_REACTORS
330
E
102
}
330
E
  0
ENDSEC
  0
EOF
