  0
SECTION
  2
HEADER
  9
$ACADVER
  1
AC1015
  9
$ACADMAINTVER
 70
     6
  9
$DWGCODEPAGE
  3
ANSI_1252
  9
$INSBASE
 10
0.0
 20
0.0
 30
0.0
  9
$EXTMIN
 10
0.0
 20
0.0
 30
0.0
  9
$EXTMAX
 10
841.0
 20
594.0
 30
0.0
  9
$LIMMIN
 10
0.0
 20
0.0
  9
$LIMMAX
 10
841.0
 20
594.0
  9
$ORTHOMODE
 70
     0
  9
$REGENMODE
 70
     1
  9
$FILLMODE
 70
     1
  9
$QTEXTMODE
 70
     0
  9
$MIRRTEXT
 70
     1
  9
$LTSCALE
 40
1.0
  9
$ATTMODE
 70
     1
  9
$TEXTSIZE
 40
2.5
  9
$TRACEWID
 40
1.0
  9
$TEXTSTYLE
  7
Standard
  9
$CLAYER
  8
0
  9
$CELTYPE
  6
ByLayer
  9
$CECOLOR
 62
   256
  9
$CELTSCALE
 40
1.0
  9
$DISPSILH
 70
     0
  9
$DIMSCALE
 40
1.0
  9
$DIMASZ
 40
2.5
  9
$DIMEXO
 40
1.0
  9
$DIMDLI
 40
3.75
  9
$DIMRND
 40
0.0
  9
$DIMDLE
 40
0.0
  9
$DIMEXE
 40
1.0
  9
$DIMTP
 40
0.0
  9
$DIMTM
 40
0.0
  9
$DIMTXT
 40
2.5
  9
$DIMCEN
 40
2.5
  9
$DIMTSZ
 40
0.0
  9
$DIMTOL
 70
     0
  9
$DIMLIM
 70
     0
  9
$DIMTIH
 70
     1
  9
$DIMTOH
 70
     1
  9
$DIMSE1
 70
     0
  9
$DIMSE2
 70
     0
  9
$DIMTAD
 70
     1
  9
$DIMZIN
 70
     0
  9
$DIMBLK
  1

  9
$DIMASO
 70
     1
  9
$DIMSHO
 70
     1
  9
$DIMPOST
  1

  9
$DIMAPOST
  1

  9
$DIMALT
 70
     0
  9
$DIMALTD
 70
     3
  9
$DIMALTF
 40
0.0393700787
  9
$DIMLFAC
 40
1.0
  9
$DIMTOFL
 70
     1
  9
$DIMTVP
 40
0.0
  9
$DIMTIX
 70
     0
  9
$DIMSOXD
 70
     0
  9
$DIMSAH
 70
     0
  9
$DIMBLK1
  1

  9
$DIMBLK2
  1

  9
$DIMSTYLE
  2
ISO-25
  9
$DIMCLRD
 70
     0
  9
$DIMCLRE
 70
     0
  9
$DIMCLRT
 70
     0
  9
$DIMTFAC
 40
1.0
  9
$DIMGAP
 40
1.524
  9
$DIMJUST
 70
     0
  9
$DIMSD1
 70
     0
  9
$DIMSD2
 70
     0
  9
$DIMTOLJ
 70
     0
  9
$DIMTZIN
 70
     0
  9
$DIMALTZ
 70
     0
  9
$DIMALTTZ
 70
     0
  9
$DIMUPT
 70
     0
  9
$DIMDEC
 70
     2
  9
$DIMTDEC
 70
     2
  9
$DIMALTU
 70
     2
  9
$DIMALTTD
 70
     3
  9
$DIMTXSTY
  7
Standard
  9
$DIMAUNIT
 70
     0
  9
$DIMADEC
 70
     2
  9
$DIMALTRND
 40
0.0
  9
$DIMAZIN
 70
     0
  9
$DIMDSEP
 70
    44
  9
$DIMATFIT
 70
     3
  9
$DIMFRAC
 70
     0
  9
$DIMLDRBLK
  1

  9
$DIMLUNIT
 70
     2
  9
$DIMLWD
 70
    -2
  9
$DIMLWE
 70
    -2
  9
$DIMTMOVE
 70
     0
  9
$LUNITS
 70
     2
  9
$LUPREC
 70
     2
  9
$SKETCHINC
 40
1.0
  9
$FILLETRAD
 40
10.0
  9
$AUNITS
 70
     0
  9
$AUPREC
 70
     2
  9
$MENU
  1
.
  9
$ELEVATION
 40
0.0
  9
$PELEVATION
 40
0.0
  9
$THICKNESS
 40
0.0
  9
$LIMCHECK
 70
     0
  9
$CHAMFERA
 40
10.0
  9
$CHAMFERB
 40
10.0
  9
$CHAMFERC
 40
20.0
  9
$CHAMFERD
 40
0.0
  9
$SKPOLY
 70
     0
  9
$TDCREATE
 40
2457178.722164375
  9
$TDUCREATE
 40
2457178.388831042
  9
$TDUPDATE
 40
2457178.722165822
  9
$TDUUPDATE
 40
2457178.388832489
  9
$TDINDWG
 40
0.0000000116
  9
$TDUSRTIMER
 40
0.0000000116
  9
$USRTIMER
 70
     1
  9
$ANGBASE
 50
0.0
  9
$ANGDIR
 70
     0
  9
$PDMODE
 70
     0
  9
$PDSIZE
 40
-1.0
  9
$PLINEWID
 40
0.0
  9
$SPLFRAME
 70
     0
  9
$SPLINETYPE
 70
     6
  9
$SPLINESEGS
 70
     8
  9
$HANDSEED
  5
3D0
  9
$SURFTAB1
 70
     6
  9
$SURFTAB2
 70
     6
  9
$SURFTYPE
 70
     6
  9
$SURFU
 70
     6
  9
$SURFV
 70
     6
  9
$UCSBASE
  2

  9
$UCSNAME
  2

  9
$UCSORG
 10
0.0
 20
0.0
 30
0.0
  9
$UCSXDIR
 10
1.0
 20
0.0
 30
0.0
  9
$UCSYDIR
 10
0.0
 20
1.0
 30
0.0
  9
$UCSORTHOREF
  2

  9
$UCSORTHOVIEW
 70
     0
  9
$UCSORGTOP
 10
0.0
 20
0.0
 30
0.0
  9
$UCSORGBOTTOM
 10
0.0
 20
0.0
 30
0.0
  9
$UCSORGLEFT
 10
0.0
 20
0.0
 30
0.0
  9
$UCSORGRIGHT
 10
0.0
 20
0.0
 30
0.0
  9
$UCSORGFRONT
 10
0.0
 20
0.0
 30
0.0
  9
$UCSORGBACK
 10
0.0
 20
0.0
 30
0.0
  9
$PUCSBASE
  2

  9
$PUCSNAME
  2

  9
$PUCSORG
 10
0.0
 20
0.0
 30
0.0
  9
$PUCSXDIR
 10
1.0
 20
0.0
 30
0.0
  9
$PUCSYDIR
 10
0.0
 20
1.0
 30
0.0
  9
$PUCSORTHOREF
  2

  9
$PUCSORTHOVIEW
 70
     0
  9
$PUCSORGTOP
 10
0.0
 20
0.0
 30
0.0
  9
$PUCSORGBOTTOM
 10
0.0
 20
0.0
 30
0.0
  9
$PUCSORGLEFT
 10
0.0
 20
0.0
 30
0.0
  9
$PUCSORGRIGHT
 10
0.0
 20
0.0
 30
0.0
  9
$PUCSORGFRONT
 10
0.0
 20
0.0
 30
0.0
  9
$PUCSORGBACK
 10
0.0
 20
0.0
 30
0.0
  9
$USERI1
 70
     0
  9
$USERI2
 70
     0
  9
$USERI3
 70
     0
  9
$USERI4
 70
     0
  9
$USERI5
 70
     0
  9
$USERR1
 40
0.0
  9
$USERR2
 40
0.0
  9
$USERR3
 40
0.0
  9
$USERR4
 40
0.0
  9
$USERR5
 40
0.0
  9
$WORLDVIEW
 70
     1
  9
$SHADEDGE
 70
     3
  9
$SHADEDIF
 70
    70
  9
$TILEMODE
 70
     1
  9
$MAXACTVP
 70
    64
  9
$PINSBASE
 10
0.0
 20
0.0
 30
0.0
  9
$PLIMCHECK
 70
     0
  9
$PEXTMIN
 10
1.0000000000E+20
 20
1.0000000000E+20
 30
1.0000000000E+20
  9
$PEXTMAX
 10
-1.0000000000E+20
 20
-1.0000000000E+20
 30
-1.0000000000E+20
  9
$PLIMMIN
 10
0.0
 20
0.0
  9
$PLIMMAX
 10
420.0
 20
297.0
  9
$UNITMODE
 70
     0
  9
$VISRETAIN
 70
     1
  9
$PLINEGEN
 70
     0
  9
$PSLTSCALE
 70
     1
  9
$TREEDEPTH
 70
  3020
  9
$CMLSTYLE
  2
Standard
  9
$CMLJUST
 70
     0
  9
$CMLSCALE
 40
20.0
  9
$PROXYGRAPHICS
 70
     1
  9
$MEASUREMENT
 70
     1
  9
$CELWEIGHT
370
    -1
  9
$ENDCAPS
280
     0
  9
$JOINSTYLE
280
     0
  9
$LWDISPLAY
290
     1
  9
$INSUNITS
 70
     4
  9
$HYPERLINKBASE
  1

  9
$STYLESHEET
  1

  9
$XEDIT
290
     1
  9
$CEPSNTYPE
380
     0
  9
$PSTYLEMODE
290
     1
  9
$FINGERPRINTGUID
  2
{4C5BC0E2-D0CB-45D3-B7BB-3CE6593C9470}
  9
$VERSIONGUID
  2
{FAEB1C32-E019-11D5-929B-00C0DF256EC4}
  9
$EXTNAMES
290
     1
  9
$PSVPSCALE
 40
0.0
  9
$OLESTARTUP
290
     0
  0
ENDSEC
  0
SECTION
  2
CLASSES
  0
CLASS
  1
ACDBDICTIONARYWDFLT
  2
AcDbDictionaryWithDefault
  3
ObjectDBX Classes
 90
        0
280
     0
281
     0
  0
CLASS
  1
VISUALSTYLE
  2
AcDbVisualStyle
  3
ObjectDBX Classes
 90
     4095
280
     0
281
     0
  0
CLASS
  1
MATERIAL
  2
AcDbMaterial
  3
ObjectDBX Classes
 90
     1153
280
     0
281
     0
  0
CLASS
  1
ACDBPLACEHOLDER
  2
AcDbPlaceHolder
  3
ObjectDBX Classes
 90
        0
280
     0
281
     0
  0
CLASS
  1
LAYOUT
  2
AcDbLayout
  3
ObjectDBX Classes
 90
        0
280
     0
281
     0
  0
ENDSEC
  0
SECTION
  2
TABLES
  0
TABLE
  2
VPORT
  5
8
330
0
100
AcDbSymbolTable
 70
     1
  0
VPORT
  5
29
330
8
100
AcDbSymbolTableRecord
100
AcDbViewportTableRecord
  2
*Active
 70
     0
 10
0.0
 20
0.0
 11
1.0
 21
1.0
 12
420.5
 22
297.0
 13
0.0
 23
0.0
 14
10.0
 24
10.0
 15
10.0
 25
10.0
 16
0.0
 26
0.0
 36
1.0
 17
0.0
 27
0.0
 37
0.0
 40
594.0
 41
1.4158249158
 42
50.0
 43
0.0
 44
0.0
 50
0.0
 51
0.0
 71
     0
 72
  2000
 73
     1
 74
     3
 75
     0
 76
     0
 77
     0
 78
     0
281
     0
 65
     1
110
0.0
120
0.0
130
0.0
111
1.0
121
0.0
131
0.0
112
0.0
122
1.0
132
0.0
 79
     0
146
0.0
  0
ENDTAB
  0
TABLE
  2
LTYPE
  5
5
330
0
100
AcDbSymbolTable
 70
     6
  0
LTYPE
  5
14
330
5
100
AcDbSymbolTableRecord
100
AcDbLinetypeTableRecord
  2
ByBlock
 70
     0
  3

 72
    65
 73
     0
 40
0.0
  0
LTYPE
  5
15
330
5
100
AcDbSymbolTableRecord
100
AcDbLinetypeTableRecord
  2
ByLayer
 70
     0
  3

 72
    65
 73
     0
 40
0.0
  0
LTYPE
  5
16
330
5
100
AcDbSymbolTableRecord
100
AcDbLinetypeTableRecord
  2
Continuous
 70
     0
  3
Solid line
 72
    65
 73
     0
 40
0.0
  0
LTYPE
  5
3F
330
5
100
AcDbSymbolTableRecord
100
AcDbLinetypeTableRecord
  2
HIDDEN
 70
     0
  3
Hidden __ __ __ __ __ __ __ __ __ __ __ __ __ __
 72
    65
 73
     2
 40
1.905
 49
1.27
 74
     0
 49
-0.635
 74
     0
  0
LTYPE
  5
40
330
5
100
AcDbSymbolTableRecord
100
AcDbLinetypeTableRecord
  2
PHANTOM
 70
     0
  3
Phantom ______  __  __  ______  __  __  ______
 72
    65
 73
     6
 40
12.7
 49
6.35
 74
     0
 49
-1.27
 74
     0
 49
1.27
 74
     0
 49
-1.27
 74
     0
 49
1.27
 74
     0
 49
-1.27
 74
     0
  0
LTYPE
  5
41
330
5
100
AcDbSymbolTableRecord
100
AcDbLinetypeTableRecord
  2
CENTER
 70
     0
  3
Center ____ _ ____ _ ____ _ ____ _ ____ _ ____
 72
    65
 73
     4
 40
10.16
 49
6.35
 74
     0
 49
-1.27
 74
     0
 49
1.27
 74
     0
 49
-1.27
 74
     0
  0
LTYPE
  5
42
330
5
100
AcDbSymbolTableRecord
100
AcDbLinetypeTableRecord
  2
CENTERX2
 70
     0
  3
Center (2x) ________  __  ________  __  _____
 72
    65
 73
     4
 40
20.32
 49
12.7
 74
     0
 49
-2.54
 74
     0
 49
2.54
 74
     0
 49
-2.54
 74
     0
  0
LTYPE
  5
43
330
5
100
AcDbSymbolTableRecord
100
AcDbLinetypeTableRecord
  2
DOT2
 70
     0
  3
Dot (.5x) ........................................
 72
    65
 73
     2
 40
0.635
 49
0.0
 74
     0
 49
-0.635
 74
     0
  0
ENDTAB
  0
TABLE
  2
LAYER
  5
2
330
0
100
AcDbSymbolTable
 70
     3
  0
LAYER
  5
10
330
2
100
AcDbSymbolTableRecord
100
AcDbLayerTableRecord
  2
0
 70
     0
 62
     7
  6
Continuous
370
    -3
390
F
  0
LAYER
  5
44
330
2
100
AcDbSymbolTableRecord
100
AcDbLayerTableRecord
  2
FORMAT
 70
     0
 62
     7
  6
Continuous
370
    -3
390
F
  0
LAYER
  5
45
330
2
100
AcDbSymbolTableRecord
100
AcDbLayerTableRecord
  2
PROTOTYPE
 70
     0
 62
     7
  6
Continuous
370
    -3
390
F
  0
ENDTAB
  0
TABLE
  2
STYLE
  5
3
330
0
100
AcDbSymbolTable
 70
     1
  0
STYLE
  5
11
330
3
100
AcDbSymbolTableRecord
100
AcDbTextStyleTableRecord
  2
Standard
 70
     0
 40
0.0
 41
1.0
 50
0.0
 71
     0
 42
2.5
  3
txt
  4

  0
ENDTAB
  0
TABLE
  2
VIEW
  5
6
330
0
100
AcDbSymbolTable
 70
     0
  0
ENDTAB
  0
TABLE
  2
UCS
  5
7
330
0
100
AcDbSymbolTable
 70
     0
  0
ENDTAB
  0
TABLE
  2
APPID
  5
9
330
0
100
AcDbSymbolTable
 70
     1
  0
APPID
  5
12
330
9
100
AcDbSymbolTableRecord
100
AcDbRegAppTableRecord
  2
ACAD
 70
     0
  0
ENDTAB
  0
TABLE
  2
DIMSTYLE
  5
A
330
0
100
AcDbSymbolTable
 70
     1
100
AcDbDimStyleTable
  0
DIMSTYLE
105
27
330
A
100
AcDbSymbolTableRecord
100
AcDbDimStyleTableRecord
  2
ISO-25
 70
     0
 41
2.5
 42
0.625
 43
3.75
 44
1.25
 73
     0
 74
     0
 77
     1
 78
     8
140
2.5
141
2.5
143
0.0393700787
147
0.625
171
     3
172
     1
178
     0
271
     2
272
     2
274
     3
278
    44
283
     0
284
     8
340
11
  0
ENDTAB
  0
TABLE
  2
BLOCK_RECORD
  5
1
330
0
100
AcDbSymbolTable
 70
     2
  0
BLOCK_RECORD
  5
1F
330
1
100
AcDbSymbolTableRecord
100
AcDbBlockTableRecord
  2
*Model_Space
340
22
  0
BLOCK_RECORD
  5
1B
330
1
100
AcDbSymbolTableRecord
100
AcDbBlockTableRecord
  2
*Paper_Space
340
1E
  0
BLOCK_RECORD
  5
23
330
1
100
AcDbSymbolTableRecord
100
AcDbBlockTableRecord
  2
*Paper_Space0
340
26
  0
BLOCK_RECORD
  5
1E4
330
1
100
AcDbSymbolTableRecord
100
AcDbBlockTableRecord
  2
SW_CENTERMARKSYMBOL_0
340
0
102
{BLKREFS
331
25F
102
}
  0
ENDTAB
  0
ENDSEC
  0
SECTION
  2
BLOCKS
  0
BLOCK
  5
20
330
1F
100
AcDbEntity
  8
0
100
AcDbBlockBegin
  2
*Model_Space
 70
     0
 10
0.0
 20
0.0
 30
0.0
  3
*Model_Space
  1

  0
ENDBLK
  5
21
330
1F
100
AcDbEntity
  8
0
100
AcDbBlockEnd
  0
BLOCK
  5
1C
330
1B
100
AcDbEntity
 67
     1
  8
0
100
AcDbBlockBegin
  2
*Paper_Space
 70
     0
 10
0.0
 20
0.0
 30
0.0
  3
*Paper_Space
  1

  0
ENDBLK
  5
1D
330
1B
100
AcDbEntity
 67
     1
  8
0
100
AcDbBlockEnd
  0
BLOCK
  5
24
330
23
100
AcDbEntity
  8
0
100
AcDbBlockBegin
  2
*Paper_Space0
 70
     0
 10
0.0
 20
0.0
 30
0.0
  3
*Paper_Space0
  1

  0
ENDBLK
  5
25
330
23
100
AcDbEntity
  8
0
100
AcDbBlockEnd
  0
BLOCK
  5
1E5
330
1E4
100
AcDbEntity
  8
0
100
AcDbBlockBegin
  2
SW_CENTERMARKSYMBOL_0
 70
     0
 10
0.0
 20
0.0
 30
0.0
  3
SW_CENTERMARKSYMBOL_0
  1

  0
ARC
  5
1E7
330
1E4
100
AcDbEntity
  8
FORMAT
 62
     0
100
AcDbCircle
 10
51.2112095292
 20
-257.4561361058
 30
0.0
 40
262.5000000000023
100
AcDbArc
 50
101.25
 51
101.7956740906
  0
ARC
  5
1E8
330
1E4
100
AcDbEntity
  8
FORMAT
 62
     0
100
AcDbCircle
 10
51.2112095292
 20
-257.4561361058
 30
0.0
 40
262.5000000000023
100
AcDbArc
 50
100.7043259094
 51
101.25
  0
ARC
  5
1E9
330
1E4
100
AcDbEntity
  8
FORMAT
 62
     0
100
AcDbCircle
 10
51.2112095292
 20
-257.4561361058
 30
0.0
 40
262.5000000000023
100
AcDbArc
 50
123.75
 51
124.2956740906
  0
ARC
  5
1EA
330
1E4
100
AcDbEntity
  8
FORMAT
 62
     0
100
AcDbCircle
 10
51.2112095292
 20
-257.4561361058
 30
0.0
 40
262.5000000000023
100
AcDbArc
 50
123.2043259094
 51
123.75
  0
ARC
  5
1EB
330
1E4
100
AcDbEntity
  8
FORMAT
 62
     0
100
AcDbCircle
 10
51.2112095292
 20
-257.4561361058
 30
0.0
 40
262.5000000000023
100
AcDbArc
 50
146.25
 51
146.7956740906
  0
ARC
  5
1EC
330
1E4
100
AcDbEntity
  8
FORMAT
 62
     0
100
AcDbCircle
 10
51.2112095292
 20
-257.4561361058
 30
0.0
 40
262.5000000000023
100
AcDbArc
 50
145.7043259094
 51
146.25
  0
ARC
  5
1ED
330
1E4
100
AcDbEntity
  8
FORMAT
 62
     0
100
AcDbCircle
 10
51.2112095292
 20
-257.4561361058
 30
0.0
 40
262.5000000000016
100
AcDbArc
 50
168.75
 51
169.2956740906
  0
ARC
  5
1EE
330
1E4
100
AcDbEntity
  8
FORMAT
 62
     0
100
AcDbCircle
 10
51.2112095292
 20
-257.4561361058
 30
0.0
 40
262.5000000000016
100
AcDbArc
 50
168.2043259094
 51
168.75
  0
ARC
  5
1EF
330
1E4
100
AcDbEntity
  8
FORMAT
 62
     0
100
AcDbCircle
 10
51.2112095292
 20
-257.4561361058
 30
0.0
 40
262.5000000000011
100
AcDbArc
 50
191.25
 51
191.7956740906
  0
ARC
  5
1F0
330
1E4
100
AcDbEntity
  8
FORMAT
 62
     0
100
AcDbCircle
 10
51.2112095292
 20
-257.4561361058
 30
0.0
 40
262.5000000000011
100
AcDbArc
 50
190.7043259094
 51
191.25
  0
ARC
  5
1F1
330
1E4
100
AcDbEntity
  8
FORMAT
 62
     0
100
AcDbCircle
 10
51.2112095292
 20
-257.4561361058
 30
0.0
 40
262.5000000000005
100
AcDbArc
 50
213.75
 51
214.2956740906
  0
ARC
  5
1F2
330
1E4
100
AcDbEntity
  8
FORMAT
 62
     0
100
AcDbCircle
 10
51.2112095292
 20
-257.4561361058
 30
0.0
 40
262.5000000000005
100
AcDbArc
 50
213.2043259094
 51
213.75
  0
ARC
  5
1F3
330
1E4
100
AcDbEntity
  8
FORMAT
 62
     0
100
AcDbCircle
 10
51.2112095292
 20
-257.4561361058
 30
0.0
 40
262.4999999999909
100
AcDbArc
 50
236.25
 51
236.7956740906
  0
ARC
  5
1F4
330
1E4
100
AcDbEntity
  8
FORMAT
 62
     0
100
AcDbCircle
 10
51.2112095292
 20
-257.4561361058
 30
0.0
 40
262.4999999999909
100
AcDbArc
 50
235.7043259094
 51
236.25
  0
ARC
  5
1F5
330
1E4
100
AcDbEntity
  8
FORMAT
 62
     0
100
AcDbCircle
 10
51.2112095292
 20
-257.4561361058
 30
0.0
 40
262.4999999999995
100
AcDbArc
 50
258.75
 51
259.2956740906
  0
ARC
  5
1F6
330
1E4
100
AcDbEntity
  8
FORMAT
 62
     0
100
AcDbCircle
 10
51.2112095292
 20
-257.4561361058
 30
0.0
 40
262.4999999999996
100
AcDbArc
 50
258.2043259094
 51
258.75
  0
ARC
  5
1F7
330
1E4
100
AcDbEntity
  8
FORMAT
 62
     0
100
AcDbCircle
 10
51.2112095292
 20
-257.4561361058
 30
0.0
 40
262.4999999999993
100
AcDbArc
 50
281.25
 51
281.7956740906
  0
ARC
  5
1F8
330
1E4
100
AcDbEntity
  8
FORMAT
 62
     0
100
AcDbCircle
 10
51.2112095292
 20
-257.4561361058
 30
0.0
 40
262.4999999999993
100
AcDbArc
 50
280.7043259094
 51
281.25
  0
ARC
  5
1F9
330
1E4
100
AcDbEntity
  8
FORMAT
 62
     0
100
AcDbCircle
 10
51.2112095292
 20
-257.4561361058
 30
0.0
 40
262.4999999999993
100
AcDbArc
 50
303.75
 51
304.2956740906
  0
ARC
  5
1FA
330
1E4
100
AcDbEntity
  8
FORMAT
 62
     0
100
AcDbCircle
 10
51.2112095292
 20
-257.4561361058
 30
0.0
 40
262.4999999999993
100
AcDbArc
 50
303.2043259094
 51
303.75
  0
ARC
  5
1FB
330
1E4
100
AcDbEntity
  8
FORMAT
 62
     0
100
AcDbCircle
 10
51.2112095292
 20
-257.4561361058
 30
0.0
 40
262.4999999999825
100
AcDbArc
 50
326.25
 51
326.7956740906
  0
ARC
  5
1FC
330
1E4
100
AcDbEntity
  8
FORMAT
 62
     0
100
AcDbCircle
 10
51.2112095292
 20
-257.4561361058
 30
0.0
 40
262.4999999999824
100
AcDbArc
 50
325.7043259094
 51
326.25
  0
ARC
  5
1FD
330
1E4
100
AcDbEntity
  8
FORMAT
 62
     0
100
AcDbCircle
 10
51.2112095292
 20
-257.4561361058
 30
0.0
 40
262.4999999999999
100
AcDbArc
 50
348.75
 51
349.2956740906
  0
ARC
  5
1FE
330
1E4
100
AcDbEntity
  8
FORMAT
 62
     0
100
AcDbCircle
 10
51.2112095292
 20
-257.4561361058
 30
0.0
 40
262.4999999999999
100
AcDbArc
 50
348.2043259094
 51
348.75
  0
ARC
  5
1FF
330
1E4
100
AcDbEntity
  8
FORMAT
 62
     0
100
AcDbCircle
 10
51.2112095292
 20
-257.4561361058
 30
0.0
 40
262.5000000000005
100
AcDbArc
 50
11.25
 51
11.7956740906
  0
ARC
  5
200
330
1E4
100
AcDbEntity
  8
FORMAT
 62
     0
100
AcDbCircle
 10
51.2112095292
 20
-257.4561361058
 30
0.0
 40
262.5000000000005
100
AcDbArc
 50
10.7043259094
 51
11.25
  0
ARC
  5
201
330
1E4
100
AcDbEntity
  8
FORMAT
 62
     0
100
AcDbCircle
 10
51.2112095292
 20
-257.4561361058
 30
0.0
 40
262.5000000000011
100
AcDbArc
 50
33.75
 51
34.2956740906
  0
ARC
  5
202
330
1E4
100
AcDbEntity
  8
FORMAT
 62
     0
100
AcDbCircle
 10
51.2112095292
 20
-257.4561361058
 30
0.0
 40
262.5000000000011
100
AcDbArc
 50
33.2043259094
 51
33.75
  0
ARC
  5
203
330
1E4
100
AcDbEntity
  8
FORMAT
 62
     0
100
AcDbCircle
 10
51.2112095292
 20
-257.4561361058
 30
0.0
 40
262.4999999999939
100
AcDbArc
 50
56.25
 51
56.7956740906
  0
ARC
  5
204
330
1E4
100
AcDbEntity
  8
FORMAT
 62
     0
100
AcDbCircle
 10
51.2112095292
 20
-257.4561361058
 30
0.0
 40
262.4999999999939
100
AcDbArc
 50
55.7043259094
 51
56.25
  0
ARC
  5
205
330
1E4
100
AcDbEntity
  8
FORMAT
 62
     0
100
AcDbCircle
 10
51.2112095292
 20
-257.4561361058
 30
0.0
 40
262.500000000002
100
AcDbArc
 50
78.75
 51
79.2956740906
  0
ARC
  5
206
330
1E4
100
AcDbEntity
  8
FORMAT
 62
     0
100
AcDbCircle
 10
51.2112095292
 20
-257.4561361058
 30
0.0
 40
262.500000000002
100
AcDbArc
 50
78.2043259094
 51
78.75
  0
ARC
  5
207
330
1E4
100
AcDbEntity
  8
FORMAT
 62
     0
100
AcDbCircle
 10
51.2112095292
 20
-257.4561361058
 30
0.0
 40
262.5000000000023
100
AcDbArc
 50
102.3413481812
 51
122.6586518188
  0
ARC
  5
208
330
1E4
100
AcDbEntity
  8
FORMAT
 62
     0
100
AcDbCircle
 10
51.2112095292
 20
-257.4561361058
 30
0.0
 40
262.5000000000023
100
AcDbArc
 50
124.8413481812
 51
145.1586518188
  0
ARC
  5
209
330
1E4
100
AcDbEntity
  8
FORMAT
 62
     0
100
AcDbCircle
 10
51.2112095292
 20
-257.4561361058
 30
0.0
 40
262.5000000000023
100
AcDbArc
 50
147.3413481812
 51
167.6586518188
  0
ARC
  5
20A
330
1E4
100
AcDbEntity
  8
FORMAT
 62
     0
100
AcDbCircle
 10
51.2112095292
 20
-257.4561361058
 30
0.0
 40
262.5000000000016
100
AcDbArc
 50
169.8413481812
 51
190.1586518188
  0
ARC
  5
20B
330
1E4
100
AcDbEntity
  8
FORMAT
 62
     0
100
AcDbCircle
 10
51.2112095292
 20
-257.4561361058
 30
0.0
 40
262.5000000000011
100
AcDbArc
 50
192.3413481812
 51
212.6586518188
  0
ARC
  5
20C
330
1E4
100
AcDbEntity
  8
FORMAT
 62
     0
100
AcDbCircle
 10
51.2112095292
 20
-257.4561361058
 30
0.0
 40
262.5000000000005
100
AcDbArc
 50
214.8413481812
 51
235.1586518188
  0
ARC
  5
20D
330
1E4
100
AcDbEntity
  8
FORMAT
 62
     0
100
AcDbCircle
 10
51.2112095292
 20
-257.4561361058
 30
0.0
 40
262.4999999999994
100
AcDbArc
 50
237.3413481812
 51
257.6586518188
  0
ARC
  5
20E
330
1E4
100
AcDbEntity
  8
FORMAT
 62
     0
100
AcDbCircle
 10
51.2112095292
 20
-257.4561361058
 30
0.0
 40
262.4999999999996
100
AcDbArc
 50
259.8413481812
 51
280.1586518188
  0
ARC
  5
20F
330
1E4
100
AcDbEntity
  8
FORMAT
 62
     0
100
AcDbCircle
 10
51.2112095292
 20
-257.4561361058
 30
0.0
 40
262.4999999999993
100
AcDbArc
 50
282.3413481812
 51
302.6586518188
  0
ARC
  5
210
330
1E4
100
AcDbEntity
  8
FORMAT
 62
     0
100
AcDbCircle
 10
51.2112095292
 20
-257.4561361058
 30
0.0
 40
262.4999999999993
100
AcDbArc
 50
304.8413481812
 51
325.1586518188
  0
ARC
  5
211
330
1E4
100
AcDbEntity
  8
FORMAT
 62
     0
100
AcDbCircle
 10
51.2112095292
 20
-257.4561361058
 30
0.0
 40
262.4999999999999
100
AcDbArc
 50
327.3413481812
 51
347.6586518188
  0
ARC
  5
212
330
1E4
100
AcDbEntity
  8
FORMAT
 62
     0
100
AcDbCircle
 10
51.2112095292
 20
-257.4561361058
 30
0.0
 40
262.5000000000003
100
AcDbArc
 50
349.8413481812
 51
10.1586518188
  0
ARC
  5
213
330
1E4
100
AcDbEntity
  8
FORMAT
 62
     0
100
AcDbCircle
 10
51.2112095292
 20
-257.4561361058
 30
0.0
 40
262.5000000000011
100
AcDbArc
 50
12.3413481812
 51
32.6586518188
  0
ARC
  5
214
330
1E4
100
AcDbEntity
  8
FORMAT
 62
     0
100
AcDbCircle
 10
51.2112095292
 20
-257.4561361058
 30
0.0
 40
262.500000000001
100
AcDbArc
 50
34.8413481812
 51
55.1586518188
  0
ARC
  5
215
330
1E4
100
AcDbEntity
  8
FORMAT
 62
     0
100
AcDbCircle
 10
51.2112095292
 20
-257.4561361058
 30
0.0
 40
262.500000000002
100
AcDbArc
 50
57.3413481812
 51
77.6586518188
  0
ARC
  5
216
330
1E4
100
AcDbEntity
  8
FORMAT
 62
     0
100
AcDbCircle
 10
51.2112095292
 20
-257.4561361058
 30
0.0
 40
262.5000000000022
100
AcDbArc
 50
79.8413481812
 51
100.1586518188
  0
LINE
  5
217
330
1E4
100
AcDbEntity
  8
FORMAT
 62
     0
100
AcDbLine
 10
0.0
 20
0.0
 30
0.0
 11
-0.487725805
 21
2.451963201
 31
0.0
  0
LINE
  5
218
330
1E4
100
AcDbEntity
  8
FORMAT
 62
     0
100
AcDbLine
 10
0.0
 20
0.0
 30
0.0
 11
0.487725805
 21
-2.451963201
 31
0.0
  0
LINE
  5
219
330
1E4
100
AcDbEntity
  8
FORMAT
 62
     0
100
AcDbLine
 10
-0.9754516101
 20
4.903926402
 30
0.0
 11
-3.5116257963
 21
17.6541350473
 31
0.0
  0
LINE
  5
21A
330
1E4
100
AcDbEntity
  8
FORMAT
 62
     0
100
AcDbLine
 10
0.9754516101
 20
-4.903926402
 30
0.0
 11
3.5116257963
 21
-17.6541350473
 31
0.0
  0
LINE
  5
21B
330
1E4
100
AcDbEntity
  8
FORMAT
 62
     0
100
AcDbLine
 10
-94.6259766384
 20
-39.1953628764
 30
0.0
 11
-96.014902221
 21
-37.1166888457
 31
0.0
  0
LINE
  5
21C
330
1E4
100
AcDbEntity
  8
FORMAT
 62
     0
100
AcDbLine
 10
-94.6259766384
 20
-39.1953628764
 30
0.0
 11
-93.2370510559
 21
-41.2740369072
 31
0.0
  0
LINE
  5
21D
330
1E4
100
AcDbEntity
  8
FORMAT
 62
     0
100
AcDbLine
 10
-97.4038278035
 20
-35.0380148149
 30
0.0
 11
-104.6262408328
 21
-24.228909855
 31
0.0
  0
LINE
  5
21E
330
1E4
100
AcDbEntity
  8
FORMAT
 62
     0
100
AcDbLine
 10
-91.8481254733
 20
-43.3527109379
 30
0.0
 11
-84.6257124441
 21
-54.1618158979
 31
0.0
  0
LINE
  5
21F
330
1E4
100
AcDbEntity
  8
FORMAT
 62
     0
100
AcDbLine
 10
-167.0495637002
 20
-111.6189499382
 30
0.0
 11
-169.1282377309
 21
-110.2300243557
 31
0.0
  0
LINE
  5
220
330
1E4
100
AcDbEntity
  8
FORMAT
 62
     0
100
AcDbLine
 10
-167.0495637002
 20
-111.6189499382
 30
0.0
 11
-164.9708896694
 21
-113.0078755208
 31
0.0
  0
LINE
  5
221
330
1E4
100
AcDbEntity
  8
FORMAT
 62
     0
100
AcDbLine
 10
-171.2069117617
 20
-108.8410987731
 30
0.0
 11
-180.353077497
 21
-102.7298262099
 31
0.0
  0
LINE
  5
222
330
1E4
100
AcDbEntity
  8
FORMAT
 62
     0
100
AcDbLine
 10
-162.8922156387
 20
-114.3968011033
 30
0.0
 11
-153.7460499033
 21
-120.5080736665
 31
0.0
  0
LINE
  5
223
330
1E4
100
AcDbEntity
  8
FORMAT
 62
     0
100
AcDbLine
 10
51.2112095292
 20
-257.4561361058
 30
0.0
 11
51.2112095292
 21
-254.9561361058
 31
0.0
  0
LINE
  5
224
330
1E4
100
AcDbEntity
  8
FORMAT
 62
     0
100
AcDbLine
 10
51.2112095292
 20
-257.4561361058
 30
0.0
 11
48.7112095292
 21
-257.4561361058
 31
0.0
  0
LINE
  5
225
330
1E4
100
AcDbEntity
  8
FORMAT
 62
     0
100
AcDbLine
 10
51.2112095292
 20
-257.4561361058
 30
0.0
 11
51.2112095292
 21
-259.9561361058
 31
0.0
  0
LINE
  5
226
330
1E4
100
AcDbEntity
  8
FORMAT
 62
     0
100
AcDbLine
 10
51.2112095292
 20
-257.4561361058
 30
0.0
 11
53.7112095292
 21
-257.4561361058
 31
0.0
  0
LINE
  5
227
330
1E4
100
AcDbEntity
  8
FORMAT
 62
     0
100
AcDbLine
 10
51.2112095292
 20
-252.4561361058
 30
0.0
 11
51.2112095292
 21
43.2201161682
 31
0.0
  0
LINE
  5
228
330
1E4
100
AcDbEntity
  8
FORMAT
 62
     0
100
AcDbLine
 10
46.2112095292
 20
-257.4561361058
 30
0.0
 11
-245.6853498471
 21
-257.4561361058
 31
0.0
  0
LINE
  5
229
330
1E4
100
AcDbEntity
  8
FORMAT
 62
     0
100
AcDbLine
 10
51.2112095292
 20
-262.4561361058
 30
0.0
 11
51.2112095292
 21
-560.8796627008
 31
0.0
  0
LINE
  5
22A
330
1E4
100
AcDbEntity
  8
FORMAT
 62
     0
100
AcDbLine
 10
56.2112095292
 20
-257.4561361058
 30
0.0
 11
347.5029387631
 21
-257.4561361058
 31
0.0
  0
LINE
  5
22B
330
1E4
100
AcDbEntity
  8
FORMAT
 62
     0
100
AcDbLine
 10
-206.2449265766
 20
-206.2449265766
 30
0.0
 11
-208.6968897776
 21
-205.7572007716
 31
0.0
  0
LINE
  5
22C
330
1E4
100
AcDbEntity
  8
FORMAT
 62
     0
100
AcDbLine
 10
-206.2449265766
 20
-206.2449265766
 30
0.0
 11
-203.7929633756
 21
-206.7326523817
 31
0.0
  0
LINE
  5
22D
330
1E4
100
AcDbEntity
  8
FORMAT
 62
     0
100
AcDbLine
 10
-211.1488529786
 20
-205.2694749665
 30
0.0
 11
-223.8990616239
 21
-202.7333007803
 31
0.0
  0
LINE
  5
22E
330
1E4
100
AcDbEntity
  8
FORMAT
 62
     0
100
AcDbLine
 10
-201.3410001746
 20
-207.2203781867
 30
0.0
 11
-188.5907915294
 21
-209.7565523729
 31
0.0
  0
LINE
  5
22F
330
1E4
100
AcDbEntity
  8
FORMAT
 62
     0
100
AcDbLine
 10
-206.2449265766
 20
-308.6673456351
 30
0.0
 11
-208.6968897776
 21
-309.1550714401
 31
0.0
  0
LINE
  5
230
330
1E4
100
AcDbEntity
  8
FORMAT
 62
     0
100
AcDbLine
 10
-206.2449265766
 20
-308.6673456351
 30
0.0
 11
-203.7929633756
 21
-308.17961983
 31
0.0
  0
LINE
  5
231
330
1E4
100
AcDbEntity
  8
FORMAT
 62
     0
100
AcDbLine
 10
-211.1488529786
 20
-309.6427972452
 30
0.0
 11
-223.8990616239
 21
-312.1789714314
 31
0.0
  0
LINE
  5
232
330
1E4
100
AcDbEntity
  8
FORMAT
 62
     0
100
AcDbLine
 10
-201.3410001746
 20
-307.691894025
 30
0.0
 11
-188.5907915293
 21
-305.1557198388
 31
0.0
  0
LINE
  5
233
330
1E4
100
AcDbEntity
  8
FORMAT
 62
     0
100
AcDbLine
 10
-167.0495637002
 20
-403.2933222735
 30
0.0
 11
-169.1282377309
 21
-404.682247856
 31
0.0
  0
LINE
  5
234
330
1E4
100
AcDbEntity
  8
FORMAT
 62
     0
100
AcDbLine
 10
-167.0495637002
 20
-403.2933222735
 30
0.0
 11
-164.9708896694
 21
-401.9043966909
 31
0.0
  0
LINE
  5
235
330
1E4
100
AcDbEntity
  8
FORMAT
 62
     0
100
AcDbLine
 10
-171.2069117617
 20
-406.0711734386
 30
0.0
 11
-182.0160167216
 21
-413.2935864679
 31
0.0
  0
LINE
  5
236
330
1E4
100
AcDbEntity
  8
FORMAT
 62
     0
100
AcDbLine
 10
-162.8922156387
 20
-400.5154711084
 30
0.0
 11
-152.0831106787
 21
-393.2930580791
 31
0.0
  0
LINE
  5
237
330
1E4
100
AcDbEntity
  8
FORMAT
 62
     0
100
AcDbLine
 10
-94.6259766384
 20
-475.7169093353
 30
0.0
 11
-96.014902221
 21
-477.795583366
 31
0.0
  0
LINE
  5
238
330
1E4
100
AcDbEntity
  8
FORMAT
 62
     0
100
AcDbLine
 10
-94.6259766384
 20
-475.7169093353
 30
0.0
 11
-93.2370510559
 21
-473.6382353045
 31
0.0
  0
LINE
  5
239
330
1E4
100
AcDbEntity
  8
FORMAT
 62
     0
100
AcDbLine
 10
-97.4038278035
 20
-479.8742573968
 30
0.0
 11
-103.5151003667
 21
-489.0204231321
 31
0.0
  0
LINE
  5
23A
330
1E4
100
AcDbEntity
  8
FORMAT
 62
     0
100
AcDbLine
 10
-91.8481254733
 20
-471.5595612737
 30
0.0
 11
-85.7368529101
 21
-462.4133955384
 31
0.0
  0
LINE
  5
23B
330
1E4
100
AcDbEntity
  8
FORMAT
 62
     0
100
AcDbLine
 10
0.0
 20
-514.9122722117
 30
0.0
 11
-0.487725805
 21
-517.3642354127
 31
0.0
  0
LINE
  5
23C
330
1E4
100
AcDbEntity
  8
FORMAT
 62
     0
100
AcDbLine
 10
0.0
 20
-514.9122722117
 30
0.0
 11
0.4877258051
 21
-512.4603090107
 31
0.0
  0
LINE
  5
23D
330
1E4
100
AcDbEntity
  8
FORMAT
 62
     0
100
AcDbLine
 10
-0.9754516101
 20
-519.8161986137
 30
0.0
 11
-3.5116257963
 21
-532.566407259
 31
0.0
  0
LINE
  5
23E
330
1E4
100
AcDbEntity
  8
FORMAT
 62
     0
100
AcDbLine
 10
0.9754516101
 20
-510.0083458097
 30
0.0
 11
3.5116257963
 21
-497.2581371644
 31
0.0
  0
LINE
  5
23F
330
1E4
100
AcDbEntity
  8
FORMAT
 62
     0
100
AcDbLine
 10
102.4224190585
 20
-514.9122722117
 30
0.0
 11
102.9101448635
 21
-517.3642354127
 31
0.0
  0
LINE
  5
240
330
1E4
100
AcDbEntity
  8
FORMAT
 62
     0
100
AcDbLine
 10
102.4224190585
 20
-514.9122722117
 30
0.0
 11
101.9346932534
 21
-512.4603090107
 31
0.0
  0
LINE
  5
241
330
1E4
100
AcDbEntity
  8
FORMAT
 62
     0
100
AcDbLine
 10
103.3978706686
 20
-519.8161986137
 30
0.0
 11
105.9340448548
 21
-532.566407259
 31
0.0
  0
LINE
  5
242
330
1E4
100
AcDbEntity
  8
FORMAT
 62
     0
100
AcDbLine
 10
101.4469674484
 20
-510.0083458097
 30
0.0
 11
98.9107932622
 21
-497.2581371644
 31
0.0
  0
LINE
  5
243
330
1E4
100
AcDbEntity
  8
FORMAT
 62
     0
100
AcDbLine
 10
197.0483956969
 20
-475.7169093353
 30
0.0
 11
198.4373212794
 21
-477.795583366
 31
0.0
  0
LINE
  5
244
330
1E4
100
AcDbEntity
  8
FORMAT
 62
     0
100
AcDbLine
 10
197.0483956969
 20
-475.7169093353
 30
0.0
 11
195.6594701143
 21
-473.6382353045
 31
0.0
  0
LINE
  5
245
330
1E4
100
AcDbEntity
  8
FORMAT
 62
     0
100
AcDbLine
 10
199.826246862
 20
-479.8742573968
 30
0.0
 11
207.0486598912
 21
-490.6833623567
 31
0.0
  0
LINE
  5
246
330
1E4
100
AcDbEntity
  8
FORMAT
 62
     0
100
AcDbLine
 10
194.2705445318
 20
-471.5595612738
 30
0.0
 11
187.0481315025
 21
-460.7504563138
 31
0.0
  0
LINE
  5
247
330
1E4
100
AcDbEntity
  8
FORMAT
 62
     0
100
AcDbLine
 10
269.4719827586
 20
-403.2933222735
 30
0.0
 11
271.5506567894
 21
-404.682247856
 31
0.0
  0
LINE
  5
248
330
1E4
100
AcDbEntity
  8
FORMAT
 62
     0
100
AcDbLine
 10
269.4719827586
 20
-403.2933222735
 30
0.0
 11
267.3933087279
 21
-401.9043966909
 31
0.0
  0
LINE
  5
249
330
1E4
100
AcDbEntity
  8
FORMAT
 62
     0
100
AcDbLine
 10
273.6293308202
 20
-406.0711734386
 30
0.0
 11
282.7754965555
 21
-412.1824460018
 31
0.0
  0
LINE
  5
24A
330
1E4
100
AcDbEntity
  8
FORMAT
 62
     0
100
AcDbLine
 10
265.3146346971
 20
-400.5154711084
 30
0.0
 11
256.1684689618
 21
-394.4041985452
 31
0.0
  0
LINE
  5
24B
330
1E4
100
AcDbEntity
  8
FORMAT
 62
     0
100
AcDbLine
 10
308.6673456351
 20
-308.6673456351
 30
0.0
 11
311.1193088361
 21
-309.1550714401
 31
0.0
  0
LINE
  5
24C
330
1E4
100
AcDbEntity
  8
FORMAT
 62
     0
100
AcDbLine
 10
308.6673456351
 20
-308.6673456351
 30
0.0
 11
306.2153824341
 21
-308.17961983
 31
0.0
  0
LINE
  5
24D
330
1E4
100
AcDbEntity
  8
FORMAT
 62
     0
100
AcDbLine
 10
313.5712720371
 20
-309.6427972452
 30
0.0
 11
326.3214806823
 21
-312.1789714314
 31
0.0
  0
LINE
  5
24E
330
1E4
100
AcDbEntity
  8
FORMAT
 62
     0
100
AcDbLine
 10
303.7634192331
 20
-307.691894025
 30
0.0
 11
291.0132105878
 21
-305.1557198388
 31
0.0
  0
LINE
  5
24F
330
1E4
100
AcDbEntity
  8
FORMAT
 62
     0
100
AcDbLine
 10
308.6673456351
 20
-206.2449265766
 30
0.0
 11
311.1193088361
 21
-205.7572007716
 31
0.0
  0
LINE
  5
250
330
1E4
100
AcDbEntity
  8
FORMAT
 62
     0
100
AcDbLine
 10
308.6673456351
 20
-206.2449265766
 30
0.0
 11
306.2153824341
 21
-206.7326523816
 31
0.0
  0
LINE
  5
251
330
1E4
100
AcDbEntity
  8
FORMAT
 62
     0
100
AcDbLine
 10
313.5712720371
 20
-205.2694749665
 30
0.0
 11
326.3214806823
 21
-202.7333007803
 31
0.0
  0
LINE
  5
252
330
1E4
100
AcDbEntity
  8
FORMAT
 62
     0
100
AcDbLine
 10
303.7634192331
 20
-207.2203781867
 30
0.0
 11
291.0132105878
 21
-209.7565523729
 31
0.0
  0
LINE
  5
253
330
1E4
100
AcDbEntity
  8
FORMAT
 62
     0
100
AcDbLine
 10
269.4719827587
 20
-111.6189499382
 30
0.0
 11
271.5506567894
 21
-110.2300243556
 31
0.0
  0
LINE
  5
254
330
1E4
100
AcDbEntity
  8
FORMAT
 62
     0
100
AcDbLine
 10
269.4719827587
 20
-111.6189499382
 30
0.0
 11
267.3933087279
 21
-113.0078755207
 31
0.0
  0
LINE
  5
255
330
1E4
100
AcDbEntity
  8
FORMAT
 62
     0
100
AcDbLine
 10
273.6293308202
 20
-108.8410987731
 30
0.0
 11
284.4384357801
 21
-101.6186857438
 31
0.0
  0
LINE
  5
256
330
1E4
100
AcDbEntity
  8
FORMAT
 62
     0
100
AcDbLine
 10
265.3146346971
 20
-114.3968011033
 30
0.0
 11
254.5055297372
 21
-121.6192141325
 31
0.0
  0
LINE
  5
257
330
1E4
100
AcDbEntity
  8
FORMAT
 62
     0
100
AcDbLine
 10
197.0483956969
 20
-39.1953628764
 30
0.0
 11
198.4373212794
 21
-37.1166888457
 31
0.0
  0
LINE
  5
258
330
1E4
100
AcDbEntity
  8
FORMAT
 62
     0
100
AcDbLine
 10
197.0483956969
 20
-39.1953628764
 30
0.0
 11
195.6594701143
 21
-41.2740369072
 31
0.0
  0
LINE
  5
259
330
1E4
100
AcDbEntity
  8
FORMAT
 62
     0
100
AcDbLine
 10
199.826246862
 20
-35.0380148149
 30
0.0
 11
205.9375194252
 21
-25.8918490796
 31
0.0
  0
LINE
  5
25A
330
1E4
100
AcDbEntity
  8
FORMAT
 62
     0
100
AcDbLine
 10
194.2705445318
 20
-43.3527109379
 30
0.0
 11
188.1592719686
 21
-52.4988766733
 31
0.0
  0
LINE
  5
25B
330
1E4
100
AcDbEntity
  8
FORMAT
 62
     0
100
AcDbLine
 10
102.4224190585
 20
0.0
 30
0.0
 11
102.9101448635
 21
2.451963201
 31
0.0
  0
LINE
  5
25C
330
1E4
100
AcDbEntity
  8
FORMAT
 62
     0
100
AcDbLine
 10
102.4224190585
 20
0.0
 30
0.0
 11
101.9346932534
 21
-2.451963201
 31
0.0
  0
LINE
  5
25D
330
1E4
100
AcDbEntity
  8
FORMAT
 62
     0
100
AcDbLine
 10
103.3978706685
 20
4.903926402
 30
0.0
 11
105.9340448548
 21
17.6541350473
 31
0.0
  0
LINE
  5
25E
330
1E4
100
AcDbEntity
  8
FORMAT
 62
     0
100
AcDbLine
 10
101.4469674484
 20
-4.903926402
 30
0.0
 11
98.9107932622
 21
-17.6541350473
 31
0.0
  0
ENDBLK
  5
1E6
330
1E4
100
AcDbEntity
  8
0
100
AcDbBlockEnd
  0
ENDSEC
  0
SECTION
  2
ENTITIES
  0
LINE
  5
46
330
1F
100
AcDbEntity
  8
0
  6
Continuous
 62
     7
370
    15
100
AcDbLine
 10
-138.0317904431
 20
950.4859036835
 30
0.0
 11
-163.0317964035
 21
950.4859036835
 31
0.0
  0
LINE
  5
47
330
1F
100
AcDbEntity
  8
0
  6
Continuous
 62
     7
370
    15
100
AcDbLine
 10
-163.0317964035
 20
370.4859203728
 30
0.0
 11
-138.0317904431
 21
370.4859203728
 31
0.0
  0
LINE
  5
48
330
1F
100
AcDbEntity
  8
0
  6
Continuous
 62
     7
370
    15
100
AcDbLine
 10
196.9682179016
 20
950.4859036835
 30
0.0
 11
171.968217529
 21
950.4859036835
 31
0.0
  0
LINE
  5
49
330
1F
100
AcDbEntity
  8
0
  6
Continuous
 62
     7
370
    15
100
AcDbLine
 10
171.968217529
 20
370.4859203728
 30
0.0
 11
196.9682179016
 21
370.4859203728
 31
0.0
  0
LINE
  5
4A
330
1F
100
AcDbEntity
  8
0
  6
Continuous
 62
     7
370
    15
100
AcDbLine
 10
36.9682214779
 20
648.4859119239
 30
0.0
 11
39.4682190937
 21
648.4859119239
 31
0.0
  0
LINE
  5
4B
330
1F
100
AcDbEntity
  8
0
  6
Continuous
 62
     7
370
    15
100
AcDbLine
 10
39.4682190937
 20
672.4859121325
 30
0.0
 11
36.9682214779
 21
672.4859121325
 31
0.0
  0
LINE
  5
4C
330
1F
100
AcDbEntity
  8
0
  6
Continuous
 62
     7
370
    15
100
AcDbLine
 10
30.7286284488
 20
918.747384015
 30
0.0
 11
30.2671990913
 21
913.473267022
 31
0.0
  0
LINE
  5
4D
330
1F
100
AcDbEntity
  8
0
  6
Continuous
 62
     7
370
    15
100
AcDbLine
 10
30.2671990913
 20
407.4985570344
 30
0.0
 11
30.7286284488
 21
402.2244400414
 31
0.0
  0
LINE
  5
4E
330
1F
100
AcDbEntity
  8
0
  6
Continuous
 62
     7
370
    15
100
AcDbLine
 10
40.7050750774
 20
670.8782165381
 30
0.0
 11
39.4682190937
 21
668.7359119835
 31
0.0
  0
LINE
  5
4F
330
1F
100
AcDbEntity
  8
0
  6
Continuous
 62
     7
370
    15
100
AcDbLine
 10
39.4682190937
 20
652.2359120729
 30
0.0
 11
40.7050750774
 21
650.0936075183
 31
0.0
  0
LINE
  5
50
330
1F
100
AcDbEntity
  8
0
  6
Continuous
 62
     7
370
    15
100
AcDbLine
 10
48.6313603443
 20
650.0936075183
 30
0.0
 11
49.868216328
 21
652.2359120729
 31
0.0
  0
LINE
  5
51
330
1F
100
AcDbEntity
  8
0
  6
Continuous
 62
     7
370
    15
100
AcDbLine
 10
49.868216328
 20
668.7359119835
 30
0.0
 11
48.6313603443
 21
670.8782165381
 31
0.0
  0
LINE
  5
52
330
1F
100
AcDbEntity
  8
0
  6
Continuous
 62
     7
370
    15
100
AcDbLine
 10
29.7497115654
 20
666.4859120803
 30
0.0
 11
-138.0317904431
 21
666.4859120803
 31
0.0
  0
LINE
  5
53
330
1F
100
AcDbEntity
  8
0
  6
Continuous
 62
     7
370
    15
100
AcDbLine
 10
-138.0317904431
 20
654.485911976
 30
0.0
 11
29.7497860712
 21
654.485911976
 31
0.0
  0
LINE
  5
54
330
1F
100
AcDbEntity
  8
0
  6
Continuous
 62
     7
370
    15
100
AcDbLine
 10
89.9682171267
 20
666.4859120803
 30
0.0
 11
49.868216328
 21
666.4859120803
 31
0.0
  0
LINE
  5
55
330
1F
100
AcDbEntity
  8
0
  6
Continuous
 62
     7
370
    15
100
AcDbLine
 10
49.868216328
 20
654.485911976
 30
0.0
 11
89.9682171267
 21
654.485911976
 31
0.0
  0
LINE
  5
56
330
1F
100
AcDbEntity
  8
0
  6
Continuous
 62
     7
370
    15
100
AcDbLine
 10
167.968218736
 20
489.6487332019
 30
0.0
 11
171.968217529
 21
489.6487332019
 31
0.0
  0
LINE
  5
57
330
1F
100
AcDbEntity
  8
0
  6
Continuous
 62
     7
370
    15
100
AcDbLine
 10
171.968217529
 20
539.648722771
 30
0.0
 11
167.968218736
 21
539.648722771
 31
0.0
  0
LINE
  5
58
330
1F
100
AcDbEntity
  8
0
  6
Continuous
 62
     7
370
    15
100
AcDbLine
 10
-138.0317904431
 20
489.6487332019
 30
0.0
 11
-134.0317823368
 21
489.6487332019
 31
0.0
  0
LINE
  5
59
330
1F
100
AcDbEntity
  8
0
  6
Continuous
 62
     7
370
    15
100
AcDbLine
 10
-134.0317823368
 20
539.648722771
 30
0.0
 11
-138.0317904431
 21
539.648722771
 31
0.0
  0
ARC
  5
5A
330
1F
100
AcDbEntity
  8
0
  6
Continuous
 62
     7
370
    15
100
AcDbCircle
 10
24.3253807267
 20
902.9265019093
 30
0.0
 40
4.999999999999952
100
AcDbArc
 50
273.0
 51
343.517190876
  0
ARC
  5
5B
330
1F
100
AcDbEntity
  8
0
  6
Continuous
 62
     7
370
    15
100
AcDbCircle
 10
24.3253807267
 20
418.0453221471
 30
0.0
 40
4.999999999999982
100
AcDbArc
 50
16.4819366376
 51
87.0
  0
LINE
  5
5C
330
1F
100
AcDbEntity
  8
0
  6
Continuous
 62
     7
370
    15
100
AcDbLine
 10
-133.2317687947
 20
537.6487261685
 30
0.0
 11
-134.0317823368
 21
537.6487261685
 31
0.0
  0
LINE
  5
5D
330
1F
100
AcDbEntity
  8
0
  6
Continuous
 62
     7
370
    15
100
AcDbLine
 10
-134.0317823368
 20
491.6487223538
 30
0.0
 11
-133.2317687947
 21
491.6487223538
 31
0.0
  0
LINE
  5
5E
330
1F
100
AcDbEntity
  8
0
  6
Continuous
 62
     7
370
    15
100
AcDbLine
 10
167.1682182324
 20
491.6487223538
 30
0.0
 11
167.968218736
 21
491.6487223538
 31
0.0
  0
LINE
  5
5F
330
1F
100
AcDbEntity
  8
0
  6
Continuous
 62
     7
370
    15
100
AcDbLine
 10
167.968218736
 20
537.6487261685
 30
0.0
 11
167.1682182324
 21
537.6487261685
 31
0.0
  0
LINE
  5
60
330
1F
100
AcDbEntity
  8
0
  6
Continuous
 62
     7
370
    15
100
AcDbLine
 10
24.5870552581
 20
897.9333526524
 30
0.0
 11
-0.6626196581
 21
896.6100699338
 31
0.0
  0
LINE
  5
61
330
1F
100
AcDbEntity
  8
0
  6
Continuous
 62
     7
370
    15
100
AcDbLine
 10
-0.6626196581
 20
424.3617541226
 30
0.0
 11
24.5870552581
 21
423.038471404
 31
0.0
  0
LINE
  5
62
330
1F
100
AcDbEntity
  8
0
  6
Continuous
 62
     7
370
    15
100
AcDbLine
 10
-106.5458454567
 20
491.4511627587
 30
0.0
 11
-106.431791969
 21
491.6487223538
 31
0.0
  0
ARC
  5
63
330
1F
100
AcDbEntity
  8
0
  6
Continuous
 62
     7
370
    15
100
AcDbCircle
 10
-0.5317820984
 20
894.1135006114
 30
0.0
 40
2.500000000000132
100
AcDbArc
 50
93.0
 51
180.0
  0
ARC
  5
64
330
1F
100
AcDbEntity
  8
0
  6
Continuous
 62
     7
370
    15
100
AcDbCircle
 10
-0.5317820984
 20
426.858323445
 30
0.0
 40
2.500000000000075
100
AcDbArc
 50
180.0
 51
267.0
  0
LINE
  5
65
330
1F
100
AcDbEntity
  8
0
  6
Continuous
 62
     7
370
    15
100
AcDbLine
 10
30.4655335468
 20
528.148729268
 30
0.0
 11
-106.431791969
 21
528.148729268
 31
0.0
  0
LINE
  5
66
330
1F
100
AcDbEntity
  8
0
  6
Continuous
 62
     7
370
    15
100
AcDbLine
 10
140.3682171923
 20
528.148729268
 30
0.0
 11
36.9682214779
 21
528.148729268
 31
0.0
  0
LINE
  5
67
330
1F
100
AcDbEntity
  8
0
  6
Continuous
 62
     7
370
    15
100
AcDbLine
 10
-106.431791969
 20
501.1487192544
 30
0.0
 11
140.3682171923
 21
501.1487192544
 31
0.0
  0
LINE
  5
68
330
1F
100
AcDbEntity
  8
0
  6
Continuous
 62
     7
370
    15
100
AcDbLine
 10
-163.0317964035
 20
528.148729268
 30
0.0
 11
-275.5317785221
 21
528.148729268
 31
0.0
  0
LINE
  5
69
330
1F
100
AcDbEntity
  8
0
  6
Continuous
 62
     7
370
    15
100
AcDbLine
 10
-275.5317785221
 20
501.1487192544
 30
0.0
 11
-163.0317964035
 21
501.1487192544
 31
0.0
  0
LINE
  5
6A
330
1F
100
AcDbEntity
  8
0
  6
Continuous
 62
     7
370
    15
100
AcDbLine
 10
309.4682149213
 20
528.148729268
 30
0.0
 11
196.9682179016
 21
528.148729268
 31
0.0
  0
LINE
  5
6B
330
1F
100
AcDbEntity
  8
0
  6
Continuous
 62
     7
370
    15
100
AcDbLine
 10
196.9682179016
 20
501.1487192544
 30
0.0
 11
309.4682149213
 21
501.1487192544
 31
0.0
  0
LINE
  5
6C
330
1F
100
AcDbEntity
  8
0
  6
Continuous
 62
     7
370
    15
100
AcDbLine
 10
142.4224949998
 20
541.2068403395
 30
0.0
 11
140.3682171923
 21
537.6487261685
 31
0.0
  0
LINE
  5
6D
330
1F
100
AcDbEntity
  8
0
  6
Continuous
 62
     7
370
    15
100
AcDbLine
 10
140.3682171923
 20
491.6487223538
 30
0.0
 11
142.4224949998
 21
488.0906081828
 31
0.0
  0
LINE
  5
6E
330
1F
100
AcDbEntity
  8
0
  6
Continuous
 62
     7
370
    15
100
AcDbLine
 10
-106.431791969
 20
537.6487261685
 30
0.0
 11
-106.5458454567
 21
537.8462857636
 31
0.0
  0
LINE
  5
6F
330
1F
100
AcDbEntity
  8
0
  6
Continuous
 62
     7
370
    15
100
AcDbLine
 10
-138.0317904431
 20
439.4859111937
 30
0.0
 11
-3.0317850787
 21
439.4859111937
 31
0.0
  0
ARC
  5
70
330
1F
100
AcDbEntity
  8
0
  6
Continuous
 62
     7
370
    15
100
AcDbCircle
 10
33.7172114236
 20
402.4859120282
 30
0.0
 40
3.0
100
AcDbArc
 50
185.0
 51
270.0
  0
LINE
  5
71
330
1F
100
AcDbEntity
  8
0
  6
Continuous
 62
     7
370
    15
100
AcDbLine
 10
33.7172053379
 20
399.4859046372
 30
0.0
 11
36.9682214779
 21
399.4859046372
 31
0.0
  0
LINE
  5
72
330
1F
100
AcDbEntity
  8
0
  6
Continuous
 62
     7
370
    15
100
AcDbLine
 10
36.9682214779
 20
454.4859117898
 30
0.0
 11
171.968217529
 21
454.4859117898
 31
0.0
  0
LINE
  5
73
330
1F
100
AcDbEntity
  8
0
  6
Continuous
 62
     7
370
    15
100
AcDbLine
 10
36.9682214779
 20
823.1412804755
 30
0.0
 11
39.4682190937
 21
823.1412804755
 31
0.0
  0
LINE
  5
74
330
1F
100
AcDbEntity
  8
0
  6
Continuous
 62
     7
370
    15
100
AcDbLine
 10
39.4682190937
 20
847.1412844094
 30
0.0
 11
36.9682214779
 21
847.1412844094
 31
0.0
  0
LINE
  5
75
330
1F
100
AcDbEntity
  8
0
  6
Continuous
 62
     7
370
    15
100
AcDbLine
 10
36.9682214779
 20
473.830539647
 30
0.0
 11
39.4682190937
 21
473.830539647
 31
0.0
  0
LINE
  5
76
330
1F
100
AcDbEntity
  8
0
  6
Continuous
 62
     7
370
    15
100
AcDbLine
 10
39.4682190937
 20
497.8305435809
 30
0.0
 11
36.9682214779
 21
497.8305435809
 31
0.0
  0
LINE
  5
77
330
1F
100
AcDbEntity
  8
0
  6
Continuous
 62
     7
370
    15
100
AcDbLine
 10
49.249594621
 20
825.8198089036
 30
0.0
 11
49.868216328
 21
826.8912918004
 31
0.0
  0
LINE
  5
78
330
1F
100
AcDbEntity
  8
0
  6
Continuous
 62
     7
370
    15
100
AcDbLine
 10
49.868216328
 20
843.3912879857
 30
0.0
 11
49.249594621
 21
844.4627708825
 31
0.0
  0
LINE
  5
79
330
1F
100
AcDbEntity
  8
0
  6
Continuous
 62
     7
370
    15
100
AcDbLine
 10
40.0851867717
 20
844.4598949584
 30
0.0
 11
39.4682190937
 21
843.3912879857
 31
0.0
  0
LINE
  5
7A
330
1F
100
AcDbEntity
  8
0
  6
Continuous
 62
     7
370
    15
100
AcDbLine
 10
39.4682190937
 20
826.8912918004
 30
0.0
 11
40.0851867717
 21
825.8226699265
 31
0.0
  0
LINE
  5
7B
330
1F
100
AcDbEntity
  8
0
  6
Continuous
 62
     7
370
    15
100
AcDbLine
 10
49.2512486499
 20
476.511929098
 30
0.0
 11
49.868216328
 21
477.5805360707
 31
0.0
  0
LINE
  5
7C
330
1F
100
AcDbEntity
  8
0
  6
Continuous
 62
     7
370
    15
100
AcDbLine
 10
49.868216328
 20
494.080532256
 30
0.0
 11
49.2512486499
 21
495.1491541299
 31
0.0
  0
LINE
  5
7D
330
1F
100
AcDbEntity
  8
0
  6
Continuous
 62
     7
370
    15
100
AcDbLine
 10
40.0868408006
 20
495.1520151528
 30
0.0
 11
39.4682190937
 21
494.080532256
 31
0.0
  0
LINE
  5
7E
330
1F
100
AcDbEntity
  8
0
  6
Continuous
 62
     7
370
    15
100
AcDbLine
 10
39.4682190937
 20
477.5805360707
 30
0.0
 11
40.0868408006
 21
476.5090531739
 31
0.0
  0
LINE
  5
7F
330
1F
100
AcDbEntity
  8
0
  6
Continuous
 62
     7
370
    15
100
AcDbLine
 10
30.1166079563
 20
841.1412871512
 30
0.0
 11
-138.0317904431
 21
841.1412871512
 31
0.0
  0
LINE
  5
80
330
1F
100
AcDbEntity
  8
0
  6
Continuous
 62
     7
370
    15
100
AcDbLine
 10
-138.0317904431
 20
829.1412926348
 30
0.0
 11
29.3766460937
 21
829.1412926348
 31
0.0
  0
LINE
  5
81
330
1F
100
AcDbEntity
  8
0
  6
Continuous
 62
     7
370
    15
100
AcDbLine
 10
89.9682171267
 20
841.1412871512
 30
0.0
 11
49.868216328
 21
841.1412871512
 31
0.0
  0
LINE
  5
82
330
1F
100
AcDbEntity
  8
0
  6
Continuous
 62
     7
370
    15
100
AcDbLine
 10
49.868216328
 20
829.1412926348
 30
0.0
 11
89.9682171267
 21
829.1412926348
 31
0.0
  0
LINE
  5
83
330
1F
100
AcDbEntity
  8
0
  6
Continuous
 62
     7
370
    15
100
AcDbLine
 10
89.9682171267
 20
491.8305314215
 30
0.0
 11
49.868216328
 21
491.8305314215
 31
0.0
  0
LINE
  5
84
330
1F
100
AcDbEntity
  8
0
  6
Continuous
 62
     7
370
    15
100
AcDbLine
 10
49.868216328
 20
479.8305369052
 30
0.0
 11
89.9682171267
 21
479.8305369052
 31
0.0
  0
LINE
  5
85
330
1F
100
AcDbEntity
  8
0
  6
Continuous
 62
     7
370
    15
100
AcDbLine
 10
29.3764076751
 20
491.8305314215
 30
0.0
 11
-106.431791969
 21
491.8305314215
 31
0.0
  0
LINE
  5
86
330
1F
100
AcDbEntity
  8
0
  6
Continuous
 62
     7
370
    15
100
AcDbLine
 10
-138.0317904431
 20
479.8305369052
 30
0.0
 11
30.1175467294
 21
479.8305369052
 31
0.0
  0
LINE
  5
87
330
1F
100
AcDbEntity
  8
0
  6
Continuous
 62
     7
370
    15
100
AcDbLine
 10
167.968218736
 20
853.7466860446
 30
0.0
 11
171.968217529
 21
853.7466860446
 31
0.0
  0
LINE
  5
88
330
1F
100
AcDbEntity
  8
0
  6
Continuous
 62
     7
370
    15
100
AcDbLine
 10
171.968217529
 20
903.7466830643
 30
0.0
 11
167.968218736
 21
903.7466830643
 31
0.0
  0
LINE
  5
89
330
1F
100
AcDbEntity
  8
0
  6
Continuous
 62
     7
370
    15
100
AcDbLine
 10
-138.0317904431
 20
853.7466860446
 30
0.0
 11
-134.0317823368
 21
853.7466860446
 31
0.0
  0
LINE
  5
8A
330
1F
100
AcDbEntity
  8
0
  6
Continuous
 62
     7
370
    15
100
AcDbLine
 10
-134.0317823368
 20
903.7466830643
 30
0.0
 11
-138.0317904431
 21
903.7466830643
 31
0.0
  0
LINE
  5
8B
330
1F
100
AcDbEntity
  8
0
  6
Continuous
 62
     7
370
    15
100
AcDbLine
 10
167.1682182324
 20
855.7466900977
 30
0.0
 11
167.968218736
 21
855.7466900977
 31
0.0
  0
LINE
  5
8C
330
1F
100
AcDbEntity
  8
0
  6
Continuous
 62
     7
370
    15
100
AcDbLine
 10
167.968218736
 20
901.7466790112
 30
0.0
 11
167.1682182324
 21
901.7466790112
 31
0.0
  0
LINE
  5
8D
330
1F
100
AcDbEntity
  8
0
  6
Continuous
 62
     7
370
    15
100
AcDbLine
 10
-133.2317687947
 20
901.7466790112
 30
0.0
 11
-134.0317823368
 21
901.7466790112
 31
0.0
  0
LINE
  5
8E
330
1F
100
AcDbEntity
  8
0
  6
Continuous
 62
     7
370
    15
100
AcDbLine
 10
-134.0317823368
 20
855.7466900977
 30
0.0
 11
-133.2317687947
 21
855.7466900977
 31
0.0
  0
LINE
  5
8F
330
1F
100
AcDbEntity
  8
0
  6
Continuous
 62
     7
370
    15
100
AcDbLine
 10
-106.431791969
 20
901.7466790112
 30
0.0
 11
-107.5302757698
 21
903.6493188771
 31
0.0
  0
LINE
  5
90
330
1F
100
AcDbEntity
  8
0
  6
Continuous
 62
     7
370
    15
100
AcDbLine
 10
140.3682171923
 20
892.2466821107
 30
0.0
 11
-106.431791969
 21
892.2466821107
 31
0.0
  0
LINE
  5
91
330
1F
100
AcDbEntity
  8
0
  6
Continuous
 62
     7
370
    15
100
AcDbLine
 10
36.9682214779
 20
865.2466869982
 30
0.0
 11
140.3682171923
 21
865.2466869982
 31
0.0
  0
LINE
  5
92
330
1F
100
AcDbEntity
  8
0
  6
Continuous
 62
     7
370
    15
100
AcDbLine
 10
-106.431791969
 20
865.2466869982
 30
0.0
 11
30.1280967516
 21
865.2466869982
 31
0.0
  0
LINE
  5
93
330
1F
100
AcDbEntity
  8
0
  6
Continuous
 62
     7
370
    15
100
AcDbLine
 10
-163.0317964035
 20
892.2466821107
 30
0.0
 11
-275.5317785221
 21
892.2466821107
 31
0.0
  0
LINE
  5
94
330
1F
100
AcDbEntity
  8
0
  6
Continuous
 62
     7
370
    15
100
AcDbLine
 10
-275.5317785221
 20
865.2466869982
 30
0.0
 11
-163.0317964035
 21
865.2466869982
 31
0.0
  0
LINE
  5
95
330
1F
100
AcDbEntity
  8
0
  6
Continuous
 62
     7
370
    15
100
AcDbLine
 10
309.4682149213
 20
892.2466821107
 30
0.0
 11
196.9682179016
 21
892.2466821107
 31
0.0
  0
LINE
  5
96
330
1F
100
AcDbEntity
  8
0
  6
Continuous
 62
     7
370
    15
100
AcDbLine
 10
196.9682179016
 20
865.2466869982
 30
0.0
 11
309.4682149213
 21
865.2466869982
 31
0.0
  0
LINE
  5
97
330
1F
100
AcDbEntity
  8
0
  6
Continuous
 62
     7
370
    15
100
AcDbLine
 10
-107.531765886
 20
853.8414425286
 30
0.0
 11
-106.431791969
 21
855.7466900977
 31
0.0
  0
ARC
  5
98
330
1F
100
AcDbEntity
  8
0
  6
Continuous
 62
     7
370
    15
100
AcDbCircle
 10
33.7172114236
 20
918.4859120282
 30
0.0
 40
3.000000000000005
100
AcDbArc
 50
90.0
 51
175.0
  0
LINE
  5
99
330
1F
100
AcDbEntity
  8
0
  6
Continuous
 62
     7
370
    15
100
AcDbLine
 10
36.9682214779
 20
921.4859194192
 30
0.0
 11
33.7172053379
 21
921.4859194192
 31
0.0
  0
LINE
  5
9A
330
1F
100
AcDbEntity
  8
0
  6
Continuous
 62
     7
370
    15
100
AcDbLine
 10
36.9682214779
 20
895.4859114321
 30
0.0
 11
39.4682190937
 21
895.4859114321
 31
0.0
  0
LINE
  5
9B
330
1F
100
AcDbEntity
  8
0
  6
Continuous
 62
     7
370
    15
100
AcDbLine
 10
39.4682190937
 20
919.4859153661
 30
0.0
 11
36.9682214779
 21
919.4859153661
 31
0.0
  0
LINE
  5
9C
330
1F
100
AcDbEntity
  8
0
  6
Continuous
 62
     7
370
    15
100
AcDbLine
 10
36.9682214779
 20
401.4859086903
 30
0.0
 11
39.4682190937
 21
401.4859086903
 31
0.0
  0
LINE
  5
9D
330
1F
100
AcDbEntity
  8
0
  6
Continuous
 62
     7
370
    15
100
AcDbLine
 10
39.4682190937
 20
425.4859126242
 30
0.0
 11
36.9682214779
 21
425.4859126242
 31
0.0
  0
LINE
  5
9E
330
1F
100
AcDbEntity
  8
0
  6
Continuous
 62
     7
370
    15
100
AcDbLine
 10
39.9012319368
 20
916.4859241875
 30
0.0
 11
39.4682190937
 21
915.7359189423
 31
0.0
  0
LINE
  5
9F
330
1F
100
AcDbEntity
  8
0
  6
Continuous
 62
     7
370
    15
100
AcDbLine
 10
39.4682190937
 20
899.2359078559
 30
0.0
 11
39.9012319368
 21
898.4859175118
 31
0.0
  0
LINE
  5
A0
330
1F
100
AcDbEntity
  8
0
  6
Continuous
 62
     7
370
    15
100
AcDbLine
 10
49.4352034849
 20
898.4859175118
 30
0.0
 11
49.868216328
 21
899.2359078559
 31
0.0
  0
LINE
  5
A1
330
1F
100
AcDbEntity
  8
0
  6
Continuous
 62
     7
370
    15
100
AcDbLine
 10
49.868216328
 20
915.7359189423
 30
0.0
 11
49.4352034849
 21
916.4859241875
 31
0.0
  0
LINE
  5
A2
330
1F
100
AcDbEntity
  8
0
  6
Continuous
 62
     7
370
    15
100
AcDbLine
 10
39.9012319368
 20
422.4859065446
 30
0.0
 11
39.4682190937
 21
421.7359162005
 31
0.0
  0
LINE
  5
A3
330
1F
100
AcDbEntity
  8
0
  6
Continuous
 62
     7
370
    15
100
AcDbLine
 10
39.4682190937
 20
405.2359051141
 30
0.0
 11
39.9012319368
 21
404.4858998688
 31
0.0
  0
LINE
  5
A4
330
1F
100
AcDbEntity
  8
0
  6
Continuous
 62
     7
370
    15
100
AcDbLine
 10
49.4352034849
 20
404.4858998688
 30
0.0
 11
49.868216328
 21
405.2359051141
 31
0.0
  0
LINE
  5
A5
330
1F
100
AcDbEntity
  8
0
  6
Continuous
 62
     7
370
    15
100
AcDbLine
 10
49.868216328
 20
421.7359162005
 30
0.0
 11
49.4352034849
 21
422.4859065446
 31
0.0
  0
LINE
  5
A6
330
1F
100
AcDbEntity
  8
0
  6
Continuous
 62
     7
370
    15
100
AcDbLine
 10
89.9682171267
 20
913.4859032067
 30
0.0
 11
49.868216328
 21
913.4859032067
 31
0.0
  0
LINE
  5
A7
330
1F
100
AcDbEntity
  8
0
  6
Continuous
 62
     7
370
    15
100
AcDbLine
 10
49.868216328
 20
901.4859086903
 30
0.0
 11
89.9682171267
 21
901.4859086903
 31
0.0
  0
LINE
  5
A8
330
1F
100
AcDbEntity
  8
0
  6
Continuous
 62
     7
370
    15
100
AcDbLine
 10
30.2683017772
 20
913.4859032067
 30
0.0
 11
-138.0317904431
 21
913.4859032067
 31
0.0
  0
LINE
  5
A9
330
1F
100
AcDbEntity
  8
0
  6
Continuous
 62
     7
370
    15
100
AcDbLine
 10
-106.431791969
 20
901.4859086903
 30
0.0
 11
29.1133574766
 21
901.4859086903
 31
0.0
  0
LINE
  5
AA
330
1F
100
AcDbEntity
  8
0
  6
Continuous
 62
     7
370
    15
100
AcDbLine
 10
29.1133574766
 20
419.4859153661
 30
0.0
 11
-138.0317904431
 21
419.4859153661
 31
0.0
  0
LINE
  5
AB
330
1F
100
AcDbEntity
  8
0
  6
Continuous
 62
     7
370
    15
100
AcDbLine
 10
-138.0317904431
 20
407.4859208497
 30
0.0
 11
30.2683017772
 21
407.4859208497
 31
0.0
  0
LINE
  5
AC
330
1F
100
AcDbEntity
  8
0
  6
Continuous
 62
     7
370
    15
100
AcDbLine
 10
89.9682171267
 20
419.4859153661
 30
0.0
 11
49.868216328
 21
419.4859153661
 31
0.0
  0
LINE
  5
AD
330
1F
100
AcDbEntity
  8
0
  6
Continuous
 62
     7
370
    15
100
AcDbLine
 10
49.868216328
 20
407.4859208497
 30
0.0
 11
89.9682171267
 21
407.4859208497
 31
0.0
  0
LINE
  5
AE
330
1F
100
AcDbEntity
  8
0
  6
Continuous
 62
     7
370
    15
100
AcDbLine
 10
167.968218736
 20
417.225140992
 30
0.0
 11
171.968217529
 21
417.225140992
 31
0.0
  0
LINE
  5
AF
330
1F
100
AcDbEntity
  8
0
  6
Continuous
 62
     7
370
    15
100
AcDbLine
 10
167.1682182324
 20
419.2251450452
 30
0.0
 11
167.968218736
 21
419.2251450452
 31
0.0
  0
LINE
  5
B0
330
1F
100
AcDbEntity
  8
0
  6
Continuous
 62
     7
370
    15
100
AcDbLine
 10
-163.0317964035
 20
455.7251370581
 30
0.0
 11
-275.5317785221
 21
455.7251370581
 31
0.0
  0
LINE
  5
B1
330
1F
100
AcDbEntity
  8
0
  6
Continuous
 62
     7
370
    15
100
AcDbLine
 10
-275.5317785221
 20
428.7251419457
 30
0.0
 11
-163.0317964035
 21
428.7251419457
 31
0.0
  0
LINE
  5
B2
330
1F
100
AcDbEntity
  8
0
  6
Continuous
 62
     7
370
    15
100
AcDbLine
 10
-106.431791969
 20
428.7251419457
 30
0.0
 11
-3.0317850787
 21
428.7251419457
 31
0.0
  0
LINE
  5
B3
330
1F
100
AcDbEntity
  8
0
  6
Continuous
 62
     7
370
    15
100
AcDbLine
 10
36.9682214779
 20
428.7251419457
 30
0.0
 11
140.3682171923
 21
428.7251419457
 31
0.0
  0
LINE
  5
B4
330
1F
100
AcDbEntity
  8
0
  6
Continuous
 62
     7
370
    15
100
AcDbLine
 10
309.4682149213
 20
455.7251370581
 30
0.0
 11
196.9682179016
 21
455.7251370581
 31
0.0
  0
LINE
  5
B5
330
1F
100
AcDbEntity
  8
0
  6
Continuous
 62
     7
370
    15
100
AcDbLine
 10
196.9682179016
 20
428.7251419457
 30
0.0
 11
309.4682149213
 21
428.7251419457
 31
0.0
  0
LINE
  5
B6
330
1F
100
AcDbEntity
  8
0
  6
Continuous
 62
     7
370
    15
100
AcDbLine
 10
309.4682149213
 20
819.823104802
 30
0.0
 11
196.9682179016
 21
819.823104802
 31
0.0
  0
LINE
  5
B7
330
1F
100
AcDbEntity
  8
0
  6
Continuous
 62
     7
370
    15
100
AcDbLine
 10
196.9682179016
 20
792.8230947884
 30
0.0
 11
309.4682149213
 21
792.8230947884
 31
0.0
  0
LINE
  5
B8
330
1F
100
AcDbEntity
  8
0
  6
Continuous
 62
     7
370
    15
100
AcDbLine
 10
-163.0317964035
 20
819.823104802
 30
0.0
 11
-275.5317785221
 21
819.823104802
 31
0.0
  0
LINE
  5
B9
330
1F
100
AcDbEntity
  8
0
  6
Continuous
 62
     7
370
    15
100
AcDbLine
 10
-275.5317785221
 20
792.8230947884
 30
0.0
 11
-163.0317964035
 21
792.8230947884
 31
0.0
  0
LINE
  5
BA
330
1F
100
AcDbEntity
  8
0
  6
Continuous
 62
     7
370
    15
100
AcDbLine
 10
-138.0317904431
 20
549.5077184471
 30
0.0
 11
-138.0317904431
 21
950.4859036835
 31
0.0
  0
LINE
  5
BB
330
1F
100
AcDbEntity
  8
0
  6
Continuous
 62
     7
370
    15
100
AcDbLine
 10
-138.0317904431
 20
370.4859203728
 30
0.0
 11
-138.0317904431
 21
549.5077184471
 31
0.0
  0
LINE
  5
BC
330
1F
100
AcDbEntity
  8
0
  6
Continuous
 62
     7
370
    15
100
AcDbLine
 10
-163.0317964035
 20
549.5077184471
 30
0.0
 11
-163.0317964035
 21
950.4859036835
 31
0.0
  0
LINE
  5
BD
330
1F
100
AcDbEntity
  8
0
  6
Continuous
 62
     7
370
    15
100
AcDbLine
 10
-163.0317964035
 20
370.4859203728
 30
0.0
 11
-163.0317964035
 21
549.5077184471
 31
0.0
  0
LINE
  5
BE
330
1F
100
AcDbEntity
  8
0
  6
Continuous
 62
     7
370
    15
100
AcDbLine
 10
171.968217529
 20
660.4859120282
 30
0.0
 11
171.968217529
 21
950.4859036835
 31
0.0
  0
LINE
  5
BF
330
1F
100
AcDbEntity
  8
0
  6
Continuous
 62
     7
370
    15
100
AcDbLine
 10
171.968217529
 20
370.4859203728
 30
0.0
 11
171.968217529
 21
660.4859120282
 31
0.0
  0
LINE
  5
C0
330
1F
100
AcDbEntity
  8
0
  6
Continuous
 62
     7
370
    15
100
AcDbLine
 10
196.9682179016
 20
660.4859120282
 30
0.0
 11
196.9682179016
 21
950.4859036835
 31
0.0
  0
LINE
  5
C1
330
1F
100
AcDbEntity
  8
0
  6
Continuous
 62
     7
370
    15
100
AcDbLine
 10
196.9682179016
 20
370.4859203728
 30
0.0
 11
196.9682179016
 21
660.4859120282
 31
0.0
  0
SPLINE
  5
C2
330
1F
100
AcDbEntity
  8
0
  6
Continuous
 62
     7
370
    15
100
AcDbSpline
210
0.0
220
0.0
230
1.0
 70
     8
 71
     3
 72
    22
 73
    18
 74
     0
 42
0.00000001
 43
0.00000001
 12
1.0
 22
0.0
 32
0.0
 13
1.0
 23
0.0
 33
0.0
 40
0.0
 40
0.0
 40
0.0
 40
0.0
 40
0.125
 40
0.125
 40
0.25
 40
0.25
 40
0.375
 40
0.375
 40
0.5
 40
0.5
 40
0.625
 40
0.625
 40
0.75
 40
0.75
 40
0.875
 40
0.875
 40
1.0
 40
1.0
 40
1.0
 40
1.0
 10
30.72862732934851
 20
867.9012053842418
 30
0.0
 10
30.74439662205506
 20
868.0133712248157
 30
0.0
 10
30.77622527873317
 20
868.1262291816561
 30
0.0
 10
30.87195707309374
 20
868.3525561810485
 30
0.0
 10
30.93655717706224
 20
868.4669788877144
 30
0.0
 10
31.09749880260094
 20
868.6907358894149
 30
0.0
 10
31.19254566063388
 20
868.7986986346576
 30
0.0
 10
31.41160939642668
 20
869.0053706934499
 30
0.0
 10
31.53723822594501
 20
869.1050540299707
 30
0.0
 10
31.81037403867918
 20
869.2865681964928
 30
0.0
 10
31.95762693978183
 20
869.3686854556271
 30
0.0
 10
32.27343872517633
 20
869.5142088293444
 30
0.0
 10
32.44321205904919
 20
869.5777163040941
 30
0.0
 10
32.79064079574224
 20
869.6792413398551
 30
0.0
 10
32.96975691256998
 20
869.7181109436965
 30
0.0
 10
33.3389699261372
 20
869.7708770415901
 30
0.0
 10
33.52806548213864
 20
869.7844169231311
 30
0.0
 10
33.71721142362372
 20
869.7844169231311
 30
0.0
  0
SPLINE
  5
C3
330
1F
100
AcDbEntity
  8
0
  6
Continuous
 62
     7
370
    15
100
AcDbSpline
210
0.0
220
0.0
230
1.0
 70
     8
 71
     3
 72
    20
 73
    16
 74
     0
 42
0.00000001
 43
0.00000001
 12
1.0
 22
0.0
 32
0.0
 13
1.0
 23
0.0
 33
0.0
 40
0.0
 40
0.0
 40
0.0
 40
0.0
 40
0.125
 40
0.125
 40
0.25
 40
0.25
 40
0.375
 40
0.375
 40
0.5
 40
0.5
 40
0.625
 40
0.625
 40
0.75
 40
0.75
 40
1.0
 40
1.0
 40
1.0
 40
1.0
 10
33.71721142362375
 20
526.7923262186314
 30
0.0
 10
33.52810011476677
 20
526.7923262186314
 30
0.0
 10
33.34201243892191
 20
526.8001251381745
 30
0.0
 10
32.97563835687848
 20
526.8303236641234
 30
0.0
 10
32.79372994342198
 20
526.8530187887351
 30
0.0
 10
32.44408455960563
 20
526.9114871970029
 30
0.0
 10
32.27787616866721
 20
526.946835153413
 30
0.0
 10
31.96236582183207
 20
527.0279331422312
 30
0.0
 10
31.81176157417709
 20
527.0742437980551
 30
0.0
 10
31.53885379760466
 20
527.1722136727492
 30
0.0
 10
31.4155354610555
 20
527.2239878172286
 30
0.0
 10
31.19500421515551
 20
527.3310388847249
 30
0.0
 10
31.09797292800998
 20
527.3864539941452
 30
0.0
 10
30.85803038689359
 20
527.548251720019
 30
0.0
 10
30.76016974115074
 20
527.6535875989265
 30
0.0
 10
30.72862732934851
 20
527.7450359272093
 30
0.0
  0
LINE
  5
C4
330
1F
100
AcDbEntity
  8
0
  6
Continuous
 62
     7
370
    15
100
AcDbLine
 10
33.7172053379
 20
869.7844184073
 30
0.0
 11
36.9682214779
 21
869.7844184073
 31
0.0
  0
LINE
  5
C5
330
1F
100
AcDbEntity
  8
0
  6
Continuous
 62
     7
370
    15
100
AcDbLine
 10
36.9682214779
 20
869.7844184073
 30
0.0
 11
36.9682214779
 21
526.792321268
 31
0.0
  0
LINE
  5
C6
330
1F
100
AcDbEntity
  8
0
  6
Continuous
 62
     7
370
    15
100
AcDbLine
 10
36.9682214779
 20
526.792321268
 30
0.0
 11
33.7172053379
 21
526.792321268
 31
0.0
  0
LINE
  5
C7
330
1F
100
AcDbEntity
  8
0
  6
Continuous
 62
     7
370
    15
100
AcDbLine
 10
39.4682190937
 20
648.4859119239
 30
0.0
 11
39.4682190937
 21
672.4859121325
 31
0.0
  0
SPLINE
  5
C8
330
1F
100
AcDbEntity
  8
0
  6
Continuous
 62
     7
370
    15
100
AcDbSpline
210
0.0
220
0.0
230
1.0
 70
     8
 71
     3
 72
    13
 73
     9
 74
     0
 42
0.00000001
 43
0.00000001
 12
1.0
 22
0.0
 32
0.0
 13
1.0
 23
0.0
 33
0.0
 40
0.0
 40
0.0
 40
0.0
 40
0.0
 40
0.1473375818503488
 40
0.3224570932068861
 40
0.4981524496554515
 40
0.6744046330489629
 40
0.8501020736577175
 40
1.0
 40
1.0
 40
1.0
 40
1.0
 10
30.12809675155465
 20
865.259233775972
 30
0.0
 10
30.15011590261416
 20
865.2662117368534
 30
0.0
 10
30.19830612914274
 20
865.281483420792
 30
0.0
 10
30.28686258892639
 20
865.5067625776005
 30
0.0
 10
30.3898379372799
 20
865.8970549365015
 30
0.0
 10
30.50208303328942
 20
866.4540836224922
 30
0.0
 10
30.61547293822254
 20
867.1196630102866
 30
0.0
 10
30.69295649165583
 20
867.6548292689338
 30
0.0
 10
30.72862844882791
 20
867.9012096556412
 30
0.0
  0
SPLINE
  5
C9
330
1F
100
AcDbEntity
  8
0
  6
Continuous
 62
     7
370
    15
100
AcDbSpline
210
0.0
220
0.0
230
1.0
 70
     8
 71
     3
 72
    10
 73
     6
 74
     0
 42
0.00000001
 43
0.00000001
 12
1.0
 22
0.0
 32
0.0
 13
1.0
 23
0.0
 33
0.0
 40
0.0
 40
0.0
 40
0.0
 40
0.0
 40
0.4584833265390857
 40
0.9184239327131745
 40
1.0
 40
1.0
 40
1.0
 40
1.0
 10
30.72862844882791
 20
527.745041910051
 30
0.0
 10
30.68686996982101
 20
527.8485695166423
 30
0.0
 10
30.60322028335766
 20
528.055953790151
 30
0.0
 10
30.51553216267803
 20
528.1646430101129
 30
0.0
 10
30.47207942702077
 20
528.1392092611901
 30
0.0
 10
30.46553354678933
 20
528.1353778275238
 30
0.0
  0
SPLINE
  5
CA
330
1F
100
AcDbEntity
  8
0
  6
Continuous
 62
     7
370
    15
100
AcDbSpline
210
0.0
220
0.0
230
1.0
 70
     8
 71
     3
 72
    23
 73
    19
 74
     0
 42
0.00000001
 43
0.00000001
 12
1.0
 22
0.0
 32
0.0
 13
1.0
 23
0.0
 33
0.0
 40
0.0
 40
0.0
 40
0.0
 40
0.0
 40
0.0548447028753605
 40
0.1193907887079144
 40
0.1858065393174841
 40
0.2504136139712608
 40
0.3168837532116999
 40
0.3816759360521644
 40
0.4483331678228489
 40
0.5133583669685489
 40
0.5802578995542124
 40
0.6454661817078183
 40
0.7125621038185173
 40
0.7778237320622295
 40
0.8449823184751655
 40
0.9101352773460123
 40
0.9771895968042894
 40
1.0
 40
1.0
 40
1.0
 40
1.0
 10
30.26722889362158
 20
407.4985570343719
 30
0.0
 10
30.26668646552897
 20
407.5049247415137
 30
0.0
 10
30.26550566019313
 20
407.5187865283054
 30
0.0
 10
30.24621704592221
 20
407.744547785921
 30
0.0
 10
30.21364490185075
 20
408.12528626465
 30
0.0
 10
30.16730611093464
 20
408.6659437662961
 30
0.0
 10
30.10974191462976
 20
409.3359978117613
 30
0.0
 10
30.04131209634112
 20
410.1303181966675
 30
0.0
 10
29.9650163275479
 20
411.0130620279672
 30
0.0
 10
29.88155921521141
 20
411.9748612571012
 30
0.0
 10
29.79467754650653
 20
412.9724923535953
 30
0.0
 10
29.70525402490291
 20
413.9947130007836
 30
0.0
 10
29.61744778768805
 20
414.9946421547391
 30
0.0
 10
29.53225198911303
 20
415.9608443168521
 30
0.0
 10
29.45366219789087
 20
416.8484374154574
 30
0.0
 10
29.38281941214719
 20
417.6459956854571
 30
0.0
 10
29.33538825727759
 20
418.1783245798231
 30
0.0
 10
29.31223445616677
 20
418.4376437939681
 30
0.0
 10
29.3063573163587
 20
418.5034669073807
 30
0.0
  0
SPLINE
  5
CB
330
1F
100
AcDbEntity
  8
0
  6
Continuous
 62
     7
370
    15
100
AcDbSpline
210
0.0
220
0.0
230
1.0
 70
     8
 71
     3
 72
    27
 73
    23
 74
     0
 42
0.00000001
 43
0.00000001
 12
1.0
 22
0.0
 32
0.0
 13
1.0
 23
0.0
 33
0.0
 40
0.0
 40
0.0
 40
0.0
 40
0.0
 40
0.0016321698062703
 40
0.0554224164463125
 40
0.1092125395013803
 40
0.1628084367876957
 40
0.2164027956832164
 40
0.269848660677554
 40
0.3232947378953991
 40
0.3766970152185887
 40
0.4300995611345592
 40
0.4835808810580823
 40
0.5370640265595445
 40
0.5907156357506657
 40
0.6443684200672612
 40
0.6982113701786188
 40
0.7520550778229317
 40
0.8060304427904478
 40
0.8600053039883134
 40
0.9139919672364019
 40
0.9679779043269992
 40
1.0
 40
1.0
 40
1.0
 40
1.0
 10
30.11754672942938
 20
479.8330701025711
 30
0.0
 10
30.11821866772219
 20
479.8322271066402
 30
0.0
 10
30.14103519315229
 20
479.8036020999969
 30
0.0
 10
30.17654860003203
 20
479.9069150751947
 30
0.0
 10
30.22140906820479
 20
480.1494286092876
 30
0.0
 10
30.25146174881655
 20
480.5769121480465
 30
0.0
 10
30.2679711957645
 20
481.1441029796599
 30
0.0
 10
30.26959681449227
 20
481.8476404229593
 30
0.0
 10
30.25701679053428
 20
482.6599673075419
 30
0.0
 10
30.23001948175003
 20
483.5632045505012
 30
0.0
 10
30.18987387821068
 20
484.5287211955676
 30
0.0
 10
30.13706932542402
 20
485.5316274618723
 30
0.0
 10
30.07351566539186
 20
486.5437041532736
 30
0.0
 10
30.00041810317192
 20
487.535702311991
 30
0.0
 10
29.92002560113117
 20
488.482082603365
 30
0.0
 10
29.83433483901688
 20
489.3524312083204
 30
0.0
 10
29.74578841892259
 20
490.1262484250422
 30
0.0
 10
29.65694008242323
 20
490.7752409797467
 30
0.0
 10
29.57014192165134
 20
491.288203166756
 30
0.0
 10
29.48864038642141
 20
491.6357135356405
 30
0.0
 10
29.42299479479042
 20
491.8160150958267
 30
0.0
 10
29.38904696666295
 20
491.8149420039635
 30
0.0
 10
29.37640767513101
 20
491.8145424755799
 30
0.0
  0
SPLINE
  5
CC
330
1F
100
AcDbEntity
  8
0
  6
Continuous
 62
     7
370
    15
100
AcDbSpline
210
0.0
220
0.0
230
1.0
 70
     8
 71
     3
 72
    27
 73
    23
 74
     0
 42
0.00000001
 43
0.00000001
 12
1.0
 22
0.0
 32
0.0
 13
1.0
 23
0.0
 33
0.0
 40
0.0
 40
0.0
 40
0.0
 40
0.0
 40
0.0068745380275457
 40
0.0608639520624947
 40
0.1148533672523488
 40
0.1688295449276146
 40
0.2228052472976602
 40
0.2766482489647166
 40
0.3304894833247727
 40
0.3841388524078596
 40
0.437787668231401
 40
0.491267706785243
 40
0.544747632861688
 40
0.5981514816562347
 40
0.6515562644586061
 40
0.7050073143004701
 40
0.7584591550106079
 40
0.8120620692271419
 40
0.8656656380639528
 40
0.9194623287384309
 40
0.9732597783611124
 40
1.0
 40
1.0
 40
1.0
 40
1.0
 10
29.74978607116525
 20
654.4955013389276
 30
0.0
 10
29.75355155050125
 20
654.4923981331311
 30
0.0
 10
29.78688934758378
 20
654.4649237969522
 30
0.0
 10
29.84959861851209
 20
654.5784741605136
 30
0.0
 10
29.93486871072938
 20
654.840633760261
 30
0.0
 10
30.01448686041822
 20
655.2847644242656
 30
0.0
 10
30.08645895099055
 20
655.8699649279134
 30
0.0
 10
30.14841335138444
 20
656.5909683205255
 30
0.0
 10
30.19912790200839
 20
657.4195176179036
 30
0.0
 10
30.2367940683204
 20
658.3367333344464
 30
0.0
 10
30.26092878037415
 20
659.3120192557951
 30
0.0
 10
30.27043739578193
 20
660.3204347517985
 30
0.0
 10
30.26569403477789
 20
661.3319281645983
 30
0.0
 10
30.24623885184628
 20
662.3183886278407
 30
0.0
 10
30.21324769044077
 20
663.2537525120874
 30
0.0
 10
30.16699900993009
 20
664.1093273740098
 30
0.0
 10
30.10917530222502
 20
664.865597368108
 30
0.0
 10
30.040904136282
 20
665.495379573516
 30
0.0
 10
29.96428488994302
 20
665.9897893246886
 30
0.0
 10
29.88111406901576
 20
666.3164608060899
 30
0.0
 10
29.80858125900749
 20
666.4815832346981
 30
0.0
 10
29.76438549876163
 20
666.4685075647242
 30
0.0
 10
29.74971156535928
 20
666.4641661638902
 30
0.0
  0
SPLINE
  5
CD
330
1F
100
AcDbEntity
  8
0
  6
Continuous
 62
     7
370
    15
100
AcDbSpline
210
0.0
220
0.0
230
1.0
 70
     8
 71
     3
 72
    27
 73
    23
 74
     0
 42
0.00000001
 43
0.00000001
 12
1.0
 22
0.0
 32
0.0
 13
1.0
 23
0.0
 33
0.0
 40
0.0
 40
0.0
 40
0.0
 40
0.0
 40
0.017533346177184
 40
0.0710617009822045
 40
0.1247913757064306
 40
0.1785226844144217
 40
0.2324370296781195
 40
0.2863512278087423
 40
0.3403500166178886
 40
0.3943489210986243
 40
0.4482985386639541
 40
0.5022474304639896
 40
0.5560393895840638
 40
0.6098312251152291
 40
0.6634288286942209
 40
0.7170248938334414
 40
0.7704724603439891
 40
0.8239202390848007
 40
0.877324216536532
 40
0.9307284625895952
 40
0.9842114851580807
 40
1.0
 40
1.0
 40
1.0
 40
1.0
 10
29.37664609371011
 20
829.1603512200104
 30
0.0
 10
29.38325742268125
 20
829.1552530389143
 30
0.0
 10
29.41005278037826
 20
829.1345903874764
 30
0.0
 10
29.46740871371923
 20
829.2695542515156
 30
0.0
 10
29.54654133639837
 20
829.568680028809
 30
0.0
 10
29.63191263316659
 20
830.0351687650724
 30
0.0
 10
29.72024054838516
 20
830.6470224315993
 30
0.0
 10
29.80923004788012
 20
831.3862999032407
 30
0.0
 10
29.89619731489771
 20
832.2353336763761
 30
0.0
 10
29.97876036313644
 20
833.1663770972328
 30
0.0
 10
30.0544307425561
 20
834.155287759415
 30
0.0
 10
30.12130647214696
 20
835.1711756867309
 30
0.0
 10
30.17727587397263
 20
836.1858254047263
 30
0.0
 10
30.22121481424784
 20
837.1697246447351
 30
0.0
 10
30.25151432960469
 20
838.0939782460655
 30
0.0
 10
30.26795488649429
 20
838.9345124953045
 30
0.0
 10
30.26960959996217
 20
839.6650034667678
 30
0.0
 10
30.25698194393351
 20
840.2686604034944
 30
0.0
 10
30.2301459740684
 20
840.7277139693406
 30
0.0
 10
30.18940241501001
 20
841.0201737442252
 30
0.0
 10
30.15071848269874
 20
841.1501729492518
 30
0.0
 10
30.12293941902853
 20
841.1282649619778
 30
0.0
 10
30.11660795627419
 20
841.1232716473328
 30
0.0
  0
SPLINE
  5
CE
330
1F
100
AcDbEntity
  8
0
  6
Continuous
 62
     7
370
    15
100
AcDbSpline
210
0.0
220
0.0
230
1.0
 70
     8
 71
     3
 72
    23
 73
    19
 74
     0
 42
0.00000001
 43
0.00000001
 12
1.0
 22
0.0
 32
0.0
 13
1.0
 23
0.0
 33
0.0
 40
0.0
 40
0.0
 40
0.0
 40
0.0
 40
0.064814342675463
 40
0.1315057833479175
 40
0.1964455271801576
 40
0.2632580857111403
 40
0.3283705504695905
 40
0.3953626619556727
 40
0.4606118438108324
 40
0.5277542090593257
 40
0.5929828776673092
 40
0.6601127793008892
 40
0.7251778561913329
 40
0.7921431459824815
 40
0.8569758388363706
 40
0.9237003381763644
 40
0.9883316645205628
 40
0.9999999999999999
 40
0.9999999999999999
 40
0.9999999999999999
 40
0.9999999999999999
 10
29.30635731635873
 20
902.4683571490036
 30
0.0
 10
29.32380990254747
 20
902.6639489745498
 30
0.0
 10
29.35922052191737
 20
903.0607971901321
 30
0.0
 10
29.42635130062919
 20
903.8156426965572
 30
0.0
 10
29.50223093164426
 20
904.6715866220201
 30
0.0
 10
29.58449058524668
 20
905.6028257201796
 30
0.0
 10
29.67182306703051
 20
906.5960425621007
 30
0.0
 10
29.76042916368424
 20
907.6071618149729
 30
0.0
 10
29.84917971895441
 20
908.6247760646665
 30
0.0
 10
29.93406466564192
 20
909.6017204061735
 30
0.0
 10
30.01418042673391
 20
910.5271398271021
 30
0.0
 10
30.08577768400479
 20
911.3571821719861
 30
0.0
 10
30.1482309570407
 20
912.0837417817061
 30
0.0
 10
30.1986015425346
 20
912.6709721463612
 30
0.0
 10
30.23695374285227
 20
913.1190161049855
 30
0.0
 10
30.25987264800781
 20
913.3872022274838
 30
0.0
 10
30.26980618805922
 20
913.5034661418706
 30
0.0
 10
30.26757075358256
 20
913.4772727226365
 30
0.0
 10
30.26722889362161
 20
913.4732670220124
 30
0.0
  0
SPLINE
  5
CF
330
1F
100
AcDbEntity
  8
0
  6
Continuous
 62
     7
370
    15
100
AcDbSpline
210
0.0
220
0.0
230
1.0
 70
     8
 71
     3
 72
    15
 73
    11
 74
     0
 42
0.00000001
 43
0.00000001
 12
1.0
 22
0.0
 32
0.0
 13
1.0
 23
0.0
 33
0.0
 40
0.0
 40
0.0
 40
0.0
 40
0.0
 40
0.1331831772959549
 40
0.2578215976317171
 40
0.382428965600831
 40
0.5101349584758522
 40
0.6378430672018836
 40
0.7279522568685479
 40
0.8180698763616429
 40
1.0
 40
1.0
 40
1.0
 40
1.0
 10
40.70507507739846
 20
655.2897597732531
 30
0.0
 10
40.58181889874943
 20
655.7417185837403
 30
0.0
 10
40.34321440272776
 20
656.6166394630087
 30
0.0
 10
40.09040563134342
 20
657.9387771218229
 30
0.0
 10
39.9305414607806
 20
659.2558155629051
 30
0.0
 10
39.88310101322873
 20
660.5929600304765
 30
0.0
 10
39.9429152382106
 20
661.8080445128076
 30
0.0
 10
40.07453386017349
 20
662.8832505551188
 30
0.0
 10
40.29187295685811
 20
664.1389530655815
 30
0.0
 10
40.53948569875227
 20
665.0636675833227
 30
0.0
 10
40.70507507739846
 20
665.6820642831312
 30
0.0
  0
SPLINE
  5
D0
330
1F
100
AcDbEntity
  8
0
  6
Continuous
 62
     7
370
    15
100
AcDbSpline
210
0.0
220
0.0
230
1.0
 70
     8
 71
     3
 72
    16
 73
    12
 74
     0
 42
0.00000001
 43
0.00000001
 12
1.0
 22
0.0
 32
0.0
 13
1.0
 23
0.0
 33
0.0
 40
0.0
 40
0.0
 40
0.0
 40
0.0
 40
0.2499999999999931
 40
0.2499999999999931
 40
0.4999999999999862
 40
0.4999999999999862
 40
0.6249999999999897
 40
0.6249999999999897
 40
0.7499999999999931
 40
0.7499999999999931
 40
1.0
 40
1.0
 40
1.0
 40
1.0
 10
40.70507818075667
 20
650.0936071827789
 30
0.0
 10
40.46015643457932
 20
650.5178240910365
 30
0.0
 10
40.25829656443179
 20
650.945133903834
 30
0.0
 10
39.97865526297043
 20
651.8086654209241
 30
0.0
 10
39.90179625306124
 20
652.2449533778192
 30
0.0
 10
39.90095251723054
 20
652.9076052703319
 30
0.0
 10
39.91974178271763
 20
653.1295285222503
 30
0.0
 10
39.99300967920539
 20
653.568516128591
 30
0.0
 10
40.04741395793438
 20
653.7865381686528
 30
0.0
 10
40.25749374532956
 20
654.4367227037509
 30
0.0
 10
40.4598535856838
 20
654.8650187384991
 30
0.0
 10
40.70508096336207
 20
655.2897644250958
 30
0.0
  0
SPLINE
  5
D1
330
1F
100
AcDbEntity
  8
0
  6
Continuous
 62
     7
370
    15
100
AcDbSpline
210
0.0
220
0.0
230
1.0
 70
     8
 71
     3
 72
    15
 73
    11
 74
     0
 42
0.00000001
 43
0.00000001
 12
1.0
 22
0.0
 32
0.0
 13
1.0
 23
0.0
 33
0.0
 40
0.0
 40
0.0
 40
0.0
 40
0.0
 40
0.1323053686120031
 40
0.2645741406042438
 40
0.3998003977514749
 40
0.5350034945494659
 40
0.6501937656509413
 40
0.7654015025856429
 40
0.8826892464727518
 40
0.9999999999999999
 40
0.9999999999999999
 40
0.9999999999999999
 40
0.9999999999999999
 10
40.70507507739846
 20
665.6820642831312
 30
0.0
 10
40.58271020046853
 20
665.9065597825535
 30
0.0
 10
40.33801429361665
 20
666.3554886843224
 30
0.0
 10
40.07471167522237
 20
667.046787092529
 30
0.0
 10
39.91641197444221
 20
667.7511352382878
 30
0.0
 10
39.88506206504403
 20
668.4299509909459
 30
0.0
 10
39.96640420120352
 20
669.0721013393145
 30
0.0
 10
40.13305780358865
 20
669.6781369505252
 30
0.0
 10
40.37754680143453
 20
670.2814234485176
 30
0.0
 10
40.59589184691501
 20
670.6792725010836
 30
0.0
 10
40.70507507739846
 20
670.8782165380703
 30
0.0
  0
LINE
  5
D2
330
1F
100
AcDbEntity
  8
0
  6
Continuous
 62
     7
370
    15
100
AcDbLine
 10
40.7050750774
 20
670.8782165381
 30
0.0
 11
48.6313603443
 21
670.8782165381
 31
0.0
  0
SPLINE
  5
D3
330
1F
100
AcDbEntity
  8
0
  6
Continuous
 62
     7
370
    15
100
AcDbSpline
210
0.0
220
0.0
230
1.0
 70
     8
 71
     3
 72
    16
 73
    12
 74
     0
 42
0.00000001
 43
0.00000001
 12
1.0
 22
0.0
 32
0.0
 13
1.0
 23
0.0
 33
0.0
 40
0.0
 40
0.0
 40
0.0
 40
0.0
 40
0.2500000000000004
 40
0.2500000000000004
 40
0.5000000000000009
 40
0.5000000000000009
 40
0.625000000000001
 40
0.625000000000001
 40
0.7500000000000011
 40
0.7500000000000011
 40
1.0
 40
1.0
 40
1.0
 40
1.0
 10
48.6313576223863
 20
670.8782168736055
 30
0.0
 10
48.87627937001253
 20
670.4539999628383
 30
0.0
 10
49.07813924109914
 20
670.0266901474947
 30
0.0
 10
49.35778054274731
 20
669.1631586251908
 30
0.0
 10
49.43463955187558
 20
668.7268706656259
 30
0.0
 10
49.43548328504541
 20
668.0642187690016
 30
0.0
 10
49.41669401843957
 20
667.8422955158687
 30
0.0
 10
49.34342611942186
 20
667.4033079071048
 30
0.0
 10
49.28902183927226
 20
667.1852858658443
 30
0.0
 10
49.07894204731618
 20
666.5351013271746
 30
0.0
 10
48.87658220353861
 20
666.1068052900772
 30
0.0
 10
48.63135482237255
 20
665.6820596011364
 30
0.0
  0
LINE
  5
D4
330
1F
100
AcDbEntity
  8
0
  6
Continuous
 62
     7
370
    15
100
AcDbLine
 10
40.7050750774
 20
665.6820642831
 30
0.0
 11
48.6313603443
 21
665.6820642831
 31
0.0
  0
SPLINE
  5
D5
330
1F
100
AcDbEntity
  8
0
  6
Continuous
 62
     7
370
    15
100
AcDbSpline
210
0.0
220
0.0
230
1.0
 70
     8
 71
     3
 72
    15
 73
    11
 74
     0
 42
0.00000001
 43
0.00000001
 12
1.0
 22
0.0
 32
0.0
 13
1.0
 23
0.0
 33
0.0
 40
0.0
 40
0.0
 40
0.0
 40
0.0
 40
0.1323053686120031
 40
0.2645741406042438
 40
0.3998003977514749
 40
0.5350034945494659
 40
0.6501937656509413
 40
0.7654015025856429
 40
0.8826892464727518
 40
0.9999999999999999
 40
0.9999999999999999
 40
0.9999999999999999
 40
0.9999999999999999
 10
48.63136034427468
 20
655.2897597732531
 30
0.0
 10
48.75372522120464
 20
655.065264273831
 30
0.0
 10
48.99842112805651
 20
654.6163353720619
 30
0.0
 10
49.26172374645078
 20
653.9250369638553
 30
0.0
 10
49.42002344723096
 20
653.2206888180966
 30
0.0
 10
49.45137335662917
 20
652.5418730654384
 30
0.0
 10
49.37003122046961
 20
651.8997227170698
 30
0.0
 10
49.20337761808447
 20
651.2936871058592
 30
0.0
 10
48.9588886202386
 20
650.6904006078668
 30
0.0
 10
48.74054357475808
 20
650.2925515553007
 30
0.0
 10
48.63136034427468
 20
650.093607518314
 30
0.0
  0
SPLINE
  5
D6
330
1F
100
AcDbEntity
  8
0
  6
Continuous
 62
     7
370
    15
100
AcDbSpline
210
0.0
220
0.0
230
1.0
 70
     8
 71
     3
 72
    15
 73
    11
 74
     0
 42
0.00000001
 43
0.00000001
 12
1.0
 22
0.0
 32
0.0
 13
1.0
 23
0.0
 33
0.0
 40
0.0
 40
0.0
 40
0.0
 40
0.0
 40
0.1803000952358861
 40
0.2712330298072369
 40
0.3621570504309645
 40
0.4866567079975648
 40
0.611153796917906
 40
0.7389684040110934
 40
0.8668171247314831
 40
1.0
 40
1.0
 40
1.0
 40
1.0
 10
48.63136034427468
 20
665.6820642831312
 30
0.0
 10
48.79555089599433
 20
665.0692402182714
 30
0.0
 10
49.04254966075023
 20
664.1473431575224
 30
0.0
 10
49.26077638693636
 20
662.8917851513942
 30
0.0
 10
49.39199072129958
 20
661.8221076246562
 30
0.0
 10
49.45218833598259
 20
660.6268708492535
 30
0.0
 10
49.40942971443349
 20
659.3009558469636
 30
0.0
 10
49.25207101097845
 20
657.9721497339777
 30
0.0
 10
48.99616412208572
 20
656.6275398347954
 30
0.0
 10
48.75460700207172
 20
655.7417203380309
 30
0.0
 10
48.63136034427468
 20
655.2897597732531
 30
0.0
  0
LINE
  5
D7
330
1F
100
AcDbEntity
  8
0
  6
Continuous
 62
     7
370
    15
100
AcDbLine
 10
49.868216328
 20
660.4859120282
 30
0.0
 11
49.868216328
 21
668.7359119835
 31
0.0
  0
LINE
  5
D8
330
1F
100
AcDbEntity
  8
0
  6
Continuous
 62
     7
370
    15
100
AcDbLine
 10
49.868216328
 20
652.2359120729
 30
0.0
 11
49.868216328
 21
660.4859120282
 31
0.0
  0
LINE
  5
D9
330
1F
100
AcDbEntity
  8
0
  6
Continuous
 62
     7
370
    15
100
AcDbLine
 10
40.7050750774
 20
655.2897597733
 30
0.0
 11
48.6313603443
 21
655.2897597733
 31
0.0
  0
LINE
  5
DA
330
1F
100
AcDbEntity
  8
0
  6
Continuous
 62
     7
370
    15
100
AcDbLine
 10
40.7050750774
 20
650.0936075183
 30
0.0
 11
48.6313603443
 21
650.0936075183
 31
0.0
  0
LINE
  5
DB
330
1F
100
AcDbEntity
  8
0
  6
Continuous
 62
     7
370
    15
100
AcDbLine
 10
89.9682171267
 20
660.4859120282
 30
0.0
 11
89.9682171267
 21
666.4859120803
 31
0.0
  0
LINE
  5
DC
330
1F
100
AcDbEntity
  8
0
  6
Continuous
 62
     7
370
    15
100
AcDbLine
 10
89.9682171267
 20
654.485911976
 30
0.0
 11
89.9682171267
 21
660.4859120282
 31
0.0
  0
SPLINE
  5
DD
330
1F
100
AcDbEntity
  8
0
  6
Continuous
 62
     7
370
    15
100
AcDbSpline
210
0.0
220
0.0
230
1.0
 70
     8
 71
     3
 72
    14
 73
    10
 74
     0
 42
0.00000001
 43
0.00000001
 12
1.0
 22
0.0
 32
0.0
 13
1.0
 23
0.0
 33
0.0
 40
0.0
 40
0.0
 40
0.0
 40
0.0
 40
0.1250000000000028
 40
0.1250000000000028
 40
0.2500000000000056
 40
0.2500000000000056
 40
0.5000000000000014
 40
0.5000000000000014
 40
1.0
 40
1.0
 40
1.0
 40
1.0
 10
-106.4317820984285
 20
500.654435001777
 30
0.0
 10
-106.4317820984286
 20
501.1016046398499
 30
0.0
 10
-106.4438303902299
 20
501.5510114186169
 30
0.0
 10
-106.4916217976165
 20
502.4456438375212
 30
0.0
 10
-106.527313439455
 20
502.8914094375765
 30
0.0
 10
-106.6682414367925
 20
504.2242561558045
 30
0.0
 10
-106.8074093839733
 20
505.1068768703817
 30
0.0
 10
-107.3441655558432
 20
507.7390629583622
 30
0.0
 10
-107.8605420994693
 20
509.4730132716221
 30
0.0
 10
-108.4860592404004
 20
511.1926167450056
 30
0.0
  0
SPLINE
  5
DE
330
1F
100
AcDbEntity
  8
0
  6
Continuous
 62
     7
370
    15
100
AcDbSpline
210
0.0
220
0.0
230
1.0
 70
     8
 71
     3
 72
    12
 73
     8
 74
     0
 42
0.00000001
 43
0.00000001
 12
1.0
 22
0.0
 32
0.0
 13
1.0
 23
0.0
 33
0.0
 40
0.0
 40
0.0
 40
0.0
 40
0.0
 40
0.2499999999999986
 40
0.2499999999999986
 40
0.4999999999999972
 40
0.4999999999999972
 40
1.0
 40
1.0
 40
1.0
 40
1.0
 10
-108.4860592404005
 20
511.1926167450056
 30
0.0
 10
-108.1743289351937
 20
512.1901187239232
 30
0.0
 10
-107.8881393029262
 20
513.1967826462634
 30
0.0
 10
-107.3803188471907
 20
515.2332690097126
 30
0.0
 10
-107.1609257508034
 20
516.2548465427909
 30
0.0
 10
-106.6246621171482
 20
519.3266977945977
 30
0.0
 10
-106.4317820984284
 20
521.3860608376644
 30
0.0
 10
-106.4317820984285
 20
523.4588530460084
 30
0.0
  0
LINE
  5
DF
330
1F
100
AcDbEntity
  8
0
  6
Continuous
 62
     7
370
    15
100
AcDbLine
 10
-106.431791969
 20
500.6544328364
 30
0.0
 11
-106.431791969
 21
523.4588570031
 31
0.0
  0
LINE
  5
E0
330
1F
100
AcDbEntity
  8
0
  6
Continuous
 62
     7
370
    15
100
AcDbLine
 10
-133.2317687947
 20
535.7250905665
 30
0.0
 11
-133.2317687947
 21
523.4588570031
 31
0.0
  0
LINE
  5
E1
330
1F
100
AcDbEntity
  8
0
  6
Continuous
 62
     7
370
    15
100
AcDbLine
 10
-133.2317687947
 20
535.7250905665
 30
0.0
 11
-108.4860660511
 21
535.7250905665
 31
0.0
  0
SPLINE
  5
E2
330
1F
100
AcDbEntity
  8
0
  6
Continuous
 62
     7
370
    15
100
AcDbSpline
210
0.0
220
0.0
230
1.0
 70
     8
 71
     3
 72
    12
 73
     8
 74
     0
 42
0.00000001
 43
0.00000001
 12
1.0
 22
0.0
 32
0.0
 13
1.0
 23
0.0
 33
0.0
 40
0.0
 40
0.0
 40
0.0
 40
0.0
 40
0.2500000000000025
 40
0.2500000000000025
 40
0.500000000000005
 40
0.500000000000005
 40
1.0
 40
1.0
 40
1.0
 40
1.0
 10
-106.4317820984285
 20
523.4588530460084
 30
0.0
 10
-106.4317820984285
 20
524.4958649096554
 30
0.0
 10
-106.4794906293937
 20
525.5361984535456
 30
0.0
 10
-106.6690932842705
 20
527.6234231614609
 30
0.0
 10
-106.8100076088849
 20
528.6594033012901
 30
0.0
 10
-107.3500373511791
 20
531.7323089403621
 30
0.0
 10
-107.8662306114719
 20
533.7417073221682
 30
0.0
 10
-108.4860592404005
 20
535.7250893470112
 30
0.0
  0
LINE
  5
E3
330
1F
100
AcDbEntity
  8
0
  6
Continuous
 62
     7
370
    15
100
AcDbLine
 10
-133.2317687947
 20
511.1926234397
 30
0.0
 11
-108.4860660511
 21
511.1926234397
 31
0.0
  0
LINE
  5
E4
330
1F
100
AcDbEntity
  8
0
  6
Continuous
 62
     7
370
    15
100
AcDbLine
 10
-133.2317687947
 20
523.4588570031
 30
0.0
 11
-133.2317687947
 21
511.1926234397
 31
0.0
  0
LINE
  5
E5
330
1F
100
AcDbEntity
  8
0
  6
Continuous
 62
     7
370
    15
100
AcDbLine
 10
-133.2317687947
 20
500.6544328364
 30
0.0
 11
-133.2317687947
 21
490.1162571343
 31
0.0
  0
SPLINE
  5
E6
330
1F
100
AcDbEntity
  8
0
  6
Continuous
 62
     7
370
    15
100
AcDbSpline
210
0.0
220
0.0
230
1.0
 70
     8
 71
     3
 72
    10
 73
     6
 74
     0
 42
0.00000001
 43
0.00000001
 12
1.0
 22
0.0
 32
0.0
 13
1.0
 23
0.0
 33
0.0
 40
0.0
 40
0.0
 40
0.0
 40
0.0
 40
0.5
 40
0.5
 40
1.0
 40
1.0
 40
1.0
 40
1.0
 10
-108.4860592404003
 20
490.1162532585484
 30
0.0
 10
-107.8589758748836
 20
491.8401624256712
 30
0.0
 10
-107.3423526008897
 20
493.5766633521445
 30
0.0
 10
-106.6275654561474
 20
497.0859675846496
 30
0.0
 10
-106.4317820984286
 20
498.8590422542734
 30
0.0
 10
-106.4317820984285
 20
500.654435001777
 30
0.0
  0
LINE
  5
E7
330
1F
100
AcDbEntity
  8
0
  6
Continuous
 62
     7
370
    15
100
AcDbLine
 10
-133.2317687947
 20
490.1162571343
 30
0.0
 11
-108.4860660511
 21
490.1162571343
 31
0.0
  0
LINE
  5
E8
330
1F
100
AcDbEntity
  8
0
  6
Continuous
 62
     7
370
    15
100
AcDbLine
 10
-133.2317687947
 20
511.1926234397
 30
0.0
 11
-133.2317687947
 21
500.6544328364
 31
0.0
  0
LINE
  5
E9
330
1F
100
AcDbEntity
  8
0
  6
Continuous
 62
     7
370
    15
100
AcDbLine
 10
167.968218736
 20
539.648722771
 30
0.0
 11
167.968218736
 21
489.6487332019
 31
0.0
  0
LINE
  5
EA
330
1F
100
AcDbEntity
  8
0
  6
Continuous
 62
     7
370
    15
100
AcDbLine
 10
-134.0317823368
 20
539.648722771
 30
0.0
 11
-134.0317823368
 21
489.6487332019
 31
0.0
  0
SPLINE
  5
EB
330
1F
100
AcDbEntity
  8
0
  6
Continuous
 62
     7
370
    15
100
AcDbSpline
210
0.0
220
0.0
230
1.0
 70
     8
 71
     3
 72
    11
 73
     7
 74
     0
 42
0.00000001
 43
0.00000001
 12
1.0
 22
0.0
 32
0.0
 13
1.0
 23
0.0
 33
0.0
 40
0.0
 40
0.0
 40
0.0
 40
0.0
 40
0.1591572172020147
 40
0.4352973326751958
 40
0.7190821100472877
 40
1.0
 40
1.0
 40
1.0
 40
1.0
 10
29.12003319679086
 20
901.5077686938034
 30
0.0
 10
29.11897736628064
 20
901.5041237994819
 30
0.0
 10
29.11608965428776
 20
901.494154959841
 30
0.0
 10
29.16482231285012
 20
901.6601288109397
 30
0.0
 10
29.24388963911887
 20
901.9678036110139
 30
0.0
 10
29.28560535150943
 20
902.3020716412896
 30
0.0
 10
29.30635731635873
 20
902.4683571490036
 30
0.0
  0
SPLINE
  5
EC
330
1F
100
AcDbEntity
  8
0
  6
Continuous
 62
     7
370
    15
100
AcDbSpline
210
0.0
220
0.0
230
1.0
 70
     8
 71
     3
 72
    11
 73
     7
 74
     0
 42
0.00000001
 43
0.00000001
 12
1.0
 22
0.0
 32
0.0
 13
1.0
 23
0.0
 33
0.0
 40
0.0
 40
0.0
 40
0.0
 40
0.0
 40
0.2852356053798178
 40
0.5786682182054727
 40
0.8644697121347862
 40
1.0
 40
1.0
 40
1.0
 40
1.0
 10
29.30635731635873
 20
418.5034669073807
 30
0.0
 10
29.28518647441847
 20
418.6721616692097
 30
0.0
 10
29.24223638981336
 20
419.0143990877053
 30
0.0
 10
29.16133015548531
 20
419.3244912949279
 30
0.0
 10
29.11410571328869
 20
419.4839601141121
 30
0.0
 10
29.11859055311095
 20
419.4688998238073
 30
0.0
 10
29.12003319679086
 20
419.4640553625809
 30
0.0
  0
LINE
  5
ED
330
1F
100
AcDbEntity
  8
0
  6
Continuous
 62
     7
370
    15
100
AcDbLine
 10
167.1682182324
 20
534.5673150452
 30
0.0
 11
167.1682182324
 21
541.2068403395
 31
0.0
  0
LINE
  5
EE
330
1F
100
AcDbEntity
  8
0
  6
Continuous
 62
     7
370
    15
100
AcDbLine
 10
167.1682182324
 20
527.9277748498
 30
0.0
 11
167.1682182324
 21
534.5673150452
 31
0.0
  0
LINE
  5
EF
330
1F
100
AcDbEntity
  8
0
  6
Continuous
 62
     7
370
    15
100
AcDbLine
 10
167.1682182324
 20
527.9277748498
 30
0.0
 11
142.4224949998
 21
527.9277748498
 31
0.0
  0
SPLINE
  5
F0
330
1F
100
AcDbEntity
  8
0
  6
Continuous
 62
     7
370
    15
100
AcDbSpline
210
0.0
220
0.0
230
1.0
 70
     8
 71
     3
 72
    14
 73
    10
 74
     0
 42
0.00000001
 43
0.00000001
 12
1.0
 22
0.0
 32
0.0
 13
1.0
 23
0.0
 33
0.0
 40
0.0
 40
0.0
 40
0.0
 40
0.0
 40
0.1249999999999989
 40
0.1249999999999989
 40
0.2499999999999978
 40
0.2499999999999978
 40
0.4999999999999958
 40
0.4999999999999958
 40
1.0
 40
1.0
 40
1.0
 40
1.0
 10
140.3682179015715
 20
534.5673101475961
 30
0.0
 10
140.3682179015715
 20
534.2855731793161
 30
0.0
 10
140.3802661933727
 20
534.0024267118592
 30
0.0
 10
140.4280576007595
 20
533.4387680821874
 30
0.0
 10
140.4637492425979
 20
533.1579157209576
 30
0.0
 10
140.6046772399355
 20
532.3181623888805
 30
0.0
 10
140.7438451871163
 20
531.7620716727537
 30
0.0
 10
141.2806013589861
 20
530.1036761439959
 30
0.0
 10
141.7969779026122
 20
529.0112095210133
 30
0.0
 10
142.4224950435433
 20
527.9277820519154
 30
0.0
  0
SPLINE
  5
F1
330
1F
100
AcDbEntity
  8
0
  6
Continuous
 62
     7
370
    15
100
AcDbSpline
210
0.0
220
0.0
230
1.0
 70
     8
 71
     3
 72
    10
 73
     6
 74
     0
 42
0.00000001
 43
0.00000001
 12
1.0
 22
0.0
 32
0.0
 13
1.0
 23
0.0
 33
0.0
 40
0.0
 40
0.0
 40
0.0
 40
0.0
 40
0.5
 40
0.5
 40
1.0
 40
1.0
 40
1.0
 40
1.0
 10
142.4224950435432
 20
541.2068382432768
 30
0.0
 10
141.7954116780265
 20
540.1206979936206
 30
0.0
 10
141.2787884040326
 20
539.026624369686
 30
0.0
 10
140.5640012592903
 20
536.8156049912262
 30
0.0
 10
140.3682179015715
 20
535.6984882654427
 30
0.0
 10
140.3682179015715
 20
534.5673101475961
 30
0.0
  0
LINE
  5
F2
330
1F
100
AcDbEntity
  8
0
  6
Continuous
 62
     7
370
    15
100
AcDbLine
 10
167.1682182324
 20
541.2068403395
 30
0.0
 11
142.4224949998
 21
541.2068403395
 31
0.0
  0
SPLINE
  5
F3
330
1F
100
AcDbEntity
  8
0
  6
Continuous
 62
     7
370
    15
100
AcDbSpline
210
0.0
220
0.0
230
1.0
 70
     8
 71
     3
 72
    12
 73
     8
 74
     0
 42
0.00000001
 43
0.00000001
 12
1.0
 22
0.0
 32
0.0
 13
1.0
 23
0.0
 33
0.0
 40
0.0
 40
0.0
 40
0.0
 40
0.0
 40
0.2500000000000016
 40
0.2500000000000016
 40
0.5000000000000031
 40
0.5000000000000031
 40
1.0
 40
1.0
 40
1.0
 40
1.0
 10
142.4224950435434
 20
527.9277820519153
 30
0.0
 10
142.1107647383365
 20
526.8479165981609
 30
0.0
 10
141.8245751060692
 20
525.7581327017365
 30
0.0
 10
141.3167546503336
 20
523.5534941973426
 30
0.0
 10
141.0973615539463
 20
522.4475652772816
 30
0.0
 10
140.5610979202911
 20
519.1220720792653
 30
0.0
 10
140.3682179015714
 20
516.8926679738626
 30
0.0
 10
140.3682179015714
 20
514.6487258605539
 30
0.0
  0
LINE
  5
F4
330
1F
100
AcDbEntity
  8
0
  6
Continuous
 62
     7
370
    15
100
AcDbLine
 10
140.3682171923
 20
534.5673150452
 30
0.0
 11
140.3682171923
 21
514.6487242612
 31
0.0
  0
LINE
  5
F5
330
1F
100
AcDbEntity
  8
0
  6
Continuous
 62
     7
370
    15
100
AcDbLine
 10
167.1682182324
 20
514.6487242612
 30
0.0
 11
167.1682182324
 21
527.9277748498
 31
0.0
  0
LINE
  5
F6
330
1F
100
AcDbEntity
  8
0
  6
Continuous
 62
     7
370
    15
100
AcDbLine
 10
167.1682182324
 20
501.3696736726
 30
0.0
 11
167.1682182324
 21
514.6487242612
 31
0.0
  0
LINE
  5
F7
330
1F
100
AcDbEntity
  8
0
  6
Continuous
 62
     7
370
    15
100
AcDbLine
 10
167.1682182324
 20
501.3696736726
 30
0.0
 11
142.4224949998
 21
501.3696736726
 31
0.0
  0
SPLINE
  5
F8
330
1F
100
AcDbEntity
  8
0
  6
Continuous
 62
     7
370
    15
100
AcDbSpline
210
0.0
220
0.0
230
1.0
 70
     8
 71
     3
 72
    12
 73
     8
 74
     0
 42
0.00000001
 43
0.00000001
 12
1.0
 22
0.0
 32
0.0
 13
1.0
 23
0.0
 33
0.0
 40
0.0
 40
0.0
 40
0.0
 40
0.0
 40
0.2499999999999999
 40
0.2499999999999999
 40
0.4999999999999999
 40
0.4999999999999999
 40
1.0
 40
1.0
 40
1.0
 40
1.0
 10
140.3682179015714
 20
514.6487258605539
 30
0.0
 10
140.3682179015714
 20
513.5260882013273
 30
0.0
 10
140.4159264325365
 20
512.3998545915977
 30
0.0
 10
140.6055290874135
 20
510.1402882910414
 30
0.0
 10
140.7464434120279
 20
509.0187675447958
 30
0.0
 10
141.286473154322
 20
505.6921328990363
 30
0.0
 10
141.8026664146147
 20
503.5168190237729
 30
0.0
 10
142.4224950435434
 20
501.3696696691925
 30
0.0
  0
SPLINE
  5
F9
330
1F
100
AcDbEntity
  8
0
  6
Continuous
 62
     7
370
    15
100
AcDbSpline
210
0.0
220
0.0
230
1.0
 70
     8
 71
     3
 72
    10
 73
     6
 74
     0
 42
0.00000001
 43
0.00000001
 12
1.0
 22
0.0
 32
0.0
 13
1.0
 23
0.0
 33
0.0
 40
0.0
 40
0.0
 40
0.0
 40
0.0
 40
0.5
 40
0.5
 40
1.0
 40
1.0
 40
1.0
 40
1.0
 10
142.4224950435432
 20
501.3696696691925
 30
0.0
 10
141.7954116780265
 20
500.2835294195363
 30
0.0
 10
141.2787884040326
 20
499.1894557956018
 30
0.0
 10
140.5640012592902
 20
496.9784364171421
 30
0.0
 10
140.3682179015714
 20
495.8613196913586
 30
0.0
 10
140.3682179015714
 20
494.7301415735119
 30
0.0
  0
LINE
  5
FA
330
1F
100
AcDbEntity
  8
0
  6
Continuous
 62
     7
370
    15
100
AcDbLine
 10
140.3682171923
 20
514.6487242612
 30
0.0
 11
140.3682171923
 21
494.7301483783
 31
0.0
  0
LINE
  5
FB
330
1F
100
AcDbEntity
  8
0
  6
Continuous
 62
     7
370
    15
100
AcDbLine
 10
167.1682182324
 20
488.0906081828
 30
0.0
 11
167.1682182324
 21
494.7301483783
 31
0.0
  0
LINE
  5
FC
330
1F
100
AcDbEntity
  8
0
  6
Continuous
 62
     7
370
    15
100
AcDbLine
 10
167.1682182324
 20
488.0906081828
 30
0.0
 11
142.4224949998
 21
488.0906081828
 31
0.0
  0
SPLINE
  5
FD
330
1F
100
AcDbEntity
  8
0
  6
Continuous
 62
     7
370
    15
100
AcDbSpline
210
0.0
220
0.0
230
1.0
 70
     8
 71
     3
 72
    14
 73
    10
 74
     0
 42
0.00000001
 43
0.00000001
 12
1.0
 22
0.0
 32
0.0
 13
1.0
 23
0.0
 33
0.0
 40
0.0
 40
0.0
 40
0.0
 40
0.0
 40
0.1250000000000001
 40
0.1250000000000001
 40
0.2500000000000001
 40
0.2500000000000001
 40
0.5000000000000001
 40
0.5000000000000001
 40
1.0
 40
1.0
 40
1.0
 40
1.0
 10
140.3682179015714
 20
494.7301415735119
 30
0.0
 10
140.3682179015714
 20
494.4484046052319
 30
0.0
 10
140.3802661933727
 20
494.1652581377751
 30
0.0
 10
140.4280576007595
 20
493.6015995081032
 30
0.0
 10
140.4637492425978
 20
493.3207471468734
 30
0.0
 10
140.6046772399355
 20
492.4809938147963
 30
0.0
 10
140.7438451871163
 20
491.9249030986695
 30
0.0
 10
141.2806013589861
 20
490.2665075699119
 30
0.0
 10
141.7969779026122
 20
489.1740409469292
 30
0.0
 10
142.4224950435433
 20
488.0906134778313
 30
0.0
  0
LINE
  5
FE
330
1F
100
AcDbEntity
  8
0
  6
Continuous
 62
     7
370
    15
100
AcDbLine
 10
167.1682182324
 20
494.7301483783
 30
0.0
 11
167.1682182324
 21
501.3696736726
 31
0.0
  0
SPLINE
  5
FF
330
1F
100
AcDbEntity
  8
0
  6
Continuous
 62
     7
370
    15
100
AcDbSpline
210
0.0
220
0.0
230
1.0
 70
     8
 71
     3
 72
    10
 73
     6
 74
     0
 42
0.00000001
 43
0.00000001
 12
1.0
 22
0.0
 32
0.0
 13
1.0
 23
0.0
 33
0.0
 40
0.0
 40
0.0
 40
0.0
 40
0.0
 40
0.5
 40
0.5
 40
1.0
 40
1.0
 40
1.0
 40
1.0
 10
-108.4860592404003
 20
535.7250893470112
 30
0.0
 10
-107.8589758748835
 20
536.0077765473293
 30
0.0
 10
-107.3423526008898
 20
536.292528548546
 30
0.0
 10
-106.6275654561474
 20
536.8679854272903
 30
0.0
 10
-106.4317820984286
 20
537.1587348031098
 30
0.0
 10
-106.4317820984285
 20
537.4531439047855
 30
0.0
  0
LINE
  5
100
330
1F
100
AcDbEntity
  8
0
  6
Continuous
 62
     7
370
    15
100
AcDbLine
 10
-106.431791969
 20
523.4588570031
 30
0.0
 11
-106.431791969
 21
537.4531409773
 31
0.0
  0
SPLINE
  5
101
330
1F
100
AcDbEntity
  8
0
  6
Continuous
 62
     7
370
    15
100
AcDbSpline
210
0.0
220
0.0
230
1.0
 70
     8
 71
     3
 72
    12
 73
     8
 74
     0
 42
0.00000001
 43
0.00000001
 12
1.0
 22
0.0
 32
0.0
 13
1.0
 23
0.0
 33
0.0
 40
0.0
 40
0.0
 40
0.0
 40
0.0
 40
0.1973982306688567
 40
0.3953344450118954
 40
0.5968456880787193
 40
0.7984480769239337
 40
1.0
 40
1.0
 40
1.0
 40
1.0
 10
-106.5463818985385
 20
491.4514607819306
 30
0.0
 10
-106.6078990621104
 20
491.3622422566326
 30
0.0
 10
-106.7311010464294
 20
491.1835620523371
 30
0.0
 10
-107.0417085990167
 20
490.9156145561451
 30
0.0
 10
-107.4397958025781
 20
490.6478181267767
 30
0.0
 10
-107.9191750195034
 20
490.3805413797369
 30
0.0
 10
-108.2971181438958
 20
490.2043445308416
 30
0.0
 10
-108.4860660511416
 20
490.116257134317
 30
0.0
  0
LINE
  5
102
330
1F
100
AcDbEntity
  8
0
  6
Continuous
 62
     7
370
    15
100
AcDbLine
 10
-106.431791969
 20
491.6487223538
 30
0.0
 11
-106.431791969
 21
500.6544328364
 31
0.0
  0
LINE
  5
103
330
1F
100
AcDbEntity
  8
0
  6
Continuous
 62
     7
370
    15
100
AcDbLine
 10
-3.0317850787
 20
894.113499585
 30
0.0
 11
-3.0317850787
 21
892.2466821107
 31
0.0
  0
LINE
  5
104
330
1F
100
AcDbEntity
  8
0
  6
Continuous
 62
     7
370
    15
100
AcDbLine
 10
-3.0317850787
 20
865.2466869982
 30
0.0
 11
-3.0317850787
 21
841.1412871512
 31
0.0
  0
LINE
  5
105
330
1F
100
AcDbEntity
  8
0
  6
Continuous
 62
     7
370
    15
100
AcDbLine
 10
-3.0317850787
 20
829.1412926348
 30
0.0
 11
-3.0317850787
 21
666.4859120803
 31
0.0
  0
LINE
  5
106
330
1F
100
AcDbEntity
  8
0
  6
Continuous
 62
     7
370
    15
100
AcDbLine
 10
-3.0317850787
 20
654.485911976
 30
0.0
 11
-3.0317850787
 21
528.148729268
 31
0.0
  0
LINE
  5
107
330
1F
100
AcDbEntity
  8
0
  6
Continuous
 62
     7
370
    15
100
AcDbLine
 10
-3.0317850787
 20
501.1487192544
 30
0.0
 11
-3.0317850787
 21
491.8305314215
 31
0.0
  0
LINE
  5
108
330
1F
100
AcDbEntity
  8
0
  6
Continuous
 62
     7
370
    15
100
AcDbLine
 10
-3.0317850787
 20
479.8305369052
 30
0.0
 11
-3.0317850787
 21
426.8583244714
 31
0.0
  0
LINE
  5
109
330
1F
100
AcDbEntity
  8
0
  6
Continuous
 62
     7
370
    15
100
AcDbLine
 10
-133.2317687947
 20
539.1811988386
 30
0.0
 11
-133.2317687947
 21
537.4531409773
 31
0.0
  0
LINE
  5
10A
330
1F
100
AcDbEntity
  8
0
  6
Continuous
 62
     7
370
    15
100
AcDbLine
 10
-133.2317687947
 20
539.1811988386
 30
0.0
 11
-108.4860660511
 21
539.1811988386
 31
0.0
  0
SPLINE
  5
10B
330
1F
100
AcDbEntity
  8
0
  6
Continuous
 62
     7
370
    15
100
AcDbSpline
210
0.0
220
0.0
230
1.0
 70
     8
 71
     3
 72
    14
 73
    10
 74
     0
 42
0.00000001
 43
0.00000001
 12
1.0
 22
0.0
 32
0.0
 13
1.0
 23
0.0
 33
0.0
 40
0.0
 40
0.0
 40
0.0
 40
0.0
 40
0.1249999999999998
 40
0.1249999999999998
 40
0.2499999999999996
 40
0.2499999999999996
 40
0.5000000000000006
 40
0.5000000000000006
 40
1.0
 40
1.0
 40
1.0
 40
1.0
 10
-106.4317820984285
 20
537.4531439047855
 30
0.0
 10
-106.4317820984286
 20
537.5264709312117
 30
0.0
 10
-106.4438303902299
 20
537.6001648047153
 30
0.0
 10
-106.4916217976165
 20
537.746866927215
 30
0.0
 10
-106.5273134394549
 20
537.8199637190188
 30
0.0
 10
-106.6682414367925
 20
538.0385243685092
 30
0.0
 10
-106.8074093839733
 20
538.1832568077264
 30
0.0
 10
-107.3441655558431
 20
538.6148835605262
 30
0.0
 10
-107.8605420994693
 20
538.8992173113375
 30
0.0
 10
-108.4860592404004
 20
539.1811984625598
 30
0.0
  0
LINE
  5
10C
330
1F
100
AcDbEntity
  8
0
  6
Continuous
 62
     7
370
    15
100
AcDbLine
 10
-133.2317687947
 20
537.4531409773
 30
0.0
 11
-133.2317687947
 21
535.7250905665
 31
0.0
  0
LINE
  5
10D
330
1F
100
AcDbEntity
  8
0
  6
Continuous
 62
     7
370
    15
100
AcDbLine
 10
-275.5317785221
 20
528.148729268
 30
0.0
 11
-275.5317785221
 21
501.1487192544
 31
0.0
  0
LINE
  5
10E
330
1F
100
AcDbEntity
  8
0
  6
Continuous
 62
     7
370
    15
100
AcDbLine
 10
309.4682149213
 20
528.148729268
 30
0.0
 11
309.4682149213
 21
501.1487192544
 31
0.0
  0
LINE
  5
10F
330
1F
100
AcDbEntity
  8
0
  6
Continuous
 62
     7
370
    15
100
AcDbLine
 10
140.3682171923
 20
537.6487261685
 30
0.0
 11
140.3682171923
 21
534.5673150452
 31
0.0
  0
LINE
  5
110
330
1F
100
AcDbEntity
  8
0
  6
Continuous
 62
     7
370
    15
100
AcDbLine
 10
140.3682171923
 20
494.7301483783
 30
0.0
 11
140.3682171923
 21
491.6487223538
 31
0.0
  0
LINE
  5
111
330
1F
100
AcDbEntity
  8
0
  6
Continuous
 62
     7
370
    15
100
AcDbLine
 10
-106.431791969
 20
537.4531409773
 30
0.0
 11
-106.431791969
 21
537.6487261685
 31
0.0
  0
LINE
  5
112
330
1F
100
AcDbEntity
  8
0
  6
Continuous
 62
     7
370
    15
100
AcDbLine
 10
36.9682214779
 20
501.1487192544
 30
0.0
 11
36.9682214779
 21
399.4859046372
 31
0.0
  0
LINE
  5
113
330
1F
100
AcDbEntity
  8
0
  6
Continuous
 62
     7
370
    15
100
AcDbLine
 10
39.4682190937
 20
826.6560024651
 30
0.0
 11
39.4682190937
 21
847.1412844094
 31
0.0
  0
LINE
  5
114
330
1F
100
AcDbEntity
  8
0
  6
Continuous
 62
     7
370
    15
100
AcDbLine
 10
39.4682190937
 20
823.1412804755
 30
0.0
 11
39.4682190937
 21
826.6560024651
 31
0.0
  0
LINE
  5
115
330
1F
100
AcDbEntity
  8
0
  6
Continuous
 62
     7
370
    15
100
AcDbLine
 10
39.4682190937
 20
473.830539647
 30
0.0
 11
39.4682190937
 21
497.8305435809
 31
0.0
  0
SPLINE
  5
116
330
1F
100
AcDbEntity
  8
0
  6
Continuous
 62
     7
370
    15
100
AcDbSpline
210
0.0
220
0.0
230
1.0
 70
     8
 71
     3
 72
    16
 73
    12
 74
     0
 42
0.00000001
 43
0.00000001
 12
1.0
 22
0.0
 32
0.0
 13
1.0
 23
0.0
 33
0.0
 40
0.0
 40
0.0
 40
0.0
 40
0.0
 40
0.25
 40
0.25
 40
0.5
 40
0.5
 40
0.625
 40
0.625
 40
0.75
 40
0.75
 40
1.0
 40
1.0
 40
1.0
 40
1.0
 10
48.63135762238633
 20
827.7928177529177
 30
0.0
 10
48.87627913696874
 20
827.5732271303368
 30
0.0
 10
49.07813885700519
 20
827.3520355055863
 30
0.0
 10
49.35778012860229
 20
826.9050391316432
 30
0.0
 10
49.43463926333065
 20
826.6792000877502
 30
0.0
 10
49.43548342449972
 20
826.3361865678321
 30
0.0
 10
49.41669433782972
 20
826.2213107400299
 30
0.0
 10
49.34342684574884
 20
825.994074234365
 30
0.0
 10
49.28902279408557
 20
825.8812178211112
 30
0.0
 10
49.07894373573338
 20
825.5446578355906
 30
0.0
 10
48.87658444256613
 20
825.3229556885047
 30
0.0
 10
48.63135762238613
 20
825.1030913364137
 30
0.0
  0
SPLINE
  5
117
330
1F
100
AcDbEntity
  8
0
  6
Continuous
 62
     7
370
    15
100
AcDbSpline
210
0.0
220
0.0
230
1.0
 70
     8
 71
     3
 72
    16
 73
    12
 74
     0
 42
0.00000001
 43
0.00000001
 12
1.0
 22
0.0
 32
0.0
 13
1.0
 23
0.0
 33
0.0
 40
0.0
 40
0.0
 40
0.0
 40
0.0
 40
0.2499999999999952
 40
0.2499999999999952
 40
0.4999999999999905
 40
0.4999999999999905
 40
0.6249999999999928
 40
0.6249999999999928
 40
0.7499999999999952
 40
0.7499999999999952
 40
1.0
 40
1.0
 40
1.0
 40
1.0
 10
48.63135762238628
 20
837.8310133977714
 30
0.0
 10
48.87627913696866
 20
837.011490037434
 30
0.0
 10
49.07813885700521
 20
836.1859916556564
 30
0.0
 10
49.35778012860229
 20
834.5177784773018
 30
0.0
 10
49.43463926333062
 20
833.6749356911598
 30
0.0
 10
49.43548342449978
 20
832.3947918071424
 30
0.0
 10
49.41669433782967
 20
831.9660693812232
 30
0.0
 10
49.34342684574881
 20
831.1180111967469
 30
0.0
 10
49.28902279408551
 20
830.6968253285244
 30
0.0
 10
49.07894373573335
 20
829.4407663627666
 30
0.0
 10
48.87658444256605
 20
828.613362685695
 30
0.0
 10
48.6313576223861
 20
827.7928177529177
 30
0.0
  0
SPLINE
  5
118
330
1F
100
AcDbEntity
  8
0
  6
Continuous
 62
     7
370
    15
100
AcDbSpline
210
0.0
220
0.0
230
1.0
 70
     8
 71
     3
 72
    16
 73
    12
 74
     0
 42
0.00000001
 43
0.00000001
 12
1.0
 22
0.0
 32
0.0
 13
1.0
 23
0.0
 33
0.0
 40
0.0
 40
0.0
 40
0.0
 40
0.0
 40
0.25
 40
0.25
 40
0.5
 40
0.5
 40
0.625
 40
0.625
 40
0.75
 40
0.75
 40
1.0
 40
1.0
 40
1.0
 40
1.0
 10
48.63135762238594
 20
837.8310133977714
 30
0.0
 10
48.87533291891638
 20
838.4286283841151
 30
0.0
 10
49.08002687440736
 20
839.0408611612901
 30
0.0
 10
49.35988064673289
 20
840.2683174574007
 30
0.0
 10
49.43528922102395
 20
840.8853672149392
 30
0.0
 10
49.43516308179125
 20
841.8167717579439
 30
0.0
 10
49.41647161559768
 20
842.1282000708491
 30
0.0
 10
49.34229675854063
 20
842.7529508628636
 30
0.0
 10
49.28712051021992
 20
843.0634463850253
 30
0.0
 10
49.07578347014433
 20
843.9838187805007
 30
0.0
 10
48.87382040577482
 20
844.585572525203
 30
0.0
 10
48.63135762238588
 20
845.179482626121
 30
0.0
  0
SPLINE
  5
119
330
1F
100
AcDbEntity
  8
0
  6
Continuous
 62
     7
370
    15
100
AcDbSpline
210
0.0
220
0.0
230
1.0
 70
     8
 71
     3
 72
    10
 73
     6
 74
     0
 42
0.00000001
 43
0.00000001
 12
1.0
 22
0.0
 32
0.0
 13
1.0
 23
0.0
 33
0.0
 40
0.0
 40
0.0
 40
0.0
 40
0.0
 40
0.132632534927086
 40
0.5662766109772616
 40
1.0
 40
1.0
 40
1.0
 40
1.0
 10
49.24271028457467
 20
844.4587922724472
 30
0.0
 10
49.22658925728724
 20
844.4911812892918
 30
0.0
 10
49.15776028781297
 20
844.6294666858705
 30
0.0
 10
48.95543209935317
 20
844.8704202373824
 30
0.0
 10
48.73939084764554
 20
845.0764584214049
 30
0.0
 10
48.63136034427468
 20
845.1794869335877
 30
0.0
  0
LINE
  5
11A
330
1F
100
AcDbEntity
  8
0
  6
Continuous
 62
     7
370
    15
100
AcDbLine
 10
49.868216328
 20
840.9749156865
 30
0.0
 11
49.868216328
 21
843.3912879857
 31
0.0
  0
LINE
  5
11B
330
1F
100
AcDbEntity
  8
0
  6
Continuous
 62
     7
370
    15
100
AcDbLine
 10
49.868216328
 20
826.8912918004
 30
0.0
 11
49.868216328
 21
840.9749156865
 31
0.0
  0
LINE
  5
11C
330
1F
100
AcDbEntity
  8
0
  6
Continuous
 62
     7
370
    15
100
AcDbLine
 10
40.7050750774
 20
837.8310090932
 30
0.0
 11
48.6313603443
 21
837.8310090932
 31
0.0
  0
LINE
  5
11D
330
1F
100
AcDbEntity
  8
0
  6
Continuous
 62
     7
370
    15
100
AcDbLine
 10
40.7050750774
 20
827.7928120526
 30
0.0
 11
48.6313603443
 21
827.7928120526
 31
0.0
  0
SPLINE
  5
11E
330
1F
100
AcDbEntity
  8
0
  6
Continuous
 62
     7
370
    15
100
AcDbSpline
210
0.0
220
0.0
230
1.0
 70
     8
 71
     3
 72
    16
 73
    12
 74
     0
 42
0.00000001
 43
0.00000001
 12
1.0
 22
0.0
 32
0.0
 13
1.0
 23
0.0
 33
0.0
 40
0.0
 40
0.0
 40
0.0
 40
0.0
 40
0.250000000000001
 40
0.250000000000001
 40
0.500000000000002
 40
0.500000000000002
 40
0.6250000000000014
 40
0.6250000000000014
 40
0.750000000000001
 40
0.750000000000001
 40
1.0
 40
1.0
 40
1.0
 40
1.0
 10
40.70507818075664
 20
827.7928177529176
 30
0.0
 10
40.46015666617426
 20
828.6123411132548
 30
0.0
 10
40.25829694613775
 20
829.4378394950324
 30
0.0
 10
39.97865567454071
 20
831.1060526733871
 30
0.0
 10
39.90179653981239
 20
831.9488954595291
 30
0.0
 10
39.90095237864317
 20
833.2290393435466
 30
0.0
 10
39.9197414653133
 20
833.6577617694659
 30
0.0
 10
39.99300895739405
 20
834.5058199539421
 30
0.0
 10
40.04741300905743
 20
834.9270058221646
 30
0.0
 10
40.25749206740951
 20
836.1830647879225
 30
0.0
 10
40.45985136057681
 20
837.0104684649939
 30
0.0
 10
40.70507818075684
 20
837.8310133977714
 30
0.0
  0
SPLINE
  5
11F
330
1F
100
AcDbEntity
  8
0
  6
Continuous
 62
     7
370
    15
100
AcDbSpline
210
0.0
220
0.0
230
1.0
 70
     8
 71
     3
 72
    16
 73
    12
 74
     0
 42
0.00000001
 43
0.00000001
 12
1.0
 22
0.0
 32
0.0
 13
1.0
 23
0.0
 33
0.0
 40
0.0
 40
0.0
 40
0.0
 40
0.0
 40
0.2499999999999986
 40
0.2499999999999986
 40
0.4999999999999972
 40
0.4999999999999972
 40
0.6249999999999966
 40
0.6249999999999966
 40
0.7499999999999958
 40
0.7499999999999958
 40
1.0
 40
1.0
 40
1.0
 40
1.0
 10
40.70507818075698
 20
837.8310133977714
 30
0.0
 10
40.46110288422648
 20
838.4286283841151
 30
0.0
 10
40.25640892873559
 20
839.0408611612901
 30
0.0
 10
39.97655515641006
 20
840.2683174574008
 30
0.0
 10
39.90114658211894
 20
840.8853672149393
 30
0.0
 10
39.90127272135164
 20
841.8167717579439
 30
0.0
 10
39.91996418754524
 20
842.1282000708491
 30
0.0
 10
39.99413904460229
 20
842.7529508628636
 30
0.0
 10
40.049315292923
 20
843.0634463850253
 30
0.0
 10
40.26065233299853
 20
843.9838187805007
 30
0.0
 10
40.46261539736807
 20
844.585572525203
 30
0.0
 10
40.70507818075701
 20
845.179482626121
 30
0.0
  0
SPLINE
  5
120
330
1F
100
AcDbEntity
  8
0
  6
Continuous
 62
     7
370
    15
100
AcDbSpline
210
0.0
220
0.0
230
1.0
 70
     8
 71
     3
 72
    16
 73
    12
 74
     0
 42
0.00000001
 43
0.00000001
 12
1.0
 22
0.0
 32
0.0
 13
1.0
 23
0.0
 33
0.0
 40
0.0
 40
0.0
 40
0.0
 40
0.0
 40
0.2499999999999991
 40
0.2499999999999991
 40
0.4999999999999982
 40
0.4999999999999982
 40
0.6250000000000006
 40
0.6250000000000006
 40
0.7500000000000029
 40
0.7500000000000029
 40
1.0
 40
1.0
 40
1.0
 40
1.0
 10
40.70507818075667
 20
825.1030913364137
 30
0.0
 10
40.4601566661742
 20
825.3226819589945
 30
0.0
 10
40.25829694613775
 20
825.5438735837449
 30
0.0
 10
39.97865567454071
 20
825.990869957688
 30
0.0
 10
39.9017965398123
 20
826.2167090015811
 30
0.0
 10
39.90095237864317
 20
826.5597225214992
 30
0.0
 10
39.91974146531322
 20
826.6745983493014
 30
0.0
 10
39.99300895739405
 20
826.9018348549664
 30
0.0
 10
40.04741300905743
 20
827.0146912682201
 30
0.0
 10
40.25749206740939
 20
827.3512512537408
 30
0.0
 10
40.45985136057681
 20
827.5729534008266
 30
0.0
 10
40.70507818075681
 20
827.7928177529177
 30
0.0
  0
SPLINE
  5
121
330
1F
100
AcDbEntity
  8
0
  6
Continuous
 62
     7
370
    15
100
AcDbSpline
210
0.0
220
0.0
230
1.0
 70
     8
 71
     3
 72
    10
 73
     6
 74
     0
 42
0.00000001
 43
0.00000001
 12
1.0
 22
0.0
 32
0.0
 13
1.0
 23
0.0
 33
0.0
 40
0.0
 40
0.0
 40
0.0
 40
0.0
 40
0.4890190323102228
 40
0.9779002953575316
 40
1.0
 40
1.0
 40
1.0
 40
1.0
 10
40.70507507739846
 20
845.1794869335877
 30
0.0
 10
40.58518893596531
 20
845.0632016148031
 30
0.0
 10
40.34545042811433
 20
844.8306637378047
 30
0.0
 10
40.14192863937966
 20
844.5892954915697
 30
0.0
 10
40.0893816557206
 20
844.4642024903508
 30
0.0
 10
40.08710902152841
 20
844.4587922724472
 30
0.0
  0
LINE
  5
122
330
1F
100
AcDbEntity
  8
0
  6
Continuous
 62
     7
370
    15
100
AcDbLine
 10
40.7050750774
 20
493.1790120038
 30
0.0
 11
48.6313603443
 21
493.1790120038
 31
0.0
  0
SPLINE
  5
123
330
1F
100
AcDbEntity
  8
0
  6
Continuous
 62
     7
370
    15
100
AcDbSpline
210
0.0
220
0.0
230
1.0
 70
     8
 71
     3
 72
    16
 73
    12
 74
     0
 42
0.00000001
 43
0.00000001
 12
1.0
 22
0.0
 32
0.0
 13
1.0
 23
0.0
 33
0.0
 40
0.0
 40
0.0
 40
0.0
 40
0.0
 40
0.2499999999999962
 40
0.2499999999999962
 40
0.4999999999999925
 40
0.4999999999999925
 40
0.6249999999999943
 40
0.6249999999999943
 40
0.7499999999999962
 40
0.7499999999999962
 40
1.0
 40
1.0
 40
1.0
 40
1.0
 10
48.6313576223863
 20
493.1790063034642
 30
0.0
 10
48.87627913696861
 20
492.3594829431268
 30
0.0
 10
49.07813885700521
 20
491.5339845613493
 30
0.0
 10
49.35778012860232
 20
489.8657713829947
 30
0.0
 10
49.43463926333062
 20
489.0229285968527
 30
0.0
 10
49.43548342449975
 20
487.7427847128351
 30
0.0
 10
49.4166943378297
 20
487.314062286916
 30
0.0
 10
49.34342684574881
 20
486.4660041024397
 30
0.0
 10
49.28902279408549
 20
486.0448182342172
 30
0.0
 10
49.07894373573338
 20
484.7887592684592
 30
0.0
 10
48.87658444256602
 20
483.9613555913878
 30
0.0
 10
48.63135762238608
 20
483.1408106586104
 30
0.0
  0
LINE
  5
124
330
1F
100
AcDbEntity
  8
0
  6
Continuous
 62
     7
370
    15
100
AcDbLine
 10
40.7050750774
 20
483.1408149632
 30
0.0
 11
48.6313603443
 21
483.1408149632
 31
0.0
  0
SPLINE
  5
125
330
1F
100
AcDbEntity
  8
0
  6
Continuous
 62
     7
370
    15
100
AcDbSpline
210
0.0
220
0.0
230
1.0
 70
     8
 71
     3
 72
    16
 73
    12
 74
     0
 42
0.00000001
 43
0.00000001
 12
1.0
 22
0.0
 32
0.0
 13
1.0
 23
0.0
 33
0.0
 40
0.0
 40
0.0
 40
0.0
 40
0.0
 40
0.25
 40
0.25
 40
0.5
 40
0.5
 40
0.625
 40
0.625
 40
0.75
 40
0.75
 40
1.0
 40
1.0
 40
1.0
 40
1.0
 10
40.70507818075664
 20
483.1408106586105
 30
0.0
 10
40.46015666617423
 20
483.9603340189478
 30
0.0
 10
40.25829694613773
 20
484.7858324007254
 30
0.0
 10
39.97865567454071
 20
486.45404557908
 30
0.0
 10
39.90179653981239
 20
487.296888365222
 30
0.0
 10
39.90095237864317
 20
488.5770322492394
 30
0.0
 10
39.91974146531325
 20
489.0057546751586
 30
0.0
 10
39.99300895739414
 20
489.8538128596349
 30
0.0
 10
40.04741300905749
 20
490.2749987278575
 30
0.0
 10
40.25749206740951
 20
491.5310576936154
 30
0.0
 10
40.4598513605769
 20
492.3584613706868
 30
0.0
 10
40.70507818075686
 20
493.1790063034642
 30
0.0
  0
SPLINE
  5
126
330
1F
100
AcDbEntity
  8
0
  6
Continuous
 62
     7
370
    15
100
AcDbSpline
210
0.0
220
0.0
230
1.0
 70
     8
 71
     3
 72
    16
 73
    12
 74
     0
 42
0.00000001
 43
0.00000001
 12
1.0
 22
0.0
 32
0.0
 13
1.0
 23
0.0
 33
0.0
 40
0.0
 40
0.0
 40
0.0
 40
0.0
 40
0.25
 40
0.25
 40
0.5
 40
0.5
 40
0.625
 40
0.625
 40
0.75
 40
0.75
 40
1.0
 40
1.0
 40
1.0
 40
1.0
 10
48.63135762238633
 20
495.8687327199684
 30
0.0
 10
48.87627913696874
 20
495.6491420973874
 30
0.0
 10
49.07813885700519
 20
495.427950472637
 30
0.0
 10
49.35778012860229
 20
494.9809540986939
 30
0.0
 10
49.43463926333065
 20
494.7551150548007
 30
0.0
 10
49.43548342449972
 20
494.4121015348827
 30
0.0
 10
49.41669433782972
 20
494.2972257070804
 30
0.0
 10
49.34342684574884
 20
494.0699892014154
 30
0.0
 10
49.28902279408557
 20
493.9571327881619
 30
0.0
 10
49.07894373573338
 20
493.620572802641
 30
0.0
 10
48.87658444256613
 20
493.3988706555552
 30
0.0
 10
48.63135762238613
 20
493.1790063034641
 30
0.0
  0
SPLINE
  5
127
330
1F
100
AcDbEntity
  8
0
  6
Continuous
 62
     7
370
    15
100
AcDbSpline
210
0.0
220
0.0
230
1.0
 70
     8
 71
     3
 72
    10
 73
     6
 74
     0
 42
0.00000001
 43
0.00000001
 12
1.0
 22
0.0
 32
0.0
 13
1.0
 23
0.0
 33
0.0
 40
0.0
 40
0.0
 40
0.0
 40
0.0
 40
0.4890190323102228
 40
0.9779002953575316
 40
1.0
 40
1.0
 40
1.0
 40
1.0
 10
48.63136034427468
 20
475.7923371227967
 30
0.0
 10
48.7512464857079
 20
475.9086224415813
 30
0.0
 10
48.99098499355895
 20
476.1411603185796
 30
0.0
 10
49.19450678229329
 20
476.3825285648147
 30
0.0
 10
49.2470537659526
 20
476.5076215660336
 30
0.0
 10
49.24932640014474
 20
476.5130317839371
 30
0.0
  0
SPLINE
  5
128
330
1F
100
AcDbEntity
  8
0
  6
Continuous
 62
     7
370
    15
100
AcDbSpline
210
0.0
220
0.0
230
1.0
 70
     8
 71
     3
 72
    16
 73
    12
 74
     0
 42
0.00000001
 43
0.00000001
 12
1.0
 22
0.0
 32
0.0
 13
1.0
 23
0.0
 33
0.0
 40
0.0
 40
0.0
 40
0.0
 40
0.0
 40
0.2499999999999972
 40
0.2499999999999972
 40
0.4999999999999944
 40
0.4999999999999944
 40
0.6249999999999958
 40
0.6249999999999958
 40
0.7499999999999972
 40
0.7499999999999972
 40
1.0
 40
1.0
 40
1.0
 40
1.0
 10
48.63135762238594
 20
475.7923414302609
 30
0.0
 10
48.87533291891636
 20
476.3899564166047
 30
0.0
 10
49.08002687440739
 20
477.0021891937797
 30
0.0
 10
49.35988064673289
 20
478.2296454898902
 30
0.0
 10
49.43528922102398
 20
478.8466952474287
 30
0.0
 10
49.43516308179125
 20
479.7780997904334
 30
0.0
 10
49.41647161559768
 20
480.0895281033386
 30
0.0
 10
49.34229675854063
 20
480.7142788953532
 30
0.0
 10
49.28712051021992
 20
481.0247744175148
 30
0.0
 10
49.07578347014439
 20
481.9451468129901
 30
0.0
 10
48.87382040577485
 20
482.5469005576925
 30
0.0
 10
48.63135762238591
 20
483.1408106586105
 30
0.0
  0
LINE
  5
129
330
1F
100
AcDbEntity
  8
0
  6
Continuous
 62
     7
370
    15
100
AcDbLine
 10
49.868216328
 20
479.9969083699
 30
0.0
 11
49.868216328
 21
494.080532256
 31
0.0
  0
LINE
  5
12A
330
1F
100
AcDbEntity
  8
0
  6
Continuous
 62
     7
370
    15
100
AcDbLine
 10
49.868216328
 20
477.5805360707
 30
0.0
 11
49.868216328
 21
479.9969083699
 31
0.0
  0
SPLINE
  5
12B
330
1F
100
AcDbEntity
  8
0
  6
Continuous
 62
     7
370
    15
100
AcDbSpline
210
0.0
220
0.0
230
1.0
 70
     8
 71
     3
 72
    16
 73
    12
 74
     0
 42
0.00000001
 43
0.00000001
 12
1.0
 22
0.0
 32
0.0
 13
1.0
 23
0.0
 33
0.0
 40
0.0
 40
0.0
 40
0.0
 40
0.0
 40
0.2499999999999944
 40
0.2499999999999944
 40
0.4999999999999889
 40
0.4999999999999889
 40
0.6249999999999917
 40
0.6249999999999917
 40
0.7499999999999944
 40
0.7499999999999944
 40
1.0
 40
1.0
 40
1.0
 40
1.0
 10
40.70507818075698
 20
475.7923414302609
 30
0.0
 10
40.46110288422653
 20
476.3899564166048
 30
0.0
 10
40.25640892873556
 20
477.0021891937795
 30
0.0
 10
39.97655515641009
 20
478.2296454898905
 30
0.0
 10
39.90114658211897
 20
478.8466952474287
 30
0.0
 10
39.90127272135167
 20
479.7780997904334
 30
0.0
 10
39.91996418754524
 20
480.0895281033386
 30
0.0
 10
39.99413904460231
 20
480.7142788953531
 30
0.0
 10
40.04931529292303
 20
481.0247744175148
 30
0.0
 10
40.26065233299859
 20
481.9451468129902
 30
0.0
 10
40.46261539736804
 20
482.5469005576925
 30
0.0
 10
40.70507818075701
 20
483.1408106586105
 30
0.0
  0
SPLINE
  5
12C
330
1F
100
AcDbEntity
  8
0
  6
Continuous
 62
     7
370
    15
100
AcDbSpline
210
0.0
220
0.0
230
1.0
 70
     8
 71
     3
 72
    10
 73
     6
 74
     0
 42
0.00000001
 43
0.00000001
 12
1.0
 22
0.0
 32
0.0
 13
1.0
 23
0.0
 33
0.0
 40
0.0
 40
0.0
 40
0.0
 40
0.0
 40
0.132632534927086
 40
0.5662766109772616
 40
1.0
 40
1.0
 40
1.0
 40
1.0
 10
40.09372513709847
 20
476.5130317839371
 30
0.0
 10
40.10984616438591
 20
476.4806427670925
 30
0.0
 10
40.17867513386023
 20
476.3423573705139
 30
0.0
 10
40.38100332232004
 20
476.1014038190019
 30
0.0
 10
40.59704457402761
 20
475.8953656349795
 30
0.0
 10
40.70507507739846
 20
475.7923371227967
 30
0.0
  0
SPLINE
  5
12D
330
1F
100
AcDbEntity
  8
0
  6
Continuous
 62
     7
370
    15
100
AcDbSpline
210
0.0
220
0.0
230
1.0
 70
     8
 71
     3
 72
    16
 73
    12
 74
     0
 42
0.00000001
 43
0.00000001
 12
1.0
 22
0.0
 32
0.0
 13
1.0
 23
0.0
 33
0.0
 40
0.0
 40
0.0
 40
0.0
 40
0.0
 40
0.2499999999999971
 40
0.2499999999999971
 40
0.4999999999999942
 40
0.4999999999999942
 40
0.6249999999999938
 40
0.6249999999999938
 40
0.7499999999999933
 40
0.7499999999999933
 40
1.0
 40
1.0
 40
1.0
 40
1.0
 10
40.70507818075664
 20
493.1790063034641
 30
0.0
 10
40.4601566661742
 20
493.3985969260449
 30
0.0
 10
40.25829694613773
 20
493.6197885507955
 30
0.0
 10
39.97865567454071
 20
494.0667849247386
 30
0.0
 10
39.90179653981227
 20
494.2926239686316
 30
0.0
 10
39.90095237864314
 20
494.6356374885498
 30
0.0
 10
39.91974146531322
 20
494.750513316352
 30
0.0
 10
39.99300895739405
 20
494.977749822017
 30
0.0
 10
40.04741300905743
 20
495.0906062352706
 30
0.0
 10
40.25749206740948
 20
495.4271662207914
 30
0.0
 10
40.45985136057684
 20
495.6488683678772
 30
0.0
 10
40.70507818075686
 20
495.8687327199684
 30
0.0
  0
LINE
  5
12E
330
1F
100
AcDbEntity
  8
0
  6
Continuous
 62
     7
370
    15
100
AcDbLine
 10
40.7050750774
 20
845.1794869336
 30
0.0
 11
48.6313603443
 21
845.1794869336
 31
0.0
  0
LINE
  5
12F
330
1F
100
AcDbEntity
  8
0
  6
Continuous
 62
     7
370
    15
100
AcDbLine
 10
40.7050750774
 20
475.7923371228
 30
0.0
 11
48.6313603443
 21
475.7923371228
 31
0.0
  0
LINE
  5
130
330
1F
100
AcDbEntity
  8
0
  6
Continuous
 62
     7
370
    15
100
AcDbLine
 10
40.7050750774
 20
825.1030928525
 30
0.0
 11
48.6313603443
 21
825.1030928525
 31
0.0
  0
LINE
  5
131
330
1F
100
AcDbEntity
  8
0
  6
Continuous
 62
     7
370
    15
100
AcDbLine
 10
40.7050750774
 20
495.8687312039
 30
0.0
 11
48.6313603443
 21
495.8687312039
 31
0.0
  0
LINE
  5
132
330
1F
100
AcDbEntity
  8
0
  6
Continuous
 62
     7
370
    15
100
AcDbLine
 10
89.9682171267
 20
839.383933607
 30
0.0
 11
89.9682171267
 21
841.1412871512
 31
0.0
  0
LINE
  5
133
330
1F
100
AcDbEntity
  8
0
  6
Continuous
 62
     7
370
    15
100
AcDbLine
 10
89.9682171267
 20
829.1412926348
 30
0.0
 11
89.9682171267
 21
839.383933607
 31
0.0
  0
LINE
  5
134
330
1F
100
AcDbEntity
  8
0
  6
Continuous
 62
     7
370
    15
100
AcDbLine
 10
89.9682171267
 20
481.5878904494
 30
0.0
 11
89.9682171267
 21
491.8305314215
 31
0.0
  0
LINE
  5
135
330
1F
100
AcDbEntity
  8
0
  6
Continuous
 62
     7
370
    15
100
AcDbLine
 10
89.9682171267
 20
479.8305369052
 30
0.0
 11
89.9682171267
 21
481.5878904494
 31
0.0
  0
LINE
  5
136
330
1F
100
AcDbEntity
  8
0
  6
Continuous
 62
     7
370
    15
100
AcDbLine
 10
167.1682182324
 20
867.2466910514
 30
0.0
 11
167.1682182324
 21
878.746692005
 31
0.0
  0
LINE
  5
137
330
1F
100
AcDbEntity
  8
0
  6
Continuous
 62
     7
370
    15
100
AcDbLine
 10
167.1682182324
 20
855.7466900977
 30
0.0
 11
167.1682182324
 21
867.2466910514
 31
0.0
  0
LINE
  5
138
330
1F
100
AcDbEntity
  8
0
  6
Continuous
 62
     7
370
    15
100
AcDbLine
 10
167.1682182324
 20
855.7466900977
 30
0.0
 11
142.4224949998
 21
855.7466900977
 31
0.0
  0
SPLINE
  5
139
330
1F
100
AcDbEntity
  8
0
  6
Continuous
 62
     7
370
    15
100
AcDbSpline
210
0.0
220
0.0
230
1.0
 70
     8
 71
     3
 72
    14
 73
    10
 74
     0
 42
0.00000001
 43
0.00000001
 12
1.0
 22
0.0
 32
0.0
 13
1.0
 23
0.0
 33
0.0
 40
0.0
 40
0.0
 40
0.0
 40
0.0
 40
0.1250000000000004
 40
0.1250000000000004
 40
0.2500000000000007
 40
0.2500000000000007
 40
0.5000000000000016
 40
0.5000000000000016
 40
1.0
 40
1.0
 40
1.0
 40
1.0
 10
140.3682179015714
 20
867.2466852576066
 30
0.0
 10
140.3682179015714
 20
866.7587025141754
 30
0.0
 10
140.3802661933727
 20
866.2682784465566
 30
0.0
 10
140.4280576007595
 20
865.2919930618402
 30
0.0
 10
140.4637492425979
 20
864.8055425027643
 30
0.0
 10
140.6046772399355
 20
863.3510470657817
 30
0.0
 10
140.7438451871163
 20
862.3878696918327
 30
0.0
 10
141.2806013589861
 20
859.5154443769792
 30
0.0
 10
141.7969779026122
 20
857.6232366803998
 30
0.0
 10
142.4224950435433
 20
855.7466852576067
 30
0.0
  0
SPLINE
  5
13A
330
1F
100
AcDbEntity
  8
0
  6
Continuous
 62
     7
370
    15
100
AcDbSpline
210
0.0
220
0.0
230
1.0
 70
     8
 71
     3
 72
    10
 73
     6
 74
     0
 42
0.00000001
 43
0.00000001
 12
1.0
 22
0.0
 32
0.0
 13
1.0
 23
0.0
 33
0.0
 40
0.0
 40
0.0
 40
0.0
 40
0.0
 40
0.5
 40
0.5
 40
1.0
 40
1.0
 40
1.0
 40
1.0
 10
142.4224950435432
 20
878.7466852576067
 30
0.0
 10
141.7954116780265
 20
876.8654351610564
 30
0.0
 10
141.2787884040326
 20
874.9704440571809
 30
0.0
 10
140.5640012592902
 20
871.1408461571692
 30
0.0
 10
140.3682179015714
 20
869.2059432301272
 30
0.0
 10
140.3682179015714
 20
867.2466852576066
 30
0.0
  0
LINE
  5
13B
330
1F
100
AcDbEntity
  8
0
  6
Continuous
 62
     7
370
    15
100
AcDbLine
 10
167.1682182324
 20
878.746692005
 30
0.0
 11
142.4224949998
 21
878.746692005
 31
0.0
  0
SPLINE
  5
13C
330
1F
100
AcDbEntity
  8
0
  6
Continuous
 62
     7
370
    15
100
AcDbSpline
210
0.0
220
0.0
230
1.0
 70
     8
 71
     3
 72
    14
 73
    10
 74
     0
 42
0.00000001
 43
0.00000001
 12
1.0
 22
0.0
 32
0.0
 13
1.0
 23
0.0
 33
0.0
 40
0.0
 40
0.0
 40
0.0
 40
0.0
 40
0.1250000000000004
 40
0.1250000000000004
 40
0.2500000000000009
 40
0.2500000000000009
 40
0.5000000000000017
 40
0.5000000000000017
 40
1.0
 40
1.0
 40
1.0
 40
1.0
 10
140.3682179015714
 20
890.2466852576067
 30
0.0
 10
140.3682179015714
 20
889.7587025141753
 30
0.0
 10
140.3802661933727
 20
889.2682784465566
 30
0.0
 10
140.4280576007595
 20
888.2919930618401
 30
0.0
 10
140.4637492425979
 20
887.8055425027643
 30
0.0
 10
140.6046772399355
 20
886.3510470657816
 30
0.0
 10
140.7438451871162
 20
885.3878696918327
 30
0.0
 10
141.2806013589861
 20
882.5154443769793
 30
0.0
 10
141.7969779026122
 20
880.6232366803998
 30
0.0
 10
142.4224950435433
 20
878.7466852576067
 30
0.0
  0
LINE
  5
13D
330
1F
100
AcDbEntity
  8
0
  6
Continuous
 62
     7
370
    15
100
AcDbLine
 10
140.3682171923
 20
890.2466780576
 30
0.0
 11
140.3682171923
 21
867.2466910514
 31
0.0
  0
LINE
  5
13E
330
1F
100
AcDbEntity
  8
0
  6
Continuous
 62
     7
370
    15
100
AcDbLine
 10
167.1682182324
 20
890.2466780576
 30
0.0
 11
167.1682182324
 21
901.7466790112
 31
0.0
  0
SPLINE
  5
13F
330
1F
100
AcDbEntity
  8
0
  6
Continuous
 62
     7
370
    15
100
AcDbSpline
210
0.0
220
0.0
230
1.0
 70
     8
 71
     3
 72
    10
 73
     6
 74
     0
 42
0.00000001
 43
0.00000001
 12
1.0
 22
0.0
 32
0.0
 13
1.0
 23
0.0
 33
0.0
 40
0.0
 40
0.0
 40
0.0
 40
0.0
 40
0.5
 40
0.5
 40
1.0
 40
1.0
 40
1.0
 40
1.0
 10
142.4224950435432
 20
901.7466852576067
 30
0.0
 10
141.7954116780265
 20
899.8654351610564
 30
0.0
 10
141.2787884040326
 20
897.970444057181
 30
0.0
 10
140.5640012592903
 20
894.1408461571692
 30
0.0
 10
140.3682179015714
 20
892.2059432301272
 30
0.0
 10
140.3682179015714
 20
890.2466852576067
 30
0.0
  0
LINE
  5
140
330
1F
100
AcDbEntity
  8
0
  6
Continuous
 62
     7
370
    15
100
AcDbLine
 10
167.1682182324
 20
901.7466790112
 30
0.0
 11
142.4224949998
 21
901.7466790112
 31
0.0
  0
LINE
  5
141
330
1F
100
AcDbEntity
  8
0
  6
Continuous
 62
     7
370
    15
100
AcDbLine
 10
167.1682182324
 20
878.746692005
 30
0.0
 11
167.1682182324
 21
890.2466780576
 31
0.0
  0
SPLINE
  5
142
330
1F
100
AcDbEntity
  8
0
  6
Continuous
 62
     7
370
    15
100
AcDbSpline
210
0.0
220
0.0
230
1.0
 70
     8
 71
     3
 72
    14
 73
    10
 74
     0
 42
0.00000001
 43
0.00000001
 12
1.0
 22
0.0
 32
0.0
 13
1.0
 23
0.0
 33
0.0
 40
0.0
 40
0.0
 40
0.0
 40
0.0
 40
0.1250000000000009
 40
0.1250000000000009
 40
0.2500000000000018
 40
0.2500000000000018
 40
0.5000000000000026
 40
0.5000000000000026
 40
1.0
 40
1.0
 40
1.0
 40
1.0
 10
-106.4317820984285
 20
875.7536069652908
 30
0.0
 10
-106.4317820984286
 20
876.3122893655666
 30
0.0
 10
-106.4438303902299
 20
876.8737667926649
 30
0.0
 10
-106.4916217976166
 20
877.9914978383412
 30
0.0
 10
-106.5273134394549
 20
878.5484260691408
 30
0.0
 10
-106.6682414367927
 20
880.2136509420733
 30
0.0
 10
-106.8074093839734
 20
881.3163748691228
 30
0.0
 10
-107.3441655558431
 20
884.6049613839467
 30
0.0
 10
-107.8605420994692
 20
886.7713149117614
 30
0.0
 10
-108.4860592404004
 20
888.9197438618407
 30
0.0
  0
SPLINE
  5
143
330
1F
100
AcDbEntity
  8
0
  6
Continuous
 62
     7
370
    15
100
AcDbSpline
210
0.0
220
0.0
230
1.0
 70
     8
 71
     3
 72
    10
 73
     6
 74
     0
 42
0.00000001
 43
0.00000001
 12
1.0
 22
0.0
 32
0.0
 13
1.0
 23
0.0
 33
0.0
 40
0.0
 40
0.0
 40
0.0
 40
0.0
 40
0.5
 40
0.5
 40
1.0
 40
1.0
 40
1.0
 40
1.0
 10
-108.4860592404003
 20
888.9197438618407
 30
0.0
 10
-107.8589758748836
 20
890.2414623459376
 30
0.0
 10
-107.3423526008897
 20
891.5728349123947
 30
0.0
 10
-106.6275654561474
 20
894.2634130233996
 30
0.0
 10
-106.4317820984286
 20
895.6228266219925
 30
0.0
 10
-106.4317820984285
 20
896.9993514562735
 30
0.0
  0
LINE
  5
144
330
1F
100
AcDbEntity
  8
0
  6
Continuous
 62
     7
370
    15
100
AcDbLine
 10
-106.431791969
 20
875.7536000642
 30
0.0
 11
-106.431791969
 21
896.9993478688
 31
0.0
  0
LINE
  5
145
330
1F
100
AcDbEntity
  8
0
  6
Continuous
 62
     7
370
    15
100
AcDbLine
 10
-133.2317687947
 20
875.7536000642
 30
0.0
 11
-133.2317687947
 21
862.5874704751
 31
0.0
  0
LINE
  5
146
330
1F
100
AcDbEntity
  8
0
  6
Continuous
 62
     7
370
    15
100
AcDbLine
 10
-133.2317687947
 20
888.9197445544
 30
0.0
 11
-133.2317687947
 21
875.7536000642
 31
0.0
  0
LINE
  5
147
330
1F
100
AcDbEntity
  8
0
  6
Continuous
 62
     7
370
    15
100
AcDbLine
 10
-133.2317687947
 20
888.9197445544
 30
0.0
 11
-108.4860660511
 21
888.9197445544
 31
0.0
  0
SPLINE
  5
148
330
1F
100
AcDbEntity
  8
0
  6
Continuous
 62
     7
370
    15
100
AcDbSpline
210
0.0
220
0.0
230
1.0
 70
     8
 71
     3
 72
    10
 73
     6
 74
     0
 42
0.00000001
 43
0.00000001
 12
1.0
 22
0.0
 32
0.0
 13
1.0
 23
0.0
 33
0.0
 40
0.0
 40
0.0
 40
0.0
 40
0.0
 40
0.5
 40
0.5
 40
1.0
 40
1.0
 40
1.0
 40
1.0
 10
-108.4860592404003
 20
862.587470068741
 30
0.0
 10
-107.8589758748836
 20
864.7412784433349
 30
0.0
 10
-107.3423526008897
 20
866.9108186425843
 30
0.0
 10
-106.6275654561474
 20
871.2952543130446
 30
0.0
 10
-106.4317820984286
 20
873.5104888190419
 30
0.0
 10
-106.4317820984285
 20
875.7536069652908
 30
0.0
  0
LINE
  5
149
330
1F
100
AcDbEntity
  8
0
  6
Continuous
 62
     7
370
    15
100
AcDbLine
 10
-133.2317687947
 20
862.5874704751
 30
0.0
 11
-108.4860660511
 21
862.5874704751
 31
0.0
  0
LINE
  5
14A
330
1F
100
AcDbEntity
  8
0
  6
Continuous
 62
     7
370
    15
100
AcDbLine
 10
167.968218736
 20
903.7466830643
 30
0.0
 11
167.968218736
 21
853.7466860446
 31
0.0
  0
LINE
  5
14B
330
1F
100
AcDbEntity
  8
0
  6
Continuous
 62
     7
370
    15
100
AcDbLine
 10
-134.0317823368
 20
903.7466830643
 30
0.0
 11
-134.0317823368
 21
853.7466860446
 31
0.0
  0
LINE
  5
14C
330
1F
100
AcDbEntity
  8
0
  6
Continuous
 62
     7
370
    15
100
AcDbLine
 10
-106.431791969
 20
857.5009442004
 30
0.0
 11
-106.431791969
 21
875.7536000642
 31
0.0
  0
SPLINE
  5
14D
330
1F
100
AcDbEntity
  8
0
  6
Continuous
 62
     7
370
    15
100
AcDbSpline
210
0.0
220
0.0
230
1.0
 70
     8
 71
     3
 72
    12
 73
     8
 74
     0
 42
0.00000001
 43
0.00000001
 12
1.0
 22
0.0
 32
0.0
 13
1.0
 23
0.0
 33
0.0
 40
0.0
 40
0.0
 40
0.0
 40
0.0
 40
0.2500000000000014
 40
0.2500000000000014
 40
0.5000000000000029
 40
0.5000000000000029
 40
1.0
 40
1.0
 40
1.0
 40
1.0
 10
-108.4860592404005
 20
862.587470068741
 30
0.0
 10
-108.1743289351937
 20
862.1738286778386
 30
0.0
 10
-107.8881393029263
 20
861.75638803731
 30
0.0
 10
-107.3803188471906
 20
860.9119034450641
 30
0.0
 10
-107.1609257508034
 20
860.4882784692461
 30
0.0
 10
-106.6246621171482
 20
859.214451598425
 30
0.0
 10
-106.4317820984285
 20
858.3604805672783
 30
0.0
 10
-106.4317820984285
 20
857.5009407666241
 30
0.0
  0
LINE
  5
14E
330
1F
100
AcDbEntity
  8
0
  6
Continuous
 62
     7
370
    15
100
AcDbLine
 10
-133.2317687947
 20
905.0789660844
 30
0.0
 11
-133.2317687947
 21
896.9993478688
 31
0.0
  0
LINE
  5
14F
330
1F
100
AcDbEntity
  8
0
  6
Continuous
 62
     7
370
    15
100
AcDbLine
 10
-133.2317687947
 20
905.0789660844
 30
0.0
 11
-108.4860660511
 21
905.0789660844
 31
0.0
  0
SPLINE
  5
150
330
1F
100
AcDbEntity
  8
0
  6
Continuous
 62
     7
370
    15
100
AcDbSpline
210
0.0
220
0.0
230
1.0
 70
     8
 71
     3
 72
    14
 73
    10
 74
     0
 42
0.00000001
 43
0.00000001
 12
1.0
 22
0.0
 32
0.0
 13
1.0
 23
0.0
 33
0.0
 40
0.0
 40
0.0
 40
0.0
 40
0.0
 40
0.1249999999999958
 40
0.1249999999999958
 40
0.2499999999999917
 40
0.2499999999999917
 40
0.4999999999999909
 40
0.4999999999999909
 40
1.0
 40
1.0
 40
1.0
 40
1.0
 10
-106.4317820984285
 20
896.9993514562735
 30
0.0
 10
-106.4317820984286
 20
897.3421957240805
 30
0.0
 10
-106.4438303902299
 20
897.686755204187
 30
0.0
 10
-106.4916217976165
 20
898.372668491899
 30
0.0
 10
-106.527313439455
 20
898.714436285936
 30
0.0
 10
-106.6682414367925
 20
899.7363277971284
 30
0.0
 10
-106.8074093839734
 20
900.413031729767
 30
0.0
 10
-107.3441655558432
 20
902.4311247200566
 30
0.0
 10
-107.8605420994693
 20
903.7605417353199
 30
0.0
 10
-108.4860592404004
 20
905.0789590507062
 30
0.0
  0
LINE
  5
151
330
1F
100
AcDbEntity
  8
0
  6
Continuous
 62
     7
370
    15
100
AcDbLine
 10
-133.2317687947
 20
896.9993478688
 30
0.0
 11
-133.2317687947
 21
888.9197445544
 31
0.0
  0
SPLINE
  5
152
330
1F
100
AcDbEntity
  8
0
  6
Continuous
 62
     7
370
    15
100
AcDbSpline
210
0.0
220
0.0
230
1.0
 70
     8
 71
     3
 72
    12
 73
     8
 74
     0
 42
0.00000001
 43
0.00000001
 12
1.0
 22
0.0
 32
0.0
 13
1.0
 23
0.0
 33
0.0
 40
0.0
 40
0.0
 40
0.0
 40
0.0
 40
0.2500000000000019
 40
0.2500000000000019
 40
0.5000000000000038
 40
0.5000000000000038
 40
1.0
 40
1.0
 40
1.0
 40
1.0
 10
-106.4317820984285
 20
857.5009407666241
 30
0.0
 10
-106.4317820984286
 20
857.070915524843
 30
0.0
 10
-106.4794906293936
 20
856.6395128577886
 30
0.0
 10
-106.6690932842706
 20
855.7739882277074
 30
0.0
 10
-106.8100076088849
 20
855.3443908183356
 30
0.0
 10
-107.3500373511792
 20
854.0701267170887
 30
0.0
 10
-107.866230611472
 20
853.2368748949428
 30
0.0
 10
-108.4860592404005
 20
852.4144114645071
 30
0.0
  0
LINE
  5
153
330
1F
100
AcDbEntity
  8
0
  6
Continuous
 62
     7
370
    15
100
AcDbLine
 10
-133.2317687947
 20
852.4144179257
 30
0.0
 11
-108.4860660511
 21
852.4144179257
 31
0.0
  0
LINE
  5
154
330
1F
100
AcDbEntity
  8
0
  6
Continuous
 62
     7
370
    15
100
AcDbLine
 10
-133.2317687947
 20
852.4144179257
 30
0.0
 11
-133.2317687947
 21
857.5009442004
 31
0.0
  0
LINE
  5
155
330
1F
100
AcDbEntity
  8
0
  6
Continuous
 62
     7
370
    15
100
AcDbLine
 10
-133.2317687947
 20
857.5009442004
 30
0.0
 11
-133.2317687947
 21
862.5874704751
 31
0.0
  0
SPLINE
  5
156
330
1F
100
AcDbEntity
  8
0
  6
Continuous
 62
     7
370
    15
100
AcDbSpline
210
0.0
220
0.0
230
1.0
 70
    24
 71
     3
 72
    12
 73
     8
 74
     0
 42
0.00000001
 43
0.00000001
 12
1.0
 22
0.0
 32
0.0
 13
1.0
 23
0.0
 33
0.0
 40
0.0
 40
0.0
 40
0.0
 40
0.0
 40
0.2500000000000001
 40
0.2500000000000001
 40
0.5000000000000001
 40
0.5000000000000001
 40
1.0
 40
1.0
 40
1.0
 40
1.0
 10
140.3682179015715
 20
901.7466852576068
 30
0.0
 10
140.3682179015715
 20
901.7466852576068
 30
0.0
 10
140.4159264325365
 20
901.7466852576068
 30
0.0
 10
140.6055290874135
 20
901.7466852576068
 30
0.0
 10
140.7464434120279
 20
901.7466852576068
 30
0.0
 10
141.286473154322
 20
901.7466852576068
 30
0.0
 10
141.8026664146147
 20
901.7466852576068
 30
0.0
 10
142.4224950435434
 20
901.7466852576067
 30
0.0
  0
LINE
  5
157
330
1F
100
AcDbEntity
  8
0
  6
Continuous
 62
     7
370
    15
100
AcDbLine
 10
140.3682171923
 20
901.7466790112
 30
0.0
 11
140.3682171923
 21
890.2466780576
 31
0.0
  0
SPLINE
  5
158
330
1F
100
AcDbEntity
  8
0
  6
Continuous
 62
     7
370
    15
100
AcDbSpline
210
0.0
220
0.0
230
1.0
 70
    24
 71
     3
 72
    12
 73
     8
 74
     0
 42
0.00000001
 43
0.00000001
 12
1.0
 22
0.0
 32
0.0
 13
1.0
 23
0.0
 33
0.0
 40
0.0
 40
0.0
 40
0.0
 40
0.0
 40
0.2499999999999999
 40
0.2499999999999999
 40
0.4999999999999999
 40
0.4999999999999999
 40
1.0
 40
1.0
 40
1.0
 40
1.0
 10
140.3682179015714
 20
855.7466852576068
 30
0.0
 10
140.3682179015714
 20
855.7466852576068
 30
0.0
 10
140.4159264325365
 20
855.7466852576068
 30
0.0
 10
140.6055290874135
 20
855.7466852576068
 30
0.0
 10
140.7464434120279
 20
855.7466852576068
 30
0.0
 10
141.286473154322
 20
855.7466852576068
 30
0.0
 10
141.8026664146147
 20
855.7466852576067
 30
0.0
 10
142.4224950435434
 20
855.7466852576067
 30
0.0
  0
LINE
  5
159
330
1F
100
AcDbEntity
  8
0
  6
Continuous
 62
     7
370
    15
100
AcDbLine
 10
140.3682171923
 20
855.7466900977
 30
0.0
 11
140.3682171923
 21
867.2466910514
 31
0.0
  0
SPLINE
  5
15A
330
1F
100
AcDbEntity
  8
0
  6
Continuous
 62
     7
370
    15
100
AcDbSpline
210
0.0
220
0.0
230
1.0
 70
     8
 71
     3
 72
    10
 73
     6
 74
     0
 42
0.00000001
 43
0.00000001
 12
1.0
 22
0.0
 32
0.0
 13
1.0
 23
0.0
 33
0.0
 40
0.0
 40
0.0
 40
0.0
 40
0.0
 40
0.4488380101593977
 40
0.8980178946591729
 40
0.9999999999999999
 40
0.9999999999999999
 40
0.9999999999999999
 40
0.9999999999999999
 10
-108.4860660511416
 20
905.0789660843598
 30
0.0
 10
-108.3312019580651
 20
904.8658235488078
 30
0.0
 10
-108.0213558138548
 20
904.4393761296805
 30
0.0
 10
-107.7017137315041
 20
903.961528029323
 30
0.0
 10
-107.5621242358966
 20
903.6951248726157
 30
0.0
 10
-107.5362958389682
 20
903.6458320053803
 30
0.0
  0
LINE
  5
15B
330
1F
100
AcDbEntity
  8
0
  6
Continuous
 62
     7
370
    15
100
AcDbLine
 10
-106.431791969
 20
896.9993478688
 30
0.0
 11
-106.431791969
 21
901.7466790112
 31
0.0
  0
LINE
  5
15C
330
1F
100
AcDbEntity
  8
0
  6
Continuous
 62
     7
370
    15
100
AcDbLine
 10
-275.5317785221
 20
865.5012733372
 30
0.0
 11
-275.5317785221
 21
892.2466821107
 31
0.0
  0
LINE
  5
15D
330
1F
100
AcDbEntity
  8
0
  6
Continuous
 62
     7
370
    15
100
AcDbLine
 10
-275.5317785221
 20
865.2466869982
 30
0.0
 11
-275.5317785221
 21
865.5012733372
 31
0.0
  0
LINE
  5
15E
330
1F
100
AcDbEntity
  8
0
  6
Continuous
 62
     7
370
    15
100
AcDbLine
 10
309.4682149213
 20
865.5012733372
 30
0.0
 11
309.4682149213
 21
892.2466821107
 31
0.0
  0
LINE
  5
15F
330
1F
100
AcDbEntity
  8
0
  6
Continuous
 62
     7
370
    15
100
AcDbLine
 10
309.4682149213
 20
865.2466869982
 30
0.0
 11
309.4682149213
 21
865.5012733372
 31
0.0
  0
LINE
  5
160
330
1F
100
AcDbEntity
  8
0
  6
Continuous
 62
     7
370
    15
100
AcDbLine
 10
-106.431791969
 20
857.5009442004
 30
0.0
 11
-106.431791969
 21
855.7466900977
 31
0.0
  0
LINE
  5
161
330
1F
100
AcDbEntity
  8
0
  6
Continuous
 62
     7
370
    15
100
AcDbLine
 10
36.9682214779
 20
921.4859194192
 30
0.0
 11
36.9682214779
 21
892.2466821107
 31
0.0
  0
LINE
  5
162
330
1F
100
AcDbEntity
  8
0
  6
Continuous
 62
     7
370
    15
100
AcDbLine
 10
39.4682190937
 20
907.4859059485
 30
0.0
 11
39.4682190937
 21
919.4859153661
 31
0.0
  0
LINE
  5
163
330
1F
100
AcDbEntity
  8
0
  6
Continuous
 62
     7
370
    15
100
AcDbLine
 10
39.4682190937
 20
895.4859114321
 30
0.0
 11
39.4682190937
 21
907.4859059485
 31
0.0
  0
LINE
  5
164
330
1F
100
AcDbEntity
  8
0
  6
Continuous
 62
     7
370
    15
100
AcDbLine
 10
39.4682190937
 20
401.4859086903
 30
0.0
 11
39.4682190937
 21
425.4859126242
 31
0.0
  0
LINE
  5
165
330
1F
100
AcDbEntity
  8
0
  6
Continuous
 62
     7
370
    15
100
AcDbLine
 10
40.7050750774
 20
907.4859059485
 30
0.0
 11
48.6313603443
 21
907.4859059485
 31
0.0
  0
SPLINE
  5
166
330
1F
100
AcDbEntity
  8
0
  6
Continuous
 62
     7
370
    15
100
AcDbSpline
210
0.0
220
0.0
230
1.0
 70
     8
 71
     3
 72
    16
 73
    12
 74
     0
 42
0.00000001
 43
0.00000001
 12
1.0
 22
0.0
 32
0.0
 13
1.0
 23
0.0
 33
0.0
 40
0.0
 40
0.0
 40
0.0
 40
0.0
 40
0.2499999999999949
 40
0.2499999999999949
 40
0.4999999999999899
 40
0.4999999999999899
 40
0.6249999999999907
 40
0.6249999999999907
 40
0.7499999999999915
 40
0.7499999999999915
 40
1.0
 40
1.0
 40
1.0
 40
1.0
 10
48.63135762238633
 20
907.485912028192
 30
0.0
 10
48.87627913696872
 20
906.7511474844449
 30
0.0
 10
49.07813885700519
 20
906.0110258830288
 30
0.0
 10
49.35778012860226
 20
904.5153468649685
 30
0.0
 10
49.43463926333065
 20
903.7596746960197
 30
0.0
 10
49.43548342449981
 20
902.6119290887638
 30
0.0
 10
49.41669433782972
 20
902.2275470773162
 30
0.0
 10
49.34342684574881
 20
901.4671989101433
 30
0.0
 10
49.28902279408557
 20
901.0895739914713
 30
0.0
 10
49.07894373573344
 20
899.9634223311759
 30
0.0
 10
48.87658444256618
 20
899.221592488732
 30
0.0
 10
48.63135762238613
 20
898.485912028192
 30
0.0
  0
LINE
  5
167
330
1F
100
AcDbEntity
  8
0
  6
Continuous
 62
     7
370
    15
100
AcDbLine
 10
40.7050750774
 20
898.4859175118
 30
0.0
 11
48.6313603443
 21
898.4859175118
 31
0.0
  0
SPLINE
  5
168
330
1F
100
AcDbEntity
  8
0
  6
Continuous
 62
     7
370
    15
100
AcDbSpline
210
0.0
220
0.0
230
1.0
 70
     8
 71
     3
 72
    16
 73
    12
 74
     0
 42
0.00000001
 43
0.00000001
 12
1.0
 22
0.0
 32
0.0
 13
1.0
 23
0.0
 33
0.0
 40
0.0
 40
0.0
 40
0.0
 40
0.0
 40
0.2499999999999981
 40
0.2499999999999981
 40
0.4999999999999962
 40
0.4999999999999962
 40
0.6249999999999953
 40
0.6249999999999953
 40
0.7499999999999946
 40
0.7499999999999946
 40
1.0
 40
1.0
 40
1.0
 40
1.0
 10
40.70507818075667
 20
898.485912028192
 30
0.0
 10
40.4601566661742
 20
899.2206765719393
 30
0.0
 10
40.25829694613775
 20
899.9607981733556
 30
0.0
 10
39.97865567454068
 20
901.4564771914157
 30
0.0
 10
39.90179653981236
 20
902.2121493603644
 30
0.0
 10
39.9009523786432
 20
903.3598949676203
 30
0.0
 10
39.91974146531327
 20
903.7442769790678
 30
0.0
 10
39.99300895739411
 20
904.5046251462408
 30
0.0
 10
40.04741300905743
 20
904.8822500649128
 30
0.0
 10
40.25749206740954
 20
906.0084017252082
 30
0.0
 10
40.45985136057679
 20
906.7502315676521
 30
0.0
 10
40.70507818075681
 20
907.485912028192
 30
0.0
  0
SPLINE
  5
169
330
1F
100
AcDbEntity
  8
0
  6
Continuous
 62
     7
370
    15
100
AcDbSpline
210
0.0
220
0.0
230
1.0
 70
    24
 71
     3
 72
    11
 73
     7
 74
     0
 42
0.00000001
 43
0.00000001
 12
1.0
 22
0.0
 32
0.0
 13
1.0
 23
0.0
 33
0.0
 40
0.0
 40
0.0
 40
0.0
 40
0.0
 40
0.2663517940790647
 40
0.5156150084101071
 40
0.7648161214027138
 40
1.0
 40
1.0
 40
1.0
 40
1.0
 10
40.70507507739846
 20
916.4859241875397
 30
0.0
 10
40.58167314506373
 20
916.4859241875398
 30
0.0
 10
40.34278649292542
 20
916.4859241875397
 30
0.0
 10
40.09198978935375
 20
916.4859241875397
 30
0.0
 10
39.92901730527716
 20
916.4859241875396
 30
0.0
 10
39.91348305983142
 20
916.4859241875396
 30
0.0
 10
39.90594070373361
 20
916.4859241875397
 30
0.0
  0
SPLINE
  5
16A
330
1F
100
AcDbEntity
  8
0
  6
Continuous
 62
     7
370
    15
100
AcDbSpline
210
0.0
220
0.0
230
1.0
 70
     8
 71
     3
 72
    16
 73
    12
 74
     0
 42
0.00000001
 43
0.00000001
 12
1.0
 22
0.0
 32
0.0
 13
1.0
 23
0.0
 33
0.0
 40
0.0
 40
0.0
 40
0.0
 40
0.0
 40
0.2500000000000001
 40
0.2500000000000001
 40
0.5000000000000001
 40
0.5000000000000001
 40
0.6250000000000001
 40
0.6250000000000001
 40
0.7500000000000002
 40
0.7500000000000002
 40
1.0
 40
1.0
 40
1.0
 40
1.0
 10
40.70507818075667
 20
907.4859120281919
 30
0.0
 10
40.46015643457935
 20
908.220677266724
 30
0.0
 10
40.25829656443173
 20
908.960799573062
 30
0.0
 10
39.97865526297038
 20
910.4564800345994
 30
0.0
 10
39.90179625306126
 20
911.2121529426724
 30
0.0
 10
39.90095251723056
 20
912.3598996882365
 30
0.0
 10
39.91974178271766
 20
912.7442820359399
 30
0.0
 10
39.99300967920544
 20
913.5046308740151
 30
0.0
 10
40.04741395793449
 20
913.8822561245719
 30
0.0
 10
40.25749374532973
 20
915.0084087736576
 30
0.0
 10
40.45985358568408
 20
915.7502392665219
 30
0.0
 10
40.70508096336243
 20
916.4859203760032
 30
0.0
  0
SPLINE
  5
16B
330
1F
100
AcDbEntity
  8
0
  6
Continuous
 62
     7
370
    15
100
AcDbSpline
210
0.0
220
0.0
230
1.0
 70
    24
 71
     3
 72
    11
 73
     7
 74
     0
 42
0.00000001
 43
0.00000001
 12
1.0
 22
0.0
 32
0.0
 13
1.0
 23
0.0
 33
0.0
 40
0.0
 40
0.0
 40
0.0
 40
0.0
 40
0.2223440405832845
 40
0.477961274643144
 40
0.7336467327599202
 40
1.0
 40
1.0
 40
1.0
 40
1.0
 10
39.90690927921118
 20
898.4859175118195
 30
0.0
 10
39.91308586241333
 20
898.4859175118196
 30
0.0
 10
39.92636333804295
 20
898.4859175118195
 30
0.0
 10
40.08609955157952
 20
898.4859175118195
 30
0.0
 10
40.33981628736147
 20
898.4859175118194
 30
0.0
 10
40.5816746965878
 20
898.4859175118195
 30
0.0
 10
40.70507507739846
 20
898.4859175118195
 30
0.0
  0
SPLINE
  5
16C
330
1F
100
AcDbEntity
  8
0
  6
Continuous
 62
     7
370
    15
100
AcDbSpline
210
0.0
220
0.0
230
1.0
 70
    24
 71
     3
 72
    11
 73
     7
 74
     0
 42
0.00000001
 43
0.00000001
 12
1.0
 22
0.0
 32
0.0
 13
1.0
 23
0.0
 33
0.0
 40
0.0
 40
0.0
 40
0.0
 40
0.0
 40
0.2663517671865264
 40
0.5156149563504002
 40
0.7648160441821085
 40
1.0
 40
1.0
 40
1.0
 40
1.0
 10
48.63136034427468
 20
898.4859175118195
 30
0.0
 10
48.75476216984662
 20
898.4859175118195
 30
0.0
 10
48.99364861530906
 20
898.4859175118196
 30
0.0
 10
49.24444679269575
 20
898.4859175118195
 30
0.0
 10
49.40741388250573
 20
898.4859175118196
 30
0.0
 10
49.42296100778069
 20
898.4859175118195
 30
0.0
 10
49.43050961910073
 20
898.4859175118195
 30
0.0
  0
SPLINE
  5
16D
330
1F
100
AcDbEntity
  8
0
  6
Continuous
 62
     7
370
    15
100
AcDbSpline
210
0.0
220
0.0
230
1.0
 70
     8
 71
     3
 72
    15
 73
    11
 74
     0
 42
0.00000001
 43
0.00000001
 12
1.0
 22
0.0
 32
0.0
 13
1.0
 23
0.0
 33
0.0
 40
0.0
 40
0.0
 40
0.0
 40
0.0
 40
0.1323053686120031
 40
0.2645741406042438
 40
0.3998003977514749
 40
0.5350034945494659
 40
0.6501937656509413
 40
0.7654015025856429
 40
0.8826892464727518
 40
0.9999999999999999
 40
0.9999999999999999
 40
0.9999999999999999
 40
0.9999999999999999
 10
48.63136034427468
 20
916.4859241875397
 30
0.0
 10
48.75372522120464
 20
916.0970867802408
 30
0.0
 10
48.99842112805651
 20
915.319519520876
 30
0.0
 10
49.26172374645078
 20
914.1221374511115
 30
0.0
 10
49.42002344723096
 20
912.9021883042976
 30
0.0
 10
49.45137335662917
 20
911.7264272660117
 30
0.0
 10
49.37003122046961
 20
910.6141938528452
 30
0.0
 10
49.20337761808447
 20
909.5645219148673
 30
0.0
 10
48.9588886202386
 20
908.5195900166786
 30
0.0
 10
48.74054357475808
 20
907.8304898337688
 30
0.0
 10
48.63136034427468
 20
907.4859059485184
 30
0.0
  0
SPLINE
  5
16E
330
1F
100
AcDbEntity
  8
0
  6
Continuous
 62
     7
370
    15
100
AcDbSpline
210
0.0
220
0.0
230
1.0
 70
    24
 71
     3
 72
    11
 73
     7
 74
     0
 42
0.00000001
 43
0.00000001
 12
1.0
 22
0.0
 32
0.0
 13
1.0
 23
0.0
 33
0.0
 40
0.0
 40
0.0
 40
0.0
 40
0.0
 40
0.2223440405832845
 40
0.477961274643144
 40
0.7336467327599202
 40
1.0
 40
1.0
 40
1.0
 40
1.0
 10
49.42952614246191
 20
916.4859241875398
 30
0.0
 10
49.42334955925976
 20
916.4859241875398
 30
0.0
 10
49.41007208363016
 20
916.4859241875397
 30
0.0
 10
49.25033587009365
 20
916.4859241875397
 30
0.0
 10
48.99661913431173
 20
916.4859241875396
 30
0.0
 10
48.75476072508534
 20
916.4859241875397
 30
0.0
 10
48.63136034427468
 20
916.4859241875397
 30
0.0
  0
LINE
  5
16F
330
1F
100
AcDbEntity
  8
0
  6
Continuous
 62
     7
370
    15
100
AcDbLine
 10
49.868216328
 20
899.2359078559
 30
0.0
 11
49.868216328
 21
915.7359189423
 31
0.0
  0
LINE
  5
170
330
1F
100
AcDbEntity
  8
0
  6
Continuous
 62
     7
370
    15
100
AcDbLine
 10
40.7050750774
 20
916.4859241875
 30
0.0
 11
48.6313603443
 21
916.4859241875
 31
0.0
  0
LINE
  5
171
330
1F
100
AcDbEntity
  8
0
  6
Continuous
 62
     7
370
    15
100
AcDbLine
 10
40.7050750774
 20
422.4859065446
 30
0.0
 11
48.6313603443
 21
422.4859065446
 31
0.0
  0
SPLINE
  5
172
330
1F
100
AcDbEntity
  8
0
  6
Continuous
 62
     7
370
    15
100
AcDbSpline
210
0.0
220
0.0
230
1.0
 70
     8
 71
     3
 72
    16
 73
    12
 74
     0
 42
0.00000001
 43
0.00000001
 12
1.0
 22
0.0
 32
0.0
 13
1.0
 23
0.0
 33
0.0
 40
0.0
 40
0.0
 40
0.0
 40
0.0
 40
0.2499999999999983
 40
0.2499999999999983
 40
0.4999999999999966
 40
0.4999999999999966
 40
0.6249999999999957
 40
0.6249999999999957
 40
0.7499999999999949
 40
0.7499999999999949
 40
1.0
 40
1.0
 40
1.0
 40
1.0
 10
48.63135762238633
 20
422.4859120281922
 30
0.0
 10
48.87627913696872
 20
421.751147484445
 30
0.0
 10
49.07813885700519
 20
421.0110258830288
 30
0.0
 10
49.35778012860226
 20
419.5153468649685
 30
0.0
 10
49.43463926333065
 20
418.7596746960198
 30
0.0
 10
49.43548342449981
 20
417.6119290887638
 30
0.0
 10
49.41669433782975
 20
417.2275470773163
 30
0.0
 10
49.34342684574887
 20
416.4671989101435
 30
0.0
 10
49.28902279408549
 20
416.0895739914713
 30
0.0
 10
49.07894373573338
 20
414.963422331176
 30
0.0
 10
48.87658444256608
 20
414.2215924887321
 30
0.0
 10
48.63135762238613
 20
413.4859120281922
 30
0.0
  0
LINE
  5
173
330
1F
100
AcDbEntity
  8
0
  6
Continuous
 62
     7
370
    15
100
AcDbLine
 10
40.7050750774
 20
413.4859181079
 30
0.0
 11
48.6313603443
 21
413.4859181079
 31
0.0
  0
SPLINE
  5
174
330
1F
100
AcDbEntity
  8
0
  6
Continuous
 62
     7
370
    15
100
AcDbSpline
210
0.0
220
0.0
230
1.0
 70
     8
 71
     3
 72
    16
 73
    12
 74
     0
 42
0.00000001
 43
0.00000001
 12
1.0
 22
0.0
 32
0.0
 13
1.0
 23
0.0
 33
0.0
 40
0.0
 40
0.0
 40
0.0
 40
0.0
 40
0.2500000000000035
 40
0.2500000000000035
 40
0.500000000000007
 40
0.500000000000007
 40
0.6250000000000053
 40
0.6250000000000053
 40
0.7500000000000036
 40
0.7500000000000036
 40
1.0
 40
1.0
 40
1.0
 40
1.0
 10
40.70507818075664
 20
413.485912028192
 30
0.0
 10
40.46015666617426
 20
414.2206765719394
 30
0.0
 10
40.25829694613778
 20
414.9607981733556
 30
0.0
 10
39.97865567454068
 20
416.4564771914158
 30
0.0
 10
39.90179653981239
 20
417.2121493603645
 30
0.0
 10
39.90095237864317
 20
418.3598949676205
 30
0.0
 10
39.91974146531325
 20
418.744276979068
 30
0.0
 10
39.99300895739408
 20
419.5046251462409
 30
0.0
 10
40.04741300905743
 20
419.8822500649129
 30
0.0
 10
40.25749206740951
 20
421.0084017252083
 30
0.0
 10
40.4598513605769
 20
421.7502315676522
 30
0.0
 10
40.70507818075686
 20
422.4859120281922
 30
0.0
  0
SPLINE
  5
175
330
1F
100
AcDbEntity
  8
0
  6
Continuous
 62
     7
370
    15
100
AcDbSpline
210
0.0
220
0.0
230
1.0
 70
    24
 71
     3
 72
    12
 73
     8
 74
     0
 42
0.00000001
 43
0.00000001
 12
1.0
 22
0.0
 32
0.0
 13
1.0
 23
0.0
 33
0.0
 40
0.0
 40
0.0
 40
0.0
 40
0.0
 40
0.0202163556525153
 40
0.2756465365672474
 40
0.4558747683392241
 40
0.6361198606857699
 40
1.0
 40
1.0
 40
1.0
 40
1.0
 10
39.90594070373361
 20
404.4858998688446
 30
0.0
 10
39.90456792174688
 20
404.4858998688446
 30
0.0
 10
39.88585027517375
 20
404.4858998688446
 30
0.0
 10
39.94825494688898
 20
404.4858998688447
 30
0.0
 10
40.07334891287851
 20
404.4858998688446
 30
0.0
 10
40.29253830358427
 20
404.4858998688446
 30
0.0
 10
40.53975233424487
 20
404.4858998688446
 30
0.0
 10
40.70507507739843
 20
404.4858998688446
 30
0.0
  0
SPLINE
  5
176
330
1F
100
AcDbEntity
  8
0
  6
Continuous
 62
     7
370
    15
100
AcDbSpline
210
0.0
220
0.0
230
1.0
 70
    24
 71
     3
 72
    12
 73
     8
 74
     0
 42
0.00000001
 43
0.00000001
 12
1.0
 22
0.0
 32
0.0
 13
1.0
 23
0.0
 33
0.0
 40
0.0
 40
0.0
 40
0.0
 40
0.0
 40
0.3606170916731433
 40
0.5424914848037911
 40
0.7243480492036052
 40
0.9733590348452458
 40
1.0
 40
1.0
 40
1.0
 40
1.0
 10
40.70507507739846
 20
422.4859065445648
 30
0.0
 10
40.54113330604018
 20
422.4859065445648
 30
0.0
 10
40.29450879206365
 20
422.4859065445647
 30
0.0
 10
40.07452657532779
 20
422.4859065445648
 30
0.0
 10
39.94945775010359
 20
422.4859065445647
 30
0.0
 10
39.88767158105617
 20
422.4859065445651
 30
0.0
 10
39.90521386784302
 20
422.4859065445648
 30
0.0
 10
39.90690927921121
 20
422.4859065445648
 30
0.0
  0
SPLINE
  5
177
330
1F
100
AcDbEntity
  8
0
  6
Continuous
 62
     7
370
    15
100
AcDbSpline
210
0.0
220
0.0
230
1.0
 70
     8
 71
     3
 72
    15
 73
    11
 74
     0
 42
0.00000001
 43
0.00000001
 12
1.0
 22
0.0
 32
0.0
 13
1.0
 23
0.0
 33
0.0
 40
0.0
 40
0.0
 40
0.0
 40
0.0
 40
0.1323053686120031
 40
0.2645741406042438
 40
0.3998003977514749
 40
0.5350034945494659
 40
0.6501937656509413
 40
0.7654015025856429
 40
0.8826892464727518
 40
0.9999999999999999
 40
0.9999999999999999
 40
0.9999999999999999
 40
0.9999999999999999
 10
40.70507507739846
 20
404.4858998688446
 30
0.0
 10
40.58271020046853
 20
404.8747372761435
 30
0.0
 10
40.33801429361665
 20
405.6523045355083
 30
0.0
 10
40.07471167522237
 20
406.849686605273
 30
0.0
 10
39.91641197444221
 20
408.0696357520868
 30
0.0
 10
39.88506206504403
 20
409.2453967903726
 30
0.0
 10
39.96640420120352
 20
410.3576302035391
 30
0.0
 10
40.13305780358865
 20
411.4073021415169
 30
0.0
 10
40.37754680143453
 20
412.4522340397057
 30
0.0
 10
40.59589184691501
 20
413.1413342226156
 30
0.0
 10
40.70507507739846
 20
413.4859181078659
 30
0.0
  0
SPLINE
  5
178
330
1F
100
AcDbEntity
  8
0
  6
Continuous
 62
     7
370
    15
100
AcDbSpline
210
0.0
220
0.0
230
1.0
 70
    24
 71
     3
 72
    12
 73
     8
 74
     0
 42
0.00000001
 43
0.00000001
 12
1.0
 22
0.0
 32
0.0
 13
1.0
 23
0.0
 33
0.0
 40
0.0
 40
0.0
 40
0.0
 40
0.0
 40
0.020216256811269
 40
0.275646463493973
 40
0.4558747134474973
 40
0.6361198239772916
 40
0.9999999999999999
 40
0.9999999999999999
 40
0.9999999999999999
 40
0.9999999999999999
 10
49.43050961910073
 20
422.4859065445648
 30
0.0
 10
49.43187722065879
 20
422.4859065445648
 30
0.0
 10
49.45052431920231
 20
422.4859065445649
 30
0.0
 10
49.38819891631941
 20
422.485906544565
 30
0.0
 10
49.26308241639022
 20
422.4859065445648
 30
0.0
 10
49.04389941596988
 20
422.4859065445648
 30
0.0
 10
48.79668400829643
 20
422.4859065445648
 30
0.0
 10
48.63136034427468
 20
422.4859065445648
 30
0.0
  0
SPLINE
  5
179
330
1F
100
AcDbEntity
  8
0
  6
Continuous
 62
     7
370
    15
100
AcDbSpline
210
0.0
220
0.0
230
1.0
 70
    24
 71
     3
 72
    12
 73
     8
 74
     0
 42
0.00000001
 43
0.00000001
 12
1.0
 22
0.0
 32
0.0
 13
1.0
 23
0.0
 33
0.0
 40
0.0
 40
0.0
 40
0.0
 40
0.0
 40
0.3606170916731433
 40
0.5424914848037911
 40
0.7243480492036052
 40
0.9733590348452458
 40
1.0
 40
1.0
 40
1.0
 40
1.0
 10
48.63136034427468
 20
404.4858998688446
 30
0.0
 10
48.79530211563294
 20
404.4858998688446
 30
0.0
 10
49.04192662960944
 20
404.4858998688446
 30
0.0
 10
49.26190884634536
 20
404.4858998688446
 30
0.0
 10
49.38697767156939
 20
404.4858998688446
 30
0.0
 10
49.44876384061745
 20
404.4858998688449
 30
0.0
 10
49.43122155383004
 20
404.4858998688446
 30
0.0
 10
49.42952614246194
 20
404.4858998688446
 30
0.0
  0
SPLINE
  5
17A
330
1F
100
AcDbEntity
  8
0
  6
Continuous
 62
     7
370
    15
100
AcDbSpline
210
0.0
220
0.0
230
1.0
 70
     8
 71
     3
 72
    16
 73
    12
 74
     0
 42
0.00000001
 43
0.00000001
 12
1.0
 22
0.0
 32
0.0
 13
1.0
 23
0.0
 33
0.0
 40
0.0
 40
0.0
 40
0.0
 40
0.0
 40
0.24999999999999
 40
0.24999999999999
 40
0.49999999999998
 40
0.49999999999998
 40
0.6249999999999819
 40
0.6249999999999819
 40
0.7499999999999838
 40
0.7499999999999838
 40
1.0
 40
1.0
 40
1.0
 40
1.0
 10
48.6313576223863
 20
413.4859120281922
 30
0.0
 10
48.87627937001255
 20
412.7511467853137
 30
0.0
 10
49.07813924109914
 20
412.0110244745657
 30
0.0
 10
49.35778054274734
 20
410.5153440039981
 30
0.0
 10
49.43463955187556
 20
409.7596710913011
 30
0.0
 10
49.43548328504539
 20
408.6119243386159
 30
0.0
 10
49.41669401843957
 20
408.2275419888089
 30
0.0
 10
49.34342611942186
 20
407.4671931465367
 30
0.0
 10
49.28902183927232
 20
407.0895678939036
 30
0.0
 10
49.0789420473162
 20
405.9634152386321
 30
0.0
 10
48.87658220353872
 20
405.2215847416988
 30
0.0
 10
48.63135482237266
 20
404.4859036281578
 30
0.0
  0
LINE
  5
17B
330
1F
100
AcDbEntity
  8
0
  6
Continuous
 62
     7
370
    15
100
AcDbLine
 10
49.868216328
 20
405.2359051141
 30
0.0
 11
49.868216328
 21
421.7359162005
 31
0.0
  0
LINE
  5
17C
330
1F
100
AcDbEntity
  8
0
  6
Continuous
 62
     7
370
    15
100
AcDbLine
 10
40.7050750774
 20
404.4858998688
 30
0.0
 11
48.6313603443
 21
404.4858998688
 31
0.0
  0
LINE
  5
17D
330
1F
100
AcDbEntity
  8
0
  6
Continuous
 62
     7
370
    15
100
AcDbLine
 10
89.9682171267
 20
901.4859086903
 30
0.0
 11
89.9682171267
 21
913.4859032067
 31
0.0
  0
LINE
  5
17E
330
1F
100
AcDbEntity
  8
0
  6
Continuous
 62
     7
370
    15
100
AcDbLine
 10
89.9682171267
 20
407.4859208497
 30
0.0
 11
89.9682171267
 21
419.4859153661
 31
0.0
  0
LINE
  5
17F
330
1F
100
AcDbEntity
  8
0
  6
Continuous
 62
     7
370
    15
100
AcDbLine
 10
167.1682182324
 20
430.7251459988
 30
0.0
 11
167.1682182324
 21
442.2251320513
 31
0.0
  0
LINE
  5
180
330
1F
100
AcDbEntity
  8
0
  6
Continuous
 62
     7
370
    15
100
AcDbLine
 10
167.1682182324
 20
419.2251450452
 30
0.0
 11
167.1682182324
 21
430.7251459988
 31
0.0
  0
LINE
  5
181
330
1F
100
AcDbEntity
  8
0
  6
Continuous
 62
     7
370
    15
100
AcDbLine
 10
167.1682182324
 20
419.2251450452
 30
0.0
 11
142.4224949998
 21
419.2251450452
 31
0.0
  0
SPLINE
  5
182
330
1F
100
AcDbEntity
  8
0
  6
Continuous
 62
     7
370
    15
100
AcDbSpline
210
0.0
220
0.0
230
1.0
 70
     8
 71
     3
 72
    14
 73
    10
 74
     0
 42
0.00000001
 43
0.00000001
 12
1.0
 22
0.0
 32
0.0
 13
1.0
 23
0.0
 33
0.0
 40
0.0
 40
0.0
 40
0.0
 40
0.0
 40
0.1250000000000011
 40
0.1250000000000011
 40
0.2500000000000022
 40
0.2500000000000022
 40
0.5000000000000043
 40
0.5000000000000043
 40
1.0
 40
1.0
 40
1.0
 40
1.0
 10
140.3682179015715
 20
430.7251387987784
 30
0.0
 10
140.3682179015715
 20
430.237156055347
 30
0.0
 10
140.3802661933727
 20
429.7467319877283
 30
0.0
 10
140.4280576007595
 20
428.7704466030119
 30
0.0
 10
140.4637492425979
 20
428.2839960439362
 30
0.0
 10
140.6046772399355
 20
426.8295006069532
 30
0.0
 10
140.7438451871163
 20
425.8663232330044
 30
0.0
 10
141.2806013589861
 20
422.993897918151
 30
0.0
 10
141.7969779026122
 20
421.1016902215718
 30
0.0
 10
142.4224950435433
 20
419.2251387987785
 30
0.0
  0
SPLINE
  5
183
330
1F
100
AcDbEntity
  8
0
  6
Continuous
 62
     7
370
    15
100
AcDbSpline
210
0.0
220
0.0
230
1.0
 70
     8
 71
     3
 72
    10
 73
     6
 74
     0
 42
0.00000001
 43
0.00000001
 12
1.0
 22
0.0
 32
0.0
 13
1.0
 23
0.0
 33
0.0
 40
0.0
 40
0.0
 40
0.0
 40
0.0
 40
0.5
 40
0.5
 40
1.0
 40
1.0
 40
1.0
 40
1.0
 10
142.4224950435432
 20
442.2251387987783
 30
0.0
 10
141.7954116780265
 20
440.3438887022281
 30
0.0
 10
141.2787884040326
 20
438.4488975983525
 30
0.0
 10
140.5640012592903
 20
434.6192996983409
 30
0.0
 10
140.3682179015715
 20
432.684396771299
 30
0.0
 10
140.3682179015715
 20
430.7251387987784
 30
0.0
  0
LINE
  5
184
330
1F
100
AcDbEntity
  8
0
  6
Continuous
 62
     7
370
    15
100
AcDbLine
 10
167.1682182324
 20
442.2251320513
 30
0.0
 11
142.4224949998
 21
442.2251320513
 31
0.0
  0
LINE
  5
185
330
1F
100
AcDbEntity
  8
0
  6
Continuous
 62
     7
370
    15
100
AcDbLine
 10
167.1682182324
 20
453.725133005
 30
0.0
 11
167.1682182324
 21
454.4859117898
 31
0.0
  0
SPLINE
  5
186
330
1F
100
AcDbEntity
  8
0
  6
Continuous
 62
     7
370
    15
100
AcDbSpline
210
0.0
220
0.0
230
1.0
 70
     8
 71
     3
 72
    14
 73
    10
 74
     0
 42
0.00000001
 43
0.00000001
 12
1.0
 22
0.0
 32
0.0
 13
1.0
 23
0.0
 33
0.0
 40
0.0
 40
0.0
 40
0.0
 40
0.0
 40
0.1249999999999959
 40
0.1249999999999959
 40
0.2499999999999933
 40
0.2499999999999933
 40
0.4999999999999951
 40
0.4999999999999951
 40
1.0
 40
1.0
 40
1.0
 40
1.0
 10
140.3682179015715
 20
453.7251387987785
 30
0.0
 10
140.3682179015714
 20
453.2371560553471
 30
0.0
 10
140.3802661933727
 20
452.7467319877283
 30
0.0
 10
140.4280576007595
 20
451.770446603012
 30
0.0
 10
140.4637492425979
 20
451.2839960439361
 30
0.0
 10
140.6046772399355
 20
449.8295006069533
 30
0.0
 10
140.7438451871163
 20
448.8663232330043
 30
0.0
 10
141.2806013589861
 20
445.9938979181509
 30
0.0
 10
141.7969779026122
 20
444.1016902215715
 30
0.0
 10
142.4224950435433
 20
442.2251387987783
 30
0.0
  0
LINE
  5
187
330
1F
100
AcDbEntity
  8
0
  6
Continuous
 62
     7
370
    15
100
AcDbLine
 10
140.3934709352
 20
454.4859117898
 30
0.0
 11
140.3682171923
 21
453.725133005
 31
0.0
  0
LINE
  5
188
330
1F
100
AcDbEntity
  8
0
  6
Continuous
 62
     7
370
    15
100
AcDbLine
 10
167.1682182324
 20
442.2251320513
 30
0.0
 11
167.1682182324
 21
453.725133005
 31
0.0
  0
LINE
  5
189
330
1F
100
AcDbEntity
  8
0
  6
Continuous
 62
     7
370
    15
100
AcDbLine
 10
140.3682171923
 20
453.725133005
 30
0.0
 11
140.3682171923
 21
430.7251459988
 31
0.0
  0
LINE
  5
18A
330
1F
100
AcDbEntity
  8
0
  6
Continuous
 62
     7
370
    15
100
AcDbLine
 10
-106.431791969
 20
439.2320550116
 30
0.0
 11
-106.4348020035
 21
439.4859111937
 31
0.0
  0
LINE
  5
18B
330
1F
100
AcDbEntity
  8
0
  6
Continuous
 62
     7
370
    15
100
AcDbLine
 10
-106.431791969
 20
439.2320550116
 30
0.0
 11
-106.431791969
 21
439.4859111937
 31
0.0
  0
LINE
  5
18C
330
1F
100
AcDbEntity
  8
0
  6
Continuous
 62
     7
370
    15
100
AcDbLine
 10
-133.2317687947
 20
439.2320550116
 30
0.0
 11
-133.2317687947
 21
426.0659254225
 31
0.0
  0
LINE
  5
18D
330
1F
100
AcDbEntity
  8
0
  6
Continuous
 62
     7
370
    15
100
AcDbLine
 10
-133.2317687947
 20
439.4859111937
 30
0.0
 11
-133.2317687947
 21
439.2320550116
 31
0.0
  0
SPLINE
  5
18E
330
1F
100
AcDbEntity
  8
0
  6
Continuous
 62
     7
370
    15
100
AcDbSpline
210
0.0
220
0.0
230
1.0
 70
     8
 71
     3
 72
    10
 73
     6
 74
     0
 42
0.00000001
 43
0.00000001
 12
1.0
 22
0.0
 32
0.0
 13
1.0
 23
0.0
 33
0.0
 40
0.0
 40
0.0
 40
0.0
 40
0.0
 40
0.5
 40
0.5
 40
1.0
 40
1.0
 40
1.0
 40
1.0
 10
-108.4860592404003
 20
426.0659236099128
 30
0.0
 10
-107.8589758748835
 20
428.2197319845065
 30
0.0
 10
-107.3423526008898
 20
430.3892721837561
 30
0.0
 10
-106.6275654561474
 20
434.7737078542163
 30
0.0
 10
-106.4317820984286
 20
436.9889423602137
 30
0.0
 10
-106.4317820984285
 20
439.2320605064626
 30
0.0
  0
LINE
  5
18F
330
1F
100
AcDbEntity
  8
0
  6
Continuous
 62
     7
370
    15
100
AcDbLine
 10
-133.2317687947
 20
426.0659254225
 30
0.0
 11
-108.4860660511
 21
426.0659254225
 31
0.0
  0
LINE
  5
190
330
1F
100
AcDbEntity
  8
0
  6
Continuous
 62
     7
370
    15
100
AcDbLine
 10
167.968218736
 20
454.4859117898
 30
0.0
 11
167.968218736
 21
417.225140992
 31
0.0
  0
LINE
  5
191
330
1F
100
AcDbEntity
  8
0
  6
Continuous
 62
     7
370
    15
100
AcDbLine
 10
-134.0317823368
 20
439.4859111937
 30
0.0
 11
-134.0317823368
 21
419.4859153661
 31
0.0
  0
LINE
  5
192
330
1F
100
AcDbEntity
  8
0
  6
Continuous
 62
     7
370
    15
100
AcDbLine
 10
-106.431791969
 20
420.9793991479
 30
0.0
 11
-106.431791969
 21
439.2320550116
 31
0.0
  0
SPLINE
  5
193
330
1F
100
AcDbEntity
  8
0
  6
Continuous
 62
     7
370
    15
100
AcDbSpline
210
0.0
220
0.0
230
1.0
 70
     8
 71
     3
 72
    12
 73
     8
 74
     0
 42
0.00000001
 43
0.00000001
 12
1.0
 22
0.0
 32
0.0
 13
1.0
 23
0.0
 33
0.0
 40
0.0
 40
0.0
 40
0.0
 40
0.0
 40
0.2499999999999997
 40
0.2499999999999997
 40
0.4999999999999993
 40
0.4999999999999993
 40
1.0
 40
1.0
 40
1.0
 40
1.0
 10
-106.4317820984285
 20
420.979394307796
 30
0.0
 10
-106.4317820984285
 20
421.4094195495771
 30
0.0
 10
-106.4794906293937
 20
421.8408222166315
 30
0.0
 10
-106.6690932842705
 20
422.7063468467128
 30
0.0
 10
-106.810007608885
 20
423.1359442560844
 30
0.0
 10
-107.3500373511791
 20
424.4102083573313
 30
0.0
 10
-107.8662306114718
 20
425.2434601794772
 30
0.0
 10
-108.4860592404005
 20
426.0659236099128
 30
0.0
  0
LINE
  5
194
330
1F
100
AcDbEntity
  8
0
  6
Continuous
 62
     7
370
    15
100
AcDbLine
 10
-133.2317687947
 20
420.9793991479
 30
0.0
 11
-133.2317687947
 21
419.4859153661
 31
0.0
  0
SPLINE
  5
195
330
1F
100
AcDbEntity
  8
0
  6
Continuous
 62
     7
370
    15
100
AcDbSpline
210
0.0
220
0.0
230
1.0
 70
     8
 71
     3
 72
     9
 73
     5
 74
     0
 42
0.00000001
 43
0.00000001
 12
1.0
 22
0.0
 32
0.0
 13
1.0
 23
0.0
 33
0.0
 40
0.0
 40
0.0
 40
0.0
 40
0.0
 40
0.3552041773863966
 40
1.0
 40
1.0
 40
1.0
 40
1.0
 10
-106.6401400047701
 20
419.4859153660523
 30
0.0
 10
-106.5922114878969
 20
419.6621903693128
 30
0.0
 10
-106.4572791871964
 20
420.1584542493088
 30
0.0
 10
-106.4417835141844
 20
420.6575708492364
 30
0.0
 10
-106.4317919689578
 20
420.9793991478668
 30
0.0
  0
LINE
  5
196
330
1F
100
AcDbEntity
  8
0
  6
Continuous
 62
     7
370
    15
100
AcDbLine
 10
-133.2317687947
 20
426.0659254225
 30
0.0
 11
-133.2317687947
 21
420.9793991479
 31
0.0
  0
LINE
  5
197
330
1F
100
AcDbEntity
  8
0
  6
Continuous
 62
     7
370
    15
100
AcDbLine
 10
140.3682171923
 20
454.4859117898
 30
0.0
 11
140.3682171923
 21
453.725133005
 31
0.0
  0
SPLINE
  5
198
330
1F
100
AcDbEntity
  8
0
  6
Continuous
 62
     7
370
    15
100
AcDbSpline
210
0.0
220
0.0
230
1.0
 70
    24
 71
     3
 72
    12
 73
     8
 74
     0
 42
0.00000001
 43
0.00000001
 12
1.0
 22
0.0
 32
0.0
 13
1.0
 23
0.0
 33
0.0
 40
0.0
 40
0.0
 40
0.0
 40
0.0
 40
0.2500000000000016
 40
0.2500000000000016
 40
0.5000000000000031
 40
0.5000000000000031
 40
1.0
 40
1.0
 40
1.0
 40
1.0
 10
142.4224950435434
 20
419.2251387987785
 30
0.0
 10
142.1107647383365
 20
419.2251387987785
 30
0.0
 10
141.8245751060692
 20
419.2251387987785
 30
0.0
 10
141.3167546503336
 20
419.2251387987785
 30
0.0
 10
141.0973615539463
 20
419.2251387987785
 30
0.0
 10
140.5610979202911
 20
419.2251387987786
 30
0.0
 10
140.3682179015714
 20
419.2251387987785
 30
0.0
 10
140.3682179015714
 20
419.2251387987786
 30
0.0
  0
LINE
  5
199
330
1F
100
AcDbEntity
  8
0
  6
Continuous
 62
     7
370
    15
100
AcDbLine
 10
140.3682171923
 20
430.7251459988
 30
0.0
 11
140.3682171923
 21
419.2251450452
 31
0.0
  0
LINE
  5
19A
330
1F
100
AcDbEntity
  8
0
  6
Continuous
 62
     7
370
    15
100
AcDbLine
 10
-275.5317785221
 20
428.7251419457
 30
0.0
 11
-275.5317785221
 21
455.7251370581
 31
0.0
  0
LINE
  5
19B
330
1F
100
AcDbEntity
  8
0
  6
Continuous
 62
     7
370
    15
100
AcDbLine
 10
309.4682149213
 20
428.7251419457
 30
0.0
 11
309.4682149213
 21
455.7251370581
 31
0.0
  0
LINE
  5
19C
330
1F
100
AcDbEntity
  8
0
  6
Continuous
 62
     7
370
    15
100
AcDbLine
 10
-106.431791969
 20
419.4859153661
 30
0.0
 11
-106.431791969
 21
420.9793991479
 31
0.0
  0
LINE
  5
19D
330
1F
100
AcDbEntity
  8
0
  6
Continuous
 62
     7
370
    15
100
AcDbLine
 10
309.4682149213
 20
808.9325017365
 30
0.0
 11
309.4682149213
 21
819.823104802
 31
0.0
  0
LINE
  5
19E
330
1F
100
AcDbEntity
  8
0
  6
Continuous
 62
     7
370
    15
100
AcDbLine
 10
309.4682149213
 20
792.8230947884
 30
0.0
 11
309.4682149213
 21
808.9325017365
 31
0.0
  0
LINE
  5
19F
330
1F
100
AcDbEntity
  8
0
  6
Continuous
 62
     7
370
    15
100
AcDbLine
 10
-275.5317785221
 20
808.9325017365
 30
0.0
 11
-275.5317785221
 21
819.823104802
 31
0.0
  0
LINE
  5
1A0
330
1F
100
AcDbEntity
  8
0
  6
Continuous
 62
     7
370
    15
100
AcDbLine
 10
-275.5317785221
 20
792.8230947884
 30
0.0
 11
-275.5317785221
 21
808.9325017365
 31
0.0
  0
LINE
  5
1A1
330
1F
100
AcDbEntity
  8
0
  6
Continuous
 62
     8
370
     0
100
AcDbLine
 10
30.7286284488
 20
867.9012096556
 30
0.0
 11
30.7286284488
 21
527.7450419101
 31
0.0
  0
LINE
  5
1A2
330
1F
100
AcDbEntity
  8
0
  6
Continuous
 62
     8
370
     0
100
AcDbLine
 10
33.7172053379
 20
869.7844184073
 30
0.0
 11
33.7172053379
 21
526.792321268
 31
0.0
  0
LINE
  5
1A3
330
1F
100
AcDbEntity
  8
0
  6
Continuous
 62
     8
370
     0
100
AcDbLine
 10
30.7286284488
 20
918.747384015
 30
0.0
 11
30.7286284488
 21
892.2466821107
 31
0.0
  0
LINE
  5
1A4
330
1F
100
AcDbEntity
  8
0
  6
Continuous
 62
     8
370
     0
100
AcDbLine
 10
30.7286284488
 20
501.1487192544
 30
0.0
 11
30.7286284488
 21
402.2244400414
 31
0.0
  0
LINE
  5
1A5
330
1F
100
AcDbEntity
  8
0
  6
Continuous
 62
     8
370
     0
100
AcDbLine
 10
29.3063573164
 20
479.8305369052
 30
0.0
 11
29.3063573164
 21
418.5034669074
 31
0.0
  0
LINE
  5
1A6
330
1F
100
AcDbEntity
  8
0
  6
Continuous
 62
     8
370
     0
100
AcDbLine
 10
29.3063573164
 20
654.485911976
 30
0.0
 11
29.3063573164
 21
528.148729268
 31
0.0
  0
LINE
  5
1A7
330
1F
100
AcDbEntity
  8
0
  6
Continuous
 62
     8
370
     0
100
AcDbLine
 10
29.3063573164
 20
501.1487192544
 30
0.0
 11
29.3063573164
 21
491.8305314215
 31
0.0
  0
LINE
  5
1A8
330
1F
100
AcDbEntity
  8
0
  6
Continuous
 62
     8
370
     0
100
AcDbLine
 10
29.3063573164
 20
829.1412926348
 30
0.0
 11
29.3063573164
 21
666.4859120803
 31
0.0
  0
LINE
  5
1A9
330
1F
100
AcDbEntity
  8
0
  6
Continuous
 62
     8
370
     0
100
AcDbLine
 10
29.3063573164
 20
902.468357149
 30
0.0
 11
29.3063573164
 21
892.2466821107
 31
0.0
  0
LINE
  5
1AA
330
1F
100
AcDbEntity
  8
0
  6
Continuous
 62
     8
370
     0
100
AcDbLine
 10
29.3063573164
 20
865.2466869982
 30
0.0
 11
29.3063573164
 21
841.1412871512
 31
0.0
  0
LINE
  5
1AB
330
1F
100
AcDbEntity
  8
0
  6
Continuous
 62
     8
370
     0
100
AcDbLine
 10
24.5870552581
 20
897.9333526524
 30
0.0
 11
24.5870552581
 21
892.2466821107
 31
0.0
  0
LINE
  5
1AC
330
1F
100
AcDbEntity
  8
0
  6
Continuous
 62
     8
370
     0
100
AcDbLine
 10
24.5870552581
 20
865.2466869982
 30
0.0
 11
24.5870552581
 21
841.1412871512
 31
0.0
  0
LINE
  5
1AD
330
1F
100
AcDbEntity
  8
0
  6
Continuous
 62
     8
370
     0
100
AcDbLine
 10
24.5870552581
 20
829.1412926348
 30
0.0
 11
24.5870552581
 21
666.4859120803
 31
0.0
  0
LINE
  5
1AE
330
1F
100
AcDbEntity
  8
0
  6
Continuous
 62
     8
370
     0
100
AcDbLine
 10
24.5870552581
 20
654.485911976
 30
0.0
 11
24.5870552581
 21
528.148729268
 31
0.0
  0
LINE
  5
1AF
330
1F
100
AcDbEntity
  8
0
  6
Continuous
 62
     8
370
     0
100
AcDbLine
 10
24.5870552581
 20
501.1487192544
 30
0.0
 11
24.5870552581
 21
491.8305314215
 31
0.0
  0
LINE
  5
1B0
330
1F
100
AcDbEntity
  8
0
  6
Continuous
 62
     8
370
     0
100
AcDbLine
 10
24.5870552581
 20
479.8305369052
 30
0.0
 11
24.5870552581
 21
423.038471404
 31
0.0
  0
LINE
  5
1B1
330
1F
100
AcDbEntity
  8
0
  6
Continuous
 62
     8
370
     0
100
AcDbLine
 10
-0.6626196581
 20
896.6100699338
 30
0.0
 11
-0.6626196581
 21
892.2466821107
 31
0.0
  0
LINE
  5
1B2
330
1F
100
AcDbEntity
  8
0
  6
Continuous
 62
     8
370
     0
100
AcDbLine
 10
-0.6626196581
 20
865.2466869982
 30
0.0
 11
-0.6626196581
 21
841.1412871512
 31
0.0
  0
LINE
  5
1B3
330
1F
100
AcDbEntity
  8
0
  6
Continuous
 62
     8
370
     0
100
AcDbLine
 10
-0.6626196581
 20
829.1412926348
 30
0.0
 11
-0.6626196581
 21
666.4859120803
 31
0.0
  0
LINE
  5
1B4
330
1F
100
AcDbEntity
  8
0
  6
Continuous
 62
     8
370
     0
100
AcDbLine
 10
-0.6626196581
 20
654.485911976
 30
0.0
 11
-0.6626196581
 21
528.148729268
 31
0.0
  0
LINE
  5
1B5
330
1F
100
AcDbEntity
  8
0
  6
Continuous
 62
     8
370
     0
100
AcDbLine
 10
-0.6626196581
 20
501.1487192544
 30
0.0
 11
-0.6626196581
 21
491.8305314215
 31
0.0
  0
LINE
  5
1B6
330
1F
100
AcDbEntity
  8
0
  6
Continuous
 62
     8
370
     0
100
AcDbLine
 10
-0.6626196581
 20
479.8305369052
 30
0.0
 11
-0.6626196581
 21
424.3617541226
 31
0.0
  0
LINE
  5
1B7
330
1F
100
AcDbEntity
  8
0
  6
Continuous
 62
     8
370
     0
100
AcDbLine
 10
33.7172053379
 20
501.1487192544
 30
0.0
 11
33.7172053379
 21
399.4859046372
 31
0.0
  0
LINE
  5
1B8
330
1F
100
AcDbEntity
  8
0
  6
Continuous
 62
     8
370
     0
100
AcDbLine
 10
33.7172053379
 20
921.4859194192
 30
0.0
 11
33.7172053379
 21
892.2466821107
 31
0.0
  0
LINE
  5
1B9
330
1F
100
AcDbEntity
  8
FORMAT
  6
CENTERX2
370
     0
100
AcDbLine
 10
310.8293082919
 20
660.4859120282
 30
0.0
 11
-281.7108415597
 21
660.4859120282
 31
0.0
  0
CIRCLE
  5
1BA
330
1F
100
AcDbEntity
  8
0
  6
Continuous
 62
     7
370
    15
100
AcDbCircle
 10
927.2580677395
 20
878.7466852576
 30
0.0
 40
13.50000000000011
  0
CIRCLE
  5
1BB
330
1F
100
AcDbEntity
  8
0
  6
Continuous
 62
     7
370
    15
100
AcDbCircle
 10
999.6816548013
 20
514.6487258606
 30
0.0
 40
13.5
  0
CIRCLE
  5
1BC
330
1F
100
AcDbEntity
  8
0
  6
Continuous
 62
     7
370
    15
100
AcDbCircle
 10
635.5836954043
 20
442.2251387988
 30
0.0
 40
13.49999999999998
  0
CIRCLE
  5
1BD
330
1F
100
AcDbEntity
  8
0
  6
Continuous
 62
     7
370
    15
100
AcDbCircle
 10
563.1601083425
 20
806.3230981958
 30
0.0
 40
13.5
  0
CIRCLE
  5
1BE
330
1F
100
AcDbEntity
  8
0
  6
Continuous
 62
     7
370
    15
100
AcDbCircle
 10
635.5836954043
 20
878.7466852576
 30
0.0
 40
15.50000000000014
  0
CIRCLE
  5
1BF
330
1F
100
AcDbEntity
  8
0
  6
Continuous
 62
     7
370
    15
100
AcDbCircle
 10
523.9647454661
 20
711.6971215574
 30
0.0
 40
15.50000000000009
  0
CIRCLE
  5
1C0
330
1F
100
AcDbEntity
  8
0
  6
Continuous
 62
     7
370
    15
100
AcDbCircle
 10
563.1601083425
 20
514.6487258605
 30
0.0
 40
15.49999999999997
  0
CIRCLE
  5
1C1
330
1F
100
AcDbEntity
  8
0
  6
Continuous
 62
     7
370
    15
100
AcDbCircle
 10
730.2096720427
 20
917.942048134
 30
0.0
 40
15.50000000000003
  0
CIRCLE
  5
1C2
330
1F
100
AcDbEntity
  8
0
  6
Continuous
 62
     7
370
    15
100
AcDbCircle
 10
730.2096720427
 20
403.0297759223
 30
0.0
 40
15.50000000000001
  0
CIRCLE
  5
1C3
330
1F
100
AcDbEntity
  8
0
  6
Continuous
 62
     7
370
    15
100
AcDbCircle
 10
832.6320911012
 20
403.0297759223
 30
0.0
 40
15.50000000000012
  0
CIRCLE
  5
1C4
330
1F
100
AcDbEntity
  8
0
  6
Continuous
 62
     7
370
    15
100
AcDbCircle
 10
927.2580677396
 20
442.2251387988
 30
0.0
 40
15.50000000000012
  0
CIRCLE
  5
1C5
330
1F
100
AcDbEntity
  8
0
  6
Continuous
 62
     7
370
    15
100
AcDbCircle
 10
523.9647454661
 20
609.2747024989
 30
0.0
 40
15.49999999999993
  0
CIRCLE
  5
1C6
330
1F
100
AcDbEntity
  8
0
  6
Continuous
 62
     7
370
    15
100
AcDbCircle
 10
781.4208815719
 20
660.4859120282
 30
0.0
 40
200.0000000000001
  0
CIRCLE
  5
1C7
330
1F
100
AcDbEntity
  8
0
  6
Continuous
 62
     7
370
    15
100
AcDbCircle
 10
1038.8770176778
 20
711.6971215574
 30
0.0
 40
15.49999999999993
  0
CIRCLE
  5
1C8
330
1F
100
AcDbEntity
  8
0
  6
Continuous
 62
     7
370
    15
100
AcDbCircle
 10
999.6816548013
 20
806.3230981958
 30
0.0
 40
15.50000000000003
  0
CIRCLE
  5
1C9
330
1F
100
AcDbEntity
  8
0
  6
Continuous
 62
     7
370
    15
100
AcDbCircle
 10
781.4208815719
 20
660.4859120282
 30
0.0
 40
290.0
  0
CIRCLE
  5
1CA
330
1F
100
AcDbEntity
  8
0
  6
Continuous
 62
     7
370
    15
100
AcDbCircle
 10
1038.8770176778
 20
609.274702499
 30
0.0
 40
15.50000000000009
  0
CIRCLE
  5
1CB
330
1F
100
AcDbEntity
  8
0
  6
Continuous
 62
     7
370
    15
100
AcDbCircle
 10
832.6320911011
 20
917.942048134
 30
0.0
 40
15.49999999999999
  0
ARC
  5
1CC
330
1F
100
AcDbEntity
  8
0
  6
Continuous
 62
     7
370
    15
100
AcDbCircle
 10
781.4208815719
 20
660.4859120282
 30
0.0
 40
261.0000000000001
100
AcDbArc
 50
30.372548788
 51
37.127451212
  0
ARC
  5
1CD
330
1F
100
AcDbEntity
  8
0
  6
Continuous
 62
     7
370
    15
100
AcDbCircle
 10
781.4208815719
 20
660.4859120282
 30
0.0
 40
261.0000000000002
100
AcDbArc
 50
7.872548788
 51
14.627451212
  0
ARC
  5
1CE
330
1F
100
AcDbEntity
  8
0
  6
Continuous
 62
     7
370
    15
100
AcDbCircle
 10
781.4208815719
 20
660.4859120282
 30
0.0
 40
261.0000000000002
100
AcDbArc
 50
345.372548788
 51
352.127451212
  0
ARC
  5
1CF
330
1F
100
AcDbEntity
  8
0
  6
Continuous
 62
     7
370
    15
100
AcDbCircle
 10
781.4208815719
 20
660.4859120282
 30
0.0
 40
261.0
100
AcDbArc
 50
210.372548788
 51
217.127451212
  0
ARC
  5
1D0
330
1F
100
AcDbEntity
  8
0
  6
Continuous
 62
     7
370
    15
100
AcDbCircle
 10
781.4208815719
 20
660.4859120282
 30
0.0
 40
261.0
100
AcDbArc
 50
187.872548788
 51
194.627451212
  0
ARC
  5
1D1
330
1F
100
AcDbEntity
  8
0
  6
Continuous
 62
     7
370
    15
100
AcDbCircle
 10
781.4208815719
 20
660.4859120282
 30
0.0
 40
261.0000000000001
100
AcDbArc
 50
165.372548788
 51
172.127451212
  0
ARC
  5
1D2
330
1F
100
AcDbEntity
  8
0
  6
Continuous
 62
     7
370
    15
100
AcDbCircle
 10
781.4208815719
 20
660.4859120282
 30
0.0
 40
261.0000000000001
100
AcDbArc
 50
300.372548788
 51
307.127451212
  0
ARC
  5
1D3
330
1F
100
AcDbEntity
  8
0
  6
Continuous
 62
     7
370
    15
100
AcDbCircle
 10
781.4208815719
 20
660.4859120282
 30
0.0
 40
261.0
100
AcDbArc
 50
277.872548788
 51
284.627451212
  0
ARC
  5
1D4
330
1F
100
AcDbEntity
  8
0
  6
Continuous
 62
     7
370
    15
100
AcDbCircle
 10
781.4208815719
 20
660.4859120282
 30
0.0
 40
261.0
100
AcDbArc
 50
255.372548788
 51
262.127451212
  0
ARC
  5
1D5
330
1F
100
AcDbEntity
  8
0
  6
Continuous
 62
     7
370
    15
100
AcDbCircle
 10
781.4208815719
 20
660.4859120282
 30
0.0
 40
261.0000000000001
100
AcDbArc
 50
120.372548788
 51
127.127451212
  0
ARC
  5
1D6
330
1F
100
AcDbEntity
  8
0
  6
Continuous
 62
     7
370
    15
100
AcDbCircle
 10
781.4208815719
 20
660.4859120282
 30
0.0
 40
261.0
100
AcDbArc
 50
97.872548788
 51
104.627451212
  0
ARC
  5
1D7
330
1F
100
AcDbEntity
  8
0
  6
Continuous
 62
     7
370
    15
100
AcDbCircle
 10
781.4208815719
 20
660.4859120282
 30
0.0
 40
261.0000000000001
100
AcDbArc
 50
75.372548788
 51
82.127451212
  0
ARC
  5
1D8
330
1F
100
AcDbEntity
  8
0
  6
Continuous
 62
     8
370
     0
100
AcDbCircle
 10
781.4208815719
 20
660.4859120282
 30
0.0
 40
258.261467228243
100
AcDbArc
 50
120.4687264008
 51
127.0312735992
  0
ARC
  5
1D9
330
1F
100
AcDbEntity
  8
0
  6
Continuous
 62
     8
370
     0
100
AcDbCircle
 10
781.4208815719
 20
660.4859120282
 30
0.0
 40
258.261467228243
100
AcDbArc
 50
97.9687264008
 51
104.5312735992
  0
ARC
  5
1DA
330
1F
100
AcDbEntity
  8
0
  6
Continuous
 62
     8
370
     0
100
AcDbCircle
 10
781.4208815719
 20
660.4859120282
 30
0.0
 40
258.261467228243
100
AcDbArc
 50
75.4687264008
 51
82.0312735992
  0
ARC
  5
1DB
330
1F
100
AcDbEntity
  8
0
  6
Continuous
 62
     8
370
     0
100
AcDbCircle
 10
781.4208815719
 20
660.4859120282
 30
0.0
 40
258.261467228243
100
AcDbArc
 50
30.4687264008
 51
37.0312735992
  0
ARC
  5
1DC
330
1F
100
AcDbEntity
  8
0
  6
Continuous
 62
     8
370
     0
100
AcDbCircle
 10
781.4208815719
 20
660.4859120282
 30
0.0
 40
258.261467228243
100
AcDbArc
 50
7.9687264008
 51
14.5312735992
  0
ARC
  5
1DD
330
1F
100
AcDbEntity
  8
0
  6
Continuous
 62
     8
370
     0
100
AcDbCircle
 10
781.4208815719
 20
660.4859120282
 30
0.0
 40
258.2614672282431
100
AcDbArc
 50
345.4687264008
 51
352.0312735992
  0
ARC
  5
1DE
330
1F
100
AcDbEntity
  8
0
  6
Continuous
 62
     8
370
     0
100
AcDbCircle
 10
781.4208815719
 20
660.4859120282
 30
0.0
 40
258.261467228243
100
AcDbArc
 50
300.4687264008
 51
307.0312735992
  0
ARC
  5
1DF
330
1F
100
AcDbEntity
  8
0
  6
Continuous
 62
     8
370
     0
100
AcDbCircle
 10
781.4208815719
 20
660.4859120282
 30
0.0
 40
258.261467228243
100
AcDbArc
 50
277.9687264008
 51
284.5312735992
  0
ARC
  5
1E0
330
1F
100
AcDbEntity
  8
0
  6
Continuous
 62
     8
370
     0
100
AcDbCircle
 10
781.4208815719
 20
660.4859120282
 30
0.0
 40
258.2614672282429
100
AcDbArc
 50
255.4687264008
 51
262.0312735992
  0
ARC
  5
1E1
330
1F
100
AcDbEntity
  8
0
  6
Continuous
 62
     8
370
     0
100
AcDbCircle
 10
781.4208815719
 20
660.4859120282
 30
0.0
 40
258.2614672282429
100
AcDbArc
 50
210.4687264008
 51
217.0312735992
  0
ARC
  5
1E2
330
1F
100
AcDbEntity
  8
0
  6
Continuous
 62
     8
370
     0
100
AcDbCircle
 10
781.4208815719
 20
660.4859120282
 30
0.0
 40
258.261467228243
100
AcDbArc
 50
187.9687264008
 51
194.5312735992
  0
ARC
  5
1E3
330
1F
100
AcDbEntity
  8
0
  6
Continuous
 62
     8
370
     0
100
AcDbCircle
 10
781.4208815719
 20
660.4859120282
 30
0.0
 40
258.261467228243
100
AcDbArc
 50
165.4687264008
 51
172.0312735992
  0
INSERT
  5
25F
330
1F
100
AcDbEntity
  8
FORMAT
100
AcDbBlockReference
  2
SW_CENTERMARKSYMBOL_0
 10
730.2096720427
 20
917.942048134
 30
0.0
  0
LINE
  5
260
330
1F
100
AcDbEntity
  8
0
  6
Continuous
 62
     7
370
    15
100
AcDbLine
 10
-138.0317904431
 20
198.0911943291
 30
0.0
 11
-163.0317964035
 21
198.0911943291
 31
0.0
  0
LINE
  5
261
330
1F
100
AcDbEntity
  8
0
  6
Continuous
 62
     7
370
    15
100
AcDbLine
 10
-163.0317964035
 20
-381.9087889816
 30
0.0
 11
-138.0317904431
 21
-381.9087889816
 31
0.0
  0
LINE
  5
262
330
1F
100
AcDbEntity
  8
0
  6
Continuous
 62
     7
370
    15
100
AcDbLine
 10
196.9682179016
 20
198.0911943291
 30
0.0
 11
171.968217529
 21
198.0911943291
 31
0.0
  0
LINE
  5
263
330
1F
100
AcDbEntity
  8
0
  6
Continuous
 62
     7
370
    15
100
AcDbLine
 10
171.968217529
 20
-381.9087889816
 30
0.0
 11
196.9682179016
 21
-381.9087889816
 31
0.0
  0
LINE
  5
264
330
1F
100
AcDbEntity
  8
0
  6
Continuous
 62
     7
370
    15
100
AcDbLine
 10
36.9682214779
 20
-103.9087974305
 30
0.0
 11
39.4682190937
 21
-103.9087974305
 31
0.0
  0
LINE
  5
265
330
1F
100
AcDbEntity
  8
0
  6
Continuous
 62
     7
370
    15
100
AcDbLine
 10
39.4682190937
 20
-79.9087972219
 30
0.0
 11
36.9682214779
 21
-79.9087972219
 31
0.0
  0
LINE
  5
266
330
1F
100
AcDbEntity
  8
0
  6
Continuous
 62
     7
370
    15
100
AcDbLine
 10
30.7286284488
 20
166.3526746606
 30
0.0
 11
30.2671990913
 21
161.0785576676
 31
0.0
  0
LINE
  5
267
330
1F
100
AcDbEntity
  8
0
  6
Continuous
 62
     7
370
    15
100
AcDbLine
 10
30.2671990913
 20
-344.89615232
 30
0.0
 11
30.7286284488
 21
-350.170269313
 31
0.0
  0
LINE
  5
268
330
1F
100
AcDbEntity
  8
0
  6
Continuous
 62
     7
370
    15
100
AcDbLine
 10
48.6313603443
 20
-102.3011018361
 30
0.0
 11
49.868216328
 21
-100.1587972815
 31
0.0
  0
LINE
  5
269
330
1F
100
AcDbEntity
  8
0
  6
Continuous
 62
     7
370
    15
100
AcDbLine
 10
49.868216328
 20
-83.6587973709
 30
0.0
 11
48.6313603443
 21
-81.5164928163
 31
0.0
  0
LINE
  5
26A
330
1F
100
AcDbEntity
  8
0
  6
Continuous
 62
     7
370
    15
100
AcDbLine
 10
40.7050750774
 20
-81.5164928163
 30
0.0
 11
39.4682190937
 21
-83.6587973709
 31
0.0
  0
LINE
  5
26B
330
1F
100
AcDbEntity
  8
0
  6
Continuous
 62
     7
370
    15
100
AcDbLine
 10
39.4682190937
 20
-100.1587972815
 30
0.0
 11
40.7050750774
 21
-102.3011018361
 31
0.0
  0
LINE
  5
26C
330
1F
100
AcDbEntity
  8
0
  6
Continuous
 62
     7
370
    15
100
AcDbLine
 10
29.7497115654
 20
-85.9087972741
 30
0.0
 11
-138.0317904431
 21
-85.9087972741
 31
0.0
  0
LINE
  5
26D
330
1F
100
AcDbEntity
  8
0
  6
Continuous
 62
     7
370
    15
100
AcDbLine
 10
-138.0317904431
 20
-97.9087973784
 30
0.0
 11
29.7497860712
 21
-97.9087973784
 31
0.0
  0
LINE
  5
26E
330
1F
100
AcDbEntity
  8
0
  6
Continuous
 62
     7
370
    15
100
AcDbLine
 10
89.9682171267
 20
-85.9087972741
 30
0.0
 11
49.868216328
 21
-85.9087972741
 31
0.0
  0
LINE
  5
26F
330
1F
100
AcDbEntity
  8
0
  6
Continuous
 62
     7
370
    15
100
AcDbLine
 10
49.868216328
 20
-97.9087973784
 30
0.0
 11
89.9682171267
 21
-97.9087973784
 31
0.0
  0
LINE
  5
270
330
1F
100
AcDbEntity
  8
0
  6
Continuous
 62
     7
370
    15
100
AcDbLine
 10
-138.0317904431
 20
-262.7459761525
 30
0.0
 11
-134.0317823368
 21
-262.7459761525
 31
0.0
  0
LINE
  5
271
330
1F
100
AcDbEntity
  8
0
  6
Continuous
 62
     7
370
    15
100
AcDbLine
 10
-134.0317823368
 20
-212.7459865834
 30
0.0
 11
-138.0317904431
 21
-212.7459865834
 31
0.0
  0
LINE
  5
272
330
1F
100
AcDbEntity
  8
0
  6
Continuous
 62
     7
370
    15
100
AcDbLine
 10
167.968218736
 20
-262.7459761525
 30
0.0
 11
171.968217529
 21
-262.7459761525
 31
0.0
  0
LINE
  5
273
330
1F
100
AcDbEntity
  8
0
  6
Continuous
 62
     7
370
    15
100
AcDbLine
 10
171.968217529
 20
-212.7459865834
 30
0.0
 11
167.968218736
 21
-212.7459865834
 31
0.0
  0
ARC
  5
274
330
1F
100
AcDbEntity
  8
0
  6
Continuous
 62
     7
370
    15
100
AcDbCircle
 10
24.3253807267
 20
150.5317925549
 30
0.0
 40
4.999999999999976
100
AcDbArc
 50
273.0
 51
343.517190876
  0
ARC
  5
275
330
1F
100
AcDbEntity
  8
0
  6
Continuous
 62
     7
370
    15
100
AcDbCircle
 10
24.3253807267
 20
-334.3493872073
 30
0.0
 40
4.999999999999964
100
AcDbArc
 50
16.4819366376
 51
87.0
  0
LINE
  5
276
330
1F
100
AcDbEntity
  8
0
  6
Continuous
 62
     7
370
    15
100
AcDbLine
 10
-133.2317687947
 20
-214.7459831859
 30
0.0
 11
-134.0317823368
 21
-214.7459831859
 31
0.0
  0
LINE
  5
277
330
1F
100
AcDbEntity
  8
0
  6
Continuous
 62
     7
370
    15
100
AcDbLine
 10
-134.0317823368
 20
-260.7459870006
 30
0.0
 11
-133.2317687947
 21
-260.7459870006
 31
0.0
  0
LINE
  5
278
330
1F
100
AcDbEntity
  8
0
  6
Continuous
 62
     7
370
    15
100
AcDbLine
 10
167.1682182324
 20
-260.7459870006
 30
0.0
 11
167.968218736
 21
-260.7459870006
 31
0.0
  0
LINE
  5
279
330
1F
100
AcDbEntity
  8
0
  6
Continuous
 62
     7
370
    15
100
AcDbLine
 10
167.968218736
 20
-214.7459831859
 30
0.0
 11
167.1682182324
 21
-214.7459831859
 31
0.0
  0
LINE
  5
27A
330
1F
100
AcDbEntity
  8
0
  6
Continuous
 62
     7
370
    15
100
AcDbLine
 10
24.5870552581
 20
145.538643298
 30
0.0
 11
-0.6626196581
 21
144.2153605794
 31
0.0
  0
LINE
  5
27B
330
1F
100
AcDbEntity
  8
0
  6
Continuous
 62
     7
370
    15
100
AcDbLine
 10
-0.6626196581
 20
-328.0329552318
 30
0.0
 11
24.5870552581
 21
-329.3562379504
 31
0.0
  0
LINE
  5
27C
330
1F
100
AcDbEntity
  8
0
  6
Continuous
 62
     7
370
    15
100
AcDbLine
 10
-106.5458454567
 20
-260.9435465957
 30
0.0
 11
-106.431791969
 21
-260.7459870006
 31
0.0
  0
ARC
  5
27D
330
1F
100
AcDbEntity
  8
0
  6
Continuous
 62
     7
370
    15
100
AcDbCircle
 10
-0.5317820984
 20
141.718791257
 30
0.0
 40
2.500000000000002
100
AcDbArc
 50
93.0
 51
180.0
  0
ARC
  5
27E
330
1F
100
AcDbEntity
  8
0
  6
Continuous
 62
     7
370
    15
100
AcDbCircle
 10
-0.5317820984
 20
-325.5363859094
 30
0.0
 40
2.500000000000002
100
AcDbArc
 50
180.0
 51
267.0
  0
LINE
  5
27F
330
1F
100
AcDbEntity
  8
0
  6
Continuous
 62
     7
370
    15
100
AcDbLine
 10
309.4682149213
 20
-224.2459800864
 30
0.0
 11
196.9682179016
 21
-224.2459800864
 31
0.0
  0
LINE
  5
280
330
1F
100
AcDbEntity
  8
0
  6
Continuous
 62
     7
370
    15
100
AcDbLine
 10
196.9682179016
 20
-251.2459901
 30
0.0
 11
309.4682149213
 21
-251.2459901
 31
0.0
  0
LINE
  5
281
330
1F
100
AcDbEntity
  8
0
  6
Continuous
 62
     7
370
    15
100
AcDbLine
 10
30.4655335468
 20
-224.2459800864
 30
0.0
 11
-106.431791969
 21
-224.2459800864
 31
0.0
  0
LINE
  5
282
330
1F
100
AcDbEntity
  8
0
  6
Continuous
 62
     7
370
    15
100
AcDbLine
 10
140.3682171923
 20
-224.2459800864
 30
0.0
 11
36.9682214779
 21
-224.2459800864
 31
0.0
  0
LINE
  5
283
330
1F
100
AcDbEntity
  8
0
  6
Continuous
 62
     7
370
    15
100
AcDbLine
 10
-106.431791969
 20
-251.2459901
 30
0.0
 11
140.3682171923
 21
-251.2459901
 31
0.0
  0
LINE
  5
284
330
1F
100
AcDbEntity
  8
0
  6
Continuous
 62
     7
370
    15
100
AcDbLine
 10
-163.0317964035
 20
-224.2459800864
 30
0.0
 11
-275.5317785221
 21
-224.2459800864
 31
0.0
  0
LINE
  5
285
330
1F
100
AcDbEntity
  8
0
  6
Continuous
 62
     7
370
    15
100
AcDbLine
 10
-275.5317785221
 20
-251.2459901
 30
0.0
 11
-163.0317964035
 21
-251.2459901
 31
0.0
  0
LINE
  5
286
330
1F
100
AcDbEntity
  8
0
  6
Continuous
 62
     7
370
    15
100
AcDbLine
 10
142.4224949998
 20
-211.1878690149
 30
0.0
 11
140.3682171923
 21
-214.7459831859
 31
0.0
  0
LINE
  5
287
330
1F
100
AcDbEntity
  8
0
  6
Continuous
 62
     7
370
    15
100
AcDbLine
 10
140.3682171923
 20
-260.7459870006
 30
0.0
 11
142.4224949998
 21
-264.3041011716
 31
0.0
  0
LINE
  5
288
330
1F
100
AcDbEntity
  8
0
  6
Continuous
 62
     7
370
    15
100
AcDbLine
 10
-106.431791969
 20
-214.7459831859
 30
0.0
 11
-106.5458454567
 21
-214.5484235908
 31
0.0
  0
LINE
  5
289
330
1F
100
AcDbEntity
  8
0
  6
Continuous
 62
     7
370
    15
100
AcDbLine
 10
-138.0317904431
 20
-312.9087981607
 30
0.0
 11
-3.0317850787
 21
-312.9087981607
 31
0.0
  0
ARC
  5
28A
330
1F
100
AcDbEntity
  8
0
  6
Continuous
 62
     7
370
    15
100
AcDbCircle
 10
33.7172114236
 20
-349.9087973262
 30
0.0
 40
3.000000000000005
100
AcDbArc
 50
185.0
 51
270.0
  0
LINE
  5
28B
330
1F
100
AcDbEntity
  8
0
  6
Continuous
 62
     7
370
    15
100
AcDbLine
 10
33.7172053379
 20
-352.9088047172
 30
0.0
 11
36.9682214779
 21
-352.9088047172
 31
0.0
  0
LINE
  5
28C
330
1F
100
AcDbEntity
  8
0
  6
Continuous
 62
     7
370
    15
100
AcDbLine
 10
36.9682214779
 20
-297.9087975646
 30
0.0
 11
171.968217529
 21
-297.9087975646
 31
0.0
  0
LINE
  5
28D
330
1F
100
AcDbEntity
  8
0
  6
Continuous
 62
     7
370
    15
100
AcDbLine
 10
36.9682214779
 20
70.7465711211
 30
0.0
 11
39.4682190937
 21
70.7465711211
 31
0.0
  0
LINE
  5
28E
330
1F
100
AcDbEntity
  8
0
  6
Continuous
 62
     7
370
    15
100
AcDbLine
 10
39.4682190937
 20
94.746575055
 30
0.0
 11
36.9682214779
 21
94.746575055
 31
0.0
  0
LINE
  5
28F
330
1F
100
AcDbEntity
  8
0
  6
Continuous
 62
     7
370
    15
100
AcDbLine
 10
36.9682214779
 20
-278.5641697074
 30
0.0
 11
39.4682190937
 21
-278.5641697074
 31
0.0
  0
LINE
  5
290
330
1F
100
AcDbEntity
  8
0
  6
Continuous
 62
     7
370
    15
100
AcDbLine
 10
39.4682190937
 20
-254.5641657735
 30
0.0
 11
36.9682214779
 21
-254.5641657735
 31
0.0
  0
LINE
  5
291
330
1F
100
AcDbEntity
  8
0
  6
Continuous
 62
     7
370
    15
100
AcDbLine
 10
49.249594621
 20
73.4250995492
 30
0.0
 11
49.868216328
 21
74.496582446
 31
0.0
  0
LINE
  5
292
330
1F
100
AcDbEntity
  8
0
  6
Continuous
 62
     7
370
    15
100
AcDbLine
 10
49.868216328
 20
90.9965786313
 30
0.0
 11
49.249594621
 21
92.0680615281
 31
0.0
  0
LINE
  5
293
330
1F
100
AcDbEntity
  8
0
  6
Continuous
 62
     7
370
    15
100
AcDbLine
 10
40.0851867717
 20
92.065185604
 30
0.0
 11
39.4682190937
 21
90.9965786313
 31
0.0
  0
LINE
  5
294
330
1F
100
AcDbEntity
  8
0
  6
Continuous
 62
     7
370
    15
100
AcDbLine
 10
39.4682190937
 20
74.496582446
 30
0.0
 11
40.0851867717
 21
73.4279605721
 31
0.0
  0
LINE
  5
295
330
1F
100
AcDbEntity
  8
0
  6
Continuous
 62
     7
370
    15
100
AcDbLine
 10
49.2512486499
 20
-275.8827802564
 30
0.0
 11
49.868216328
 21
-274.8141732837
 31
0.0
  0
LINE
  5
296
330
1F
100
AcDbEntity
  8
0
  6
Continuous
 62
     7
370
    15
100
AcDbLine
 10
49.868216328
 20
-258.3141770984
 30
0.0
 11
49.2512486499
 21
-257.2455552245
 31
0.0
  0
LINE
  5
297
330
1F
100
AcDbEntity
  8
0
  6
Continuous
 62
     7
370
    15
100
AcDbLine
 10
40.0868408006
 20
-257.2426942016
 30
0.0
 11
39.4682190937
 21
-258.3141770984
 31
0.0
  0
LINE
  5
298
330
1F
100
AcDbEntity
  8
0
  6
Continuous
 62
     7
370
    15
100
AcDbLine
 10
39.4682190937
 20
-274.8141732837
 30
0.0
 11
40.0868408006
 21
-275.8856561805
 31
0.0
  0
LINE
  5
299
330
1F
100
AcDbEntity
  8
0
  6
Continuous
 62
     7
370
    15
100
AcDbLine
 10
30.1166079563
 20
88.7465777968
 30
0.0
 11
-138.0317904431
 21
88.7465777968
 31
0.0
  0
LINE
  5
29A
330
1F
100
AcDbEntity
  8
0
  6
Continuous
 62
     7
370
    15
100
AcDbLine
 10
-138.0317904431
 20
76.7465832804
 30
0.0
 11
29.3766460937
 21
76.7465832804
 31
0.0
  0
LINE
  5
29B
330
1F
100
AcDbEntity
  8
0
  6
Continuous
 62
     7
370
    15
100
AcDbLine
 10
89.9682171267
 20
88.7465777968
 30
0.0
 11
49.868216328
 21
88.7465777968
 31
0.0
  0
LINE
  5
29C
330
1F
100
AcDbEntity
  8
0
  6
Continuous
 62
     7
370
    15
100
AcDbLine
 10
49.868216328
 20
76.7465832804
 30
0.0
 11
89.9682171267
 21
76.7465832804
 31
0.0
  0
LINE
  5
29D
330
1F
100
AcDbEntity
  8
0
  6
Continuous
 62
     7
370
    15
100
AcDbLine
 10
89.9682171267
 20
-260.5641779329
 30
0.0
 11
49.868216328
 21
-260.5641779329
 31
0.0
  0
LINE
  5
29E
330
1F
100
AcDbEntity
  8
0
  6
Continuous
 62
     7
370
    15
100
AcDbLine
 10
49.868216328
 20
-272.5641724492
 30
0.0
 11
89.9682171267
 21
-272.5641724492
 31
0.0
  0
LINE
  5
29F
330
1F
100
AcDbEntity
  8
0
  6
Continuous
 62
     7
370
    15
100
AcDbLine
 10
29.3764076751
 20
-260.5641779329
 30
0.0
 11
-106.431791969
 21
-260.5641779329
 31
0.0
  0
LINE
  5
2A0
330
1F
100
AcDbEntity
  8
0
  6
Continuous
 62
     7
370
    15
100
AcDbLine
 10
-138.0317904431
 20
-272.5641724492
 30
0.0
 11
30.1175467294
 21
-272.5641724492
 31
0.0
  0
LINE
  5
2A1
330
1F
100
AcDbEntity
  8
0
  6
Continuous
 62
     7
370
    15
100
AcDbLine
 10
-138.0317904431
 20
101.3519766902
 30
0.0
 11
-134.0317823368
 21
101.3519766902
 31
0.0
  0
LINE
  5
2A2
330
1F
100
AcDbEntity
  8
0
  6
Continuous
 62
     7
370
    15
100
AcDbLine
 10
-134.0317823368
 20
151.3519737099
 30
0.0
 11
-138.0317904431
 21
151.3519737099
 31
0.0
  0
LINE
  5
2A3
330
1F
100
AcDbEntity
  8
0
  6
Continuous
 62
     7
370
    15
100
AcDbLine
 10
167.968218736
 20
101.3519766902
 30
0.0
 11
171.968217529
 21
101.3519766902
 31
0.0
  0
LINE
  5
2A4
330
1F
100
AcDbEntity
  8
0
  6
Continuous
 62
     7
370
    15
100
AcDbLine
 10
171.968217529
 20
151.3519737099
 30
0.0
 11
167.968218736
 21
151.3519737099
 31
0.0
  0
LINE
  5
2A5
330
1F
100
AcDbEntity
  8
0
  6
Continuous
 62
     7
370
    15
100
AcDbLine
 10
167.1682182324
 20
103.3519807433
 30
0.0
 11
167.968218736
 21
103.3519807433
 31
0.0
  0
LINE
  5
2A6
330
1F
100
AcDbEntity
  8
0
  6
Continuous
 62
     7
370
    15
100
AcDbLine
 10
167.968218736
 20
149.3519696568
 30
0.0
 11
167.1682182324
 21
149.3519696568
 31
0.0
  0
LINE
  5
2A7
330
1F
100
AcDbEntity
  8
0
  6
Continuous
 62
     7
370
    15
100
AcDbLine
 10
-133.2317687947
 20
149.3519696568
 30
0.0
 11
-134.0317823368
 21
149.3519696568
 31
0.0
  0
LINE
  5
2A8
330
1F
100
AcDbEntity
  8
0
  6
Continuous
 62
     7
370
    15
100
AcDbLine
 10
-134.0317823368
 20
103.3519807433
 30
0.0
 11
-133.2317687947
 21
103.3519807433
 31
0.0
  0
LINE
  5
2A9
330
1F
100
AcDbEntity
  8
0
  6
Continuous
 62
     7
370
    15
100
AcDbLine
 10
-106.431791969
 20
149.3519696568
 30
0.0
 11
-107.5302757698
 21
151.2546095227
 31
0.0
  0
LINE
  5
2AA
330
1F
100
AcDbEntity
  8
0
  6
Continuous
 62
     7
370
    15
100
AcDbLine
 10
-163.0317964035
 20
139.8519727563
 30
0.0
 11
-275.5317785221
 21
139.8519727563
 31
0.0
  0
LINE
  5
2AB
330
1F
100
AcDbEntity
  8
0
  6
Continuous
 62
     7
370
    15
100
AcDbLine
 10
-275.5317785221
 20
112.8519776438
 30
0.0
 11
-163.0317964035
 21
112.8519776438
 31
0.0
  0
LINE
  5
2AC
330
1F
100
AcDbEntity
  8
0
  6
Continuous
 62
     7
370
    15
100
AcDbLine
 10
309.4682149213
 20
139.8519727563
 30
0.0
 11
196.9682179016
 21
139.8519727563
 31
0.0
  0
LINE
  5
2AD
330
1F
100
AcDbEntity
  8
0
  6
Continuous
 62
     7
370
    15
100
AcDbLine
 10
196.9682179016
 20
112.8519776438
 30
0.0
 11
309.4682149213
 21
112.8519776438
 31
0.0
  0
LINE
  5
2AE
330
1F
100
AcDbEntity
  8
0
  6
Continuous
 62
     7
370
    15
100
AcDbLine
 10
140.3682171923
 20
139.8519727563
 30
0.0
 11
-106.431791969
 21
139.8519727563
 31
0.0
  0
LINE
  5
2AF
330
1F
100
AcDbEntity
  8
0
  6
Continuous
 62
     7
370
    15
100
AcDbLine
 10
36.9682214779
 20
112.8519776438
 30
0.0
 11
140.3682171923
 21
112.8519776438
 31
0.0
  0
LINE
  5
2B0
330
1F
100
AcDbEntity
  8
0
  6
Continuous
 62
     7
370
    15
100
AcDbLine
 10
-106.431791969
 20
112.8519776438
 30
0.0
 11
30.1280967516
 21
112.8519776438
 31
0.0
  0
LINE
  5
2B1
330
1F
100
AcDbEntity
  8
0
  6
Continuous
 62
     7
370
    15
100
AcDbLine
 10
-107.531765886
 20
101.4467331742
 30
0.0
 11
-106.431791969
 21
103.3519807433
 31
0.0
  0
ARC
  5
2B2
330
1F
100
AcDbEntity
  8
0
  6
Continuous
 62
     7
370
    15
100
AcDbCircle
 10
33.7172114236
 20
166.0912026738
 30
0.0
 40
3.000000000000003
100
AcDbArc
 50
90.0
 51
175.0
  0
LINE
  5
2B3
330
1F
100
AcDbEntity
  8
0
  6
Continuous
 62
     7
370
    15
100
AcDbLine
 10
36.9682214779
 20
169.0912100648
 30
0.0
 11
33.7172053379
 21
169.0912100648
 31
0.0
  0
LINE
  5
2B4
330
1F
100
AcDbEntity
  8
0
  6
Continuous
 62
     7
370
    15
100
AcDbLine
 10
36.9682214779
 20
143.0912020777
 30
0.0
 11
39.4682190937
 21
143.0912020777
 31
0.0
  0
LINE
  5
2B5
330
1F
100
AcDbEntity
  8
0
  6
Continuous
 62
     7
370
    15
100
AcDbLine
 10
39.4682190937
 20
167.0912060117
 30
0.0
 11
36.9682214779
 21
167.0912060117
 31
0.0
  0
LINE
  5
2B6
330
1F
100
AcDbEntity
  8
0
  6
Continuous
 62
     7
370
    15
100
AcDbLine
 10
36.9682214779
 20
-350.9088006641
 30
0.0
 11
39.4682190937
 21
-350.9088006641
 31
0.0
  0
LINE
  5
2B7
330
1F
100
AcDbEntity
  8
0
  6
Continuous
 62
     7
370
    15
100
AcDbLine
 10
39.4682190937
 20
-326.9087967302
 30
0.0
 11
36.9682214779
 21
-326.9087967302
 31
0.0
  0
LINE
  5
2B8
330
1F
100
AcDbEntity
  8
0
  6
Continuous
 62
     7
370
    15
100
AcDbLine
 10
49.4352034849
 20
146.0912081574
 30
0.0
 11
49.868216328
 21
146.8411985015
 31
0.0
  0
LINE
  5
2B9
330
1F
100
AcDbEntity
  8
0
  6
Continuous
 62
     7
370
    15
100
AcDbLine
 10
49.868216328
 20
163.3412095879
 30
0.0
 11
49.4352034849
 21
164.0912148331
 31
0.0
  0
LINE
  5
2BA
330
1F
100
AcDbEntity
  8
0
  6
Continuous
 62
     7
370
    15
100
AcDbLine
 10
39.9012319368
 20
164.0912148331
 30
0.0
 11
39.4682190937
 21
163.3412095879
 31
0.0
  0
LINE
  5
2BB
330
1F
100
AcDbEntity
  8
0
  6
Continuous
 62
     7
370
    15
100
AcDbLine
 10
39.4682190937
 20
146.8411985015
 30
0.0
 11
39.9012319368
 21
146.0912081574
 31
0.0
  0
LINE
  5
2BC
330
1F
100
AcDbEntity
  8
0
  6
Continuous
 62
     7
370
    15
100
AcDbLine
 10
49.4352034849
 20
-347.9088094856
 30
0.0
 11
49.868216328
 21
-347.1588042403
 31
0.0
  0
LINE
  5
2BD
330
1F
100
AcDbEntity
  8
0
  6
Continuous
 62
     7
370
    15
100
AcDbLine
 10
49.868216328
 20
-330.6587931539
 30
0.0
 11
49.4352034849
 21
-329.9088028098
 31
0.0
  0
LINE
  5
2BE
330
1F
100
AcDbEntity
  8
0
  6
Continuous
 62
     7
370
    15
100
AcDbLine
 10
39.9012319368
 20
-329.9088028098
 30
0.0
 11
39.4682190937
 21
-330.6587931539
 31
0.0
  0
LINE
  5
2BF
330
1F
100
AcDbEntity
  8
0
  6
Continuous
 62
     7
370
    15
100
AcDbLine
 10
39.4682190937
 20
-347.1588042403
 30
0.0
 11
39.9012319368
 21
-347.9088094856
 31
0.0
  0
LINE
  5
2C0
330
1F
100
AcDbEntity
  8
0
  6
Continuous
 62
     7
370
    15
100
AcDbLine
 10
30.2683017772
 20
161.0911938523
 30
0.0
 11
-138.0317904431
 21
161.0911938523
 31
0.0
  0
LINE
  5
2C1
330
1F
100
AcDbEntity
  8
0
  6
Continuous
 62
     7
370
    15
100
AcDbLine
 10
-106.431791969
 20
149.0911993359
 30
0.0
 11
29.1133574766
 21
149.0911993359
 31
0.0
  0
LINE
  5
2C2
330
1F
100
AcDbEntity
  8
0
  6
Continuous
 62
     7
370
    15
100
AcDbLine
 10
89.9682171267
 20
161.0911938523
 30
0.0
 11
49.868216328
 21
161.0911938523
 31
0.0
  0
LINE
  5
2C3
330
1F
100
AcDbEntity
  8
0
  6
Continuous
 62
     7
370
    15
100
AcDbLine
 10
49.868216328
 20
149.0911993359
 30
0.0
 11
89.9682171267
 21
149.0911993359
 31
0.0
  0
LINE
  5
2C4
330
1F
100
AcDbEntity
  8
0
  6
Continuous
 62
     7
370
    15
100
AcDbLine
 10
89.9682171267
 20
-332.9087939883
 30
0.0
 11
49.868216328
 21
-332.9087939883
 31
0.0
  0
LINE
  5
2C5
330
1F
100
AcDbEntity
  8
0
  6
Continuous
 62
     7
370
    15
100
AcDbLine
 10
49.868216328
 20
-344.9087885047
 30
0.0
 11
89.9682171267
 21
-344.9087885047
 31
0.0
  0
LINE
  5
2C6
330
1F
100
AcDbEntity
  8
0
  6
Continuous
 62
     7
370
    15
100
AcDbLine
 10
29.1133574766
 20
-332.9087939883
 30
0.0
 11
-138.0317904431
 21
-332.9087939883
 31
0.0
  0
LINE
  5
2C7
330
1F
100
AcDbEntity
  8
0
  6
Continuous
 62
     7
370
    15
100
AcDbLine
 10
-138.0317904431
 20
-344.9087885047
 30
0.0
 11
30.2683017772
 21
-344.9087885047
 31
0.0
  0
LINE
  5
2C8
330
1F
100
AcDbEntity
  8
0
  6
Continuous
 62
     7
370
    15
100
AcDbLine
 10
167.968218736
 20
-335.1695683624
 30
0.0
 11
171.968217529
 21
-335.1695683624
 31
0.0
  0
LINE
  5
2C9
330
1F
100
AcDbEntity
  8
0
  6
Continuous
 62
     7
370
    15
100
AcDbLine
 10
167.1682182324
 20
-333.1695643092
 30
0.0
 11
167.968218736
 21
-333.1695643092
 31
0.0
  0
LINE
  5
2CA
330
1F
100
AcDbEntity
  8
0
  6
Continuous
 62
     7
370
    15
100
AcDbLine
 10
309.4682149213
 20
-296.6695722963
 30
0.0
 11
196.9682179016
 21
-296.6695722963
 31
0.0
  0
LINE
  5
2CB
330
1F
100
AcDbEntity
  8
0
  6
Continuous
 62
     7
370
    15
100
AcDbLine
 10
196.9682179016
 20
-323.6695674087
 30
0.0
 11
309.4682149213
 21
-323.6695674087
 31
0.0
  0
LINE
  5
2CC
330
1F
100
AcDbEntity
  8
0
  6
Continuous
 62
     7
370
    15
100
AcDbLine
 10
-163.0317964035
 20
-296.6695722963
 30
0.0
 11
-275.5317785221
 21
-296.6695722963
 31
0.0
  0
LINE
  5
2CD
330
1F
100
AcDbEntity
  8
0
  6
Continuous
 62
     7
370
    15
100
AcDbLine
 10
-275.5317785221
 20
-323.6695674087
 30
0.0
 11
-163.0317964035
 21
-323.6695674087
 31
0.0
  0
LINE
  5
2CE
330
1F
100
AcDbEntity
  8
0
  6
Continuous
 62
     7
370
    15
100
AcDbLine
 10
-106.431791969
 20
-323.6695674087
 30
0.0
 11
-3.0317850787
 21
-323.6695674087
 31
0.0
  0
LINE
  5
2CF
330
1F
100
AcDbEntity
  8
0
  6
Continuous
 62
     7
370
    15
100
AcDbLine
 10
36.9682214779
 20
-323.6695674087
 30
0.0
 11
140.3682171923
 21
-323.6695674087
 31
0.0
  0
LINE
  5
2D0
330
1F
100
AcDbEntity
  8
0
  6
Continuous
 62
     7
370
    15
100
AcDbLine
 10
-163.0317964035
 20
67.4283954476
 30
0.0
 11
-275.5317785221
 21
67.4283954476
 31
0.0
  0
LINE
  5
2D1
330
1F
100
AcDbEntity
  8
0
  6
Continuous
 62
     7
370
    15
100
AcDbLine
 10
-275.5317785221
 20
40.428385434
 30
0.0
 11
-163.0317964035
 21
40.428385434
 31
0.0
  0
LINE
  5
2D2
330
1F
100
AcDbEntity
  8
0
  6
Continuous
 62
     7
370
    15
100
AcDbLine
 10
309.4682149213
 20
67.4283954476
 30
0.0
 11
196.9682179016
 21
67.4283954476
 31
0.0
  0
LINE
  5
2D3
330
1F
100
AcDbEntity
  8
0
  6
Continuous
 62
     7
370
    15
100
AcDbLine
 10
196.9682179016
 20
40.428385434
 30
0.0
 11
309.4682149213
 21
40.428385434
 31
0.0
  0
LINE
  5
2D4
330
1F
100
AcDbEntity
  8
0
  6
Continuous
 62
     7
370
    15
100
AcDbLine
 10
-138.0317904431
 20
-381.9087889816
 30
0.0
 11
-138.0317904431
 21
198.0911943291
 31
0.0
  0
LINE
  5
2D5
330
1F
100
AcDbEntity
  8
0
  6
Continuous
 62
     7
370
    15
100
AcDbLine
 10
-163.0317964035
 20
-381.9087889816
 30
0.0
 11
-163.0317964035
 21
198.0911943291
 31
0.0
  0
LINE
  5
2D6
330
1F
100
AcDbEntity
  8
0
  6
Continuous
 62
     7
370
    15
100
AcDbLine
 10
171.968217529
 20
-381.9087889816
 30
0.0
 11
171.968217529
 21
198.0911943291
 31
0.0
  0
LINE
  5
2D7
330
1F
100
AcDbEntity
  8
0
  6
Continuous
 62
     7
370
    15
100
AcDbLine
 10
196.9682179016
 20
-381.9087889816
 30
0.0
 11
196.9682179016
 21
198.0911943291
 31
0.0
  0
LINE
  5
2D8
330
1F
100
AcDbEntity
  8
0
  6
Continuous
 62
     7
370
    15
100
AcDbLine
 10
36.9682214779
 20
-225.6023880864
 30
0.0
 11
33.7172053379
 21
-225.6023880864
 31
0.0
  0
LINE
  5
2D9
330
1F
100
AcDbEntity
  8
0
  6
Continuous
 62
     7
370
    15
100
AcDbLine
 10
33.7172053379
 20
117.3897090529
 30
0.0
 11
36.9682214779
 21
117.3897090529
 31
0.0
  0
LINE
  5
2DA
330
1F
100
AcDbEntity
  8
0
  6
Continuous
 62
     7
370
    15
100
AcDbLine
 10
36.9682214779
 20
117.3897090529
 30
0.0
 11
36.9682214779
 21
-225.6023880864
 31
0.0
  0
SPLINE
  5
2DB
330
1F
100
AcDbEntity
  8
0
  6
Continuous
 62
     7
370
    15
100
AcDbSpline
210
0.0
220
0.0
230
1.0
 70
     8
 71
     3
 72
    20
 73
    16
 74
     0
 42
0.00000001
 43
0.00000001
 12
1.0
 22
0.0
 32
0.0
 13
1.0
 23
0.0
 33
0.0
 40
0.0
 40
0.0
 40
0.0
 40
0.0
 40
0.124999999999998
 40
0.124999999999998
 40
0.249999999999996
 40
0.249999999999996
 40
0.374999999999994
 40
0.374999999999994
 40
0.499999999999992
 40
0.499999999999992
 40
0.62499999999999
 40
0.62499999999999
 40
0.749999999999988
 40
0.749999999999988
 40
1.0
 40
1.0
 40
1.0
 40
1.0
 10
33.71721142362372
 20
-225.6023831357672
 30
0.0
 10
33.52810011476668
 20
-225.6023831357672
 30
0.0
 10
33.34201243892183
 20
-225.5945842162241
 30
0.0
 10
32.9756383568784
 20
-225.5643856902752
 30
0.0
 10
32.79372994342201
 20
-225.5416905656635
 30
0.0
 10
32.44408455960563
 20
-225.4832221573957
 30
0.0
 10
32.27787616866723
 20
-225.4478742009856
 30
0.0
 10
31.96236582183207
 20
-225.3667762121675
 30
0.0
 10
31.81176157417715
 20
-225.3204655563434
 30
0.0
 10
31.53885379760463
 20
-225.2224956816494
 30
0.0
 10
31.41553546105553
 20
-225.17072153717
 30
0.0
 10
31.19500421515551
 20
-225.0636704696737
 30
0.0
 10
31.09797292800998
 20
-225.0082553602534
 30
0.0
 10
30.85803038689359
 20
-224.8464576343796
 30
0.0
 10
30.76016974115071
 20
-224.7411217554722
 30
0.0
 10
30.72862732934851
 20
-224.6496734271894
 30
0.0
  0
SPLINE
  5
2DC
330
1F
100
AcDbEntity
  8
0
  6
Continuous
 62
     7
370
    15
100
AcDbSpline
210
0.0
220
0.0
230
1.0
 70
     8
 71
     3
 72
    22
 73
    18
 74
     0
 42
0.00000001
 43
0.00000001
 12
1.0
 22
0.0
 32
0.0
 13
1.0
 23
0.0
 33
0.0
 40
0.0
 40
0.0
 40
0.0
 40
0.0
 40
0.125
 40
0.125
 40
0.25
 40
0.25
 40
0.375
 40
0.375
 40
0.5
 40
0.5
 40
0.625
 40
0.625
 40
0.75
 40
0.75
 40
0.875
 40
0.875
 40
1.0
 40
1.0
 40
1.0
 40
1.0
 10
30.72862732934851
 20
115.5064960298429
 30
0.0
 10
30.74439662205506
 20
115.6186618704168
 30
0.0
 10
30.77622527873317
 20
115.7315198272571
 30
0.0
 10
30.87195707309374
 20
115.9578468266496
 30
0.0
 10
30.93655717706224
 20
116.0722695333155
 30
0.0
 10
31.09749880260094
 20
116.2960265350161
 30
0.0
 10
31.19254566063388
 20
116.4039892802587
 30
0.0
 10
31.41160939642671
 20
116.6106613390509
 30
0.0
 10
31.53723822594496
 20
116.7103446755719
 30
0.0
 10
31.81037403867918
 20
116.8918588420939
 30
0.0
 10
31.95762693978183
 20
116.9739761012283
 30
0.0
 10
32.27343872517633
 20
117.1194994749455
 30
0.0
 10
32.44321205904919
 20
117.1830069496952
 30
0.0
 10
32.79064079574224
 20
117.2845319854563
 30
0.0
 10
32.96975691256998
 20
117.3234015892977
 30
0.0
 10
33.3389699261372
 20
117.3761676871911
 30
0.0
 10
33.52806548213864
 20
117.3897075687321
 30
0.0
 10
33.71721142362372
 20
117.3897075687322
 30
0.0
  0
LINE
  5
2DD
330
1F
100
AcDbEntity
  8
0
  6
Continuous
 62
     7
370
    15
100
AcDbLine
 10
39.4682190937
 20
-103.9087974305
 30
0.0
 11
39.4682190937
 21
-79.9087972219
 31
0.0
  0
SPLINE
  5
2DE
330
1F
100
AcDbEntity
  8
0
  6
Continuous
 62
     7
370
    15
100
AcDbSpline
210
0.0
220
0.0
230
1.0
 70
     8
 71
     3
 72
    10
 73
     6
 74
     0
 42
0.00000001
 43
0.00000001
 12
1.0
 22
0.0
 32
0.0
 13
1.0
 23
0.0
 33
0.0
 40
0.0
 40
0.0
 40
0.0
 40
0.0
 40
0.4584833265390857
 40
0.9184239327131745
 40
1.0
 40
1.0
 40
1.0
 40
1.0
 10
30.72862844882791
 20
-224.6496674443484
 30
0.0
 10
30.68686996982101
 20
-224.546139837757
 30
0.0
 10
30.60322028335766
 20
-224.3387555642485
 30
0.0
 10
30.51553216267803
 20
-224.2300663442865
 30
0.0
 10
30.47207942702077
 20
-224.2555000932094
 30
0.0
 10
30.46553354678933
 20
-224.2593315268756
 30
0.0
  0
SPLINE
  5
2DF
330
1F
100
AcDbEntity
  8
0
  6
Continuous
 62
     7
370
    15
100
AcDbSpline
210
0.0
220
0.0
230
1.0
 70
     8
 71
     3
 72
    13
 73
     9
 74
     0
 42
0.00000001
 43
0.00000001
 12
1.0
 22
0.0
 32
0.0
 13
1.0
 23
0.0
 33
0.0
 40
0.0
 40
0.0
 40
0.0
 40
0.0
 40
0.1473375818503488
 40
0.3224570932068861
 40
0.4981524496554515
 40
0.6744046330489629
 40
0.8501020736577175
 40
1.0
 40
1.0
 40
1.0
 40
1.0
 10
30.12809675155465
 20
112.8645244215726
 30
0.0
 10
30.15011590261416
 20
112.871502382454
 30
0.0
 10
30.19830612914274
 20
112.8867740663927
 30
0.0
 10
30.28686258892639
 20
113.1120532232011
 30
0.0
 10
30.3898379372799
 20
113.502345582102
 30
0.0
 10
30.50208303328942
 20
114.0593742680928
 30
0.0
 10
30.61547293822254
 20
114.7249536558871
 30
0.0
 10
30.69295649165583
 20
115.2601199145343
 30
0.0
 10
30.72862844882791
 20
115.5065003012418
 30
0.0
  0
SPLINE
  5
2E0
330
1F
100
AcDbEntity
  8
0
  6
Continuous
 62
     7
370
    15
100
AcDbSpline
210
0.0
220
0.0
230
1.0
 70
     8
 71
     3
 72
    23
 73
    19
 74
     0
 42
0.00000001
 43
0.00000001
 12
1.0
 22
0.0
 32
0.0
 13
1.0
 23
0.0
 33
0.0
 40
0.0
 40
0.0
 40
0.0
 40
0.0
 40
0.0548447028753076
 40
0.1193907887078652
 40
0.1858065393174386
 40
0.2504136139712189
 40
0.3168837532116617
 40
0.3816759360521298
 40
0.448333167822818
 40
0.5133583669685217
 40
0.5802578995541889
 40
0.6454661817077986
 40
0.7125621038185012
 40
0.7778237320622172
 40
0.8449823184751569
 40
0.9101352773460073
 40
0.9771895968042882
 40
1.0
 40
1.0
 40
1.0
 40
1.0
 10
30.26722889362161
 20
-344.8961523200275
 30
0.0
 10
30.26668646552897
 20
-344.8897846128856
 30
0.0
 10
30.26550566019318
 20
-344.8759228260938
 30
0.0
 10
30.2462170459221
 20
-344.6501615684786
 30
0.0
 10
30.21364490185081
 20
-344.2694230897494
 30
0.0
 10
30.16730611093466
 20
-343.7287655881033
 30
0.0
 10
30.10974191462979
 20
-343.0587115426381
 30
0.0
 10
30.04131209634112
 20
-342.264391157732
 30
0.0
 10
29.96501632754798
 20
-341.3816473264321
 30
0.0
 10
29.88155921521141
 20
-340.4198480972984
 30
0.0
 10
29.79467754650656
 20
-339.422217000804
 30
0.0
 10
29.70525402490288
 20
-338.399996353616
 30
0.0
 10
29.61744778768814
 20
-337.4000671996603
 30
0.0
 10
29.53225198911295
 20
-336.4338650375475
 30
0.0
 10
29.4536621978909
 20
-335.5462719389419
 30
0.0
 10
29.38281941214716
 20
-334.7487136689424
 30
0.0
 10
29.33538825727756
 20
-334.2163847745764
 30
0.0
 10
29.3122344561668
 20
-333.9570655604313
 30
0.0
 10
29.30635731635873
 20
-333.8912424470187
 30
0.0
  0
SPLINE
  5
2E1
330
1F
100
AcDbEntity
  8
0
  6
Continuous
 62
     7
370
    15
100
AcDbSpline
210
0.0
220
0.0
230
1.0
 70
     8
 71
     3
 72
    27
 73
    23
 74
     0
 42
0.00000001
 43
0.00000001
 12
1.0
 22
0.0
 32
0.0
 13
1.0
 23
0.0
 33
0.0
 40
0.0
 40
0.0
 40
0.0
 40
0.0
 40
0.0016321698062703
 40
0.0554224164463125
 40
0.1092125395013803
 40
0.1628084367876957
 40
0.2164027956832164
 40
0.269848660677554
 40
0.3232947378953991
 40
0.3766970152185887
 40
0.4300995611345592
 40
0.4835808810580823
 40
0.5370640265595445
 40
0.5907156357506657
 40
0.6443684200672612
 40
0.6982113701786188
 40
0.7520550778229317
 40
0.8060304427904478
 40
0.8600053039883134
 40
0.9139919672364019
 40
0.9679779043269992
 40
1.0
 40
1.0
 40
1.0
 40
1.0
 10
30.11754672942938
 20
-272.5616392518283
 30
0.0
 10
30.11821866772219
 20
-272.5624822477592
 30
0.0
 10
30.14103519315229
 20
-272.5911072544025
 30
0.0
 10
30.17654860003203
 20
-272.4877942792048
 30
0.0
 10
30.22140906820479
 20
-272.2452807451118
 30
0.0
 10
30.25146174881655
 20
-271.8177972063529
 30
0.0
 10
30.2679711957645
 20
-271.2506063747395
 30
0.0
 10
30.26959681449227
 20
-270.5470689314401
 30
0.0
 10
30.25701679053428
 20
-269.7347420468574
 30
0.0
 10
30.23001948175003
 20
-268.8315048038982
 30
0.0
 10
30.18987387821068
 20
-267.8659881588318
 30
0.0
 10
30.13706932542402
 20
-266.8630818925271
 30
0.0
 10
30.07351566539186
 20
-265.8510052011259
 30
0.0
 10
30.00041810317192
 20
-264.8590070424085
 30
0.0
 10
29.92002560113117
 20
-263.9126267510345
 30
0.0
 10
29.83433483901688
 20
-263.042278146079
 30
0.0
 10
29.74578841892259
 20
-262.2684609293572
 30
0.0
 10
29.65694008242323
 20
-261.6194683746528
 30
0.0
 10
29.57014192165134
 20
-261.1065061876434
 30
0.0
 10
29.48864038642141
 20
-260.7589958187589
 30
0.0
 10
29.42299479479042
 20
-260.5786942585727
 30
0.0
 10
29.38904696666295
 20
-260.5797673504359
 30
0.0
 10
29.37640767513101
 20
-260.5801668788196
 30
0.0
  0
SPLINE
  5
2E2
330
1F
100
AcDbEntity
  8
0
  6
Continuous
 62
     7
370
    15
100
AcDbSpline
210
0.0
220
0.0
230
1.0
 70
     8
 71
     3
 72
    27
 73
    23
 74
     0
 42
0.00000001
 43
0.00000001
 12
1.0
 22
0.0
 32
0.0
 13
1.0
 23
0.0
 33
0.0
 40
0.0
 40
0.0
 40
0.0
 40
0.0
 40
0.0068745380275457
 40
0.0608639520624947
 40
0.1148533672523488
 40
0.1688295449276146
 40
0.2228052472976602
 40
0.2766482489647166
 40
0.3304894833247727
 40
0.3841388524078596
 40
0.437787668231401
 40
0.491267706785243
 40
0.544747632861688
 40
0.5981514816562347
 40
0.6515562644586061
 40
0.7050073143004701
 40
0.7584591550106079
 40
0.8120620692271419
 40
0.8656656380639528
 40
0.9194623287384309
 40
0.9732597783611124
 40
1.0
 40
1.0
 40
1.0
 40
1.0
 10
29.74978607116525
 20
-97.89920801547177
 30
0.0
 10
29.75355155050125
 20
-97.90231122126836
 30
0.0
 10
29.78688934758378
 20
-97.92978555744722
 30
0.0
 10
29.84959861851209
 20
-97.81623519388594
 30
0.0
 10
29.93486871072938
 20
-97.55407559413855
 30
0.0
 10
30.01448686041822
 20
-97.10994493013379
 30
0.0
 10
30.08645895099055
 20
-96.52474442648607
 30
0.0
 10
30.14841335138444
 20
-95.80374103387405
 30
0.0
 10
30.19912790200839
 20
-94.97519173649579
 30
0.0
 10
30.2367940683204
 20
-94.05797601995297
 30
0.0
 10
30.26092878037415
 20
-93.08269009860436
 30
0.0
 10
30.27043739578193
 20
-92.07427460260088
 30
0.0
 10
30.26569403477789
 20
-91.06278118980109
 30
0.0
 10
30.24623885184628
 20
-90.07632072655865
 30
0.0
 10
30.21324769044077
 20
-89.14095684231205
 30
0.0
 10
30.16699900993009
 20
-88.28538198038954
 30
0.0
 10
30.10917530222502
 20
-87.52911198629151
 30
0.0
 10
30.040904136282
 20
-86.89932978088355
 30
0.0
 10
29.96428488994302
 20
-86.40492002971091
 30
0.0
 10
29.88111406901576
 20
-86.07824854830945
 30
0.0
 10
29.80858125900749
 20
-85.91312611970137
 30
0.0
 10
29.76438549876163
 20
-85.92620178967523
 30
0.0
 10
29.74971156535928
 20
-85.93054319050916
 30
0.0
  0
SPLINE
  5
2E3
330
1F
100
AcDbEntity
  8
0
  6
Continuous
 62
     7
370
    15
100
AcDbSpline
210
0.0
220
0.0
230
1.0
 70
     8
 71
     3
 72
    27
 73
    23
 74
     0
 42
0.00000001
 43
0.00000001
 12
1.0
 22
0.0
 32
0.0
 13
1.0
 23
0.0
 33
0.0
 40
0.0
 40
0.0
 40
0.0
 40
0.0
 40
0.017533346177184
 40
0.0710617009822045
 40
0.1247913757064306
 40
0.1785226844144217
 40
0.2324370296781195
 40
0.2863512278087423
 40
0.3403500166178886
 40
0.3943489210986243
 40
0.4482985386639541
 40
0.5022474304639896
 40
0.5560393895840638
 40
0.6098312251152291
 40
0.6634288286942209
 40
0.7170248938334414
 40
0.7704724603439891
 40
0.8239202390848007
 40
0.877324216536532
 40
0.9307284625895952
 40
0.9842114851580807
 40
1.0
 40
1.0
 40
1.0
 40
1.0
 10
29.37664609371011
 20
76.765641865611
 30
0.0
 10
29.38325742268125
 20
76.76054368451496
 30
0.0
 10
29.41005278037826
 20
76.73988103307697
 30
0.0
 10
29.46740871371923
 20
76.87484489711613
 30
0.0
 10
29.54654133639837
 20
77.17397067440959
 30
0.0
 10
29.63191263316659
 20
77.64045941067307
 30
0.0
 10
29.72024054838516
 20
78.25231307719996
 30
0.0
 10
29.80923004788012
 20
78.99159054884124
 30
0.0
 10
29.89619731489771
 20
79.84062432197658
 30
0.0
 10
29.97876036313644
 20
80.77166774283337
 30
0.0
 10
30.0544307425561
 20
81.76057840501561
 30
0.0
 10
30.12130647214696
 20
82.77646633233141
 30
0.0
 10
30.17727587397263
 20
83.7911160503269
 30
0.0
 10
30.22121481424784
 20
84.77501529033563
 30
0.0
 10
30.25151432960469
 20
85.69926889166601
 30
0.0
 10
30.26795488649429
 20
86.53980314090504
 30
0.0
 10
30.26960959996217
 20
87.27029411236833
 30
0.0
 10
30.25698194393351
 20
87.87395104909507
 30
0.0
 10
30.2301459740684
 20
88.33300461494112
 30
0.0
 10
30.18940241501001
 20
88.6254643898258
 30
0.0
 10
30.15071848269874
 20
88.75546359485237
 30
0.0
 10
30.12293941902853
 20
88.7335556075784
 30
0.0
 10
30.11660795627419
 20
88.72856229293339
 30
0.0
  0
SPLINE
  5
2E4
330
1F
100
AcDbEntity
  8
0
  6
Continuous
 62
     7
370
    15
100
AcDbSpline
210
0.0
220
0.0
230
1.0
 70
     8
 71
     3
 72
    23
 73
    19
 74
     0
 42
0.00000001
 43
0.00000001
 12
1.0
 22
0.0
 32
0.0
 13
1.0
 23
0.0
 33
0.0
 40
0.0
 40
0.0
 40
0.0
 40
0.0
 40
0.0648143426754592
 40
0.1315057833479097
 40
0.1964455271801461
 40
0.2632580857111249
 40
0.3283705504695712
 40
0.3953626619556494
 40
0.4606118438108053
 40
0.5277542090592947
 40
0.5929828776672743
 40
0.6601127793008504
 40
0.7251778561912903
 40
0.7921431459824348
 40
0.8569758388363202
 40
0.9237003381763101
 40
0.9883316645205046
 40
1.0
 40
1.0
 40
1.0
 40
1.0
 10
29.30635731635873
 20
150.0736477946042
 30
0.0
 10
29.32380990254741
 20
150.2692396201504
 30
0.0
 10
29.35922052191731
 20
150.6660878357327
 30
0.0
 10
29.42635130062921
 20
151.4209333421578
 30
0.0
 10
29.50223093164429
 20
152.2768772676206
 30
0.0
 10
29.58449058524668
 20
153.2081163657802
 30
0.0
 10
29.67182306703051
 20
154.2013332077012
 30
0.0
 10
29.76042916368422
 20
155.2124524605735
 30
0.0
 10
29.84917971895444
 20
156.230066710267
 30
0.0
 10
29.93406466564189
 20
157.2070110517741
 30
0.0
 10
30.01418042673388
 20
158.1324304727026
 30
0.0
 10
30.08577768400476
 20
158.9624728175869
 30
0.0
 10
30.1482309570407
 20
159.6890324273066
 30
0.0
 10
30.19860154253465
 20
160.2762627919619
 30
0.0
 10
30.23695374285219
 20
160.724306750586
 30
0.0
 10
30.25987264800792
 20
160.9924928730845
 30
0.0
 10
30.26980618805906
 20
161.1087567874711
 30
0.0
 10
30.26757075358261
 20
161.082563368237
 30
0.0
 10
30.26722889362161
 20
161.078557667613
 30
0.0
  0
LINE
  5
2E5
330
1F
100
AcDbEntity
  8
0
  6
Continuous
 62
     7
370
    15
100
AcDbLine
 10
40.7050750774
 20
-81.5164928163
 30
0.0
 11
48.6313603443
 21
-81.5164928163
 31
0.0
  0
SPLINE
  5
2E6
330
1F
100
AcDbEntity
  8
0
  6
Continuous
 62
     7
370
    15
100
AcDbSpline
210
0.0
220
0.0
230
1.0
 70
     8
 71
     3
 72
    16
 73
    12
 74
     0
 42
0.00000001
 43
0.00000001
 12
1.0
 22
0.0
 32
0.0
 13
1.0
 23
0.0
 33
0.0
 40
0.0
 40
0.0
 40
0.0
 40
0.0
 40
0.2499999999999997
 40
0.2499999999999997
 40
0.4999999999999993
 40
0.4999999999999993
 40
0.6249999999999991
 40
0.6249999999999991
 40
0.749999999999999
 40
0.749999999999999
 40
1.0
 40
1.0
 40
1.0
 40
1.0
 10
48.6313576223863
 20
-81.51649248079654
 30
0.0
 10
48.8762793700125
 20
-81.94070939156363
 30
0.0
 10
49.07813924109909
 20
-82.36801920690718
 30
0.0
 10
49.35778054274729
 20
-83.23155072921104
 30
0.0
 10
49.43463955187553
 20
-83.66783868877583
 30
0.0
 10
49.43548328504539
 20
-84.33049058540013
 30
0.0
 10
49.41669401843971
 20
-84.55241383853291
 30
0.0
 10
49.34342611942192
 20
-84.99140144729684
 30
0.0
 10
49.28902183927234
 20
-85.20942348855728
 30
0.0
 10
49.07894204731631
 20
-85.85960802722687
 30
0.0
 10
48.87658220353883
 20
-86.28790406432437
 30
0.0
 10
48.63135482237291
 20
-86.71264975326494
 30
0.0
  0
LINE
  5
2E7
330
1F
100
AcDbEntity
  8
0
  6
Continuous
 62
     7
370
    15
100
AcDbLine
 10
40.7050750774
 20
-86.7126450713
 30
0.0
 11
48.6313603443
 21
-86.7126450713
 31
0.0
  0
SPLINE
  5
2E8
330
1F
100
AcDbEntity
  8
0
  6
Continuous
 62
     7
370
    15
100
AcDbSpline
210
0.0
220
0.0
230
1.0
 70
     8
 71
     3
 72
    15
 73
    11
 74
     0
 42
0.00000001
 43
0.00000001
 12
1.0
 22
0.0
 32
0.0
 13
1.0
 23
0.0
 33
0.0
 40
0.0
 40
0.0
 40
0.0
 40
0.0
 40
0.1323053686120031
 40
0.2645741406042438
 40
0.3998003977514749
 40
0.5350034945494659
 40
0.6501937656509413
 40
0.7654015025856429
 40
0.8826892464727518
 40
0.9999999999999999
 40
0.9999999999999999
 40
0.9999999999999999
 40
0.9999999999999999
 10
40.70507507739846
 20
-86.71264507126816
 30
0.0
 10
40.58271020046853
 20
-86.48814957184602
 30
0.0
 10
40.33801429361665
 20
-86.03922067007703
 30
0.0
 10
40.07471167522237
 20
-85.34792226187032
 30
0.0
 10
39.91641197444221
 20
-84.64357411611165
 30
0.0
 10
39.88506206504403
 20
-83.96475836345346
 30
0.0
 10
39.96640420120352
 20
-83.32260801508487
 30
0.0
 10
40.13305780358865
 20
-82.71657240387427
 30
0.0
 10
40.37754680143453
 20
-82.11328590588184
 30
0.0
 10
40.59589184691501
 20
-81.71543685331578
 30
0.0
 10
40.70507507739846
 20
-81.51649281632908
 30
0.0
  0
SPLINE
  5
2E9
330
1F
100
AcDbEntity
  8
0
  6
Continuous
 62
     7
370
    15
100
AcDbSpline
210
0.0
220
0.0
230
1.0
 70
     8
 71
     3
 72
    15
 73
    11
 74
     0
 42
0.00000001
 43
0.00000001
 12
1.0
 22
0.0
 32
0.0
 13
1.0
 23
0.0
 33
0.0
 40
0.0
 40
0.0
 40
0.0
 40
0.0
 40
0.1323053686120031
 40
0.2645741406042438
 40
0.3998003977514749
 40
0.5350034945494659
 40
0.6501937656509413
 40
0.7654015025856429
 40
0.8826892464727518
 40
0.9999999999999999
 40
0.9999999999999999
 40
0.9999999999999999
 40
0.9999999999999999
 10
48.63136034427468
 20
-97.10494958114631
 30
0.0
 10
48.75372522120464
 20
-97.32944508056846
 30
0.0
 10
48.99842112805651
 20
-97.77837398233746
 30
0.0
 10
49.26172374645078
 20
-98.46967239054416
 30
0.0
 10
49.42002344723096
 20
-99.17402053630283
 30
0.0
 10
49.45137335662917
 20
-99.85283628896102
 30
0.0
 10
49.37003122046961
 20
-100.4949866373296
 30
0.0
 10
49.20337761808447
 20
-101.1010222485402
 30
0.0
 10
48.9588886202386
 20
-101.7043087465326
 30
0.0
 10
48.74054357475808
 20
-102.1021577990987
 30
0.0
 10
48.63136034427468
 20
-102.3011018360854
 30
0.0
  0
SPLINE
  5
2EA
330
1F
100
AcDbEntity
  8
0
  6
Continuous
 62
     7
370
    15
100
AcDbSpline
210
0.0
220
0.0
230
1.0
 70
     8
 71
     3
 72
    15
 73
    11
 74
     0
 42
0.00000001
 43
0.00000001
 12
1.0
 22
0.0
 32
0.0
 13
1.0
 23
0.0
 33
0.0
 40
0.0
 40
0.0
 40
0.0
 40
0.0
 40
0.1803000952358861
 40
0.2712330298072369
 40
0.3621570504309645
 40
0.4866567079975648
 40
0.611153796917906
 40
0.7389684040110934
 40
0.8668171247314831
 40
1.0
 40
1.0
 40
1.0
 40
1.0
 10
48.63136034427468
 20
-86.71264507126816
 30
0.0
 10
48.79555089599433
 20
-87.325469136128
 30
0.0
 10
49.04254966075023
 20
-88.24736619687695
 30
0.0
 10
49.26077638693636
 20
-89.50292420300526
 30
0.0
 10
49.39199072129958
 20
-90.57260172974323
 30
0.0
 10
49.45218833598259
 20
-91.767838505146
 30
0.0
 10
49.40942971443349
 20
-93.0937535074358
 30
0.0
 10
49.25207101097845
 20
-94.42255962042164
 30
0.0
 10
48.99616412208572
 20
-95.76716951960401
 30
0.0
 10
48.75460700207172
 20
-96.65298901636848
 30
0.0
 10
48.63136034427468
 20
-97.10494958114631
 30
0.0
  0
LINE
  5
2EB
330
1F
100
AcDbEntity
  8
0
  6
Continuous
 62
     7
370
    15
100
AcDbLine
 10
49.868216328
 20
-91.9087973262
 30
0.0
 11
49.868216328
 21
-83.6587973709
 31
0.0
  0
LINE
  5
2EC
330
1F
100
AcDbEntity
  8
0
  6
Continuous
 62
     7
370
    15
100
AcDbLine
 10
49.868216328
 20
-100.1587972815
 30
0.0
 11
49.868216328
 21
-91.9087973262
 31
0.0
  0
SPLINE
  5
2ED
330
1F
100
AcDbEntity
  8
0
  6
Continuous
 62
     7
370
    15
100
AcDbSpline
210
0.0
220
0.0
230
1.0
 70
     8
 71
     3
 72
    15
 73
    11
 74
     0
 42
0.00000001
 43
0.00000001
 12
1.0
 22
0.0
 32
0.0
 13
1.0
 23
0.0
 33
0.0
 40
0.0
 40
0.0
 40
0.0
 40
0.0
 40
0.1331831772959549
 40
0.2578215976317171
 40
0.382428965600831
 40
0.5101349584758522
 40
0.6378430672018836
 40
0.7279522568685479
 40
0.8180698763616429
 40
1.0
 40
1.0
 40
1.0
 40
1.0
 10
40.70507507739846
 20
-97.10494958114631
 30
0.0
 10
40.58181889874943
 20
-96.6529907706591
 30
0.0
 10
40.34321440272776
 20
-95.77806989139063
 30
0.0
 10
40.09040563134342
 20
-94.45593223257654
 30
0.0
 10
39.9305414607806
 20
-93.1388937914943
 30
0.0
 10
39.88310101322873
 20
-91.80174932392288
 30
0.0
 10
39.9429152382106
 20
-90.5866648415919
 30
0.0
 10
40.07453386017349
 20
-89.51145879928055
 30
0.0
 10
40.29187295685811
 20
-88.25575628881796
 30
0.0
 10
40.53948569875227
 20
-87.3310417710767
 30
0.0
 10
40.70507507739846
 20
-86.71264507126816
 30
0.0
  0
SPLINE
  5
2EE
330
1F
100
AcDbEntity
  8
0
  6
Continuous
 62
     7
370
    15
100
AcDbSpline
210
0.0
220
0.0
230
1.0
 70
     8
 71
     3
 72
    16
 73
    12
 74
     0
 42
0.00000001
 43
0.00000001
 12
1.0
 22
0.0
 32
0.0
 13
1.0
 23
0.0
 33
0.0
 40
0.0
 40
0.0
 40
0.0
 40
0.0
 40
0.2500000000000001
 40
0.2500000000000001
 40
0.5000000000000001
 40
0.5000000000000001
 40
0.6250000000000001
 40
0.6250000000000001
 40
0.7500000000000002
 40
0.7500000000000002
 40
1.0
 40
1.0
 40
1.0
 40
1.0
 10
40.70507818075667
 20
-102.3011021716231
 30
0.0
 10
40.46015643457935
 20
-101.8768852633655
 30
0.0
 10
40.25829656443173
 20
-101.449575450568
 30
0.0
 10
39.97865526297038
 20
-100.5860439334778
 30
0.0
 10
39.90179625306126
 20
-100.1497559765826
 30
0.0
 10
39.90095251723056
 20
-99.48710408406967
 30
0.0
 10
39.91974178271766
 20
-99.26518083215134
 30
0.0
 10
39.99300967920544
 20
-98.82619322581063
 30
0.0
 10
40.04741395793449
 20
-98.6081711857489
 30
0.0
 10
40.25749374532973
 20
-97.95798665065065
 30
0.0
 10
40.45985358568408
 20
-97.52969061590235
 30
0.0
 10
40.70508096336243
 20
-97.10494492930565
 30
0.0
  0
LINE
  5
2EF
330
1F
100
AcDbEntity
  8
0
  6
Continuous
 62
     7
370
    15
100
AcDbLine
 10
40.7050750774
 20
-97.1049495811
 30
0.0
 11
48.6313603443
 21
-97.1049495811
 31
0.0
  0
LINE
  5
2F0
330
1F
100
AcDbEntity
  8
0
  6
Continuous
 62
     7
370
    15
100
AcDbLine
 10
40.7050750774
 20
-102.3011018361
 30
0.0
 11
48.6313603443
 21
-102.3011018361
 31
0.0
  0
LINE
  5
2F1
330
1F
100
AcDbEntity
  8
0
  6
Continuous
 62
     7
370
    15
100
AcDbLine
 10
89.9682171267
 20
-91.9087973262
 30
0.0
 11
89.9682171267
 21
-85.9087972741
 31
0.0
  0
LINE
  5
2F2
330
1F
100
AcDbEntity
  8
0
  6
Continuous
 62
     7
370
    15
100
AcDbLine
 10
89.9682171267
 20
-97.9087973784
 30
0.0
 11
89.9682171267
 21
-91.9087973262
 31
0.0
  0
LINE
  5
2F3
330
1F
100
AcDbEntity
  8
0
  6
Continuous
 62
     7
370
    15
100
AcDbLine
 10
-133.2317687947
 20
-228.9358523513
 30
0.0
 11
-133.2317687947
 21
-241.2020859147
 31
0.0
  0
LINE
  5
2F4
330
1F
100
AcDbEntity
  8
0
  6
Continuous
 62
     7
370
    15
100
AcDbLine
 10
-133.2317687947
 20
-216.6696187879
 30
0.0
 11
-133.2317687947
 21
-228.9358523513
 31
0.0
  0
LINE
  5
2F5
330
1F
100
AcDbEntity
  8
0
  6
Continuous
 62
     7
370
    15
100
AcDbLine
 10
-133.2317687947
 20
-216.6696187879
 30
0.0
 11
-108.4860660511
 21
-216.6696187879
 31
0.0
  0
SPLINE
  5
2F6
330
1F
100
AcDbEntity
  8
0
  6
Continuous
 62
     7
370
    15
100
AcDbSpline
210
0.0
220
0.0
230
1.0
 70
     8
 71
     3
 72
    12
 73
     8
 74
     0
 42
0.00000001
 43
0.00000001
 12
1.0
 22
0.0
 32
0.0
 13
1.0
 23
0.0
 33
0.0
 40
0.0
 40
0.0
 40
0.0
 40
0.0
 40
0.2499999999999999
 40
0.2499999999999999
 40
0.4999999999999998
 40
0.4999999999999998
 40
1.0
 40
1.0
 40
1.0
 40
1.0
 10
-106.4317820984285
 20
-228.9358563083902
 30
0.0
 10
-106.4317820984286
 20
-227.8988444447431
 30
0.0
 10
-106.4794906293936
 20
-226.858510900853
 30
0.0
 10
-106.6690932842705
 20
-224.7712861929376
 30
0.0
 10
-106.8100076088849
 20
-223.7353060531084
 30
0.0
 10
-107.3500373511791
 20
-220.6624004140364
 30
0.0
 10
-107.8662306114719
 20
-218.6530020322305
 30
0.0
 10
-108.4860592404005
 20
-216.6696200073874
 30
0.0
  0
SPLINE
  5
2F7
330
1F
100
AcDbEntity
  8
0
  6
Continuous
 62
     7
370
    15
100
AcDbSpline
210
0.0
220
0.0
230
1.0
 70
     8
 71
     3
 72
    12
 73
     8
 74
     0
 42
0.00000001
 43
0.00000001
 12
1.0
 22
0.0
 32
0.0
 13
1.0
 23
0.0
 33
0.0
 40
0.0
 40
0.0
 40
0.0
 40
0.0
 40
0.2500000000000014
 40
0.2500000000000014
 40
0.5000000000000029
 40
0.5000000000000029
 40
1.0
 40
1.0
 40
1.0
 40
1.0
 10
-108.4860592404005
 20
-241.202092609393
 30
0.0
 10
-108.1743289351936
 20
-240.2045906304754
 30
0.0
 10
-107.8881393029263
 20
-239.1979267081353
 30
0.0
 10
-107.3803188471906
 20
-237.1614403446862
 30
0.0
 10
-107.1609257508034
 20
-236.1398628116076
 30
0.0
 10
-106.6246621171482
 20
-233.0680115598008
 30
0.0
 10
-106.4317820984286
 20
-231.0086485167342
 30
0.0
 10
-106.4317820984285
 20
-228.9358563083902
 30
0.0
  0
LINE
  5
2F8
330
1F
100
AcDbEntity
  8
0
  6
Continuous
 62
     7
370
    15
100
AcDbLine
 10
-133.2317687947
 20
-241.2020859147
 30
0.0
 11
-108.4860660511
 21
-241.2020859147
 31
0.0
  0
SPLINE
  5
2F9
330
1F
100
AcDbEntity
  8
0
  6
Continuous
 62
     7
370
    15
100
AcDbSpline
210
0.0
220
0.0
230
1.0
 70
     8
 71
     3
 72
    14
 73
    10
 74
     0
 42
0.00000001
 43
0.00000001
 12
1.0
 22
0.0
 32
0.0
 13
1.0
 23
0.0
 33
0.0
 40
0.0
 40
0.0
 40
0.0
 40
0.0
 40
0.1249999999999958
 40
0.1249999999999958
 40
0.2499999999999917
 40
0.2499999999999917
 40
0.4999999999999909
 40
0.4999999999999909
 40
1.0
 40
1.0
 40
1.0
 40
1.0
 10
-106.4317820984285
 20
-251.7402743526216
 30
0.0
 10
-106.4317820984286
 20
-251.2931047145487
 30
0.0
 10
-106.4438303902299
 20
-250.8436979357816
 30
0.0
 10
-106.4916217976165
 20
-249.9490655168774
 30
0.0
 10
-106.527313439455
 20
-249.5032999168221
 30
0.0
 10
-106.6682414367925
 20
-248.1704531985942
 30
0.0
 10
-106.8074093839734
 20
-247.2878324840168
 30
0.0
 10
-107.3441655558432
 20
-244.6556463960364
 30
0.0
 10
-107.8605420994693
 20
-242.9216960827764
 30
0.0
 10
-108.4860592404004
 20
-241.202092609393
 30
0.0
  0
LINE
  5
2FA
330
1F
100
AcDbEntity
  8
0
  6
Continuous
 62
     7
370
    15
100
AcDbLine
 10
-106.431791969
 20
-251.740276518
 30
0.0
 11
-106.431791969
 21
-228.9358523513
 31
0.0
  0
LINE
  5
2FB
330
1F
100
AcDbEntity
  8
0
  6
Continuous
 62
     7
370
    15
100
AcDbLine
 10
-133.2317687947
 20
-251.740276518
 30
0.0
 11
-133.2317687947
 21
-262.2784522201
 31
0.0
  0
SPLINE
  5
2FC
330
1F
100
AcDbEntity
  8
0
  6
Continuous
 62
     7
370
    15
100
AcDbSpline
210
0.0
220
0.0
230
1.0
 70
     8
 71
     3
 72
    10
 73
     6
 74
     0
 42
0.00000001
 43
0.00000001
 12
1.0
 22
0.0
 32
0.0
 13
1.0
 23
0.0
 33
0.0
 40
0.0
 40
0.0
 40
0.0
 40
0.0
 40
0.5
 40
0.5
 40
1.0
 40
1.0
 40
1.0
 40
1.0
 10
-108.4860592404003
 20
-262.2784560958502
 30
0.0
 10
-107.8589758748836
 20
-260.5545469287273
 30
0.0
 10
-107.3423526008897
 20
-258.8180460022541
 30
0.0
 10
-106.6275654561474
 20
-255.3087417697489
 30
0.0
 10
-106.4317820984286
 20
-253.5356671001252
 30
0.0
 10
-106.4317820984285
 20
-251.7402743526216
 30
0.0
  0
LINE
  5
2FD
330
1F
100
AcDbEntity
  8
0
  6
Continuous
 62
     7
370
    15
100
AcDbLine
 10
-133.2317687947
 20
-262.2784522201
 30
0.0
 11
-108.4860660511
 21
-262.2784522201
 31
0.0
  0
LINE
  5
2FE
330
1F
100
AcDbEntity
  8
0
  6
Continuous
 62
     7
370
    15
100
AcDbLine
 10
-133.2317687947
 20
-241.2020859147
 30
0.0
 11
-133.2317687947
 21
-251.740276518
 31
0.0
  0
LINE
  5
2FF
330
1F
100
AcDbEntity
  8
0
  6
Continuous
 62
     7
370
    15
100
AcDbLine
 10
-134.0317823368
 20
-212.7459865834
 30
0.0
 11
-134.0317823368
 21
-262.7459761525
 31
0.0
  0
LINE
  5
300
330
1F
100
AcDbEntity
  8
0
  6
Continuous
 62
     7
370
    15
100
AcDbLine
 10
167.968218736
 20
-212.7459865834
 30
0.0
 11
167.968218736
 21
-262.7459761525
 31
0.0
  0
SPLINE
  5
301
330
1F
100
AcDbEntity
  8
0
  6
Continuous
 62
     7
370
    15
100
AcDbSpline
210
0.0
220
0.0
230
1.0
 70
     8
 71
     3
 72
    11
 73
     7
 74
     0
 42
0.00000001
 43
0.00000001
 12
1.0
 22
0.0
 32
0.0
 13
1.0
 23
0.0
 33
0.0
 40
0.0
 40
0.0
 40
0.0
 40
0.0
 40
0.1591572172022223
 40
0.4352973326753352
 40
0.719082110047357
 40
1.0
 40
1.0
 40
1.0
 40
1.0
 10
29.12003319679086
 20
149.113059339404
 30
0.0
 10
29.11897736628061
 20
149.1094144450826
 30
0.0
 10
29.11608965428776
 20
149.0994456054415
 30
0.0
 10
29.16482231285012
 20
149.2654194565403
 30
0.0
 10
29.24388963911893
 20
149.5730942566145
 30
0.0
 10
29.28560535150946
 20
149.90736228689
 30
0.0
 10
29.30635731635873
 20
150.0736477946042
 30
0.0
  0
SPLINE
  5
302
330
1F
100
AcDbEntity
  8
0
  6
Continuous
 62
     7
370
    15
100
AcDbSpline
210
0.0
220
0.0
230
1.0
 70
     8
 71
     3
 72
    11
 73
     7
 74
     0
 42
0.00000001
 43
0.00000001
 12
1.0
 22
0.0
 32
0.0
 13
1.0
 23
0.0
 33
0.0
 40
0.0
 40
0.0
 40
0.0
 40
0.0
 40
0.2852356053798815
 40
0.5786682182056017
 40
0.8644697121349789
 40
0.9999999999999999
 40
0.9999999999999999
 40
0.9999999999999999
 40
0.9999999999999999
 10
29.30635731635873
 20
-333.8912424470187
 30
0.0
 10
29.28518647441847
 20
-333.7225476851896
 30
0.0
 10
29.2422363898133
 20
-333.3803102666941
 30
0.0
 10
29.16133015548534
 20
-333.0702180594715
 30
0.0
 10
29.11410571328866
 20
-332.9107492402873
 30
0.0
 10
29.11859055311095
 20
-332.9258095305921
 30
0.0
 10
29.12003319679086
 20
-332.9306539918185
 30
0.0
  0
LINE
  5
303
330
1F
100
AcDbEntity
  8
0
  6
Continuous
 62
     7
370
    15
100
AcDbLine
 10
167.1682182324
 20
-217.8273943092
 30
0.0
 11
167.1682182324
 21
-211.1878690149
 31
0.0
  0
LINE
  5
304
330
1F
100
AcDbEntity
  8
0
  6
Continuous
 62
     7
370
    15
100
AcDbLine
 10
167.1682182324
 20
-224.4669345046
 30
0.0
 11
167.1682182324
 21
-217.8273943092
 31
0.0
  0
LINE
  5
305
330
1F
100
AcDbEntity
  8
0
  6
Continuous
 62
     7
370
    15
100
AcDbLine
 10
167.1682182324
 20
-224.4669345046
 30
0.0
 11
142.4224949998
 21
-224.4669345046
 31
0.0
  0
SPLINE
  5
306
330
1F
100
AcDbEntity
  8
0
  6
Continuous
 62
     7
370
    15
100
AcDbSpline
210
0.0
220
0.0
230
1.0
 70
     8
 71
     3
 72
    14
 73
    10
 74
     0
 42
0.00000001
 43
0.00000001
 12
1.0
 22
0.0
 32
0.0
 13
1.0
 23
0.0
 33
0.0
 40
0.0
 40
0.0
 40
0.0
 40
0.0
 40
0.1249999999999989
 40
0.1249999999999989
 40
0.2499999999999978
 40
0.2499999999999978
 40
0.4999999999999958
 40
0.4999999999999958
 40
1.0
 40
1.0
 40
1.0
 40
1.0
 10
140.3682179015715
 20
-217.8273992068025
 30
0.0
 10
140.3682179015715
 20
-218.1091361750825
 30
0.0
 10
140.3802661933727
 20
-218.3922826425393
 30
0.0
 10
140.4280576007595
 20
-218.9559412722111
 30
0.0
 10
140.4637492425979
 20
-219.2367936334411
 30
0.0
 10
140.6046772399355
 20
-220.0765469655182
 30
0.0
 10
140.7438451871163
 20
-220.6326376816449
 30
0.0
 10
141.2806013589861
 20
-222.2910332104026
 30
0.0
 10
141.7969779026122
 20
-223.3834998333854
 30
0.0
 10
142.4224950435433
 20
-224.4669273024832
 30
0.0
  0
SPLINE
  5
307
330
1F
100
AcDbEntity
  8
0
  6
Continuous
 62
     7
370
    15
100
AcDbSpline
210
0.0
220
0.0
230
1.0
 70
     8
 71
     3
 72
    10
 73
     6
 74
     0
 42
0.00000001
 43
0.00000001
 12
1.0
 22
0.0
 32
0.0
 13
1.0
 23
0.0
 33
0.0
 40
0.0
 40
0.0
 40
0.0
 40
0.0
 40
0.5
 40
0.5
 40
1.0
 40
1.0
 40
1.0
 40
1.0
 10
142.4224950435432
 20
-211.1878711111218
 30
0.0
 10
141.7954116780265
 20
-212.274011360778
 30
0.0
 10
141.2787884040326
 20
-213.3680849847125
 30
0.0
 10
140.5640012592903
 20
-215.5791043631723
 30
0.0
 10
140.3682179015715
 20
-216.6962210889559
 30
0.0
 10
140.3682179015715
 20
-217.8273992068025
 30
0.0
  0
LINE
  5
308
330
1F
100
AcDbEntity
  8
0
  6
Continuous
 62
     7
370
    15
100
AcDbLine
 10
167.1682182324
 20
-211.1878690149
 30
0.0
 11
142.4224949998
 21
-211.1878690149
 31
0.0
  0
SPLINE
  5
309
330
1F
100
AcDbEntity
  8
0
  6
Continuous
 62
     7
370
    15
100
AcDbSpline
210
0.0
220
0.0
230
1.0
 70
     8
 71
     3
 72
    12
 73
     8
 74
     0
 42
0.00000001
 43
0.00000001
 12
1.0
 22
0.0
 32
0.0
 13
1.0
 23
0.0
 33
0.0
 40
0.0
 40
0.0
 40
0.0
 40
0.0
 40
0.2499999999999984
 40
0.2499999999999984
 40
0.4999999999999969
 40
0.4999999999999969
 40
1.0
 40
1.0
 40
1.0
 40
1.0
 10
142.4224950435434
 20
-224.4669273024832
 30
0.0
 10
142.1107647383365
 20
-225.5467927562377
 30
0.0
 10
141.8245751060692
 20
-226.6365766526621
 30
0.0
 10
141.3167546503336
 20
-228.8412151570559
 30
0.0
 10
141.0973615539463
 20
-229.947144077117
 30
0.0
 10
140.5610979202911
 20
-233.2726372751333
 30
0.0
 10
140.3682179015715
 20
-235.502041380536
 30
0.0
 10
140.3682179015715
 20
-237.7459834938446
 30
0.0
  0
LINE
  5
30A
330
1F
100
AcDbEntity
  8
0
  6
Continuous
 62
     7
370
    15
100
AcDbLine
 10
140.3682171923
 20
-217.8273943092
 30
0.0
 11
140.3682171923
 21
-237.7459850932
 31
0.0
  0
LINE
  5
30B
330
1F
100
AcDbEntity
  8
0
  6
Continuous
 62
     7
370
    15
100
AcDbLine
 10
167.1682182324
 20
-251.0250356818
 30
0.0
 11
167.1682182324
 21
-237.7459850932
 31
0.0
  0
LINE
  5
30C
330
1F
100
AcDbEntity
  8
0
  6
Continuous
 62
     7
370
    15
100
AcDbLine
 10
167.1682182324
 20
-251.0250356818
 30
0.0
 11
142.4224949998
 21
-251.0250356818
 31
0.0
  0
SPLINE
  5
30D
330
1F
100
AcDbEntity
  8
0
  6
Continuous
 62
     7
370
    15
100
AcDbSpline
210
0.0
220
0.0
230
1.0
 70
     8
 71
     3
 72
    12
 73
     8
 74
     0
 42
0.00000001
 43
0.00000001
 12
1.0
 22
0.0
 32
0.0
 13
1.0
 23
0.0
 33
0.0
 40
0.0
 40
0.0
 40
0.0
 40
0.0
 40
0.2500000000000001
 40
0.2500000000000001
 40
0.5000000000000001
 40
0.5000000000000001
 40
1.0
 40
1.0
 40
1.0
 40
1.0
 10
140.3682179015715
 20
-237.7459834938446
 30
0.0
 10
140.3682179015715
 20
-238.8686211530712
 30
0.0
 10
140.4159264325365
 20
-239.9948547628009
 30
0.0
 10
140.6055290874135
 20
-242.2544210633572
 30
0.0
 10
140.7464434120279
 20
-243.3759418096027
 30
0.0
 10
141.286473154322
 20
-246.7025764553623
 30
0.0
 10
141.8026664146147
 20
-248.8778903306258
 30
0.0
 10
142.4224950435434
 20
-251.0250396852061
 30
0.0
  0
LINE
  5
30E
330
1F
100
AcDbEntity
  8
0
  6
Continuous
 62
     7
370
    15
100
AcDbLine
 10
167.1682182324
 20
-237.7459850932
 30
0.0
 11
167.1682182324
 21
-224.4669345046
 31
0.0
  0
SPLINE
  5
30F
330
1F
100
AcDbEntity
  8
0
  6
Continuous
 62
     7
370
    15
100
AcDbSpline
210
0.0
220
0.0
230
1.0
 70
     8
 71
     3
 72
    10
 73
     6
 74
     0
 42
0.00000001
 43
0.00000001
 12
1.0
 22
0.0
 32
0.0
 13
1.0
 23
0.0
 33
0.0
 40
0.0
 40
0.0
 40
0.0
 40
0.0
 40
0.5
 40
0.5
 40
1.0
 40
1.0
 40
1.0
 40
1.0
 10
142.4224950435432
 20
-251.025039685206
 30
0.0
 10
141.7954116780265
 20
-252.1111799348623
 30
0.0
 10
141.2787884040326
 20
-253.2052535587969
 30
0.0
 10
140.5640012592903
 20
-255.4162729372565
 30
0.0
 10
140.3682179015714
 20
-256.5333896630401
 30
0.0
 10
140.3682179015714
 20
-257.6645677808867
 30
0.0
  0
LINE
  5
310
330
1F
100
AcDbEntity
  8
0
  6
Continuous
 62
     7
370
    15
100
AcDbLine
 10
140.3682171923
 20
-237.7459850932
 30
0.0
 11
140.3682171923
 21
-257.6645609761
 31
0.0
  0
LINE
  5
311
330
1F
100
AcDbEntity
  8
0
  6
Continuous
 62
     7
370
    15
100
AcDbLine
 10
167.1682182324
 20
-264.3041011716
 30
0.0
 11
167.1682182324
 21
-257.6645609761
 31
0.0
  0
LINE
  5
312
330
1F
100
AcDbEntity
  8
0
  6
Continuous
 62
     7
370
    15
100
AcDbLine
 10
167.1682182324
 20
-264.3041011716
 30
0.0
 11
142.4224949998
 21
-264.3041011716
 31
0.0
  0
SPLINE
  5
313
330
1F
100
AcDbEntity
  8
0
  6
Continuous
 62
     7
370
    15
100
AcDbSpline
210
0.0
220
0.0
230
1.0
 70
     8
 71
     3
 72
    14
 73
    10
 74
     0
 42
0.00000001
 43
0.00000001
 12
1.0
 22
0.0
 32
0.0
 13
1.0
 23
0.0
 33
0.0
 40
0.0
 40
0.0
 40
0.0
 40
0.0
 40
0.1250000000000004
 40
0.1250000000000004
 40
0.2500000000000009
 40
0.2500000000000009
 40
0.5000000000000017
 40
0.5000000000000017
 40
1.0
 40
1.0
 40
1.0
 40
1.0
 10
140.3682179015714
 20
-257.6645677808867
 30
0.0
 10
140.3682179015714
 20
-257.9463047491667
 30
0.0
 10
140.3802661933727
 20
-258.2294512166235
 30
0.0
 10
140.4280576007595
 20
-258.7931098462954
 30
0.0
 10
140.4637492425979
 20
-259.0739622075252
 30
0.0
 10
140.6046772399355
 20
-259.9137155396024
 30
0.0
 10
140.7438451871162
 20
-260.4698062557291
 30
0.0
 10
141.2806013589861
 20
-262.1282017844868
 30
0.0
 10
141.7969779026122
 20
-263.2206684074695
 30
0.0
 10
142.4224950435433
 20
-264.3040958765673
 30
0.0
  0
LINE
  5
314
330
1F
100
AcDbEntity
  8
0
  6
Continuous
 62
     7
370
    15
100
AcDbLine
 10
167.1682182324
 20
-257.6645609761
 30
0.0
 11
167.1682182324
 21
-251.0250356818
 31
0.0
  0
SPLINE
  5
315
330
1F
100
AcDbEntity
  8
0
  6
Continuous
 62
     7
370
    15
100
AcDbSpline
210
0.0
220
0.0
230
1.0
 70
     8
 71
     3
 72
    10
 73
     6
 74
     0
 42
0.00000001
 43
0.00000001
 12
1.0
 22
0.0
 32
0.0
 13
1.0
 23
0.0
 33
0.0
 40
0.0
 40
0.0
 40
0.0
 40
0.0
 40
0.5
 40
0.5
 40
1.0
 40
1.0
 40
1.0
 40
1.0
 10
-108.4860592404003
 20
-216.6696200073874
 30
0.0
 10
-107.8589758748836
 20
-216.3869328070694
 30
0.0
 10
-107.3423526008897
 20
-216.1021808058526
 30
0.0
 10
-106.6275654561474
 20
-215.5267239271084
 30
0.0
 10
-106.4317820984286
 20
-215.2359745512888
 30
0.0
 10
-106.4317820984285
 20
-214.9415654496132
 30
0.0
  0
LINE
  5
316
330
1F
100
AcDbEntity
  8
0
  6
Continuous
 62
     7
370
    15
100
AcDbLine
 10
-106.431791969
 20
-228.9358523513
 30
0.0
 11
-106.431791969
 21
-214.9415683771
 31
0.0
  0
SPLINE
  5
317
330
1F
100
AcDbEntity
  8
0
  6
Continuous
 62
     7
370
    15
100
AcDbSpline
210
0.0
220
0.0
230
1.0
 70
     8
 71
     3
 72
    12
 73
     8
 74
     0
 42
0.00000001
 43
0.00000001
 12
1.0
 22
0.0
 32
0.0
 13
1.0
 23
0.0
 33
0.0
 40
0.0
 40
0.0
 40
0.0
 40
0.0
 40
0.1973982306688567
 40
0.3953344450118954
 40
0.5968456880787193
 40
0.7984480769239337
 40
1.0
 40
1.0
 40
1.0
 40
1.0
 10
-106.5463818985385
 20
-260.9432485724689
 30
0.0
 10
-106.6078990621104
 20
-261.0324670977668
 30
0.0
 10
-106.7311010464294
 20
-261.2111473020623
 30
0.0
 10
-107.0417085990167
 20
-261.4790947982544
 30
0.0
 10
-107.4397958025781
 20
-261.7468912276227
 30
0.0
 10
-107.9191750195034
 20
-262.0141679746625
 30
0.0
 10
-108.2971181438958
 20
-262.1903648235578
 30
0.0
 10
-108.4860660511416
 20
-262.2784522200824
 30
0.0
  0
LINE
  5
318
330
1F
100
AcDbEntity
  8
0
  6
Continuous
 62
     7
370
    15
100
AcDbLine
 10
-106.431791969
 20
-260.7459870006
 30
0.0
 11
-106.431791969
 21
-251.740276518
 31
0.0
  0
LINE
  5
319
330
1F
100
AcDbEntity
  8
0
  6
Continuous
 62
     7
370
    15
100
AcDbLine
 10
-3.0317850787
 20
141.7187902306
 30
0.0
 11
-3.0317850787
 21
139.8519727563
 31
0.0
  0
LINE
  5
31A
330
1F
100
AcDbEntity
  8
0
  6
Continuous
 62
     7
370
    15
100
AcDbLine
 10
-3.0317850787
 20
112.8519776438
 30
0.0
 11
-3.0317850787
 21
88.7465777968
 31
0.0
  0
LINE
  5
31B
330
1F
100
AcDbEntity
  8
0
  6
Continuous
 62
     7
370
    15
100
AcDbLine
 10
-3.0317850787
 20
76.7465832804
 30
0.0
 11
-3.0317850787
 21
-85.9087972741
 31
0.0
  0
LINE
  5
31C
330
1F
100
AcDbEntity
  8
0
  6
Continuous
 62
     7
370
    15
100
AcDbLine
 10
-3.0317850787
 20
-97.9087973784
 30
0.0
 11
-3.0317850787
 21
-224.2459800864
 31
0.0
  0
LINE
  5
31D
330
1F
100
AcDbEntity
  8
0
  6
Continuous
 62
     7
370
    15
100
AcDbLine
 10
-3.0317850787
 20
-251.2459901
 30
0.0
 11
-3.0317850787
 21
-260.5641779329
 31
0.0
  0
LINE
  5
31E
330
1F
100
AcDbEntity
  8
0
  6
Continuous
 62
     7
370
    15
100
AcDbLine
 10
-3.0317850787
 20
-272.5641724492
 30
0.0
 11
-3.0317850787
 21
-325.536384883
 31
0.0
  0
LINE
  5
31F
330
1F
100
AcDbEntity
  8
0
  6
Continuous
 62
     7
370
    15
100
AcDbLine
 10
-133.2317687947
 20
-213.2135105158
 30
0.0
 11
-133.2317687947
 21
-214.9415683771
 31
0.0
  0
LINE
  5
320
330
1F
100
AcDbEntity
  8
0
  6
Continuous
 62
     7
370
    15
100
AcDbLine
 10
-133.2317687947
 20
-213.2135105158
 30
0.0
 11
-108.4860660511
 21
-213.2135105158
 31
0.0
  0
SPLINE
  5
321
330
1F
100
AcDbEntity
  8
0
  6
Continuous
 62
     7
370
    15
100
AcDbSpline
210
0.0
220
0.0
230
1.0
 70
     8
 71
     3
 72
    14
 73
    10
 74
     0
 42
0.00000001
 43
0.00000001
 12
1.0
 22
0.0
 32
0.0
 13
1.0
 23
0.0
 33
0.0
 40
0.0
 40
0.0
 40
0.0
 40
0.0
 40
0.1250000000000008
 40
0.1250000000000008
 40
0.2500000000000016
 40
0.2500000000000016
 40
0.5000000000000017
 40
0.5000000000000017
 40
1.0
 40
1.0
 40
1.0
 40
1.0
 10
-106.4317820984285
 20
-214.9415654496132
 30
0.0
 10
-106.4317820984287
 20
-214.8682384231869
 30
0.0
 10
-106.4438303902299
 20
-214.7945445496834
 30
0.0
 10
-106.4916217976166
 20
-214.6478424271836
 30
0.0
 10
-106.5273134394549
 20
-214.5747456353799
 30
0.0
 10
-106.6682414367927
 20
-214.3561849858894
 30
0.0
 10
-106.8074093839733
 20
-214.2114525466723
 30
0.0
 10
-107.3441655558432
 20
-213.7798257938724
 30
0.0
 10
-107.8605420994694
 20
-213.4954920430612
 30
0.0
 10
-108.4860592404004
 20
-213.2135108918389
 30
0.0
  0
LINE
  5
322
330
1F
100
AcDbEntity
  8
0
  6
Continuous
 62
     7
370
    15
100
AcDbLine
 10
-133.2317687947
 20
-214.9415683771
 30
0.0
 11
-133.2317687947
 21
-216.6696187879
 31
0.0
  0
LINE
  5
323
330
1F
100
AcDbEntity
  8
0
  6
Continuous
 62
     7
370
    15
100
AcDbLine
 10
309.4682149213
 20
-224.2459800864
 30
0.0
 11
309.4682149213
 21
-251.2459901
 31
0.0
  0
LINE
  5
324
330
1F
100
AcDbEntity
  8
0
  6
Continuous
 62
     7
370
    15
100
AcDbLine
 10
-275.5317785221
 20
-224.2459800864
 30
0.0
 11
-275.5317785221
 21
-251.2459901
 31
0.0
  0
LINE
  5
325
330
1F
100
AcDbEntity
  8
0
  6
Continuous
 62
     7
370
    15
100
AcDbLine
 10
140.3682171923
 20
-214.7459831859
 30
0.0
 11
140.3682171923
 21
-217.8273943092
 31
0.0
  0
LINE
  5
326
330
1F
100
AcDbEntity
  8
0
  6
Continuous
 62
     7
370
    15
100
AcDbLine
 10
140.3682171923
 20
-257.6645609761
 30
0.0
 11
140.3682171923
 21
-260.7459870006
 31
0.0
  0
LINE
  5
327
330
1F
100
AcDbEntity
  8
0
  6
Continuous
 62
     7
370
    15
100
AcDbLine
 10
-106.431791969
 20
-214.9415683771
 30
0.0
 11
-106.431791969
 21
-214.7459831859
 31
0.0
  0
LINE
  5
328
330
1F
100
AcDbEntity
  8
0
  6
Continuous
 62
     7
370
    15
100
AcDbLine
 10
36.9682214779
 20
-251.2459901
 30
0.0
 11
36.9682214779
 21
-352.9088047172
 31
0.0
  0
LINE
  5
329
330
1F
100
AcDbEntity
  8
0
  6
Continuous
 62
     7
370
    15
100
AcDbLine
 10
39.4682190937
 20
74.2612931107
 30
0.0
 11
39.4682190937
 21
94.746575055
 31
0.0
  0
LINE
  5
32A
330
1F
100
AcDbEntity
  8
0
  6
Continuous
 62
     7
370
    15
100
AcDbLine
 10
39.4682190937
 20
70.7465711211
 30
0.0
 11
39.4682190937
 21
74.2612931107
 31
0.0
  0
LINE
  5
32B
330
1F
100
AcDbEntity
  8
0
  6
Continuous
 62
     7
370
    15
100
AcDbLine
 10
39.4682190937
 20
-278.5641697074
 30
0.0
 11
39.4682190937
 21
-254.5641657735
 31
0.0
  0
SPLINE
  5
32C
330
1F
100
AcDbEntity
  8
0
  6
Continuous
 62
     7
370
    15
100
AcDbSpline
210
0.0
220
0.0
230
1.0
 70
     8
 71
     3
 72
    16
 73
    12
 74
     0
 42
0.00000001
 43
0.00000001
 12
1.0
 22
0.0
 32
0.0
 13
1.0
 23
0.0
 33
0.0
 40
0.0
 40
0.0
 40
0.0
 40
0.0
 40
0.25
 40
0.25
 40
0.5
 40
0.5
 40
0.625
 40
0.625
 40
0.75
 40
0.75
 40
1.0
 40
1.0
 40
1.0
 40
1.0
 10
48.6313576223863
 20
75.3981083985189
 30
0.0
 10
48.87627913696869
 20
75.17851777593809
 30
0.0
 10
49.07813885700527
 20
74.95732615118763
 30
0.0
 10
49.35778012860229
 20
74.51032977724448
 30
0.0
 10
49.43463926333065
 20
74.28449073335139
 30
0.0
 10
49.43548342449972
 20
73.9414772134333
 30
0.0
 10
49.41669433782972
 20
73.82660138563114
 30
0.0
 10
49.34342684574884
 20
73.5993648799661
 30
0.0
 10
49.28902279408557
 20
73.48650846671245
 30
0.0
 10
49.07894373573338
 20
73.14994848119177
 30
0.0
 10
48.87658444256613
 20
72.92824633410594
 30
0.0
 10
48.63135762238613
 20
72.70838198201481
 30
0.0
  0
SPLINE
  5
32D
330
1F
100
AcDbEntity
  8
0
  6
Continuous
 62
     7
370
    15
100
AcDbSpline
210
0.0
220
0.0
230
1.0
 70
     8
 71
     3
 72
    16
 73
    12
 74
     0
 42
0.00000001
 43
0.00000001
 12
1.0
 22
0.0
 32
0.0
 13
1.0
 23
0.0
 33
0.0
 40
0.0
 40
0.0
 40
0.0
 40
0.0
 40
0.249999999999999
 40
0.249999999999999
 40
0.499999999999998
 40
0.499999999999998
 40
0.6249999999999984
 40
0.6249999999999984
 40
0.749999999999999
 40
0.749999999999999
 40
1.0
 40
1.0
 40
1.0
 40
1.0
 10
48.63135762238628
 20
85.4363040433726
 30
0.0
 10
48.87627913696872
 20
84.61678068303527
 30
0.0
 10
49.07813885700516
 20
83.79128230125771
 30
0.0
 10
49.35778012860226
 20
82.12306912290308
 30
0.0
 10
49.43463926333062
 20
81.28022633676102
 30
0.0
 10
49.43548342449978
 20
80.00008245274363
 30
0.0
 10
49.41669433782972
 20
79.57136002682438
 30
0.0
 10
49.34342684574881
 20
78.72330184234808
 30
0.0
 10
49.28902279408549
 20
78.30211597412558
 30
0.0
 10
49.07894373573338
 20
77.04605700836778
 30
0.0
 10
48.87658444256608
 20
76.21865333129627
 30
0.0
 10
48.6313576223861
 20
75.39810839851884
 30
0.0
  0
SPLINE
  5
32E
330
1F
100
AcDbEntity
  8
0
  6
Continuous
 62
     7
370
    15
100
AcDbSpline
210
0.0
220
0.0
230
1.0
 70
     8
 71
     3
 72
    16
 73
    12
 74
     0
 42
0.00000001
 43
0.00000001
 12
1.0
 22
0.0
 32
0.0
 13
1.0
 23
0.0
 33
0.0
 40
0.0
 40
0.0
 40
0.0
 40
0.0
 40
0.25
 40
0.25
 40
0.5
 40
0.5
 40
0.625
 40
0.625
 40
0.75
 40
0.75
 40
1.0
 40
1.0
 40
1.0
 40
1.0
 10
48.63135762238591
 20
85.43630404337252
 30
0.0
 10
48.87533291891634
 20
86.03391902971633
 30
0.0
 10
49.08002687440736
 20
86.64615180689128
 30
0.0
 10
49.35988064673289
 20
87.87360810300196
 30
0.0
 10
49.43528922102395
 20
88.49065786054034
 30
0.0
 10
49.43516308179125
 20
89.422062403545
 30
0.0
 10
49.41647161559768
 20
89.73349071645035
 30
0.0
 10
49.34229675854063
 20
90.35824150846483
 30
0.0
 10
49.28712051021992
 20
90.6687370306265
 30
0.0
 10
49.07578347014439
 20
91.5891094261019
 30
0.0
 10
48.87382040577485
 20
92.1908631708043
 30
0.0
 10
48.63135762238591
 20
92.78477327172219
 30
0.0
  0
SPLINE
  5
32F
330
1F
100
AcDbEntity
  8
0
  6
Continuous
 62
     7
370
    15
100
AcDbSpline
210
0.0
220
0.0
230
1.0
 70
     8
 71
     3
 72
    10
 73
     6
 74
     0
 42
0.00000001
 43
0.00000001
 12
1.0
 22
0.0
 32
0.0
 13
1.0
 23
0.0
 33
0.0
 40
0.0
 40
0.0
 40
0.0
 40
0.0
 40
0.132632534927086
 40
0.5662766109772616
 40
1.0
 40
1.0
 40
1.0
 40
1.0
 10
49.24271028457467
 20
92.06408291804783
 30
0.0
 10
49.22658925728724
 20
92.09647193489238
 30
0.0
 10
49.15776028781297
 20
92.23475733147099
 30
0.0
 10
48.95543209935317
 20
92.47571088298307
 30
0.0
 10
48.73939084764554
 20
92.68174906700544
 30
0.0
 10
48.63136034427468
 20
92.78477757918827
 30
0.0
  0
LINE
  5
330
330
1F
100
AcDbEntity
  8
0
  6
Continuous
 62
     7
370
    15
100
AcDbLine
 10
49.868216328
 20
88.5802063321
 30
0.0
 11
49.868216328
 21
90.9965786313
 31
0.0
  0
LINE
  5
331
330
1F
100
AcDbEntity
  8
0
  6
Continuous
 62
     7
370
    15
100
AcDbLine
 10
49.868216328
 20
74.496582446
 30
0.0
 11
49.868216328
 21
88.5802063321
 31
0.0
  0
LINE
  5
332
330
1F
100
AcDbEntity
  8
0
  6
Continuous
 62
     7
370
    15
100
AcDbLine
 10
40.7050750774
 20
85.4362997388
 30
0.0
 11
48.6313603443
 21
85.4362997388
 31
0.0
  0
LINE
  5
333
330
1F
100
AcDbEntity
  8
0
  6
Continuous
 62
     7
370
    15
100
AcDbLine
 10
40.7050750774
 20
75.3981026982
 30
0.0
 11
48.6313603443
 21
75.3981026982
 31
0.0
  0
SPLINE
  5
334
330
1F
100
AcDbEntity
  8
0
  6
Continuous
 62
     7
370
    15
100
AcDbSpline
210
0.0
220
0.0
230
1.0
 70
     8
 71
     3
 72
    16
 73
    12
 74
     0
 42
0.00000001
 43
0.00000001
 12
1.0
 22
0.0
 32
0.0
 13
1.0
 23
0.0
 33
0.0
 40
0.0
 40
0.0
 40
0.0
 40
0.0
 40
0.2500000000000028
 40
0.2500000000000028
 40
0.5000000000000056
 40
0.5000000000000056
 40
0.6250000000000041
 40
0.6250000000000041
 40
0.7500000000000028
 40
0.7500000000000028
 40
1.0
 40
1.0
 40
1.0
 40
1.0
 10
40.70507818075664
 20
75.39810839851881
 30
0.0
 10
40.4601566661742
 20
76.21763175885619
 30
0.0
 10
40.25829694613775
 20
77.04313014063366
 30
0.0
 10
39.97865567454068
 20
78.7113433189883
 30
0.0
 10
39.90179653981236
 20
79.55418610513037
 30
0.0
 10
39.9009523786432
 20
80.83432998914778
 30
0.0
 10
39.91974146531325
 20
81.26305241506704
 30
0.0
 10
39.99300895739414
 20
82.1111105995433
 30
0.0
 10
40.04741300905743
 20
82.53229646776586
 30
0.0
 10
40.25749206740957
 20
83.78835543352362
 30
0.0
 10
40.45985136057687
 20
84.61575911059518
 30
0.0
 10
40.70507818075684
 20
85.43630404337257
 30
0.0
  0
SPLINE
  5
335
330
1F
100
AcDbEntity
  8
0
  6
Continuous
 62
     7
370
    15
100
AcDbSpline
210
0.0
220
0.0
230
1.0
 70
     8
 71
     3
 72
    16
 73
    12
 74
     0
 42
0.00000001
 43
0.00000001
 12
1.0
 22
0.0
 32
0.0
 13
1.0
 23
0.0
 33
0.0
 40
0.0
 40
0.0
 40
0.0
 40
0.0
 40
0.2499999999999972
 40
0.2499999999999972
 40
0.4999999999999944
 40
0.4999999999999944
 40
0.6249999999999958
 40
0.6249999999999958
 40
0.7499999999999972
 40
0.7499999999999972
 40
1.0
 40
1.0
 40
1.0
 40
1.0
 10
40.70507818075698
 20
85.43630404337257
 30
0.0
 10
40.46110288422648
 20
86.03391902971644
 30
0.0
 10
40.25640892873559
 20
86.64615180689128
 30
0.0
 10
39.97655515641003
 20
87.87360810300201
 30
0.0
 10
39.90114658211897
 20
88.49065786054034
 30
0.0
 10
39.90127272135161
 20
89.42206240354511
 30
0.0
 10
39.91996418754524
 20
89.7334907164504
 30
0.0
 10
39.99413904460237
 20
90.35824150846483
 30
0.0
 10
40.04931529292305
 20
90.66873703062642
 30
0.0
 10
40.26065233299853
 20
91.5891094261019
 30
0.0
 10
40.46261539736807
 20
92.1908631708043
 30
0.0
 10
40.70507818075701
 20
92.78477327172216
 30
0.0
  0
SPLINE
  5
336
330
1F
100
AcDbEntity
  8
0
  6
Continuous
 62
     7
370
    15
100
AcDbSpline
210
0.0
220
0.0
230
1.0
 70
     8
 71
     3
 72
    16
 73
    12
 74
     0
 42
0.00000001
 43
0.00000001
 12
1.0
 22
0.0
 32
0.0
 13
1.0
 23
0.0
 33
0.0
 40
0.0
 40
0.0
 40
0.0
 40
0.0
 40
0.2500000000000019
 40
0.2500000000000019
 40
0.5000000000000038
 40
0.5000000000000038
 40
0.6250000000000047
 40
0.6250000000000047
 40
0.7500000000000057
 40
0.7500000000000057
 40
1.0
 40
1.0
 40
1.0
 40
1.0
 10
40.70507818075667
 20
72.70838198201479
 30
0.0
 10
40.4601566661742
 20
72.92797260459564
 30
0.0
 10
40.25829694613775
 20
73.14916422934608
 30
0.0
 10
39.97865567454074
 20
73.59616060328914
 30
0.0
 10
39.90179653981236
 20
73.82199964718228
 30
0.0
 10
39.90095237864317
 20
74.1650131671004
 30
0.0
 10
39.91974146531327
 20
74.27988899490256
 30
0.0
 10
39.99300895739411
 20
74.50712550056757
 30
0.0
 10
40.04741300905746
 20
74.61998191382119
 30
0.0
 10
40.25749206740951
 20
74.95654189934193
 30
0.0
 10
40.45985136057687
 20
75.17824404642775
 30
0.0
 10
40.70507818075684
 20
75.3981083985189
 30
0.0
  0
SPLINE
  5
337
330
1F
100
AcDbEntity
  8
0
  6
Continuous
 62
     7
370
    15
100
AcDbSpline
210
0.0
220
0.0
230
1.0
 70
     8
 71
     3
 72
    10
 73
     6
 74
     0
 42
0.00000001
 43
0.00000001
 12
1.0
 22
0.0
 32
0.0
 13
1.0
 23
0.0
 33
0.0
 40
0.0
 40
0.0
 40
0.0
 40
0.0
 40
0.4890190323102228
 40
0.9779002953575316
 40
1.0
 40
1.0
 40
1.0
 40
1.0
 10
40.70507507739846
 20
92.78477757918827
 30
0.0
 10
40.58518893596531
 20
92.66849226040367
 30
0.0
 10
40.34545042811433
 20
92.43595438340532
 30
0.0
 10
40.14192863937966
 20
92.19458613717025
 30
0.0
 10
40.0893816557206
 20
92.06949313595133
 30
0.0
 10
40.08710902152841
 20
92.06408291804783
 30
0.0
  0
SPLINE
  5
338
330
1F
100
AcDbEntity
  8
0
  6
Continuous
 62
     7
370
    15
100
AcDbSpline
210
0.0
220
0.0
230
1.0
 70
     8
 71
     3
 72
    16
 73
    12
 74
     0
 42
0.00000001
 43
0.00000001
 12
1.0
 22
0.0
 32
0.0
 13
1.0
 23
0.0
 33
0.0
 40
0.0
 40
0.0
 40
0.0
 40
0.0
 40
0.2500000000000048
 40
0.2500000000000048
 40
0.5000000000000095
 40
0.5000000000000095
 40
0.6250000000000071
 40
0.6250000000000071
 40
0.7500000000000048
 40
0.7500000000000048
 40
1.0
 40
1.0
 40
1.0
 40
1.0
 10
48.63135762238633
 20
-256.5259766344329
 30
0.0
 10
48.87627913696874
 20
-256.7455672570137
 30
0.0
 10
49.07813885700521
 20
-256.9667588817642
 30
0.0
 10
49.35778012860226
 20
-257.4137552557073
 30
0.0
 10
49.43463926333062
 20
-257.6395942996005
 30
0.0
 10
49.43548342449978
 20
-257.9826078195186
 30
0.0
 10
49.4166943378297
 20
-258.0974836473208
 30
0.0
 10
49.34342684574884
 20
-258.3247201529858
 30
0.0
 10
49.28902279408549
 20
-258.4375765662394
 30
0.0
 10
49.07894373573344
 20
-258.7741365517601
 30
0.0
 10
48.87658444256616
 20
-258.9958386988459
 30
0.0
 10
48.63135762238613
 20
-259.2157030509372
 30
0.0
  0
SPLINE
  5
339
330
1F
100
AcDbEntity
  8
0
  6
Continuous
 62
     7
370
    15
100
AcDbSpline
210
0.0
220
0.0
230
1.0
 70
     8
 71
     3
 72
    10
 73
     6
 74
     0
 42
0.00000001
 43
0.00000001
 12
1.0
 22
0.0
 32
0.0
 13
1.0
 23
0.0
 33
0.0
 40
0.0
 40
0.0
 40
0.0
 40
0.0
 40
0.4890190323102228
 40
0.9779002953575316
 40
1.0
 40
1.0
 40
1.0
 40
1.0
 10
48.63136034427468
 20
-276.6023722316028
 30
0.0
 10
48.7512464857079
 20
-276.4860869128182
 30
0.0
 10
48.99098499355895
 20
-276.2535490358198
 30
0.0
 10
49.19450678229329
 20
-276.0121807895847
 30
0.0
 10
49.2470537659526
 20
-275.8870877883658
 30
0.0
 10
49.24932640014474
 20
-275.8816775704623
 30
0.0
  0
SPLINE
  5
33A
330
1F
100
AcDbEntity
  8
0
  6
Continuous
 62
     7
370
    15
100
AcDbSpline
210
0.0
220
0.0
230
1.0
 70
     8
 71
     3
 72
    16
 73
    12
 74
     0
 42
0.00000001
 43
0.00000001
 12
1.0
 22
0.0
 32
0.0
 13
1.0
 23
0.0
 33
0.0
 40
0.0
 40
0.0
 40
0.0
 40
0.0
 40
0.25
 40
0.25
 40
0.5
 40
0.5
 40
0.625
 40
0.625
 40
0.75
 40
0.75
 40
1.0
 40
1.0
 40
1.0
 40
1.0
 10
48.63135762238594
 20
-276.6023679241404
 30
0.0
 10
48.87533291891638
 20
-276.0047529377966
 30
0.0
 10
49.08002687440736
 20
-275.3925201606216
 30
0.0
 10
49.35988064673289
 20
-274.1650638645109
 30
0.0
 10
49.43528922102395
 20
-273.5480141069726
 30
0.0
 10
49.43516308179125
 20
-272.6166095639679
 30
0.0
 10
49.41647161559768
 20
-272.3051812510627
 30
0.0
 10
49.34229675854063
 20
-271.6804304590481
 30
0.0
 10
49.28712051021992
 20
-271.3699349368865
 30
0.0
 10
49.07578347014433
 20
-270.4495625414112
 30
0.0
 10
48.87382040577482
 20
-269.8478087967088
 30
0.0
 10
48.63135762238588
 20
-269.2538986957908
 30
0.0
  0
SPLINE
  5
33B
330
1F
100
AcDbEntity
  8
0
  6
Continuous
 62
     7
370
    15
100
AcDbSpline
210
0.0
220
0.0
230
1.0
 70
     8
 71
     3
 72
    16
 73
    12
 74
     0
 42
0.00000001
 43
0.00000001
 12
1.0
 22
0.0
 32
0.0
 13
1.0
 23
0.0
 33
0.0
 40
0.0
 40
0.0
 40
0.0
 40
0.0
 40
0.2499999999999972
 40
0.2499999999999972
 40
0.4999999999999944
 40
0.4999999999999944
 40
0.6249999999999958
 40
0.6249999999999958
 40
0.7499999999999972
 40
0.7499999999999972
 40
1.0
 40
1.0
 40
1.0
 40
1.0
 10
48.6313576223863
 20
-259.2157030509371
 30
0.0
 10
48.87627913696861
 20
-260.0352264112745
 30
0.0
 10
49.07813885700521
 20
-260.860724793052
 30
0.0
 10
49.35778012860232
 20
-262.5289379714067
 30
0.0
 10
49.43463926333062
 20
-263.3717807575487
 30
0.0
 10
49.43548342449981
 20
-264.6519246415662
 30
0.0
 10
49.41669433782967
 20
-265.0806470674853
 30
0.0
 10
49.34342684574887
 20
-265.9287052519617
 30
0.0
 10
49.28902279408551
 20
-266.3498911201841
 30
0.0
 10
49.07894373573335
 20
-267.605950085942
 30
0.0
 10
48.87658444256605
 20
-268.4333537630135
 30
0.0
 10
48.63135762238608
 20
-269.2538986957909
 30
0.0
  0
LINE
  5
33C
330
1F
100
AcDbEntity
  8
0
  6
Continuous
 62
     7
370
    15
100
AcDbLine
 10
49.868216328
 20
-272.3978009845
 30
0.0
 11
49.868216328
 21
-258.3141770984
 31
0.0
  0
LINE
  5
33D
330
1F
100
AcDbEntity
  8
0
  6
Continuous
 62
     7
370
    15
100
AcDbLine
 10
49.868216328
 20
-274.8141732837
 30
0.0
 11
49.868216328
 21
-272.3978009845
 31
0.0
  0
LINE
  5
33E
330
1F
100
AcDbEntity
  8
0
  6
Continuous
 62
     7
370
    15
100
AcDbLine
 10
40.7050750774
 20
-259.2156973506
 30
0.0
 11
48.6313603443
 21
-259.2156973506
 31
0.0
  0
LINE
  5
33F
330
1F
100
AcDbEntity
  8
0
  6
Continuous
 62
     7
370
    15
100
AcDbLine
 10
40.7050750774
 20
-269.2538943912
 30
0.0
 11
48.6313603443
 21
-269.2538943912
 31
0.0
  0
SPLINE
  5
340
330
1F
100
AcDbEntity
  8
0
  6
Continuous
 62
     7
370
    15
100
AcDbSpline
210
0.0
220
0.0
230
1.0
 70
     8
 71
     3
 72
    16
 73
    12
 74
     0
 42
0.00000001
 43
0.00000001
 12
1.0
 22
0.0
 32
0.0
 13
1.0
 23
0.0
 33
0.0
 40
0.0
 40
0.0
 40
0.0
 40
0.0
 40
0.2500000000000005
 40
0.2500000000000005
 40
0.500000000000001
 40
0.500000000000001
 40
0.6250000000000012
 40
0.6250000000000012
 40
0.7500000000000016
 40
0.7500000000000016
 40
1.0
 40
1.0
 40
1.0
 40
1.0
 10
40.70507818075664
 20
-269.2538986957908
 30
0.0
 10
40.46015666617426
 20
-268.4343753354536
 30
0.0
 10
40.25829694613775
 20
-267.608876953676
 30
0.0
 10
39.97865567454068
 20
-265.9406637753214
 30
0.0
 10
39.90179653981239
 20
-265.0978209891794
 30
0.0
 10
39.90095237864314
 20
-263.817677105162
 30
0.0
 10
39.91974146531327
 20
-263.3889546792427
 30
0.0
 10
39.99300895739414
 20
-262.5408964947663
 30
0.0
 10
40.04741300905746
 20
-262.1197106265438
 30
0.0
 10
40.25749206740951
 20
-260.8636516607859
 30
0.0
 10
40.45985136057687
 20
-260.0362479837145
 30
0.0
 10
40.70507818075686
 20
-259.2157030509371
 30
0.0
  0
SPLINE
  5
341
330
1F
100
AcDbEntity
  8
0
  6
Continuous
 62
     7
370
    15
100
AcDbSpline
210
0.0
220
0.0
230
1.0
 70
     8
 71
     3
 72
    16
 73
    12
 74
     0
 42
0.00000001
 43
0.00000001
 12
1.0
 22
0.0
 32
0.0
 13
1.0
 23
0.0
 33
0.0
 40
0.0
 40
0.0
 40
0.0
 40
0.0
 40
0.2499999999999986
 40
0.2499999999999986
 40
0.4999999999999972
 40
0.4999999999999972
 40
0.6249999999999966
 40
0.6249999999999966
 40
0.7499999999999958
 40
0.7499999999999958
 40
1.0
 40
1.0
 40
1.0
 40
1.0
 10
40.70507818075698
 20
-276.6023679241403
 30
0.0
 10
40.46110288422648
 20
-276.0047529377965
 30
0.0
 10
40.25640892873559
 20
-275.3925201606216
 30
0.0
 10
39.97655515641006
 20
-274.1650638645109
 30
0.0
 10
39.90114658211894
 20
-273.5480141069726
 30
0.0
 10
39.90127272135164
 20
-272.6166095639679
 30
0.0
 10
39.91996418754524
 20
-272.3051812510627
 30
0.0
 10
39.99413904460229
 20
-271.6804304590481
 30
0.0
 10
40.049315292923
 20
-271.3699349368865
 30
0.0
 10
40.26065233299853
 20
-270.4495625414112
 30
0.0
 10
40.46261539736807
 20
-269.8478087967087
 30
0.0
 10
40.70507818075701
 20
-269.2538986957908
 30
0.0
  0
SPLINE
  5
342
330
1F
100
AcDbEntity
  8
0
  6
Continuous
 62
     7
370
    15
100
AcDbSpline
210
0.0
220
0.0
230
1.0
 70
     8
 71
     3
 72
    10
 73
     6
 74
     0
 42
0.00000001
 43
0.00000001
 12
1.0
 22
0.0
 32
0.0
 13
1.0
 23
0.0
 33
0.0
 40
0.0
 40
0.0
 40
0.0
 40
0.0
 40
0.132632534927086
 40
0.5662766109772616
 40
1.0
 40
1.0
 40
1.0
 40
1.0
 10
40.09372513709847
 20
-275.8816775704623
 30
0.0
 10
40.10984616438591
 20
-275.9140665873069
 30
0.0
 10
40.17867513386023
 20
-276.0523519838854
 30
0.0
 10
40.38100332232004
 20
-276.2933055353976
 30
0.0
 10
40.59704457402761
 20
-276.4993437194199
 30
0.0
 10
40.70507507739846
 20
-276.6023722316028
 30
0.0
  0
SPLINE
  5
343
330
1F
100
AcDbEntity
  8
0
  6
Continuous
 62
     7
370
    15
100
AcDbSpline
210
0.0
220
0.0
230
1.0
 70
     8
 71
     3
 72
    16
 73
    12
 74
     0
 42
0.00000001
 43
0.00000001
 12
1.0
 22
0.0
 32
0.0
 13
1.0
 23
0.0
 33
0.0
 40
0.0
 40
0.0
 40
0.0
 40
0.0
 40
0.2499999999999972
 40
0.2499999999999972
 40
0.4999999999999944
 40
0.4999999999999944
 40
0.6249999999999958
 40
0.6249999999999958
 40
0.7499999999999972
 40
0.7499999999999972
 40
1.0
 40
1.0
 40
1.0
 40
1.0
 10
40.70507818075664
 20
-259.2157030509372
 30
0.0
 10
40.46015666617426
 20
-258.9961124283564
 30
0.0
 10
40.25829694613775
 20
-258.7749208036059
 30
0.0
 10
39.97865567454071
 20
-258.3279244296627
 30
0.0
 10
39.90179653981236
 20
-258.1020853857695
 30
0.0
 10
39.90095237864314
 20
-257.7590718658515
 30
0.0
 10
39.91974146531325
 20
-257.6441960380492
 30
0.0
 10
39.99300895739408
 20
-257.4169595323842
 30
0.0
 10
40.04741300905749
 20
-257.3041031191306
 30
0.0
 10
40.25749206740954
 20
-256.9675431336099
 30
0.0
 10
40.45985136057684
 20
-256.745840986524
 30
0.0
 10
40.70507818075686
 20
-256.5259766344329
 30
0.0
  0
LINE
  5
344
330
1F
100
AcDbEntity
  8
0
  6
Continuous
 62
     7
370
    15
100
AcDbLine
 10
40.7050750774
 20
92.7847775792
 30
0.0
 11
48.6313603443
 21
92.7847775792
 31
0.0
  0
LINE
  5
345
330
1F
100
AcDbEntity
  8
0
  6
Continuous
 62
     7
370
    15
100
AcDbLine
 10
40.7050750774
 20
-276.6023722316
 30
0.0
 11
48.6313603443
 21
-276.6023722316
 31
0.0
  0
LINE
  5
346
330
1F
100
AcDbEntity
  8
0
  6
Continuous
 62
     7
370
    15
100
AcDbLine
 10
40.7050750774
 20
72.7083834981
 30
0.0
 11
48.6313603443
 21
72.7083834981
 31
0.0
  0
LINE
  5
347
330
1F
100
AcDbEntity
  8
0
  6
Continuous
 62
     7
370
    15
100
AcDbLine
 10
40.7050750774
 20
-256.5259781505
 30
0.0
 11
48.6313603443
 21
-256.5259781505
 31
0.0
  0
LINE
  5
348
330
1F
100
AcDbEntity
  8
0
  6
Continuous
 62
     7
370
    15
100
AcDbLine
 10
89.9682171267
 20
86.9892242526
 30
0.0
 11
89.9682171267
 21
88.7465777968
 31
0.0
  0
LINE
  5
349
330
1F
100
AcDbEntity
  8
0
  6
Continuous
 62
     7
370
    15
100
AcDbLine
 10
89.9682171267
 20
76.7465832804
 30
0.0
 11
89.9682171267
 21
86.9892242526
 31
0.0
  0
LINE
  5
34A
330
1F
100
AcDbEntity
  8
0
  6
Continuous
 62
     7
370
    15
100
AcDbLine
 10
89.9682171267
 20
-270.806818905
 30
0.0
 11
89.9682171267
 21
-260.5641779329
 31
0.0
  0
LINE
  5
34B
330
1F
100
AcDbEntity
  8
0
  6
Continuous
 62
     7
370
    15
100
AcDbLine
 10
89.9682171267
 20
-272.5641724492
 30
0.0
 11
89.9682171267
 21
-270.806818905
 31
0.0
  0
LINE
  5
34C
330
1F
100
AcDbEntity
  8
0
  6
Continuous
 62
     7
370
    15
100
AcDbLine
 10
167.1682182324
 20
137.8519687032
 30
0.0
 11
167.1682182324
 21
149.3519696568
 31
0.0
  0
LINE
  5
34D
330
1F
100
AcDbEntity
  8
0
  6
Continuous
 62
     7
370
    15
100
AcDbLine
 10
167.1682182324
 20
126.3519826506
 30
0.0
 11
167.1682182324
 21
137.8519687032
 31
0.0
  0
LINE
  5
34E
330
1F
100
AcDbEntity
  8
0
  6
Continuous
 62
     7
370
    15
100
AcDbLine
 10
167.1682182324
 20
126.3519826506
 30
0.0
 11
142.4224949998
 21
126.3519826506
 31
0.0
  0
SPLINE
  5
34F
330
1F
100
AcDbEntity
  8
0
  6
Continuous
 62
     7
370
    15
100
AcDbSpline
210
0.0
220
0.0
230
1.0
 70
     8
 71
     3
 72
    14
 73
    10
 74
     0
 42
0.00000001
 43
0.00000001
 12
1.0
 22
0.0
 32
0.0
 13
1.0
 23
0.0
 33
0.0
 40
0.0
 40
0.0
 40
0.0
 40
0.0
 40
0.1250000000000004
 40
0.1250000000000004
 40
0.2500000000000007
 40
0.2500000000000007
 40
0.5000000000000016
 40
0.5000000000000016
 40
1.0
 40
1.0
 40
1.0
 40
1.0
 10
140.3682179015714
 20
137.8519759032078
 30
0.0
 10
140.3682179015714
 20
137.3639931597765
 30
0.0
 10
140.3802661933727
 20
136.8735690921577
 30
0.0
 10
140.4280576007595
 20
135.8972837074413
 30
0.0
 10
140.4637492425979
 20
135.4108331483655
 30
0.0
 10
140.6046772399355
 20
133.9563377113828
 30
0.0
 10
140.7438451871163
 20
132.9931603374339
 30
0.0
 10
141.2806013589861
 20
130.1207350225804
 30
0.0
 10
141.7969779026122
 20
128.2285273260011
 30
0.0
 10
142.4224950435433
 20
126.3519759032078
 30
0.0
  0
SPLINE
  5
350
330
1F
100
AcDbEntity
  8
0
  6
Continuous
 62
     7
370
    15
100
AcDbSpline
210
0.0
220
0.0
230
1.0
 70
     8
 71
     3
 72
    10
 73
     6
 74
     0
 42
0.00000001
 43
0.00000001
 12
1.0
 22
0.0
 32
0.0
 13
1.0
 23
0.0
 33
0.0
 40
0.0
 40
0.0
 40
0.0
 40
0.0
 40
0.5
 40
0.5
 40
1.0
 40
1.0
 40
1.0
 40
1.0
 10
142.4224950435432
 20
149.3519759032078
 30
0.0
 10
141.7954116780265
 20
147.4707258066576
 30
0.0
 10
141.2787884040326
 20
145.575734702782
 30
0.0
 10
140.5640012592902
 20
141.7461368027704
 30
0.0
 10
140.3682179015714
 20
139.8112338757284
 30
0.0
 10
140.3682179015714
 20
137.8519759032078
 30
0.0
  0
LINE
  5
351
330
1F
100
AcDbEntity
  8
0
  6
Continuous
 62
     7
370
    15
100
AcDbLine
 10
167.1682182324
 20
149.3519696568
 30
0.0
 11
142.4224949998
 21
149.3519696568
 31
0.0
  0
SPLINE
  5
352
330
1F
100
AcDbEntity
  8
0
  6
Continuous
 62
     7
370
    15
100
AcDbSpline
210
0.0
220
0.0
230
1.0
 70
     8
 71
     3
 72
    10
 73
     6
 74
     0
 42
0.00000001
 43
0.00000001
 12
1.0
 22
0.0
 32
0.0
 13
1.0
 23
0.0
 33
0.0
 40
0.0
 40
0.0
 40
0.0
 40
0.0
 40
0.5
 40
0.5
 40
1.0
 40
1.0
 40
1.0
 40
1.0
 10
142.4224950435432
 20
126.3519759032078
 30
0.0
 10
141.7954116780265
 20
124.4707258066576
 30
0.0
 10
141.2787884040326
 20
122.575734702782
 30
0.0
 10
140.5640012592902
 20
118.7461368027703
 30
0.0
 10
140.3682179015714
 20
116.8112338757283
 30
0.0
 10
140.3682179015714
 20
114.8519759032078
 30
0.0
  0
LINE
  5
353
330
1F
100
AcDbEntity
  8
0
  6
Continuous
 62
     7
370
    15
100
AcDbLine
 10
140.3682171923
 20
137.8519687032
 30
0.0
 11
140.3682171923
 21
114.851981697
 31
0.0
  0
LINE
  5
354
330
1F
100
AcDbEntity
  8
0
  6
Continuous
 62
     7
370
    15
100
AcDbLine
 10
167.1682182324
 20
103.3519807433
 30
0.0
 11
167.1682182324
 21
114.851981697
 31
0.0
  0
LINE
  5
355
330
1F
100
AcDbEntity
  8
0
  6
Continuous
 62
     7
370
    15
100
AcDbLine
 10
167.1682182324
 20
103.3519807433
 30
0.0
 11
142.4224949998
 21
103.3519807433
 31
0.0
  0
SPLINE
  5
356
330
1F
100
AcDbEntity
  8
0
  6
Continuous
 62
     7
370
    15
100
AcDbSpline
210
0.0
220
0.0
230
1.0
 70
     8
 71
     3
 72
    14
 73
    10
 74
     0
 42
0.00000001
 43
0.00000001
 12
1.0
 22
0.0
 32
0.0
 13
1.0
 23
0.0
 33
0.0
 40
0.0
 40
0.0
 40
0.0
 40
0.0
 40
0.1250000000000002
 40
0.1250000000000002
 40
0.2500000000000005
 40
0.2500000000000005
 40
0.5000000000000011
 40
0.5000000000000011
 40
1.0
 40
1.0
 40
1.0
 40
1.0
 10
140.3682179015714
 20
114.8519759032078
 30
0.0
 10
140.3682179015714
 20
114.3639931597764
 30
0.0
 10
140.3802661933727
 20
113.8735690921577
 30
0.0
 10
140.4280576007595
 20
112.8972837074412
 30
0.0
 10
140.4637492425979
 20
112.4108331483655
 30
0.0
 10
140.6046772399355
 20
110.9563377113827
 30
0.0
 10
140.7438451871163
 20
109.9931603374339
 30
0.0
 10
141.2806013589861
 20
107.1207350225805
 30
0.0
 10
141.7969779026122
 20
105.2285273260011
 30
0.0
 10
142.4224950435433
 20
103.3519759032078
 30
0.0
  0
LINE
  5
357
330
1F
100
AcDbEntity
  8
0
  6
Continuous
 62
     7
370
    15
100
AcDbLine
 10
167.1682182324
 20
114.851981697
 30
0.0
 11
167.1682182324
 21
126.3519826506
 31
0.0
  0
SPLINE
  5
358
330
1F
100
AcDbEntity
  8
0
  6
Continuous
 62
     7
370
    15
100
AcDbSpline
210
0.0
220
0.0
230
1.0
 70
     8
 71
     3
 72
    14
 73
    10
 74
     0
 42
0.00000001
 43
0.00000001
 12
1.0
 22
0.0
 32
0.0
 13
1.0
 23
0.0
 33
0.0
 40
0.0
 40
0.0
 40
0.0
 40
0.0
 40
0.1249999999999994
 40
0.1249999999999994
 40
0.2499999999999988
 40
0.2499999999999988
 40
0.4999999999999966
 40
0.4999999999999966
 40
1.0
 40
1.0
 40
1.0
 40
1.0
 10
-106.4317820984285
 20
123.358897610892
 30
0.0
 10
-106.4317820984286
 20
123.9175800111678
 30
0.0
 10
-106.4438303902299
 20
124.4790574382662
 30
0.0
 10
-106.4916217976166
 20
125.5967884839424
 30
0.0
 10
-106.5273134394549
 20
126.153716714742
 30
0.0
 10
-106.6682414367927
 20
127.8189415876744
 30
0.0
 10
-106.8074093839734
 20
128.921665514724
 30
0.0
 10
-107.3441655558433
 20
132.2102520295479
 30
0.0
 10
-107.8605420994693
 20
134.3766055573626
 30
0.0
 10
-108.4860592404005
 20
136.5250345074418
 30
0.0
  0
SPLINE
  5
359
330
1F
100
AcDbEntity
  8
0
  6
Continuous
 62
     7
370
    15
100
AcDbSpline
210
0.0
220
0.0
230
1.0
 70
     8
 71
     3
 72
    10
 73
     6
 74
     0
 42
0.00000001
 43
0.00000001
 12
1.0
 22
0.0
 32
0.0
 13
1.0
 23
0.0
 33
0.0
 40
0.0
 40
0.0
 40
0.0
 40
0.0
 40
0.5
 40
0.5
 40
1.0
 40
1.0
 40
1.0
 40
1.0
 10
-108.4860592404003
 20
136.5250345074418
 30
0.0
 10
-107.8589758748836
 20
137.8467529915387
 30
0.0
 10
-107.3423526008897
 20
139.1781255579958
 30
0.0
 10
-106.6275654561474
 20
141.8687036690008
 30
0.0
 10
-106.4317820984286
 20
143.2281172675937
 30
0.0
 10
-106.4317820984285
 20
144.6046421018746
 30
0.0
  0
LINE
  5
35A
330
1F
100
AcDbEntity
  8
0
  6
Continuous
 62
     7
370
    15
100
AcDbLine
 10
-106.431791969
 20
123.3588907098
 30
0.0
 11
-106.431791969
 21
144.6046385144
 31
0.0
  0
LINE
  5
35B
330
1F
100
AcDbEntity
  8
0
  6
Continuous
 62
     7
370
    15
100
AcDbLine
 10
-133.2317687947
 20
123.3588907098
 30
0.0
 11
-133.2317687947
 21
110.1927611207
 31
0.0
  0
LINE
  5
35C
330
1F
100
AcDbEntity
  8
0
  6
Continuous
 62
     7
370
    15
100
AcDbLine
 10
-133.2317687947
 20
136.5250352
 30
0.0
 11
-133.2317687947
 21
123.3588907098
 31
0.0
  0
LINE
  5
35D
330
1F
100
AcDbEntity
  8
0
  6
Continuous
 62
     7
370
    15
100
AcDbLine
 10
-133.2317687947
 20
136.5250352
 30
0.0
 11
-108.4860660511
 21
136.5250352
 31
0.0
  0
SPLINE
  5
35E
330
1F
100
AcDbEntity
  8
0
  6
Continuous
 62
     7
370
    15
100
AcDbSpline
210
0.0
220
0.0
230
1.0
 70
     8
 71
     3
 72
    10
 73
     6
 74
     0
 42
0.00000001
 43
0.00000001
 12
1.0
 22
0.0
 32
0.0
 13
1.0
 23
0.0
 33
0.0
 40
0.0
 40
0.0
 40
0.0
 40
0.0
 40
0.5
 40
0.5
 40
1.0
 40
1.0
 40
1.0
 40
1.0
 10
-108.4860592404003
 20
110.1927607143422
 30
0.0
 10
-107.8589758748836
 20
112.3465690889359
 30
0.0
 10
-107.3423526008897
 20
114.5161092881855
 30
0.0
 10
-106.6275654561474
 20
118.9005449586457
 30
0.0
 10
-106.4317820984286
 20
121.1157794646431
 30
0.0
 10
-106.4317820984285
 20
123.358897610892
 30
0.0
  0
LINE
  5
35F
330
1F
100
AcDbEntity
  8
0
  6
Continuous
 62
     7
370
    15
100
AcDbLine
 10
-133.2317687947
 20
110.1927611207
 30
0.0
 11
-108.4860660511
 21
110.1927611207
 31
0.0
  0
LINE
  5
360
330
1F
100
AcDbEntity
  8
0
  6
Continuous
 62
     7
370
    15
100
AcDbLine
 10
-134.0317823368
 20
151.3519737099
 30
0.0
 11
-134.0317823368
 21
101.3519766902
 31
0.0
  0
LINE
  5
361
330
1F
100
AcDbEntity
  8
0
  6
Continuous
 62
     7
370
    15
100
AcDbLine
 10
167.968218736
 20
151.3519737099
 30
0.0
 11
167.968218736
 21
101.3519766902
 31
0.0
  0
LINE
  5
362
330
1F
100
AcDbEntity
  8
0
  6
Continuous
 62
     7
370
    15
100
AcDbLine
 10
-106.431791969
 20
105.106234846
 30
0.0
 11
-106.431791969
 21
123.3588907098
 31
0.0
  0
SPLINE
  5
363
330
1F
100
AcDbEntity
  8
0
  6
Continuous
 62
     7
370
    15
100
AcDbSpline
210
0.0
220
0.0
230
1.0
 70
     8
 71
     3
 72
    12
 73
     8
 74
     0
 42
0.00000001
 43
0.00000001
 12
1.0
 22
0.0
 32
0.0
 13
1.0
 23
0.0
 33
0.0
 40
0.0
 40
0.0
 40
0.0
 40
0.0
 40
0.250000000000002
 40
0.250000000000002
 40
0.500000000000004
 40
0.500000000000004
 40
1.0
 40
1.0
 40
1.0
 40
1.0
 10
-108.4860592404005
 20
110.1927607143422
 30
0.0
 10
-108.1743289351936
 20
109.7791193234399
 30
0.0
 10
-107.8881393029262
 20
109.3616786829112
 30
0.0
 10
-107.3803188471906
 20
108.5171940906652
 30
0.0
 10
-107.1609257508034
 20
108.0935691148473
 30
0.0
 10
-106.6246621171482
 20
106.8197422440261
 30
0.0
 10
-106.4317820984285
 20
105.9657712128795
 30
0.0
 10
-106.4317820984285
 20
105.1062314122252
 30
0.0
  0
LINE
  5
364
330
1F
100
AcDbEntity
  8
0
  6
Continuous
 62
     7
370
    15
100
AcDbLine
 10
-133.2317687947
 20
144.6046385144
 30
0.0
 11
-133.2317687947
 21
136.5250352
 31
0.0
  0
LINE
  5
365
330
1F
100
AcDbEntity
  8
0
  6
Continuous
 62
     7
370
    15
100
AcDbLine
 10
-133.2317687947
 20
152.68425673
 30
0.0
 11
-133.2317687947
 21
144.6046385144
 31
0.0
  0
LINE
  5
366
330
1F
100
AcDbEntity
  8
0
  6
Continuous
 62
     7
370
    15
100
AcDbLine
 10
-133.2317687947
 20
152.68425673
 30
0.0
 11
-108.4860660511
 21
152.68425673
 31
0.0
  0
SPLINE
  5
367
330
1F
100
AcDbEntity
  8
0
  6
Continuous
 62
     7
370
    15
100
AcDbSpline
210
0.0
220
0.0
230
1.0
 70
     8
 71
     3
 72
    14
 73
    10
 74
     0
 42
0.00000001
 43
0.00000001
 12
1.0
 22
0.0
 32
0.0
 13
1.0
 23
0.0
 33
0.0
 40
0.0
 40
0.0
 40
0.0
 40
0.0
 40
0.1249999999999996
 40
0.1249999999999996
 40
0.2499999999999992
 40
0.2499999999999992
 40
0.4999999999999986
 40
0.4999999999999986
 40
1.0
 40
1.0
 40
1.0
 40
1.0
 10
-106.4317820984285
 20
144.6046421018746
 30
0.0
 10
-106.4317820984287
 20
144.9474863696816
 30
0.0
 10
-106.4438303902299
 20
145.2920458497881
 30
0.0
 10
-106.4916217976166
 20
145.9779591375002
 30
0.0
 10
-106.5273134394549
 20
146.3197269315371
 30
0.0
 10
-106.6682414367926
 20
147.3416184427296
 30
0.0
 10
-106.8074093839733
 20
148.0183223753682
 30
0.0
 10
-107.3441655558432
 20
150.0364153656577
 30
0.0
 10
-107.8605420994693
 20
151.3658323809209
 30
0.0
 10
-108.4860592404004
 20
152.6842496963074
 30
0.0
  0
SPLINE
  5
368
330
1F
100
AcDbEntity
  8
0
  6
Continuous
 62
     7
370
    15
100
AcDbSpline
210
0.0
220
0.0
230
1.0
 70
     8
 71
     3
 72
    12
 73
     8
 74
     0
 42
0.00000001
 43
0.00000001
 12
1.0
 22
0.0
 32
0.0
 13
1.0
 23
0.0
 33
0.0
 40
0.0
 40
0.0
 40
0.0
 40
0.0
 40
0.2500000000000019
 40
0.2500000000000019
 40
0.5000000000000038
 40
0.5000000000000038
 40
1.0
 40
1.0
 40
1.0
 40
1.0
 10
-106.4317820984285
 20
105.1062314122252
 30
0.0
 10
-106.4317820984286
 20
104.6762061704441
 30
0.0
 10
-106.4794906293936
 20
104.2448035033897
 30
0.0
 10
-106.6690932842706
 20
103.3792788733085
 30
0.0
 10
-106.8100076088849
 20
102.9496814639367
 30
0.0
 10
-107.3500373511791
 20
101.6754173626898
 30
0.0
 10
-107.8662306114718
 20
100.8421655405439
 30
0.0
 10
-108.4860592404005
 20
100.0197021101082
 30
0.0
  0
LINE
  5
369
330
1F
100
AcDbEntity
  8
0
  6
Continuous
 62
     7
370
    15
100
AcDbLine
 10
-133.2317687947
 20
100.0197085713
 30
0.0
 11
-108.4860660511
 21
100.0197085713
 31
0.0
  0
LINE
  5
36A
330
1F
100
AcDbEntity
  8
0
  6
Continuous
 62
     7
370
    15
100
AcDbLine
 10
-133.2317687947
 20
100.0197085713
 30
0.0
 11
-133.2317687947
 21
105.106234846
 31
0.0
  0
LINE
  5
36B
330
1F
100
AcDbEntity
  8
0
  6
Continuous
 62
     7
370
    15
100
AcDbLine
 10
-133.2317687947
 20
105.106234846
 30
0.0
 11
-133.2317687947
 21
110.1927611207
 31
0.0
  0
SPLINE
  5
36C
330
1F
100
AcDbEntity
  8
0
  6
Continuous
 62
     7
370
    15
100
AcDbSpline
210
0.0
220
0.0
230
1.0
 70
    24
 71
     3
 72
    12
 73
     8
 74
     0
 42
0.00000001
 43
0.00000001
 12
1.0
 22
0.0
 32
0.0
 13
1.0
 23
0.0
 33
0.0
 40
0.0
 40
0.0
 40
0.0
 40
0.0
 40
0.2500000000000001
 40
0.2500000000000001
 40
0.5000000000000001
 40
0.5000000000000001
 40
1.0
 40
1.0
 40
1.0
 40
1.0
 10
140.3682179015714
 20
149.3519759032078
 30
0.0
 10
140.3682179015714
 20
149.3519759032078
 30
0.0
 10
140.4159264325365
 20
149.3519759032078
 30
0.0
 10
140.6055290874135
 20
149.3519759032078
 30
0.0
 10
140.7464434120279
 20
149.3519759032079
 30
0.0
 10
141.286473154322
 20
149.3519759032079
 30
0.0
 10
141.8026664146147
 20
149.3519759032079
 30
0.0
 10
142.4224950435434
 20
149.3519759032078
 30
0.0
  0
LINE
  5
36D
330
1F
100
AcDbEntity
  8
0
  6
Continuous
 62
     7
370
    15
100
AcDbLine
 10
140.3682171923
 20
149.3519696568
 30
0.0
 11
140.3682171923
 21
137.8519687032
 31
0.0
  0
SPLINE
  5
36E
330
1F
100
AcDbEntity
  8
0
  6
Continuous
 62
     7
370
    15
100
AcDbSpline
210
0.0
220
0.0
230
1.0
 70
    24
 71
     3
 72
    12
 73
     8
 74
     0
 42
0.00000001
 43
0.00000001
 12
1.0
 22
0.0
 32
0.0
 13
1.0
 23
0.0
 33
0.0
 40
0.0
 40
0.0
 40
0.0
 40
0.0
 40
0.2500000000000001
 40
0.2500000000000001
 40
0.5000000000000001
 40
0.5000000000000001
 40
1.0
 40
1.0
 40
1.0
 40
1.0
 10
140.3682179015714
 20
103.3519759032078
 30
0.0
 10
140.3682179015714
 20
103.3519759032079
 30
0.0
 10
140.4159264325365
 20
103.3519759032079
 30
0.0
 10
140.6055290874135
 20
103.3519759032079
 30
0.0
 10
140.7464434120279
 20
103.3519759032079
 30
0.0
 10
141.286473154322
 20
103.3519759032079
 30
0.0
 10
141.8026664146147
 20
103.3519759032079
 30
0.0
 10
142.4224950435434
 20
103.3519759032078
 30
0.0
  0
LINE
  5
36F
330
1F
100
AcDbEntity
  8
0
  6
Continuous
 62
     7
370
    15
100
AcDbLine
 10
140.3682171923
 20
103.3519807433
 30
0.0
 11
140.3682171923
 21
114.851981697
 31
0.0
  0
SPLINE
  5
370
330
1F
100
AcDbEntity
  8
0
  6
Continuous
 62
     7
370
    15
100
AcDbSpline
210
0.0
220
0.0
230
1.0
 70
     8
 71
     3
 72
    10
 73
     6
 74
     0
 42
0.00000001
 43
0.00000001
 12
1.0
 22
0.0
 32
0.0
 13
1.0
 23
0.0
 33
0.0
 40
0.0
 40
0.0
 40
0.0
 40
0.0
 40
0.4488380101593977
 40
0.8980178946591729
 40
0.9999999999999999
 40
0.9999999999999999
 40
0.9999999999999999
 40
0.9999999999999999
 10
-108.4860660511416
 20
152.6842567299604
 30
0.0
 10
-108.3312019580651
 20
152.4711141944084
 30
0.0
 10
-108.0213558138548
 20
152.0446667752811
 30
0.0
 10
-107.7017137315041
 20
151.5668186749236
 30
0.0
 10
-107.5621242358966
 20
151.3004155182163
 30
0.0
 10
-107.5362958389682
 20
151.2511226509809
 30
0.0
  0
LINE
  5
371
330
1F
100
AcDbEntity
  8
0
  6
Continuous
 62
     7
370
    15
100
AcDbLine
 10
-106.431791969
 20
144.6046385144
 30
0.0
 11
-106.431791969
 21
149.3519696568
 31
0.0
  0
LINE
  5
372
330
1F
100
AcDbEntity
  8
0
  6
Continuous
 62
     7
370
    15
100
AcDbLine
 10
-275.5317785221
 20
113.1065639828
 30
0.0
 11
-275.5317785221
 21
139.8519727563
 31
0.0
  0
LINE
  5
373
330
1F
100
AcDbEntity
  8
0
  6
Continuous
 62
     7
370
    15
100
AcDbLine
 10
-275.5317785221
 20
112.8519776438
 30
0.0
 11
-275.5317785221
 21
113.1065639828
 31
0.0
  0
LINE
  5
374
330
1F
100
AcDbEntity
  8
0
  6
Continuous
 62
     7
370
    15
100
AcDbLine
 10
309.4682149213
 20
113.1065639828
 30
0.0
 11
309.4682149213
 21
139.8519727563
 31
0.0
  0
LINE
  5
375
330
1F
100
AcDbEntity
  8
0
  6
Continuous
 62
     7
370
    15
100
AcDbLine
 10
309.4682149213
 20
112.8519776438
 30
0.0
 11
309.4682149213
 21
113.1065639828
 31
0.0
  0
LINE
  5
376
330
1F
100
AcDbEntity
  8
0
  6
Continuous
 62
     7
370
    15
100
AcDbLine
 10
-106.431791969
 20
105.106234846
 30
0.0
 11
-106.431791969
 21
103.3519807433
 31
0.0
  0
LINE
  5
377
330
1F
100
AcDbEntity
  8
0
  6
Continuous
 62
     7
370
    15
100
AcDbLine
 10
36.9682214779
 20
169.0912100648
 30
0.0
 11
36.9682214779
 21
139.8519727563
 31
0.0
  0
LINE
  5
378
330
1F
100
AcDbEntity
  8
0
  6
Continuous
 62
     7
370
    15
100
AcDbLine
 10
39.4682190937
 20
155.0911965941
 30
0.0
 11
39.4682190937
 21
167.0912060117
 31
0.0
  0
LINE
  5
379
330
1F
100
AcDbEntity
  8
0
  6
Continuous
 62
     7
370
    15
100
AcDbLine
 10
39.4682190937
 20
143.0912020777
 30
0.0
 11
39.4682190937
 21
155.0911965941
 31
0.0
  0
LINE
  5
37A
330
1F
100
AcDbEntity
  8
0
  6
Continuous
 62
     7
370
    15
100
AcDbLine
 10
39.4682190937
 20
-350.9088006641
 30
0.0
 11
39.4682190937
 21
-326.9087967302
 31
0.0
  0
LINE
  5
37B
330
1F
100
AcDbEntity
  8
0
  6
Continuous
 62
     7
370
    15
100
AcDbLine
 10
40.7050750774
 20
164.0912148331
 30
0.0
 11
48.6313603443
 21
164.0912148331
 31
0.0
  0
SPLINE
  5
37C
330
1F
100
AcDbEntity
  8
0
  6
Continuous
 62
     7
370
    15
100
AcDbSpline
210
0.0
220
0.0
230
1.0
 70
     8
 71
     3
 72
    15
 73
    11
 74
     0
 42
0.00000001
 43
0.00000001
 12
1.0
 22
0.0
 32
0.0
 13
1.0
 23
0.0
 33
0.0
 40
0.0
 40
0.0
 40
0.0
 40
0.0
 40
0.1323053686120031
 40
0.2645741406042438
 40
0.3998003977514749
 40
0.5350034945494659
 40
0.6501937656509413
 40
0.7654015025856429
 40
0.8826892464727518
 40
0.9999999999999999
 40
0.9999999999999999
 40
0.9999999999999999
 40
0.9999999999999999
 10
48.63136034427468
 20
164.0912148331403
 30
0.0
 10
48.75372522120464
 20
163.7023774258414
 30
0.0
 10
48.99842112805651
 20
162.9248101664766
 30
0.0
 10
49.26172374645078
 20
161.727428096712
 30
0.0
 10
49.42002344723096
 20
160.5074789498981
 30
0.0
 10
49.45137335662917
 20
159.3317179116123
 30
0.0
 10
49.37003122046961
 20
158.2194844984458
 30
0.0
 10
49.20337761808447
 20
157.169812560468
 30
0.0
 10
48.9588886202386
 20
156.1248806622792
 30
0.0
 10
48.74054357475808
 20
155.4357804793694
 30
0.0
 10
48.63136034427468
 20
155.091196594119
 30
0.0
  0
LINE
  5
37D
330
1F
100
AcDbEntity
  8
0
  6
Continuous
 62
     7
370
    15
100
AcDbLine
 10
40.7050750774
 20
155.0911965941
 30
0.0
 11
48.6313603443
 21
155.0911965941
 31
0.0
  0
SPLINE
  5
37E
330
1F
100
AcDbEntity
  8
0
  6
Continuous
 62
     7
370
    15
100
AcDbSpline
210
0.0
220
0.0
230
1.0
 70
     8
 71
     3
 72
    16
 73
    12
 74
     0
 42
0.00000001
 43
0.00000001
 12
1.0
 22
0.0
 32
0.0
 13
1.0
 23
0.0
 33
0.0
 40
0.0
 40
0.0
 40
0.0
 40
0.0
 40
0.25
 40
0.25
 40
0.5
 40
0.5
 40
0.625
 40
0.625
 40
0.75
 40
0.75
 40
1.0
 40
1.0
 40
1.0
 40
1.0
 10
40.70507818075667
 20
155.0912026737926
 30
0.0
 10
40.46015643457932
 20
155.8259679123246
 30
0.0
 10
40.25829656443173
 20
156.5660902186626
 30
0.0
 10
39.97865526297043
 20
158.0617706801999
 30
0.0
 10
39.90179625306129
 20
158.8174435882728
 30
0.0
 10
39.90095251723054
 20
159.9651903338368
 30
0.0
 10
39.91974178271766
 20
160.3495726815402
 30
0.0
 10
39.99300967920539
 20
161.1099215196155
 30
0.0
 10
40.04741395793449
 20
161.4875467701721
 30
0.0
 10
40.2574937453297
 20
162.6136994192578
 30
0.0
 10
40.45985358568402
 20
163.3555299121221
 30
0.0
 10
40.70508096336229
 20
164.0912110216033
 30
0.0
  0
SPLINE
  5
37F
330
1F
100
AcDbEntity
  8
0
  6
Continuous
 62
     7
370
    15
100
AcDbSpline
210
0.0
220
0.0
230
1.0
 70
    24
 71
     3
 72
    11
 73
     7
 74
     0
 42
0.00000001
 43
0.00000001
 12
1.0
 22
0.0
 32
0.0
 13
1.0
 23
0.0
 33
0.0
 40
0.0
 40
0.0
 40
0.0
 40
0.0
 40
0.2663517671865264
 40
0.5156149563504002
 40
0.7648160441821085
 40
1.0
 40
1.0
 40
1.0
 40
1.0
 10
48.63136034427468
 20
146.0912081574201
 30
0.0
 10
48.75476216984662
 20
146.0912081574201
 30
0.0
 10
48.99364861530906
 20
146.0912081574201
 30
0.0
 10
49.24444679269575
 20
146.0912081574201
 30
0.0
 10
49.40741388250573
 20
146.0912081574201
 30
0.0
 10
49.42296100778069
 20
146.0912081574201
 30
0.0
 10
49.43050961910073
 20
146.0912081574201
 30
0.0
  0
SPLINE
  5
380
330
1F
100
AcDbEntity
  8
0
  6
Continuous
 62
     7
370
    15
100
AcDbSpline
210
0.0
220
0.0
230
1.0
 70
     8
 71
     3
 72
    16
 73
    12
 74
     0
 42
0.00000001
 43
0.00000001
 12
1.0
 22
0.0
 32
0.0
 13
1.0
 23
0.0
 33
0.0
 40
0.0
 40
0.0
 40
0.0
 40
0.0
 40
0.2499999999999984
 40
0.2499999999999984
 40
0.4999999999999968
 40
0.4999999999999968
 40
0.6249999999999993
 40
0.6249999999999993
 40
0.7500000000000018
 40
0.7500000000000018
 40
1.0
 40
1.0
 40
1.0
 40
1.0
 10
48.63135762238633
 20
155.0912026737927
 30
0.0
 10
48.87627913696872
 20
154.3564381300455
 30
0.0
 10
49.07813885700524
 20
153.6163165286293
 30
0.0
 10
49.35778012860235
 20
152.1206375105691
 30
0.0
 10
49.43463926333065
 20
151.3649653416203
 30
0.0
 10
49.43548342449978
 20
150.2172197343645
 30
0.0
 10
49.41669433782972
 20
149.8328377229169
 30
0.0
 10
49.34342684574884
 20
149.072489555744
 30
0.0
 10
49.28902279408557
 20
148.6948646370719
 30
0.0
 10
49.07894373573347
 20
147.5687129767766
 30
0.0
 10
48.87658444256616
 20
146.8268831343327
 30
0.0
 10
48.63135762238613
 20
146.0912026737927
 30
0.0
  0
SPLINE
  5
381
330
1F
100
AcDbEntity
  8
0
  6
Continuous
 62
     7
370
    15
100
AcDbSpline
210
0.0
220
0.0
230
1.0
 70
    24
 71
     3
 72
    11
 73
     7
 74
     0
 42
0.00000001
 43
0.00000001
 12
1.0
 22
0.0
 32
0.0
 13
1.0
 23
0.0
 33
0.0
 40
0.0
 40
0.0
 40
0.0
 40
0.0
 40
0.2223440405832845
 40
0.477961274643144
 40
0.7336467327599202
 40
1.0
 40
1.0
 40
1.0
 40
1.0
 10
49.42952614246191
 20
164.0912148331404
 30
0.0
 10
49.42334955925976
 20
164.0912148331404
 30
0.0
 10
49.41007208363016
 20
164.0912148331403
 30
0.0
 10
49.25033587009365
 20
164.0912148331403
 30
0.0
 10
48.99661913431173
 20
164.0912148331402
 30
0.0
 10
48.75476072508534
 20
164.0912148331403
 30
0.0
 10
48.63136034427468
 20
164.0912148331403
 30
0.0
  0
LINE
  5
382
330
1F
100
AcDbEntity
  8
0
  6
Continuous
 62
     7
370
    15
100
AcDbLine
 10
49.868216328
 20
146.8411985015
 30
0.0
 11
49.868216328
 21
163.3412095879
 31
0.0
  0
SPLINE
  5
383
330
1F
100
AcDbEntity
  8
0
  6
Continuous
 62
     7
370
    15
100
AcDbSpline
210
0.0
220
0.0
230
1.0
 70
    24
 71
     3
 72
    11
 73
     7
 74
     0
 42
0.00000001
 43
0.00000001
 12
1.0
 22
0.0
 32
0.0
 13
1.0
 23
0.0
 33
0.0
 40
0.0
 40
0.0
 40
0.0
 40
0.0
 40
0.2663517940790647
 40
0.5156150084101071
 40
0.7648161214027138
 40
1.0
 40
1.0
 40
1.0
 40
1.0
 10
40.70507507739846
 20
164.0912148331403
 30
0.0
 10
40.58167314506373
 20
164.0912148331404
 30
0.0
 10
40.34278649292542
 20
164.0912148331403
 30
0.0
 10
40.09198978935375
 20
164.0912148331403
 30
0.0
 10
39.92901730527716
 20
164.0912148331402
 30
0.0
 10
39.91348305983142
 20
164.0912148331402
 30
0.0
 10
39.90594070373361
 20
164.0912148331403
 30
0.0
  0
SPLINE
  5
384
330
1F
100
AcDbEntity
  8
0
  6
Continuous
 62
     7
370
    15
100
AcDbSpline
210
0.0
220
0.0
230
1.0
 70
     8
 71
     3
 72
    16
 73
    12
 74
     0
 42
0.00000001
 43
0.00000001
 12
1.0
 22
0.0
 32
0.0
 13
1.0
 23
0.0
 33
0.0
 40
0.0
 40
0.0
 40
0.0
 40
0.0
 40
0.2499999999999999
 40
0.2499999999999999
 40
0.4999999999999998
 40
0.4999999999999998
 40
0.6249999999999998
 40
0.6249999999999998
 40
0.7499999999999997
 40
0.7499999999999997
 40
1.0
 40
1.0
 40
1.0
 40
1.0
 10
40.70507818075667
 20
146.0912026737926
 30
0.0
 10
40.46015666617423
 20
146.8259672175398
 30
0.0
 10
40.25829694613775
 20
147.566088818956
 30
0.0
 10
39.97865567454077
 20
149.0617678370163
 30
0.0
 10
39.90179653981236
 20
149.817440005965
 30
0.0
 10
39.90095237864317
 20
150.9651856132209
 30
0.0
 10
39.91974146531319
 20
151.3495676246685
 30
0.0
 10
39.99300895739405
 20
152.1099157918414
 30
0.0
 10
40.04741300905741
 20
152.4875407105135
 30
0.0
 10
40.25749206740942
 20
153.6136923708088
 30
0.0
 10
40.45985136057681
 20
154.3555222132527
 30
0.0
 10
40.70507818075681
 20
155.0912026737927
 30
0.0
  0
SPLINE
  5
385
330
1F
100
AcDbEntity
  8
0
  6
Continuous
 62
     7
370
    15
100
AcDbSpline
210
0.0
220
0.0
230
1.0
 70
    24
 71
     3
 72
    11
 73
     7
 74
     0
 42
0.00000001
 43
0.00000001
 12
1.0
 22
0.0
 32
0.0
 13
1.0
 23
0.0
 33
0.0
 40
0.0
 40
0.0
 40
0.0
 40
0.0
 40
0.2223440405832845
 40
0.477961274643144
 40
0.7336467327599202
 40
1.0
 40
1.0
 40
1.0
 40
1.0
 10
39.90690927921118
 20
146.0912081574201
 30
0.0
 10
39.91308586241333
 20
146.0912081574201
 30
0.0
 10
39.92636333804295
 20
146.0912081574201
 30
0.0
 10
40.08609955157952
 20
146.0912081574201
 30
0.0
 10
40.33981628736147
 20
146.09120815742
 30
0.0
 10
40.5816746965878
 20
146.0912081574201
 30
0.0
 10
40.70507507739846
 20
146.0912081574201
 30
0.0
  0
LINE
  5
386
330
1F
100
AcDbEntity
  8
0
  6
Continuous
 62
     7
370
    15
100
AcDbLine
 10
40.7050750774
 20
146.0912081574
 30
0.0
 11
48.6313603443
 21
146.0912081574
 31
0.0
  0
LINE
  5
387
330
1F
100
AcDbEntity
  8
0
  6
Continuous
 62
     7
370
    15
100
AcDbLine
 10
40.7050750774
 20
-329.9088028098
 30
0.0
 11
48.6313603443
 21
-329.9088028098
 31
0.0
  0
SPLINE
  5
388
330
1F
100
AcDbEntity
  8
0
  6
Continuous
 62
     7
370
    15
100
AcDbSpline
210
0.0
220
0.0
230
1.0
 70
     8
 71
     3
 72
    16
 73
    12
 74
     0
 42
0.00000001
 43
0.00000001
 12
1.0
 22
0.0
 32
0.0
 13
1.0
 23
0.0
 33
0.0
 40
0.0
 40
0.0
 40
0.0
 40
0.0
 40
0.2499999999999982
 40
0.2499999999999982
 40
0.4999999999999964
 40
0.4999999999999964
 40
0.624999999999999
 40
0.624999999999999
 40
0.7500000000000016
 40
0.7500000000000016
 40
1.0
 40
1.0
 40
1.0
 40
1.0
 10
48.63135762238633
 20
-329.9087973262072
 30
0.0
 10
48.87627913696872
 20
-330.6435618699544
 30
0.0
 10
49.07813885700524
 20
-331.3836834713706
 30
0.0
 10
49.35778012860232
 20
-332.8793624894308
 30
0.0
 10
49.43463926333065
 20
-333.6350346583797
 30
0.0
 10
49.43548342449975
 20
-334.7827802656356
 30
0.0
 10
49.41669433782972
 20
-335.1671622770831
 30
0.0
 10
49.34342684574887
 20
-335.927510444256
 30
0.0
 10
49.28902279408546
 20
-336.3051353629281
 30
0.0
 10
49.07894373573341
 20
-337.4312870232234
 30
0.0
 10
48.87658444256611
 20
-338.1731168656673
 30
0.0
 10
48.63135762238613
 20
-338.9087973262073
 30
0.0
  0
LINE
  5
389
330
1F
100
AcDbEntity
  8
0
  6
Continuous
 62
     7
370
    15
100
AcDbLine
 10
40.7050750774
 20
-338.9087912465
 30
0.0
 11
48.6313603443
 21
-338.9087912465
 31
0.0
  0
SPLINE
  5
38A
330
1F
100
AcDbEntity
  8
0
  6
Continuous
 62
     7
370
    15
100
AcDbSpline
210
0.0
220
0.0
230
1.0
 70
     8
 71
     3
 72
    16
 73
    12
 74
     0
 42
0.00000001
 43
0.00000001
 12
1.0
 22
0.0
 32
0.0
 13
1.0
 23
0.0
 33
0.0
 40
0.0
 40
0.0
 40
0.0
 40
0.0
 40
0.25
 40
0.25
 40
0.5
 40
0.5
 40
0.625
 40
0.625
 40
0.75
 40
0.75
 40
1.0
 40
1.0
 40
1.0
 40
1.0
 10
40.70507818075664
 20
-338.9087973262073
 30
0.0
 10
40.46015666617423
 20
-338.1740327824601
 30
0.0
 10
40.25829694613773
 20
-337.4339111810439
 30
0.0
 10
39.97865567454071
 20
-335.9382321629835
 30
0.0
 10
39.90179653981239
 20
-335.1825599940349
 30
0.0
 10
39.90095237864317
 20
-334.0348143867789
 30
0.0
 10
39.91974146531325
 20
-333.6504323753313
 30
0.0
 10
39.99300895739414
 20
-332.8900842081585
 30
0.0
 10
40.04741300905749
 20
-332.5124592894863
 30
0.0
 10
40.25749206740951
 20
-331.3863076291912
 30
0.0
 10
40.4598513605769
 20
-330.6444777867472
 30
0.0
 10
40.70507818075686
 20
-329.9087973262072
 30
0.0
  0
SPLINE
  5
38B
330
1F
100
AcDbEntity
  8
0
  6
Continuous
 62
     7
370
    15
100
AcDbSpline
210
0.0
220
0.0
230
1.0
 70
    24
 71
     3
 72
    12
 73
     8
 74
     0
 42
0.00000001
 43
0.00000001
 12
1.0
 22
0.0
 32
0.0
 13
1.0
 23
0.0
 33
0.0
 40
0.0
 40
0.0
 40
0.0
 40
0.0
 40
0.0202162568059925
 40
0.2756464634900722
 40
0.455874713444567
 40
0.6361198239753321
 40
1.0
 40
1.0
 40
1.0
 40
1.0
 10
49.43050961910073
 20
-329.9088028098346
 30
0.0
 10
49.43187722065873
 20
-329.9088028098345
 30
0.0
 10
49.45052431920642
 20
-329.9088028098345
 30
0.0
 10
49.38819891631788
 20
-329.9088028098345
 30
0.0
 10
49.26308241639058
 20
-329.9088028098346
 30
0.0
 10
49.04389941596974
 20
-329.9088028098345
 30
0.0
 10
48.79668400829637
 20
-329.9088028098345
 30
0.0
 10
48.63136034427468
 20
-329.9088028098346
 30
0.0
  0
SPLINE
  5
38C
330
1F
100
AcDbEntity
  8
0
  6
Continuous
 62
     7
370
    15
100
AcDbSpline
210
0.0
220
0.0
230
1.0
 70
    24
 71
     3
 72
    12
 73
     8
 74
     0
 42
0.00000001
 43
0.00000001
 12
1.0
 22
0.0
 32
0.0
 13
1.0
 23
0.0
 33
0.0
 40
0.0
 40
0.0
 40
0.0
 40
0.0
 40
0.3606170916731433
 40
0.5424914848037911
 40
0.7243480492036052
 40
0.9733590348452458
 40
1.0
 40
1.0
 40
1.0
 40
1.0
 10
48.63136034427468
 20
-347.9088094855548
 30
0.0
 10
48.79530211563294
 20
-347.9088094855548
 30
0.0
 10
49.04192662960944
 20
-347.9088094855548
 30
0.0
 10
49.26190884634536
 20
-347.9088094855548
 30
0.0
 10
49.38697767156939
 20
-347.9088094855548
 30
0.0
 10
49.44876384061745
 20
-347.9088094855546
 30
0.0
 10
49.43122155383004
 20
-347.9088094855548
 30
0.0
 10
49.42952614246194
 20
-347.9088094855548
 30
0.0
  0
SPLINE
  5
38D
330
1F
100
AcDbEntity
  8
0
  6
Continuous
 62
     7
370
    15
100
AcDbSpline
210
0.0
220
0.0
230
1.0
 70
     8
 71
     3
 72
    16
 73
    12
 74
     0
 42
0.00000001
 43
0.00000001
 12
1.0
 22
0.0
 32
0.0
 13
1.0
 23
0.0
 33
0.0
 40
0.0
 40
0.0
 40
0.0
 40
0.0
 40
0.2500000000000004
 40
0.2500000000000004
 40
0.5000000000000009
 40
0.5000000000000009
 40
0.625000000000001
 40
0.625000000000001
 40
0.7500000000000011
 40
0.7500000000000011
 40
1.0
 40
1.0
 40
1.0
 40
1.0
 10
48.6313576223863
 20
-338.9087973262072
 30
0.0
 10
48.87627937001253
 20
-339.6435625690858
 30
0.0
 10
49.07813924109914
 20
-340.3836848798337
 30
0.0
 10
49.35778054274731
 20
-341.8793653504015
 30
0.0
 10
49.43463955187558
 20
-342.6350382630984
 30
0.0
 10
49.43548328504541
 20
-343.7827850157838
 30
0.0
 10
49.41669401843957
 20
-344.1671673655907
 30
0.0
 10
49.34342611942186
 20
-344.927516207863
 30
0.0
 10
49.28902183927226
 20
-345.305141460496
 30
0.0
 10
49.07894204731618
 20
-346.4312941157677
 30
0.0
 10
48.87658220353861
 20
-347.173124612701
 30
0.0
 10
48.63135482237255
 20
-347.908805726242
 30
0.0
  0
LINE
  5
38E
330
1F
100
AcDbEntity
  8
0
  6
Continuous
 62
     7
370
    15
100
AcDbLine
 10
49.868216328
 20
-347.1588042403
 30
0.0
 11
49.868216328
 21
-330.6587931539
 31
0.0
  0
SPLINE
  5
38F
330
1F
100
AcDbEntity
  8
0
  6
Continuous
 62
     7
370
    15
100
AcDbSpline
210
0.0
220
0.0
230
1.0
 70
    24
 71
     3
 72
    12
 73
     8
 74
     0
 42
0.00000001
 43
0.00000001
 12
1.0
 22
0.0
 32
0.0
 13
1.0
 23
0.0
 33
0.0
 40
0.0
 40
0.0
 40
0.0
 40
0.0
 40
0.0202163556472389
 40
0.2756465365633465
 40
0.4558747683362938
 40
0.6361198606838102
 40
1.0
 40
1.0
 40
1.0
 40
1.0
 10
39.90594070373361
 20
-347.9088094855548
 30
0.0
 10
39.90456792174691
 20
-347.9088094855548
 30
0.0
 10
39.88585027516984
 20
-347.9088094855546
 30
0.0
 10
39.94825494689039
 20
-347.9088094855548
 30
0.0
 10
40.07334891287815
 20
-347.9088094855548
 30
0.0
 10
40.29253830358446
 20
-347.9088094855548
 30
0.0
 10
40.53975233424496
 20
-347.9088094855548
 30
0.0
 10
40.70507507739846
 20
-347.9088094855548
 30
0.0
  0
SPLINE
  5
390
330
1F
100
AcDbEntity
  8
0
  6
Continuous
 62
     7
370
    15
100
AcDbSpline
210
0.0
220
0.0
230
1.0
 70
    24
 71
     3
 72
    12
 73
     8
 74
     0
 42
0.00000001
 43
0.00000001
 12
1.0
 22
0.0
 32
0.0
 13
1.0
 23
0.0
 33
0.0
 40
0.0
 40
0.0
 40
0.0
 40
0.0
 40
0.3606170916731433
 40
0.5424914848037911
 40
0.7243480492036052
 40
0.9733590348452458
 40
1.0
 40
1.0
 40
1.0
 40
1.0
 10
40.70507507739846
 20
-329.9088028098346
 30
0.0
 10
40.54113330604018
 20
-329.9088028098346
 30
0.0
 10
40.29450879206365
 20
-329.9088028098346
 30
0.0
 10
40.07452657532779
 20
-329.9088028098346
 30
0.0
 10
39.94945775010359
 20
-329.9088028098347
 30
0.0
 10
39.88767158105617
 20
-329.9088028098344
 30
0.0
 10
39.90521386784302
 20
-329.9088028098346
 30
0.0
 10
39.90690927921121
 20
-329.9088028098346
 30
0.0
  0
SPLINE
  5
391
330
1F
100
AcDbEntity
  8
0
  6
Continuous
 62
     7
370
    15
100
AcDbSpline
210
0.0
220
0.0
230
1.0
 70
     8
 71
     3
 72
    15
 73
    11
 74
     0
 42
0.00000001
 43
0.00000001
 12
1.0
 22
0.0
 32
0.0
 13
1.0
 23
0.0
 33
0.0
 40
0.0
 40
0.0
 40
0.0
 40
0.0
 40
0.1323053686120031
 40
0.2645741406042438
 40
0.3998003977514749
 40
0.5350034945494659
 40
0.6501937656509413
 40
0.7654015025856429
 40
0.8826892464727518
 40
0.9999999999999999
 40
0.9999999999999999
 40
0.9999999999999999
 40
0.9999999999999999
 10
40.70507507739846
 20
-347.9088094855548
 30
0.0
 10
40.58271020046853
 20
-347.5199720782559
 30
0.0
 10
40.33801429361665
 20
-346.7424048188911
 30
0.0
 10
40.07471167522237
 20
-345.5450227491265
 30
0.0
 10
39.91641197444221
 20
-344.3250736023126
 30
0.0
 10
39.88506206504403
 20
-343.1493125640268
 30
0.0
 10
39.96640420120352
 20
-342.0370791508603
 30
0.0
 10
40.13305780358865
 20
-340.9874072128824
 30
0.0
 10
40.37754680143453
 20
-339.9424753146937
 30
0.0
 10
40.59589184691501
 20
-339.2533751317839
 30
0.0
 10
40.70507507739846
 20
-338.9087912465335
 30
0.0
  0
LINE
  5
392
330
1F
100
AcDbEntity
  8
0
  6
Continuous
 62
     7
370
    15
100
AcDbLine
 10
40.7050750774
 20
-347.9088094856
 30
0.0
 11
48.6313603443
 21
-347.9088094856
 31
0.0
  0
LINE
  5
393
330
1F
100
AcDbEntity
  8
0
  6
Continuous
 62
     7
370
    15
100
AcDbLine
 10
89.9682171267
 20
149.0911993359
 30
0.0
 11
89.9682171267
 21
161.0911938523
 31
0.0
  0
LINE
  5
394
330
1F
100
AcDbEntity
  8
0
  6
Continuous
 62
     7
370
    15
100
AcDbLine
 10
89.9682171267
 20
-344.9087885047
 30
0.0
 11
89.9682171267
 21
-332.9087939883
 31
0.0
  0
LINE
  5
395
330
1F
100
AcDbEntity
  8
0
  6
Continuous
 62
     7
370
    15
100
AcDbLine
 10
167.1682182324
 20
-298.6695763494
 30
0.0
 11
167.1682182324
 21
-297.9087975646
 31
0.0
  0
LINE
  5
396
330
1F
100
AcDbEntity
  8
0
  6
Continuous
 62
     7
370
    15
100
AcDbLine
 10
167.1682182324
 20
-310.1695773031
 30
0.0
 11
167.1682182324
 21
-298.6695763494
 31
0.0
  0
LINE
  5
397
330
1F
100
AcDbEntity
  8
0
  6
Continuous
 62
     7
370
    15
100
AcDbLine
 10
167.1682182324
 20
-310.1695773031
 30
0.0
 11
142.4224949998
 21
-310.1695773031
 31
0.0
  0
SPLINE
  5
398
330
1F
100
AcDbEntity
  8
0
  6
Continuous
 62
     7
370
    15
100
AcDbSpline
210
0.0
220
0.0
230
1.0
 70
     8
 71
     3
 72
    14
 73
    10
 74
     0
 42
0.00000001
 43
0.00000001
 12
1.0
 22
0.0
 32
0.0
 13
1.0
 23
0.0
 33
0.0
 40
0.0
 40
0.0
 40
0.0
 40
0.0
 40
0.1249999999999994
 40
0.1249999999999994
 40
0.2500000000000004
 40
0.2500000000000004
 40
0.5000000000000009
 40
0.5000000000000009
 40
1.0
 40
1.0
 40
1.0
 40
1.0
 10
140.3682179015715
 20
-298.6695705556214
 30
0.0
 10
140.3682179015715
 20
-299.1575532990528
 30
0.0
 10
140.3802661933727
 20
-299.6479773666715
 30
0.0
 10
140.4280576007595
 20
-300.624262751388
 30
0.0
 10
140.4637492425979
 20
-301.1107133104637
 30
0.0
 10
140.6046772399355
 20
-302.5652087474465
 30
0.0
 10
140.7438451871163
 20
-303.5283861213956
 30
0.0
 10
141.2806013589861
 20
-306.4008114362489
 30
0.0
 10
141.7969779026122
 20
-308.2930191328283
 30
0.0
 10
142.4224950435433
 20
-310.1695705556215
 30
0.0
  0
LINE
  5
399
330
1F
100
AcDbEntity
  8
0
  6
Continuous
 62
     7
370
    15
100
AcDbLine
 10
140.3934709352
 20
-297.9087975646
 30
0.0
 11
140.3682171923
 21
-298.6695763494
 31
0.0
  0
SPLINE
  5
39A
330
1F
100
AcDbEntity
  8
0
  6
Continuous
 62
     7
370
    15
100
AcDbSpline
210
0.0
220
0.0
230
1.0
 70
     8
 71
     3
 72
    10
 73
     6
 74
     0
 42
0.00000001
 43
0.00000001
 12
1.0
 22
0.0
 32
0.0
 13
1.0
 23
0.0
 33
0.0
 40
0.0
 40
0.0
 40
0.0
 40
0.0
 40
0.5
 40
0.5
 40
1.0
 40
1.0
 40
1.0
 40
1.0
 10
142.4224950435432
 20
-310.1695705556215
 30
0.0
 10
141.7954116780265
 20
-312.0508206521717
 30
0.0
 10
141.2787884040326
 20
-313.9458117560473
 30
0.0
 10
140.5640012592903
 20
-317.7754096560589
 30
0.0
 10
140.3682179015715
 20
-319.710312583101
 30
0.0
 10
140.3682179015715
 20
-321.6695705556215
 30
0.0
  0
LINE
  5
39B
330
1F
100
AcDbEntity
  8
0
  6
Continuous
 62
     7
370
    15
100
AcDbLine
 10
140.3682171923
 20
-298.6695763494
 30
0.0
 11
140.3682171923
 21
-321.6695633556
 31
0.0
  0
LINE
  5
39C
330
1F
100
AcDbEntity
  8
0
  6
Continuous
 62
     7
370
    15
100
AcDbLine
 10
167.1682182324
 20
-333.1695643092
 30
0.0
 11
167.1682182324
 21
-321.6695633556
 31
0.0
  0
LINE
  5
39D
330
1F
100
AcDbEntity
  8
0
  6
Continuous
 62
     7
370
    15
100
AcDbLine
 10
167.1682182324
 20
-333.1695643092
 30
0.0
 11
142.4224949998
 21
-333.1695643092
 31
0.0
  0
SPLINE
  5
39E
330
1F
100
AcDbEntity
  8
0
  6
Continuous
 62
     7
370
    15
100
AcDbSpline
210
0.0
220
0.0
230
1.0
 70
     8
 71
     3
 72
    14
 73
    10
 74
     0
 42
0.00000001
 43
0.00000001
 12
1.0
 22
0.0
 32
0.0
 13
1.0
 23
0.0
 33
0.0
 40
0.0
 40
0.0
 40
0.0
 40
0.0
 40
0.1249999999999989
 40
0.1249999999999989
 40
0.2499999999999978
 40
0.2499999999999978
 40
0.4999999999999958
 40
0.4999999999999958
 40
1.0
 40
1.0
 40
1.0
 40
1.0
 10
140.3682179015715
 20
-321.6695705556215
 30
0.0
 10
140.3682179015715
 20
-322.1575532990528
 30
0.0
 10
140.3802661933727
 20
-322.6479773666716
 30
0.0
 10
140.4280576007595
 20
-323.624262751388
 30
0.0
 10
140.4637492425979
 20
-324.1107133104638
 30
0.0
 10
140.6046772399355
 20
-325.5652087474465
 30
0.0
 10
140.7438451871163
 20
-326.5283861213956
 30
0.0
 10
141.2806013589861
 20
-329.4008114362488
 30
0.0
 10
141.7969779026122
 20
-331.2930191328282
 30
0.0
 10
142.4224950435433
 20
-333.1695705556214
 30
0.0
  0
LINE
  5
39F
330
1F
100
AcDbEntity
  8
0
  6
Continuous
 62
     7
370
    15
100
AcDbLine
 10
167.1682182324
 20
-321.6695633556
 30
0.0
 11
167.1682182324
 21
-310.1695773031
 31
0.0
  0
LINE
  5
3A0
330
1F
100
AcDbEntity
  8
0
  6
Continuous
 62
     7
370
    15
100
AcDbLine
 10
-106.431791969
 20
-313.1626543428
 30
0.0
 11
-106.4348020035
 21
-312.9087981607
 31
0.0
  0
LINE
  5
3A1
330
1F
100
AcDbEntity
  8
0
  6
Continuous
 62
     7
370
    15
100
AcDbLine
 10
-106.431791969
 20
-313.1626543428
 30
0.0
 11
-106.431791969
 21
-312.9087981607
 31
0.0
  0
LINE
  5
3A2
330
1F
100
AcDbEntity
  8
0
  6
Continuous
 62
     7
370
    15
100
AcDbLine
 10
-133.2317687947
 20
-313.1626543428
 30
0.0
 11
-133.2317687947
 21
-326.3287839319
 31
0.0
  0
LINE
  5
3A3
330
1F
100
AcDbEntity
  8
0
  6
Continuous
 62
     7
370
    15
100
AcDbLine
 10
-133.2317687947
 20
-312.9087981607
 30
0.0
 11
-133.2317687947
 21
-313.1626543428
 31
0.0
  0
SPLINE
  5
3A4
330
1F
100
AcDbEntity
  8
0
  6
Continuous
 62
     7
370
    15
100
AcDbSpline
210
0.0
220
0.0
230
1.0
 70
     8
 71
     3
 72
    10
 73
     6
 74
     0
 42
0.00000001
 43
0.00000001
 12
1.0
 22
0.0
 32
0.0
 13
1.0
 23
0.0
 33
0.0
 40
0.0
 40
0.0
 40
0.0
 40
0.0
 40
0.5
 40
0.5
 40
1.0
 40
1.0
 40
1.0
 40
1.0
 10
-108.4860592404003
 20
-326.328785744487
 30
0.0
 10
-107.8589758748835
 20
-324.1749773698933
 30
0.0
 10
-107.3423526008898
 20
-322.0054371706439
 30
0.0
 10
-106.6275654561474
 20
-317.6210015001835
 30
0.0
 10
-106.4317820984286
 20
-315.4057669941861
 30
0.0
 10
-106.4317820984285
 20
-313.1626488479372
 30
0.0
  0
LINE
  5
3A5
330
1F
100
AcDbEntity
  8
0
  6
Continuous
 62
     7
370
    15
100
AcDbLine
 10
-133.2317687947
 20
-326.3287839319
 30
0.0
 11
-108.4860660511
 21
-326.3287839319
 31
0.0
  0
LINE
  5
3A6
330
1F
100
AcDbEntity
  8
0
  6
Continuous
 62
     7
370
    15
100
AcDbLine
 10
-134.0317823368
 20
-312.9087981607
 30
0.0
 11
-134.0317823368
 21
-332.9087939883
 31
0.0
  0
LINE
  5
3A7
330
1F
100
AcDbEntity
  8
0
  6
Continuous
 62
     7
370
    15
100
AcDbLine
 10
167.968218736
 20
-297.9087975646
 30
0.0
 11
167.968218736
 21
-335.1695683624
 31
0.0
  0
LINE
  5
3A8
330
1F
100
AcDbEntity
  8
0
  6
Continuous
 62
     7
370
    15
100
AcDbLine
 10
-106.431791969
 20
-331.4153102065
 30
0.0
 11
-106.431791969
 21
-313.1626543428
 31
0.0
  0
SPLINE
  5
3A9
330
1F
100
AcDbEntity
  8
0
  6
Continuous
 62
     7
370
    15
100
AcDbSpline
210
0.0
220
0.0
230
1.0
 70
     8
 71
     3
 72
    12
 73
     8
 74
     0
 42
0.00000001
 43
0.00000001
 12
1.0
 22
0.0
 32
0.0
 13
1.0
 23
0.0
 33
0.0
 40
0.0
 40
0.0
 40
0.0
 40
0.0
 40
0.2500000000000025
 40
0.2500000000000025
 40
0.500000000000005
 40
0.500000000000005
 40
1.0
 40
1.0
 40
1.0
 40
1.0
 10
-106.4317820984285
 20
-331.415315046604
 30
0.0
 10
-106.4317820984285
 20
-330.9852898048227
 30
0.0
 10
-106.4794906293937
 20
-330.5538871377684
 30
0.0
 10
-106.6690932842705
 20
-329.6883625076871
 30
0.0
 10
-106.8100076088849
 20
-329.2587650983154
 30
0.0
 10
-107.3500373511791
 20
-327.9845009970685
 30
0.0
 10
-107.8662306114719
 20
-327.1512491749226
 30
0.0
 10
-108.4860592404005
 20
-326.328785744487
 30
0.0
  0
LINE
  5
3AA
330
1F
100
AcDbEntity
  8
0
  6
Continuous
 62
     7
370
    15
100
AcDbLine
 10
-133.2317687947
 20
-331.4153102065
 30
0.0
 11
-133.2317687947
 21
-332.9087939883
 31
0.0
  0
SPLINE
  5
3AB
330
1F
100
AcDbEntity
  8
0
  6
Continuous
 62
     7
370
    15
100
AcDbSpline
210
0.0
220
0.0
230
1.0
 70
     8
 71
     3
 72
     9
 73
     5
 74
     0
 42
0.00000001
 43
0.00000001
 12
1.0
 22
0.0
 32
0.0
 13
1.0
 23
0.0
 33
0.0
 40
0.0
 40
0.0
 40
0.0
 40
0.0
 40
0.3552041773863966
 40
1.0
 40
1.0
 40
1.0
 40
1.0
 10
-106.6401400047701
 20
-332.9087939883472
 30
0.0
 10
-106.5922114878969
 20
-332.7325189850866
 30
0.0
 10
-106.4572791871964
 20
-332.2362551050907
 30
0.0
 10
-106.4417835141844
 20
-331.737138505163
 30
0.0
 10
-106.4317919689578
 20
-331.4153102065326
 30
0.0
  0
LINE
  5
3AC
330
1F
100
AcDbEntity
  8
0
  6
Continuous
 62
     7
370
    15
100
AcDbLine
 10
-133.2317687947
 20
-326.3287839319
 30
0.0
 11
-133.2317687947
 21
-331.4153102065
 31
0.0
  0
LINE
  5
3AD
330
1F
100
AcDbEntity
  8
0
  6
Continuous
 62
     7
370
    15
100
AcDbLine
 10
140.3682171923
 20
-297.9087975646
 30
0.0
 11
140.3682171923
 21
-298.6695763494
 31
0.0
  0
SPLINE
  5
3AE
330
1F
100
AcDbEntity
  8
0
  6
Continuous
 62
     7
370
    15
100
AcDbSpline
210
0.0
220
0.0
230
1.0
 70
    24
 71
     3
 72
    12
 73
     8
 74
     0
 42
0.00000001
 43
0.00000001
 12
1.0
 22
0.0
 32
0.0
 13
1.0
 23
0.0
 33
0.0
 40
0.0
 40
0.0
 40
0.0
 40
0.0
 40
0.2500000000000016
 40
0.2500000000000016
 40
0.5000000000000031
 40
0.5000000000000031
 40
1.0
 40
1.0
 40
1.0
 40
1.0
 10
142.4224950435434
 20
-333.1695705556214
 30
0.0
 10
142.1107647383365
 20
-333.1695705556215
 30
0.0
 10
141.8245751060692
 20
-333.1695705556214
 30
0.0
 10
141.3167546503336
 20
-333.1695705556214
 30
0.0
 10
141.0973615539463
 20
-333.1695705556214
 30
0.0
 10
140.5610979202911
 20
-333.1695705556214
 30
0.0
 10
140.3682179015714
 20
-333.1695705556214
 30
0.0
 10
140.3682179015714
 20
-333.1695705556212
 30
0.0
  0
LINE
  5
3AF
330
1F
100
AcDbEntity
  8
0
  6
Continuous
 62
     7
370
    15
100
AcDbLine
 10
140.3682171923
 20
-321.6695633556
 30
0.0
 11
140.3682171923
 21
-333.1695643092
 31
0.0
  0
LINE
  5
3B0
330
1F
100
AcDbEntity
  8
0
  6
Continuous
 62
     7
370
    15
100
AcDbLine
 10
309.4682149213
 20
-323.6695674087
 30
0.0
 11
309.4682149213
 21
-296.6695722963
 31
0.0
  0
LINE
  5
3B1
330
1F
100
AcDbEntity
  8
0
  6
Continuous
 62
     7
370
    15
100
AcDbLine
 10
-275.5317785221
 20
-323.6695674087
 30
0.0
 11
-275.5317785221
 21
-296.6695722963
 31
0.0
  0
LINE
  5
3B2
330
1F
100
AcDbEntity
  8
0
  6
Continuous
 62
     7
370
    15
100
AcDbLine
 10
-106.431791969
 20
-332.9087939883
 30
0.0
 11
-106.431791969
 21
-331.4153102065
 31
0.0
  0
LINE
  5
3B3
330
1F
100
AcDbEntity
  8
0
  6
Continuous
 62
     7
370
    15
100
AcDbLine
 10
-275.5317785221
 20
56.5377923821
 30
0.0
 11
-275.5317785221
 21
67.4283954476
 31
0.0
  0
LINE
  5
3B4
330
1F
100
AcDbEntity
  8
0
  6
Continuous
 62
     7
370
    15
100
AcDbLine
 10
-275.5317785221
 20
40.428385434
 30
0.0
 11
-275.5317785221
 21
56.5377923821
 31
0.0
  0
LINE
  5
3B5
330
1F
100
AcDbEntity
  8
0
  6
Continuous
 62
     7
370
    15
100
AcDbLine
 10
309.4682149213
 20
56.5377923821
 30
0.0
 11
309.4682149213
 21
67.4283954476
 31
0.0
  0
LINE
  5
3B6
330
1F
100
AcDbEntity
  8
0
  6
Continuous
 62
     7
370
    15
100
AcDbLine
 10
309.4682149213
 20
40.428385434
 30
0.0
 11
309.4682149213
 21
56.5377923821
 31
0.0
  0
LINE
  5
3B7
330
1F
100
AcDbEntity
  8
0
  6
Continuous
 62
     8
370
     0
100
AcDbLine
 10
33.7172053379
 20
117.3897090529
 30
0.0
 11
33.7172053379
 21
-225.6023880864
 31
0.0
  0
LINE
  5
3B8
330
1F
100
AcDbEntity
  8
0
  6
Continuous
 62
     8
370
     0
100
AcDbLine
 10
30.7286284488
 20
115.5065003012
 30
0.0
 11
30.7286284488
 21
-224.6496674443
 31
0.0
  0
LINE
  5
3B9
330
1F
100
AcDbEntity
  8
0
  6
Continuous
 62
     8
370
     0
100
AcDbLine
 10
30.7286284488
 20
-251.2459901
 30
0.0
 11
30.7286284488
 21
-350.170269313
 31
0.0
  0
LINE
  5
3BA
330
1F
100
AcDbEntity
  8
0
  6
Continuous
 62
     8
370
     0
100
AcDbLine
 10
30.7286284488
 20
166.3526746606
 30
0.0
 11
30.7286284488
 21
139.8519727563
 31
0.0
  0
LINE
  5
3BB
330
1F
100
AcDbEntity
  8
0
  6
Continuous
 62
     8
370
     0
100
AcDbLine
 10
29.3063573164
 20
-272.5641724492
 30
0.0
 11
29.3063573164
 21
-333.891242447
 31
0.0
  0
LINE
  5
3BC
330
1F
100
AcDbEntity
  8
0
  6
Continuous
 62
     8
370
     0
100
AcDbLine
 10
29.3063573164
 20
-97.9087973784
 30
0.0
 11
29.3063573164
 21
-224.2459800864
 31
0.0
  0
LINE
  5
3BD
330
1F
100
AcDbEntity
  8
0
  6
Continuous
 62
     8
370
     0
100
AcDbLine
 10
29.3063573164
 20
-251.2459901
 30
0.0
 11
29.3063573164
 21
-260.5641779329
 31
0.0
  0
LINE
  5
3BE
330
1F
100
AcDbEntity
  8
0
  6
Continuous
 62
     8
370
     0
100
AcDbLine
 10
29.3063573164
 20
76.7465832804
 30
0.0
 11
29.3063573164
 21
-85.9087972741
 31
0.0
  0
LINE
  5
3BF
330
1F
100
AcDbEntity
  8
0
  6
Continuous
 62
     8
370
     0
100
AcDbLine
 10
29.3063573164
 20
150.0736477946
 30
0.0
 11
29.3063573164
 21
139.8519727563
 31
0.0
  0
LINE
  5
3C0
330
1F
100
AcDbEntity
  8
0
  6
Continuous
 62
     8
370
     0
100
AcDbLine
 10
29.3063573164
 20
112.8519776438
 30
0.0
 11
29.3063573164
 21
88.7465777968
 31
0.0
  0
LINE
  5
3C1
330
1F
100
AcDbEntity
  8
0
  6
Continuous
 62
     8
370
     0
100
AcDbLine
 10
24.5870552581
 20
145.538643298
 30
0.0
 11
24.5870552581
 21
139.8519727563
 31
0.0
  0
LINE
  5
3C2
330
1F
100
AcDbEntity
  8
0
  6
Continuous
 62
     8
370
     0
100
AcDbLine
 10
24.5870552581
 20
112.8519776438
 30
0.0
 11
24.5870552581
 21
88.7465777968
 31
0.0
  0
LINE
  5
3C3
330
1F
100
AcDbEntity
  8
0
  6
Continuous
 62
     8
370
     0
100
AcDbLine
 10
24.5870552581
 20
76.7465832804
 30
0.0
 11
24.5870552581
 21
-85.9087972741
 31
0.0
  0
LINE
  5
3C4
330
1F
100
AcDbEntity
  8
0
  6
Continuous
 62
     8
370
     0
100
AcDbLine
 10
24.5870552581
 20
-97.9087973784
 30
0.0
 11
24.5870552581
 21
-224.2459800864
 31
0.0
  0
LINE
  5
3C5
330
1F
100
AcDbEntity
  8
0
  6
Continuous
 62
     8
370
     0
100
AcDbLine
 10
24.5870552581
 20
-251.2459901
 30
0.0
 11
24.5870552581
 21
-260.5641779329
 31
0.0
  0
LINE
  5
3C6
330
1F
100
AcDbEntity
  8
0
  6
Continuous
 62
     8
370
     0
100
AcDbLine
 10
24.5870552581
 20
-272.5641724492
 30
0.0
 11
24.5870552581
 21
-329.3562379504
 31
0.0
  0
LINE
  5
3C7
330
1F
100
AcDbEntity
  8
0
  6
Continuous
 62
     8
370
     0
100
AcDbLine
 10
-0.6626196581
 20
144.2153605794
 30
0.0
 11
-0.6626196581
 21
139.8519727563
 31
0.0
  0
LINE
  5
3C8
330
1F
100
AcDbEntity
  8
0
  6
Continuous
 62
     8
370
     0
100
AcDbLine
 10
-0.6626196581
 20
112.8519776438
 30
0.0
 11
-0.6626196581
 21
88.7465777968
 31
0.0
  0
LINE
  5
3C9
330
1F
100
AcDbEntity
  8
0
  6
Continuous
 62
     8
370
     0
100
AcDbLine
 10
-0.6626196581
 20
76.7465832804
 30
0.0
 11
-0.6626196581
 21
-85.9087972741
 31
0.0
  0
LINE
  5
3CA
330
1F
100
AcDbEntity
  8
0
  6
Continuous
 62
     8
370
     0
100
AcDbLine
 10
-0.6626196581
 20
-97.9087973784
 30
0.0
 11
-0.6626196581
 21
-224.2459800864
 31
0.0
  0
LINE
  5
3CB
330
1F
100
AcDbEntity
  8
0
  6
Continuous
 62
     8
370
     0
100
AcDbLine
 10
-0.6626196581
 20
-251.2459901
 30
0.0
 11
-0.6626196581
 21
-260.5641779329
 31
0.0
  0
LINE
  5
3CC
330
1F
100
AcDbEntity
  8
0
  6
Continuous
 62
     8
370
     0
100
AcDbLine
 10
-0.6626196581
 20
-272.5641724492
 30
0.0
 11
-0.6626196581
 21
-328.0329552318
 31
0.0
  0
LINE
  5
3CD
330
1F
100
AcDbEntity
  8
0
  6
Continuous
 62
     8
370
     0
100
AcDbLine
 10
33.7172053379
 20
-251.2459901
 30
0.0
 11
33.7172053379
 21
-352.9088047172
 31
0.0
  0
LINE
  5
3CE
330
1F
100
AcDbEntity
  8
0
  6
Continuous
 62
     8
370
     0
100
AcDbLine
 10
33.7172053379
 20
169.0912100648
 30
0.0
 11
33.7172053379
 21
139.8519727563
 31
0.0
  0
LINE
  5
3CF
330
1F
100
AcDbEntity
  8
FORMAT
  6
CENTERX2
370
     0
100
AcDbLine
 10
-278.6501344429
 20
-91.9087973262
 30
0.0
 11
319.1589270468
 21
-91.9087973262
 31
0.0
  0
ENDSEC
  0
SECTION
  2
OBJECTS
  0
DICTIONARY
  5
C
330
0
100
AcDbDictionary
281
     1
  3
ACAD_GROUP
350
D
  3
ACAD_LAYOUT
350
1A
  3
ACAD_MLINESTYLE
350
17
  3
ACAD_PLOTSETTINGS
350
19
  3
ACAD_PLOTSTYLENAME
350
E
  0
DICTIONARY
  5
D
102
{ACAD_REACTORS
330
C
102
}
330
C
100
AcDbDictionary
281
     1
  0
DICTIONARY
  5
1A
102
{ACAD_REACTORS
330
C
102
}
330
C
100
AcDbDictionary
281
     1
  3
Layout1
350
1E
  3
Layout2
350
26
  3
Model
350
22
  0
DICTIONARY
  5
17
102
{ACAD_REACTORS
330
C
102
}
330
C
100
AcDbDictionary
281
     1
  3
Standard
350
18
  0
DICTIONARY
  5
19
102
{ACAD_REACTORS
330
C
102
}
330
C
100
AcDbDictionary
281
     1
  0
ACDBDICTIONARYWDFLT
  5
E
102
{ACAD_REACTORS
330
C
102
}
330
C
100
AcDbDictionary
281
     1
  3
Normal
350
F
100
AcDbDictionaryWithDefault
340
F
  0
LAYOUT
  5
1E
102
{ACAD_REACTORS
330
1A
102
}
330
1A
100
AcDbPlotSettings
  1

  2
none_device
  4

  6

 40
0.0
 41
0.0
 42
0.0
 43
0.0
 44
0.0
 45
0.0
 46
0.0
 47
0.0
 48
0.0
 49
0.0
140
0.0
141
0.0
142
1.0
143
1.0
 70
   688
 72
     0
 73
     0
 74
     5
  7

 75
    16
147
1.0
148
0.0
149
0.0
100
AcDbLayout
  1
Layout1
 70
     1
 71
     1
 10
0.0
 20
0.0
 11
420.0
 21
297.0
 12
0.0
 22
0.0
 32
0.0
 14
1.0000000000E+20
 24
1.0000000000E+20
 34
1.0000000000E+20
 15
-1.0000000000E+20
 25
-1.0000000000E+20
 35
-1.0000000000E+20
146
0.0
 13
0.0
 23
0.0
 33
0.0
 16
1.0
 26
0.0
 36
0.0
 17
0.0
 27
1.0
 37
0.0
 76
     0
330
1B
  0
LAYOUT
  5
26
102
{ACAD_REACTORS
330
1A
102
}
330
1A
100
AcDbPlotSettings
  1

  2
none_device
  4

  6

 40
0.0
 41
0.0
 42
0.0
 43
0.0
 44
0.0
 45
0.0
 46
0.0
 47
0.0
 48
0.0
 49
0.0
140
0.0
141
0.0
142
1.0
143
1.0
 70
   688
 72
     0
 73
     0
 74
     5
  7

 75
    16
147
1.0
148
0.0
149
0.0
100
AcDbLayout
  1
Layout2
 70
     1
 71
     2
 10
0.0
 20
0.0
 11
0.0
 21
0.0
 12
0.0
 22
0.0
 32
0.0
 14
0.0
 24
0.0
 34
0.0
 15
0.0
 25
0.0
 35
0.0
146
0.0
 13
0.0
 23
0.0
 33
0.0
 16
1.0
 26
0.0
 36
0.0
 17
0.0
 27
1.0
 37
0.0
 76
     0
330
23
  0
LAYOUT
  5
22
102
{ACAD_REACTORS
330
1A
102
}
330
1A
100
AcDbPlotSettings
  1

  2
none_device
  4

  6

 40
0.0
 41
0.0
 42
0.0
 43
0.0
 44
0.0
 45
0.0
 46
0.0
 47
0.0
 48
0.0
 49
0.0
140
0.0
141
0.0
142
1.0
143
1.0
 70
  1712
 72
     0
 73
     0
 74
     0
  7

 75
     0
147
1.0
148
0.0
149
0.0
100
AcDbLayout
  1
Model
 70
     1
 71
     0
 10
0.0
 20
0.0
 11
841.0
 21
594.0
 12
0.0
 22
0.0
 32
0.0
 14
0.0
 24
0.0
 34
0.0
 15
841.0
 25
594.0
 35
0.0
146
0.0
 13
0.0
 23
0.0
 33
0.0
 16
1.0
 26
0.0
 36
0.0
 17
0.0
 27
1.0
 37
0.0
 76
     0
330
1F
331
29
  0
MLINESTYLE
  5
18
102
{ACAD_REACTORS
330
17
102
}
330
17
100
AcDbMlineStyle
  2
Standard
 70
     0
  3

 62
   256
 51
90.0
 52
90.0
 71
     2
 49
0.5
 62
   256
  6
BYLAYER
 49
-0.5
 62
   256
  6
BYLAYER
  0
ACDBPLACEHOLDER
  5
F
102
{ACAD_REACTORS
330
E
102
}
330
E
  0
ENDSEC
  0
EOF
