  0
SECTION
  2
HEADER
  9
$ACADVER
  1
AC1015
  9
$ACADMAINTVER
 70
     6
  9
$DWGCODEPAGE
  3
ANSI_1252
  9
$INSBASE
 10
0.0
 20
0.0
 30
0.0
  9
$EXTMIN
 10
0.0
 20
0.0
 30
0.0
  9
$EXTMAX
 10
841.0
 20
594.0
 30
0.0
  9
$LIMMIN
 10
0.0
 20
0.0
  9
$LIMMAX
 10
841.0
 20
594.0
  9
$ORTHOMODE
 70
     0
  9
$REGENMODE
 70
     1
  9
$FILLMODE
 70
     1
  9
$QTEXTMODE
 70
     0
  9
$MIRRTEXT
 70
     1
  9
$LTSCALE
 40
1.0
  9
$ATTMODE
 70
     1
  9
$TEXTSIZE
 40
2.5
  9
$TRACEWID
 40
1.0
  9
$TEXTSTYLE
  7
Standard
  9
$CLAYER
  8
0
  9
$CELTYPE
  6
ByLayer
  9
$CECOLOR
 62
   256
  9
$CELTSCALE
 40
1.0
  9
$DISPSILH
 70
     0
  9
$DIMSCALE
 40
1.0
  9
$DIMASZ
 40
2.5
  9
$DIMEXO
 40
1.0
  9
$DIMDLI
 40
3.75
  9
$DIMRND
 40
0.0
  9
$DIMDLE
 40
0.0
  9
$DIMEXE
 40
1.0
  9
$DIMTP
 40
0.0
  9
$DIMTM
 40
0.0
  9
$DIMTXT
 40
2.5
  9
$DIMCEN
 40
2.5
  9
$DIMTSZ
 40
0.0
  9
$DIMTOL
 70
     0
  9
$DIMLIM
 70
     0
  9
$DIMTIH
 70
     1
  9
$DIMTOH
 70
     1
  9
$DIMSE1
 70
     0
  9
$DIMSE2
 70
     0
  9
$DIMTAD
 70
     1
  9
$DIMZIN
 70
     0
  9
$DIMBLK
  1

  9
$DIMASO
 70
     1
  9
$DIMSHO
 70
     1
  9
$DIMPOST
  1

  9
$DIMAPOST
  1

  9
$DIMALT
 70
     0
  9
$DIMALTD
 70
     3
  9
$DIMALTF
 40
0.0393700787
  9
$DIMLFAC
 40
1.0
  9
$DIMTOFL
 70
     1
  9
$DIMTVP
 40
0.0
  9
$DIMTIX
 70
     0
  9
$DIMSOXD
 70
     0
  9
$DIMSAH
 70
     0
  9
$DIMBLK1
  1

  9
$DIMBLK2
  1

  9
$DIMSTYLE
  2
ISO-25
  9
$DIMCLRD
 70
     0
  9
$DIMCLRE
 70
     0
  9
$DIMCLRT
 70
     0
  9
$DIMTFAC
 40
1.0
  9
$DIMGAP
 40
1.524
  9
$DIMJUST
 70
     0
  9
$DIMSD1
 70
     0
  9
$DIMSD2
 70
     0
  9
$DIMTOLJ
 70
     0
  9
$DIMTZIN
 70
     0
  9
$DIMALTZ
 70
     0
  9
$DIMALTTZ
 70
     0
  9
$DIMUPT
 70
     0
  9
$DIMDEC
 70
     2
  9
$DIMTDEC
 70
     2
  9
$DIMALTU
 70
     2
  9
$DIMALTTD
 70
     3
  9
$DIMTXSTY
  7
Standard
  9
$DIMAUNIT
 70
     0
  9
$DIMADEC
 70
     2
  9
$DIMALTRND
 40
0.0
  9
$DIMAZIN
 70
     0
  9
$DIMDSEP
 70
    44
  9
$DIMATFIT
 70
     3
  9
$DIMFRAC
 70
     0
  9
$DIMLDRBLK
  1

  9
$DIMLUNIT
 70
     2
  9
$DIMLWD
 70
    -2
  9
$DIMLWE
 70
    -2
  9
$DIMTMOVE
 70
     0
  9
$LUNITS
 70
     2
  9
$LUPREC
 70
     2
  9
$SKETCHINC
 40
1.0
  9
$FILLETRAD
 40
10.0
  9
$AUNITS
 70
     0
  9
$AUPREC
 70
     2
  9
$MENU
  1
.
  9
$ELEVATION
 40
0.0
  9
$PELEVATION
 40
0.0
  9
$THICKNESS
 40
0.0
  9
$LIMCHECK
 70
     0
  9
$CHAMFERA
 40
10.0
  9
$CHAMFERB
 40
10.0
  9
$CHAMFERC
 40
20.0
  9
$CHAMFERD
 40
0.0
  9
$SKPOLY
 70
     0
  9
$TDCREATE
 40
2458052.436309768
  9
$TDUCREATE
 40
2458052.352976435
  9
$TDUPDATE
 40
2458052.436310857
  9
$TDUUPDATE
 40
2458052.352977523
  9
$TDINDWG
 40
0.0000000116
  9
$TDUSRTIMER
 40
0.0000000116
  9
$USRTIMER
 70
     1
  9
$ANGBASE
 50
0.0
  9
$ANGDIR
 70
     0
  9
$PDMODE
 70
     0
  9
$PDSIZE
 40
-1.0
  9
$PLINEWID
 40
0.0
  9
$SPLFRAME
 70
     0
  9
$SPLINETYPE
 70
     6
  9
$SPLINESEGS
 70
     8
  9
$HANDSEED
  5
3C4
  9
$SURFTAB1
 70
     6
  9
$SURFTAB2
 70
     6
  9
$SURFTYPE
 70
     6
  9
$SURFU
 70
     6
  9
$SURFV
 70
     6
  9
$UCSBASE
  2

  9
$UCSNAME
  2

  9
$UCSORG
 10
0.0
 20
0.0
 30
0.0
  9
$UCSXDIR
 10
1.0
 20
0.0
 30
0.0
  9
$UCSYDIR
 10
0.0
 20
1.0
 30
0.0
  9
$UCSORTHOREF
  2

  9
$UCSORTHOVIEW
 70
     0
  9
$UCSORGTOP
 10
0.0
 20
0.0
 30
0.0
  9
$UCSORGBOTTOM
 10
0.0
 20
0.0
 30
0.0
  9
$UCSORGLEFT
 10
0.0
 20
0.0
 30
0.0
  9
$UCSORGRIGHT
 10
0.0
 20
0.0
 30
0.0
  9
$UCSORGFRONT
 10
0.0
 20
0.0
 30
0.0
  9
$UCSORGBACK
 10
0.0
 20
0.0
 30
0.0
  9
$PUCSBASE
  2

  9
$PUCSNAME
  2

  9
$PUCSORG
 10
0.0
 20
0.0
 30
0.0
  9
$PUCSXDIR
 10
1.0
 20
0.0
 30
0.0
  9
$PUCSYDIR
 10
0.0
 20
1.0
 30
0.0
  9
$PUCSORTHOREF
  2

  9
$PUCSORTHOVIEW
 70
     0
  9
$PUCSORGTOP
 10
0.0
 20
0.0
 30
0.0
  9
$PUCSORGBOTTOM
 10
0.0
 20
0.0
 30
0.0
  9
$PUCSORGLEFT
 10
0.0
 20
0.0
 30
0.0
  9
$PUCSORGRIGHT
 10
0.0
 20
0.0
 30
0.0
  9
$PUCSORGFRONT
 10
0.0
 20
0.0
 30
0.0
  9
$PUCSORGBACK
 10
0.0
 20
0.0
 30
0.0
  9
$USERI1
 70
     0
  9
$USERI2
 70
     0
  9
$USERI3
 70
     0
  9
$USERI4
 70
     0
  9
$USERI5
 70
     0
  9
$USERR1
 40
0.0
  9
$USERR2
 40
0.0
  9
$USERR3
 40
0.0
  9
$USERR4
 40
0.0
  9
$USERR5
 40
0.0
  9
$WORLDVIEW
 70
     1
  9
$SHADEDGE
 70
     3
  9
$SHADEDIF
 70
    70
  9
$TILEMODE
 70
     1
  9
$MAXACTVP
 70
    64
  9
$PINSBASE
 10
0.0
 20
0.0
 30
0.0
  9
$PLIMCHECK
 70
     0
  9
$PEXTMIN
 10
1.0000000000E+20
 20
1.0000000000E+20
 30
1.0000000000E+20
  9
$PEXTMAX
 10
-1.0000000000E+20
 20
-1.0000000000E+20
 30
-1.0000000000E+20
  9
$PLIMMIN
 10
0.0
 20
0.0
  9
$PLIMMAX
 10
420.0
 20
297.0
  9
$UNITMODE
 70
     0
  9
$VISRETAIN
 70
     1
  9
$PLINEGEN
 70
     0
  9
$PSLTSCALE
 70
     1
  9
$TREEDEPTH
 70
  3020
  9
$CMLSTYLE
  2
Standard
  9
$CMLJUST
 70
     0
  9
$CMLSCALE
 40
20.0
  9
$PROXYGRAPHICS
 70
     1
  9
$MEASUREMENT
 70
     1
  9
$CELWEIGHT
370
    -1
  9
$ENDCAPS
280
     0
  9
$JOINSTYLE
280
     0
  9
$LWDISPLAY
290
     1
  9
$INSUNITS
 70
     4
  9
$HYPERLINKBASE
  1

  9
$STYLESHEET
  1

  9
$XEDIT
290
     1
  9
$CEPSNTYPE
380
     0
  9
$PSTYLEMODE
290
     1
  9
$FINGERPRINTGUID
  2
{FDB1822C-4B84-4E73-AD66-2CEB3E6BA114}
  9
$VERSIONGUID
  2
{FAEB1C32-E019-11D5-929B-00C0DF256EC4}
  9
$EXTNAMES
290
     1
  9
$PSVPSCALE
 40
0.0
  9
$OLESTARTUP
290
     0
  0
ENDSEC
  0
SECTION
  2
CLASSES
  0
CLASS
  1
ACDBDICTIONARYWDFLT
  2
AcDbDictionaryWithDefault
  3
ObjectDBX Classes
 90
        0
280
     0
281
     0
  0
CLASS
  1
VISUALSTYLE
  2
AcDbVisualStyle
  3
ObjectDBX Classes
 90
     4095
280
     0
281
     0
  0
CLASS
  1
MATERIAL
  2
AcDbMaterial
  3
ObjectDBX Classes
 90
     1153
280
     0
281
     0
  0
CLASS
  1
ACDBPLACEHOLDER
  2
AcDbPlaceHolder
  3
ObjectDBX Classes
 90
        0
280
     0
281
     0
  0
CLASS
  1
LAYOUT
  2
AcDbLayout
  3
ObjectDBX Classes
 90
        0
280
     0
281
     0
  0
ENDSEC
  0
SECTION
  2
TABLES
  0
TABLE
  2
VPORT
  5
8
330
0
100
AcDbSymbolTable
 70
     1
  0
VPORT
  5
29
330
8
100
AcDbSymbolTableRecord
100
AcDbViewportTableRecord
  2
*Active
 70
     0
 10
0.0
 20
0.0
 11
1.0
 21
1.0
 12
420.5
 22
297.0
 13
0.0
 23
0.0
 14
10.0
 24
10.0
 15
10.0
 25
10.0
 16
0.0
 26
0.0
 36
1.0
 17
0.0
 27
0.0
 37
0.0
 40
594.0
 41
1.4158249158
 42
50.0
 43
0.0
 44
0.0
 50
0.0
 51
0.0
 71
     0
 72
  2000
 73
     1
 74
     3
 75
     0
 76
     0
 77
     0
 78
     0
281
     0
 65
     1
110
0.0
120
0.0
130
0.0
111
1.0
121
0.0
131
0.0
112
0.0
122
1.0
132
0.0
 79
     0
146
0.0
  0
ENDTAB
  0
TABLE
  2
LTYPE
  5
5
330
0
100
AcDbSymbolTable
 70
     6
  0
LTYPE
  5
14
330
5
100
AcDbSymbolTableRecord
100
AcDbLinetypeTableRecord
  2
ByBlock
 70
     0
  3

 72
    65
 73
     0
 40
0.0
  0
LTYPE
  5
15
330
5
100
AcDbSymbolTableRecord
100
AcDbLinetypeTableRecord
  2
ByLayer
 70
     0
  3

 72
    65
 73
     0
 40
0.0
  0
LTYPE
  5
16
330
5
100
AcDbSymbolTableRecord
100
AcDbLinetypeTableRecord
  2
Continuous
 70
     0
  3
Solid line
 72
    65
 73
     0
 40
0.0
  0
LTYPE
  5
3F
330
5
100
AcDbSymbolTableRecord
100
AcDbLinetypeTableRecord
  2
HIDDEN
 70
     0
  3
Hidden __ __ __ __ __ __ __ __ __ __ __ __ __ __
 72
    65
 73
     2
 40
1.905
 49
1.27
 74
     0
 49
-0.635
 74
     0
  0
LTYPE
  5
40
330
5
100
AcDbSymbolTableRecord
100
AcDbLinetypeTableRecord
  2
PHANTOM
 70
     0
  3
Phantom ______  __  __  ______  __  __  ______
 72
    65
 73
     6
 40
12.7
 49
6.35
 74
     0
 49
-1.27
 74
     0
 49
1.27
 74
     0
 49
-1.27
 74
     0
 49
1.27
 74
     0
 49
-1.27
 74
     0
  0
LTYPE
  5
41
330
5
100
AcDbSymbolTableRecord
100
AcDbLinetypeTableRecord
  2
CENTER
 70
     0
  3
Center ____ _ ____ _ ____ _ ____ _ ____ _ ____
 72
    65
 73
     4
 40
10.16
 49
6.35
 74
     0
 49
-1.27
 74
     0
 49
1.27
 74
     0
 49
-1.27
 74
     0
  0
LTYPE
  5
42
330
5
100
AcDbSymbolTableRecord
100
AcDbLinetypeTableRecord
  2
CENTERX2
 70
     0
  3
Center (2x) ________  __  ________  __  _____
 72
    65
 73
     4
 40
20.32
 49
12.7
 74
     0
 49
-2.54
 74
     0
 49
2.54
 74
     0
 49
-2.54
 74
     0
  0
LTYPE
  5
43
330
5
100
AcDbSymbolTableRecord
100
AcDbLinetypeTableRecord
  2
DOT2
 70
     0
  3
Dot (.5x) ........................................
 72
    65
 73
     2
 40
0.635
 49
0.0
 74
     0
 49
-0.635
 74
     0
  0
ENDTAB
  0
TABLE
  2
LAYER
  5
2
330
0
100
AcDbSymbolTable
 70
     3
  0
LAYER
  5
10
330
2
100
AcDbSymbolTableRecord
100
AcDbLayerTableRecord
  2
0
 70
     0
 62
     7
  6
Continuous
370
    -3
390
F
  0
LAYER
  5
44
330
2
100
AcDbSymbolTableRecord
100
AcDbLayerTableRecord
  2
FORMAT
 70
     0
 62
     7
  6
Continuous
370
    -3
390
F
  0
LAYER
  5
45
330
2
100
AcDbSymbolTableRecord
100
AcDbLayerTableRecord
  2
PROTOTYPE
 70
     0
 62
     7
  6
Continuous
370
    -3
390
F
  0
ENDTAB
  0
TABLE
  2
STYLE
  5
3
330
0
100
AcDbSymbolTable
 70
     1
  0
STYLE
  5
11
330
3
100
AcDbSymbolTableRecord
100
AcDbTextStyleTableRecord
  2
Standard
 70
     0
 40
0.0
 41
1.0
 50
0.0
 71
     0
 42
2.5
  3
txt
  4

  0
ENDTAB
  0
TABLE
  2
VIEW
  5
6
330
0
100
AcDbSymbolTable
 70
     0
  0
ENDTAB
  0
TABLE
  2
UCS
  5
7
330
0
100
AcDbSymbolTable
 70
     0
  0
ENDTAB
  0
TABLE
  2
APPID
  5
9
330
0
100
AcDbSymbolTable
 70
     1
  0
APPID
  5
12
330
9
100
AcDbSymbolTableRecord
100
AcDbRegAppTableRecord
  2
ACAD
 70
     0
  0
ENDTAB
  0
TABLE
  2
DIMSTYLE
  5
A
330
0
100
AcDbSymbolTable
 70
     1
100
AcDbDimStyleTable
  0
DIMSTYLE
105
27
330
A
100
AcDbSymbolTableRecord
100
AcDbDimStyleTableRecord
  2
ISO-25
 70
     0
 41
2.5
 42
0.625
 43
3.75
 44
1.25
 73
     0
 74
     0
 77
     1
 78
     8
140
2.5
141
2.5
143
0.0393700787
147
0.625
171
     3
172
     1
178
     0
271
     2
272
     2
274
     3
278
    44
283
     0
284
     8
340
11
  0
ENDTAB
  0
TABLE
  2
BLOCK_RECORD
  5
1
330
0
100
AcDbSymbolTable
 70
     2
  0
BLOCK_RECORD
  5
1F
330
1
100
AcDbSymbolTableRecord
100
AcDbBlockTableRecord
  2
*Model_Space
340
22
  0
BLOCK_RECORD
  5
1B
330
1
100
AcDbSymbolTableRecord
100
AcDbBlockTableRecord
  2
*Paper_Space
340
1E
  0
BLOCK_RECORD
  5
23
330
1
100
AcDbSymbolTableRecord
100
AcDbBlockTableRecord
  2
*Paper_Space0
340
26
  0
BLOCK_RECORD
  5
26B
330
1
100
AcDbSymbolTableRecord
100
AcDbBlockTableRecord
  2
SW_CENTERMARKSYMBOL_0
340
0
102
{BLKREFS
331
276
102
}
  0
ENDTAB
  0
ENDSEC
  0
SECTION
  2
BLOCKS
  0
BLOCK
  5
20
330
1F
100
AcDbEntity
  8
0
100
AcDbBlockBegin
  2
*Model_Space
 70
     0
 10
0.0
 20
0.0
 30
0.0
  3
*Model_Space
  1

  0
ENDBLK
  5
21
330
1F
100
AcDbEntity
  8
0
100
AcDbBlockEnd
  0
BLOCK
  5
1C
330
1B
100
AcDbEntity
 67
     1
  8
0
100
AcDbBlockBegin
  2
*Paper_Space
 70
     0
 10
0.0
 20
0.0
 30
0.0
  3
*Paper_Space
  1

  0
ENDBLK
  5
1D
330
1B
100
AcDbEntity
 67
     1
  8
0
100
AcDbBlockEnd
  0
BLOCK
  5
24
330
23
100
AcDbEntity
  8
0
100
AcDbBlockBegin
  2
*Paper_Space0
 70
     0
 10
0.0
 20
0.0
 30
0.0
  3
*Paper_Space0
  1

  0
ENDBLK
  5
25
330
23
100
AcDbEntity
  8
0
100
AcDbBlockEnd
  0
BLOCK
  5
26C
330
26B
100
AcDbEntity
  8
0
100
AcDbBlockBegin
  2
SW_CENTERMARKSYMBOL_0
 70
     0
 10
0.0
 20
0.0
 30
0.0
  3
SW_CENTERMARKSYMBOL_0
  1

  0
LINE
  5
26E
330
26B
100
AcDbEntity
  8
FORMAT
 62
     0
100
AcDbLine
 10
0.0
 20
0.0
 30
0.0
 11
0.0
 21
2.5
 31
0.0
  0
LINE
  5
26F
330
26B
100
AcDbEntity
  8
FORMAT
 62
     0
100
AcDbLine
 10
0.0
 20
0.0
 30
0.0
 11
-2.5
 21
0.0
 31
0.0
  0
LINE
  5
270
330
26B
100
AcDbEntity
  8
FORMAT
 62
     0
100
AcDbLine
 10
0.0
 20
0.0
 30
0.0
 11
0.0
 21
-2.5
 31
0.0
  0
LINE
  5
271
330
26B
100
AcDbEntity
  8
FORMAT
 62
     0
100
AcDbLine
 10
0.0
 20
0.0
 30
0.0
 11
2.5
 21
0.0
 31
0.0
  0
LINE
  5
272
330
26B
100
AcDbEntity
  8
FORMAT
 62
     0
100
AcDbLine
 10
0.0
 20
5.0
 30
0.0
 11
0.0
 21
112.5
 31
0.0
  0
LINE
  5
273
330
26B
100
AcDbEntity
  8
FORMAT
 62
     0
100
AcDbLine
 10
-5.0
 20
0.0
 30
0.0
 11
-112.5
 21
0.0
 31
0.0
  0
LINE
  5
274
330
26B
100
AcDbEntity
  8
FORMAT
 62
     0
100
AcDbLine
 10
0.0
 20
-5.0
 30
0.0
 11
0.0
 21
-112.5
 31
0.0
  0
LINE
  5
275
330
26B
100
AcDbEntity
  8
FORMAT
 62
     0
100
AcDbLine
 10
5.0
 20
0.0
 30
0.0
 11
112.5
 21
0.0
 31
0.0
  0
ENDBLK
  5
26D
330
26B
100
AcDbEntity
  8
0
100
AcDbBlockEnd
  0
ENDSEC
  0
SECTION
  2
ENTITIES
  0
LINE
  5
46
330
1F
100
AcDbEntity
  8
0
  6
Continuous
 62
     7
370
    15
100
AcDbLine
 10
609.3551081626
 20
398.3236452603
 30
0.0
 11
629.3551077155
 21
398.3236452603
 31
0.0
  0
LINE
  5
47
330
1F
100
AcDbEntity
  8
0
  6
Continuous
 62
     7
370
    15
100
AcDbLine
 10
629.3551077155
 20
618.323640343
 30
0.0
 11
609.3551081626
 21
618.323640343
 31
0.0
  0
LINE
  5
48
330
1F
100
AcDbEntity
  8
0
  6
Continuous
 62
     7
370
    15
100
AcDbLine
 10
527.2069809047
 20
398.3236452603
 30
0.0
 11
546.2069821564
 21
398.3236452603
 31
0.0
  0
LINE
  5
49
330
1F
100
AcDbEntity
  8
0
  6
Continuous
 62
     7
370
    15
100
AcDbLine
 10
546.2069821564
 20
618.323640343
 30
0.0
 11
527.2069809047
 21
618.323640343
 31
0.0
  0
LINE
  5
4A
330
1F
100
AcDbEntity
  8
0
  6
Continuous
 62
     7
370
    15
100
AcDbLine
 10
727.2069801597
 20
618.323640343
 30
0.0
 11
708.206978908
 21
618.323640343
 31
0.0
  0
LINE
  5
4B
330
1F
100
AcDbEntity
  8
0
  6
Continuous
 62
     7
370
    15
100
AcDbLine
 10
708.206978908
 20
398.3236452603
 30
0.0
 11
727.2069801597
 21
398.3236452603
 31
0.0
  0
LINE
  5
4C
330
1F
100
AcDbEntity
  8
0
  6
Continuous
 62
     7
370
    15
100
AcDbLine
 10
727.2069801597
 20
456.6321379078
 30
0.0
 11
729.2069842128
 21
456.6321379078
 31
0.0
  0
LINE
  5
4D
330
1F
100
AcDbEntity
  8
0
  6
Continuous
 62
     7
370
    15
100
AcDbLine
 10
729.2069842128
 20
491.132137742
 30
0.0
 11
727.2069801597
 21
491.132137742
 31
0.0
  0
LINE
  5
4E
330
1F
100
AcDbEntity
  8
0
  6
Continuous
 62
     7
370
    15
100
AcDbLine
 10
527.2069809047
 20
491.132137742
 30
0.0
 11
525.2069805769
 21
491.132137742
 31
0.0
  0
LINE
  5
4F
330
1F
100
AcDbEntity
  8
0
  6
Continuous
 62
     7
370
    15
100
AcDbLine
 10
525.2069805769
 20
456.6321379078
 30
0.0
 11
527.2069809047
 21
456.6321379078
 31
0.0
  0
LINE
  5
50
330
1F
100
AcDbEntity
  8
0
  6
Continuous
 62
     7
370
    15
100
AcDbLine
 10
727.2069801597
 20
525.5151553118
 30
0.0
 11
729.2069842128
 21
525.5151553118
 31
0.0
  0
LINE
  5
51
330
1F
100
AcDbEntity
  8
0
  6
Continuous
 62
     7
370
    15
100
AcDbLine
 10
729.2069842128
 20
560.0151581728
 30
0.0
 11
727.2069801597
 21
560.0151581728
 31
0.0
  0
LINE
  5
52
330
1F
100
AcDbEntity
  8
0
  6
Continuous
 62
     7
370
    15
100
AcDbLine
 10
527.2069809047
 20
560.0151581728
 30
0.0
 11
525.2069805769
 21
560.0151581728
 31
0.0
  0
LINE
  5
53
330
1F
100
AcDbEntity
  8
0
  6
Continuous
 62
     7
370
    15
100
AcDbLine
 10
525.2069805769
 20
525.5151553118
 30
0.0
 11
527.2069809047
 21
525.5151553118
 31
0.0
  0
LINE
  5
54
330
1F
100
AcDbEntity
  8
0
  6
Continuous
 62
     7
370
    15
100
AcDbLine
 10
743.0807103423
 20
461.6634211542
 30
0.0
 11
743.2069827823
 21
461.882137837
 31
0.0
  0
LINE
  5
55
330
1F
100
AcDbEntity
  8
0
  6
Continuous
 62
     7
370
    15
100
AcDbLine
 10
511.2069820074
 20
461.882137837
 30
0.0
 11
511.4529107718
 21
461.4561802281
 31
0.0
  0
LINE
  5
56
330
1F
100
AcDbEntity
  8
0
  6
Continuous
 62
     7
370
    15
100
AcDbLine
 10
792.2069777755
 20
481.8821376228
 30
0.0
 11
743.2069827823
 21
481.8821376228
 31
0.0
  0
LINE
  5
57
330
1F
100
AcDbEntity
  8
0
  6
Continuous
 62
     7
370
    15
100
AcDbLine
 10
743.2069827823
 20
465.8821377942
 30
0.0
 11
792.2069777755
 21
465.8821377942
 31
0.0
  0
LINE
  5
58
330
1F
100
AcDbEntity
  8
0
  6
Continuous
 62
     7
370
    15
100
AcDbLine
 10
511.2069820074
 20
481.8821376228
 30
0.0
 11
462.2069795636
 21
481.8821376228
 31
0.0
  0
LINE
  5
59
330
1F
100
AcDbEntity
  8
0
  6
Continuous
 62
     7
370
    15
100
AcDbLine
 10
462.2069795636
 20
465.8821377942
 30
0.0
 11
511.2069820074
 21
465.8821377942
 31
0.0
  0
LINE
  5
5A
330
1F
100
AcDbEntity
  8
0
  6
Continuous
 62
     7
370
    15
100
AcDbLine
 10
708.206978908
 20
481.8821376228
 30
0.0
 11
629.3551077155
 21
481.8821376228
 31
0.0
  0
LINE
  5
5B
330
1F
100
AcDbEntity
  8
0
  6
Continuous
 62
     7
370
    15
100
AcDbLine
 10
629.3551077155
 20
465.8821377942
 30
0.0
 11
708.206978908
 21
465.8821377942
 31
0.0
  0
LINE
  5
5C
330
1F
100
AcDbEntity
  8
0
  6
Continuous
 62
     7
370
    15
100
AcDbLine
 10
609.3551081626
 20
481.8821376228
 30
0.0
 11
546.2069821564
 21
481.8821376228
 31
0.0
  0
LINE
  5
5D
330
1F
100
AcDbEntity
  8
0
  6
Continuous
 62
     7
370
    15
100
AcDbLine
 10
546.2069821564
 20
465.8821377942
 30
0.0
 11
609.3551081626
 21
465.8821377942
 31
0.0
  0
LINE
  5
5E
330
1F
100
AcDbEntity
  8
0
  6
Continuous
 62
     7
370
    15
100
AcDbLine
 10
708.206978908
 20
550.7651580536
 30
0.0
 11
629.3551077155
 21
550.7651580536
 31
0.0
  0
LINE
  5
5F
330
1F
100
AcDbEntity
  8
0
  6
Continuous
 62
     7
370
    15
100
AcDbLine
 10
629.3551077155
 20
534.765155431
 30
0.0
 11
708.206978908
 21
534.765155431
 31
0.0
  0
LINE
  5
60
330
1F
100
AcDbEntity
  8
0
  6
Continuous
 62
     7
370
    15
100
AcDbLine
 10
511.2069820074
 20
550.7651580536
 30
0.0
 11
462.2069795636
 21
550.7651580536
 31
0.0
  0
LINE
  5
61
330
1F
100
AcDbEntity
  8
0
  6
Continuous
 62
     7
370
    15
100
AcDbLine
 10
462.2069795636
 20
534.765155431
 30
0.0
 11
511.2069820074
 21
534.765155431
 31
0.0
  0
LINE
  5
62
330
1F
100
AcDbEntity
  8
0
  6
Continuous
 62
     7
370
    15
100
AcDbLine
 10
792.2069777755
 20
550.7651580536
 30
0.0
 11
743.2069827823
 21
550.7651580536
 31
0.0
  0
LINE
  5
63
330
1F
100
AcDbEntity
  8
0
  6
Continuous
 62
     7
370
    15
100
AcDbLine
 10
743.2069827823
 20
534.765155431
 30
0.0
 11
792.2069777755
 21
534.765155431
 31
0.0
  0
LINE
  5
64
330
1F
100
AcDbEntity
  8
0
  6
Continuous
 62
     7
370
    15
100
AcDbLine
 10
609.3551081626
 20
550.7651580536
 30
0.0
 11
546.2069821564
 21
550.7651580536
 31
0.0
  0
LINE
  5
65
330
1F
100
AcDbEntity
  8
0
  6
Continuous
 62
     7
370
    15
100
AcDbLine
 10
546.2069821564
 20
534.765155431
 30
0.0
 11
609.3551081626
 21
534.765155431
 31
0.0
  0
LINE
  5
66
330
1F
100
AcDbEntity
  8
0
  6
Continuous
 62
     7
370
    15
100
AcDbLine
 10
742.4412866143
 20
529.4389290774
 30
0.0
 11
743.2069827823
 21
530.7651547754
 31
0.0
  0
LINE
  5
67
330
1F
100
AcDbEntity
  8
0
  6
Continuous
 62
     7
370
    15
100
AcDbLine
 10
511.2069820074
 20
530.7651547754
 30
0.0
 11
512.2787778286
 21
528.9087457621
 31
0.0
  0
LINE
  5
68
330
1F
100
AcDbEntity
  8
0
  6
Continuous
 62
     7
370
    15
100
AcDbLine
 10
512.2787778286
 20
556.621560272
 30
0.0
 11
511.2069820074
 21
554.7651587093
 31
0.0
  0
LINE
  5
69
330
1F
100
AcDbEntity
  8
0
  6
Continuous
 62
     7
370
    15
100
AcDbLine
 10
743.2069827823
 20
554.7651587093
 30
0.0
 11
742.4412866143
 21
556.0913844073
 31
0.0
  0
LINE
  5
6A
330
1F
100
AcDbEntity
  8
0
  6
Continuous
 62
     7
370
    15
100
AcDbLine
 10
511.4529107718
 20
486.3080954218
 30
0.0
 11
511.2069820074
 21
485.8821382785
 31
0.0
  0
LINE
  5
6B
330
1F
100
AcDbEntity
  8
0
  6
Continuous
 62
     7
370
    15
100
AcDbLine
 10
743.2069827823
 20
485.8821382785
 30
0.0
 11
743.0809189586
 21
486.1004868561
 31
0.0
  0
LINE
  5
6C
330
1F
100
AcDbEntity
  8
0
  6
Continuous
 62
     7
370
    15
100
AcDbLine
 10
599.0184324814
 20
583.4728045428
 30
0.0
 11
589.7320367416
 21
572.4057121241
 31
0.0
  0
LINE
  5
6D
330
1F
100
AcDbEntity
  8
0
  6
Continuous
 62
     7
370
    15
100
AcDbLine
 10
589.7320367416
 20
444.241584655
 30
0.0
 11
599.0184324814
 21
433.1744885111
 31
0.0
  0
LINE
  5
6E
330
1F
100
AcDbEntity
  8
0
  6
Continuous
 62
     7
370
    15
100
AcDbLine
 10
607.2069828419
 20
433.1744885111
 30
0.0
 11
607.2069828419
 21
465.8821377942
 31
0.0
  0
LINE
  5
6F
330
1F
100
AcDbEntity
  8
0
  6
Continuous
 62
     7
370
    15
100
AcDbLine
 10
607.2069828419
 20
481.8821376228
 30
0.0
 11
607.2069828419
 21
534.765155431
 31
0.0
  0
LINE
  5
70
330
1F
100
AcDbEntity
  8
0
  6
Continuous
 62
     7
370
    15
100
AcDbLine
 10
607.2069828419
 20
550.7651580536
 30
0.0
 11
607.2069828419
 21
583.4728045428
 31
0.0
  0
LWPOLYLINE
  5
71
330
1F
100
AcDbEntity
  8
0
  6
Continuous
 62
     7
370
    15
100
AcDbPolyline
 90
        3
 70
   128
 43
0.0
 10
608.0973346738
 20
583.4728045428
 10
607.5514660237
 20
583.2339240277
 10
607.2069828419
 20
583.0715684259
  0
LWPOLYLINE
  5
72
330
1F
100
AcDbEntity
  8
0
  6
Continuous
 62
     7
370
    15
100
AcDbPolyline
 90
        3
 70
   128
 43
0.0
 10
607.2069828419
 20
433.575724628
 10
607.5514660237
 20
433.4133727515
 10
608.0973346738
 20
433.1744885111
  0
LINE
  5
73
330
1F
100
AcDbEntity
  8
0
  6
Continuous
 62
     7
370
    15
100
AcDbLine
 10
546.2069821564
 20
442.7216569001
 30
0.0
 11
589.7320367416
 21
444.241584655
 31
0.0
  0
LINE
  5
74
330
1F
100
AcDbEntity
  8
0
  6
Continuous
 62
     7
370
    15
100
AcDbLine
 10
589.7320367416
 20
572.4057121241
 30
0.0
 11
546.2069821564
 21
573.9256380165
 31
0.0
  0
LINE
  5
75
330
1F
100
AcDbEntity
  8
0
  6
Continuous
 62
     7
370
    15
100
AcDbLine
 10
708.206978908
 20
563.8236491048
 30
0.0
 11
629.3551077155
 21
563.8236491048
 31
0.0
  0
LINE
  5
76
330
1F
100
AcDbEntity
  8
0
  6
Continuous
 62
     7
370
    15
100
AcDbLine
 10
629.3551077155
 20
452.823646743
 30
0.0
 11
708.206978908
 21
452.823646743
 31
0.0
  0
LINE
  5
77
330
1F
100
AcDbEntity
  8
0
  6
Continuous
 62
     7
370
    15
100
AcDbLine
 10
527.2069809047
 20
442.4244886303
 30
0.0
 11
525.2069805769
 21
442.4244886303
 31
0.0
  0
LINE
  5
78
330
1F
100
AcDbEntity
  8
0
  6
Continuous
 62
     7
370
    15
100
AcDbLine
 10
525.2069805769
 20
407.9244894946
 30
0.0
 11
527.2069809047
 21
407.9244894946
 31
0.0
  0
LINE
  5
79
330
1F
100
AcDbEntity
  8
0
  6
Continuous
 62
     7
370
    15
100
AcDbLine
 10
727.2069801597
 20
407.9244894946
 30
0.0
 11
729.2069842128
 21
407.9244894946
 31
0.0
  0
LINE
  5
7A
330
1F
100
AcDbEntity
  8
0
  6
Continuous
 62
     7
370
    15
100
AcDbLine
 10
729.2069842128
 20
442.4244886303
 30
0.0
 11
727.2069801597
 21
442.4244886303
 31
0.0
  0
LINE
  5
7B
330
1F
100
AcDbEntity
  8
0
  6
Continuous
 62
     7
370
    15
100
AcDbLine
 10
727.2069801597
 20
574.2228044236
 30
0.0
 11
729.2069842128
 21
574.2228044236
 31
0.0
  0
LINE
  5
7C
330
1F
100
AcDbEntity
  8
0
  6
Continuous
 62
     7
370
    15
100
AcDbLine
 10
729.2069842128
 20
608.7228072846
 30
0.0
 11
727.2069801597
 21
608.7228072846
 31
0.0
  0
LINE
  5
7D
330
1F
100
AcDbEntity
  8
0
  6
Continuous
 62
     7
370
    15
100
AcDbLine
 10
527.2069809047
 20
608.7228072846
 30
0.0
 11
525.2069805769
 21
608.7228072846
 31
0.0
  0
LINE
  5
7E
330
1F
100
AcDbEntity
  8
0
  6
Continuous
 62
     7
370
    15
100
AcDbLine
 10
525.2069805769
 20
574.2228044236
 30
0.0
 11
527.2069809047
 21
574.2228044236
 31
0.0
  0
LINE
  5
7F
330
1F
100
AcDbEntity
  8
0
  6
Continuous
 62
     7
370
    15
100
AcDbLine
 10
743.2069827823
 20
437.1744891667
 30
0.0
 11
743.186434081
 21
437.2100731397
 31
0.0
  0
LINE
  5
80
330
1F
100
AcDbEntity
  8
0
  6
Continuous
 62
     7
370
    15
100
AcDbLine
 10
511.4529554753
 20
603.8988543713
 30
0.0
 11
511.2069820074
 21
603.4728003705
 31
0.0
  0
LINE
  5
81
330
1F
100
AcDbEntity
  8
0
  6
Continuous
 62
     7
370
    15
100
AcDbLine
 10
511.2069820074
 20
433.1744885111
 30
0.0
 11
462.2069795636
 21
433.1744885111
 31
0.0
  0
LINE
  5
82
330
1F
100
AcDbEntity
  8
0
  6
Continuous
 62
     7
370
    15
100
AcDbLine
 10
462.2069795636
 20
417.1744896138
 30
0.0
 11
511.2069820074
 21
417.1744896138
 31
0.0
  0
LINE
  5
83
330
1F
100
AcDbEntity
  8
0
  6
Continuous
 62
     7
370
    15
100
AcDbLine
 10
609.3551081626
 20
433.1744885111
 30
0.0
 11
546.2069821564
 21
433.1744885111
 31
0.0
  0
LINE
  5
84
330
1F
100
AcDbEntity
  8
0
  6
Continuous
 62
     7
370
    15
100
AcDbLine
 10
546.2069821564
 20
417.1744896138
 30
0.0
 11
609.3551081626
 21
417.1744896138
 31
0.0
  0
LINE
  5
85
330
1F
100
AcDbEntity
  8
0
  6
Continuous
 62
     7
370
    15
100
AcDbLine
 10
792.2069777755
 20
433.1744885111
 30
0.0
 11
743.2069827823
 21
433.1744885111
 31
0.0
  0
LINE
  5
86
330
1F
100
AcDbEntity
  8
0
  6
Continuous
 62
     7
370
    15
100
AcDbLine
 10
743.2069827823
 20
417.1744896138
 30
0.0
 11
792.2069777755
 21
417.1744896138
 31
0.0
  0
LINE
  5
87
330
1F
100
AcDbEntity
  8
0
  6
Continuous
 62
     7
370
    15
100
AcDbLine
 10
708.206978908
 20
433.1744885111
 30
0.0
 11
629.3551077155
 21
433.1744885111
 31
0.0
  0
LINE
  5
88
330
1F
100
AcDbEntity
  8
0
  6
Continuous
 62
     7
370
    15
100
AcDbLine
 10
629.3551077155
 20
417.1744896138
 30
0.0
 11
708.206978908
 21
417.1744896138
 31
0.0
  0
LINE
  5
89
330
1F
100
AcDbEntity
  8
0
  6
Continuous
 62
     7
370
    15
100
AcDbLine
 10
609.3551081626
 20
599.4728071654
 30
0.0
 11
546.2069821564
 21
599.4728071654
 31
0.0
  0
LINE
  5
8A
330
1F
100
AcDbEntity
  8
0
  6
Continuous
 62
     7
370
    15
100
AcDbLine
 10
546.2069821564
 20
583.4728045428
 30
0.0
 11
609.3551081626
 21
583.4728045428
 31
0.0
  0
LINE
  5
8B
330
1F
100
AcDbEntity
  8
0
  6
Continuous
 62
     7
370
    15
100
AcDbLine
 10
511.2069820074
 20
599.4728071654
 30
0.0
 11
462.2069795636
 21
599.4728071654
 31
0.0
  0
LINE
  5
8C
330
1F
100
AcDbEntity
  8
0
  6
Continuous
 62
     7
370
    15
100
AcDbLine
 10
462.2069795636
 20
583.4728045428
 30
0.0
 11
511.2069820074
 21
583.4728045428
 31
0.0
  0
LINE
  5
8D
330
1F
100
AcDbEntity
  8
0
  6
Continuous
 62
     7
370
    15
100
AcDbLine
 10
792.2069777755
 20
599.4728071654
 30
0.0
 11
743.2069827823
 21
599.4728071654
 31
0.0
  0
LINE
  5
8E
330
1F
100
AcDbEntity
  8
0
  6
Continuous
 62
     7
370
    15
100
AcDbLine
 10
743.2069827823
 20
583.4728045428
 30
0.0
 11
792.2069777755
 21
583.4728045428
 31
0.0
  0
LINE
  5
8F
330
1F
100
AcDbEntity
  8
0
  6
Continuous
 62
     7
370
    15
100
AcDbLine
 10
708.206978908
 20
599.4728071654
 30
0.0
 11
629.3551077155
 21
599.4728071654
 31
0.0
  0
LINE
  5
90
330
1F
100
AcDbEntity
  8
0
  6
Continuous
 62
     7
370
    15
100
AcDbLine
 10
629.3551077155
 20
583.4728045428
 30
0.0
 11
708.206978908
 21
583.4728045428
 31
0.0
  0
LINE
  5
91
330
1F
100
AcDbEntity
  8
0
  6
Continuous
 62
     7
370
    15
100
AcDbLine
 10
743.2069827823
 20
603.4728003705
 30
0.0
 11
742.7960981635
 21
604.1844649279
 31
0.0
  0
LINE
  5
92
330
1F
100
AcDbEntity
  8
0
  6
Continuous
 62
     7
370
    15
100
AcDbLine
 10
742.7960981635
 20
578.7611393297
 30
0.0
 11
743.2069827823
 21
579.4728038871
 31
0.0
  0
LINE
  5
93
330
1F
100
AcDbEntity
  8
0
  6
Continuous
 62
     7
370
    15
100
AcDbLine
 10
511.2069820074
 20
579.4728038871
 30
0.0
 11
511.4529554753
 21
579.0467647874
 31
0.0
  0
LINE
  5
94
330
1F
100
AcDbEntity
  8
0
  6
Continuous
 62
     7
370
    15
100
AcDbLine
 10
743.186434081
 20
413.1389049852
 30
0.0
 11
743.2069827823
 21
413.1744889581
 31
0.0
  0
LINE
  5
95
330
1F
100
AcDbEntity
  8
0
  6
Continuous
 62
     7
370
    15
100
AcDbLine
 10
511.4529554753
 20
437.6005319917
 30
0.0
 11
511.2069820074
 21
437.1744891667
 31
0.0
  0
LINE
  5
96
330
1F
100
AcDbEntity
  8
0
  6
Continuous
 62
     7
370
    15
100
AcDbLine
 10
743.186434081
 20
437.2100731397
 30
0.0
 11
742.7960981635
 21
437.8861537242
 31
0.0
  0
LINE
  5
97
330
1F
100
AcDbEntity
  8
0
  6
Continuous
 62
     7
370
    15
100
AcDbLine
 10
742.7960981635
 20
412.4628244007
 30
0.0
 11
743.1808163432
 21
413.1291596258
 31
0.0
  0
LINE
  5
98
330
1F
100
AcDbEntity
  8
0
  6
Continuous
 62
     7
370
    15
100
AcDbLine
 10
511.2069820074
 20
413.1744889581
 30
0.0
 11
511.4529554753
 21
412.7484461331
 31
0.0
  0
LINE
  5
99
330
1F
100
AcDbEntity
  8
0
  6
Continuous
 62
     7
370
    15
100
AcDbLine
 10
742.4412866143
 20
460.5559116734
 30
0.0
 11
743.0807103423
 21
461.6634211542
 31
0.0
  0
LINE
  5
9A
330
1F
100
AcDbEntity
  8
0
  6
Continuous
 62
     7
370
    15
100
AcDbLine
 10
512.2787778286
 20
487.7385435665
 30
0.0
 11
511.476178935
 21
486.3484067881
 31
0.0
  0
LINE
  5
9B
330
1F
100
AcDbEntity
  8
0
  6
Continuous
 62
     7
370
    15
100
AcDbLine
 10
511.4529107718
 20
461.4561802281
 30
0.0
 11
512.2787778286
 21
460.0257313267
 31
0.0
  0
LINE
  5
9C
330
1F
100
AcDbEntity
  8
0
  6
Continuous
 62
     7
370
    15
100
AcDbLine
 10
743.0651237277
 20
486.1278528386
 30
0.0
 11
742.4412866143
 21
487.2083639765
 31
0.0
  0
LINE
  5
9D
330
1F
100
AcDbEntity
  8
0
  6
Continuous
 62
     7
370
    15
100
AcDbLine
 10
539.1926963834
 20
491.1236478055
 30
0.0
 11
539.1926963834
 21
489.1001353079
 31
0.0
  0
LINE
  5
9E
330
1F
100
AcDbEntity
  8
0
  6
Continuous
 62
     7
370
    15
100
AcDbLine
 10
541.2498389391
 20
491.1236478055
 30
0.0
 11
539.1926963834
 21
491.1236478055
 31
0.0
  0
LINE
  5
9F
330
1F
100
AcDbEntity
  8
0
  6
Continuous
 62
     7
370
    15
100
AcDbLine
 10
541.2498389391
 20
485.2717047596
 30
0.0
 11
541.2498389391
 21
491.1236478055
 31
0.0
  0
SPLINE
  5
A0
330
1F
100
AcDbEntity
  8
0
  6
Continuous
 62
     7
370
    15
100
AcDbSpline
210
0.0
220
0.0
230
1.0
 70
     8
 71
     3
 72
    10
 73
     6
 74
     0
 42
0.00000001
 43
0.00000001
 12
1.0
 22
0.0
 32
0.0
 13
1.0
 23
0.0
 33
0.0
 40
0.0
 40
0.0
 40
0.0
 40
0.0
 40
0.3282293392669081
 40
0.6615626093391647
 40
1.0
 40
1.0
 40
1.0
 40
1.0
 10
533.9212678231146
 20
482.287929291631
 30
0.0
 10
534.7227767233268
 20
482.6142574553512
 30
0.0
 10
536.3382579006562
 20
483.2719881505223
 30
0.0
 10
538.7811269816287
 20
484.266584856091
 30
0.0
 10
540.422777402577
 20
484.9349720156833
 30
0.0
 10
541.249839251686
 20
485.2717048018351
 30
0.0
  0
LINE
  5
A1
330
1F
100
AcDbEntity
  8
0
  6
Continuous
 62
     7
370
    15
100
AcDbLine
 10
533.9212690501
 20
484.5923310185
 30
0.0
 11
533.9212690501
 21
482.2879297698
 31
0.0
  0
LINE
  5
A2
330
1F
100
AcDbEntity
  8
0
  6
Continuous
 62
     7
370
    15
100
AcDbLine
 10
535.0526955931
 20
485.052983653
 30
0.0
 11
533.9212690501
 21
484.5923310185
 31
0.0
  0
LINE
  5
A3
330
1F
100
AcDbEntity
  8
0
  6
Continuous
 62
     7
370
    15
100
AcDbLine
 10
535.0526955931
 20
488.4032024109
 30
0.0
 11
535.0526955931
 21
485.052983653
 31
0.0
  0
LINE
  5
A4
330
1F
100
AcDbEntity
  8
0
  6
Continuous
 62
     7
370
    15
100
AcDbLine
 10
533.9212690501
 20
488.837517243
 30
0.0
 11
535.0526955931
 21
488.4032024109
 31
0.0
  0
SPLINE
  5
A5
330
1F
100
AcDbEntity
  8
0
  6
Continuous
 62
     7
370
    15
100
AcDbSpline
210
0.0
220
0.0
230
1.0
 70
    24
 71
     3
 72
     9
 73
     5
 74
     0
 42
0.00000001
 43
0.00000001
 12
1.0
 22
0.0
 32
0.0
 13
1.0
 23
0.0
 33
0.0
 40
0.0
 40
0.0
 40
0.0
 40
0.0
 40
0.5001911612749065
 40
1.0
 40
1.0
 40
1.0
 40
1.0
 10
537.0069821088289
 20
487.8733723419789
 30
0.0
 10
537.4337939909781
 20
487.7095346106961
 30
0.0
 10
538.2870915203895
 20
487.3819843779705
 30
0.0
 10
539.1402394248832
 20
487.0544915808695
 30
0.0
 10
539.5666502882889
 20
486.8908077862596
 30
0.0
  0
LINE
  5
A6
330
1F
100
AcDbEntity
  8
0
  6
Continuous
 62
     7
370
    15
100
AcDbLine
 10
537.0069828836
 20
487.8733729982
 30
0.0
 11
537.0069828836
 21
485.8486572319
 31
0.0
  0
SPLINE
  5
A7
330
1F
100
AcDbEntity
  8
0
  6
Continuous
 62
     7
370
    15
100
AcDbSpline
210
0.0
220
0.0
230
1.0
 70
    24
 71
     3
 72
     9
 73
     5
 74
     0
 42
0.00000001
 43
0.00000001
 12
1.0
 22
0.0
 32
0.0
 13
1.0
 23
0.0
 33
0.0
 40
0.0
 40
0.0
 40
0.0
 40
0.0
 40
0.5002097588219452
 40
1.0
 40
1.0
 40
1.0
 40
1.0
 10
539.5666502882888
 20
486.8908077862597
 30
0.0
 10
539.1398135938705
 20
486.7170242749608
 30
0.0
 10
538.2864981859035
 20
486.3696030017171
 30
0.0
 10
537.4333681668219
 20
486.0222572082339
 30
0.0
 10
537.0069821088288
 20
485.8486571703367
 30
0.0
  0
SPLINE
  5
A8
330
1F
100
AcDbEntity
  8
0
  6
Continuous
 62
     7
370
    15
100
AcDbSpline
210
0.0
220
0.0
230
1.0
 70
     8
 71
     3
 72
     9
 73
     5
 74
     0
 42
0.00000001
 43
0.00000001
 12
1.0
 22
0.0
 32
0.0
 13
1.0
 23
0.0
 33
0.0
 40
0.0
 40
0.0
 40
0.0
 40
0.0
 40
0.4950317062293708
 40
0.9999999999999999
 40
0.9999999999999999
 40
0.9999999999999999
 40
0.9999999999999999
 10
539.1926963945432
 20
489.1001348674158
 30
0.0
 10
538.32298978137
 20
489.4339837441432
 30
0.0
 10
536.5661192572619
 20
490.1083827220797
 30
0.0
 10
534.8087058651694
 20
490.7829909456337
 30
0.0
 10
533.9212678231147
 20
491.1236467092455
 30
0.0
  0
LINE
  5
A9
330
1F
100
AcDbEntity
  8
0
  6
Continuous
 62
     7
370
    15
100
AcDbLine
 10
533.9212690501
 20
491.1236478055
 30
0.0
 11
533.9212690501
 21
488.837517243
 31
0.0
  0
LINE
  5
AA
330
1F
100
AcDbEntity
  8
0
  6
Continuous
 62
     7
370
    15
100
AcDbLine
 10
715.2212609557
 20
525.5236489737
 30
0.0
 11
715.2212609557
 21
527.5471596086
 31
0.0
  0
LINE
  5
AB
330
1F
100
AcDbEntity
  8
0
  6
Continuous
 62
     7
370
    15
100
AcDbLine
 10
713.1641258506
 20
525.5236489737
 30
0.0
 11
715.2212609557
 21
525.5236489737
 31
0.0
  0
LINE
  5
AC
330
1F
100
AcDbEntity
  8
0
  6
Continuous
 62
     7
370
    15
100
AcDbLine
 10
713.1641258506
 20
531.3755882943
 30
0.0
 11
713.1641258506
 21
525.5236489737
 31
0.0
  0
SPLINE
  5
AD
330
1F
100
AcDbEntity
  8
0
  6
Continuous
 62
     7
370
    15
100
AcDbSpline
210
0.0
220
0.0
230
1.0
 70
     8
 71
     3
 72
    10
 73
     6
 74
     0
 42
0.00000001
 43
0.00000001
 12
1.0
 22
0.0
 32
0.0
 13
1.0
 23
0.0
 33
0.0
 40
0.0
 40
0.0
 40
0.0
 40
0.0
 40
0.3282293392669099
 40
0.6615626093391636
 40
1.0
 40
1.0
 40
1.0
 40
1.0
 10
720.4926963945435
 20
534.3593641268463
 30
0.0
 10
719.6911874943313
 20
534.0330359631263
 30
0.0
 10
718.0757063170018
 20
533.3753052679551
 30
0.0
 10
715.6328372360293
 20
532.3807085623865
 30
0.0
 10
713.991186815081
 20
531.7123214027941
 30
0.0
 10
713.1641249659722
 20
531.3755886166424
 30
0.0
  0
LINE
  5
AE
330
1F
100
AcDbEntity
  8
0
  6
Continuous
 62
     7
370
    15
100
AcDbLine
 10
720.4926957397
 20
532.0549620354
 30
0.0
 11
720.4926957397
 21
534.3593670094
 31
0.0
  0
LINE
  5
AF
330
1F
100
AcDbEntity
  8
0
  6
Continuous
 62
     7
370
    15
100
AcDbLine
 10
719.3612654714
 20
531.5943075383
 30
0.0
 11
720.4926957397
 21
532.0549620354
 31
0.0
  0
LINE
  5
B0
330
1F
100
AcDbEntity
  8
0
  6
Continuous
 62
     7
370
    15
100
AcDbLine
 10
719.3612654714
 20
528.2440943682
 30
0.0
 11
719.3612654714
 21
531.5943075383
 31
0.0
  0
LINE
  5
B1
330
1F
100
AcDbEntity
  8
0
  6
Continuous
 62
     7
370
    15
100
AcDbLine
 10
720.4926957397
 20
527.8097776735
 30
0.0
 11
719.3612654714
 21
528.2440943682
 31
0.0
  0
SPLINE
  5
B2
330
1F
100
AcDbEntity
  8
0
  6
Continuous
 62
     7
370
    15
100
AcDbSpline
210
0.0
220
0.0
230
1.0
 70
    24
 71
     3
 72
     9
 73
     5
 74
     0
 42
0.00000001
 43
0.00000001
 12
1.0
 22
0.0
 32
0.0
 13
1.0
 23
0.0
 33
0.0
 40
0.0
 40
0.0
 40
0.0
 40
0.0
 40
0.5001911612749037
 40
1.0
 40
1.0
 40
1.0
 40
1.0
 10
717.4069821088291
 20
528.7739210764986
 30
0.0
 10
716.9801702266799
 20
528.9377588077815
 30
0.0
 10
716.1268726972686
 20
529.2653090405071
 30
0.0
 10
715.2737247927749
 20
529.592801837608
 30
0.0
 10
714.8473139293692
 20
529.7564856322178
 30
0.0
  0
LINE
  5
B3
330
1F
100
AcDbEntity
  8
0
  6
Continuous
 62
     7
370
    15
100
AcDbLine
 10
717.4069781808
 20
528.7739200556
 30
0.0
 11
717.4069781808
 21
530.7986376846
 31
0.0
  0
SPLINE
  5
B4
330
1F
100
AcDbEntity
  8
0
  6
Continuous
 62
     7
370
    15
100
AcDbSpline
210
0.0
220
0.0
230
1.0
 70
    24
 71
     3
 72
     9
 73
     5
 74
     0
 42
0.00000001
 43
0.00000001
 12
1.0
 22
0.0
 32
0.0
 13
1.0
 23
0.0
 33
0.0
 40
0.0
 40
0.0
 40
0.0
 40
0.0
 40
0.5002097588219446
 40
1.0
 40
1.0
 40
1.0
 40
1.0
 10
714.8473139293693
 20
529.7564856322178
 30
0.0
 10
715.2741506237875
 20
529.9302691435167
 30
0.0
 10
716.1274660317546
 20
530.2776904167604
 30
0.0
 10
716.9805960508362
 20
530.6250362102437
 30
0.0
 10
717.4069821088292
 20
530.7986362481408
 30
0.0
  0
SPLINE
  5
B5
330
1F
100
AcDbEntity
  8
0
  6
Continuous
 62
     7
370
    15
100
AcDbSpline
210
0.0
220
0.0
230
1.0
 70
     8
 71
     3
 72
     9
 73
     5
 74
     0
 42
0.00000001
 43
0.00000001
 12
1.0
 22
0.0
 32
0.0
 13
1.0
 23
0.0
 33
0.0
 40
0.0
 40
0.0
 40
0.0
 40
0.0
 40
0.4950317062293694
 40
1.0
 40
1.0
 40
1.0
 40
1.0
 10
715.2212678231149
 20
527.5471585510618
 30
0.0
 10
716.0909744362882
 20
527.2133096743346
 30
0.0
 10
717.8478449603962
 20
526.538910696398
 30
0.0
 10
719.6052583524888
 20
525.8643024728439
 30
0.0
 10
720.4926963945434
 20
525.5236467092321
 30
0.0
  0
LINE
  5
B6
330
1F
100
AcDbEntity
  8
0
  6
Continuous
 62
     7
370
    15
100
AcDbLine
 10
720.4926957397
 20
525.5236489737
 30
0.0
 11
720.4926957397
 21
527.8097776735
 31
0.0
  0
LINE
  5
B7
330
1F
100
AcDbEntity
  8
0
  6
Continuous
 62
     7
370
    15
100
AcDbLine
 10
542.0726959614
 20
475.9290119672
 30
0.0
 11
542.0726959614
 21
469.5236463138
 31
0.0
  0
SPLINE
  5
B8
330
1F
100
AcDbEntity
  8
0
  6
Continuous
 62
     7
370
    15
100
AcDbSpline
210
0.0
220
0.0
230
1.0
 70
     8
 71
     3
 72
    11
 73
     7
 74
     0
 42
0.00000001
 43
0.00000001
 12
1.0
 22
0.0
 32
0.0
 13
1.0
 23
0.0
 33
0.0
 40
0.0
 40
0.0
 40
0.0
 40
0.0
 40
0.2541002199827029
 40
0.5054668484261815
 40
0.7541000512726752
 40
1.0
 40
1.0
 40
1.0
 40
1.0
 10
533.9212678231145
 20
479.2478080201003
 30
0.0
 10
534.6120995114106
 20
478.9665404720347
 30
0.0
 10
535.9863309713432
 20
478.4070312315666
 30
0.0
 10
538.035638788331
 20
477.57266900761
 30
0.0
 10
540.0620571196766
 20
476.7476284313001
 30
0.0
 10
541.4049573450628
 20
476.2008769243428
 30
0.0
 10
542.0726963945431
 20
475.9290121017328
 30
0.0
  0
LINE
  5
B9
330
1F
100
AcDbEntity
  8
0
  6
Continuous
 62
     7
370
    15
100
AcDbLine
 10
533.9212690501
 20
481.3994852865
 30
0.0
 11
533.9212690501
 21
479.2478079015
 31
0.0
  0
SPLINE
  5
BA
330
1F
100
AcDbEntity
  8
0
  6
Continuous
 62
     7
370
    15
100
AcDbSpline
210
0.0
220
0.0
230
1.0
 70
     8
 71
     3
 72
    11
 73
     7
 74
     0
 42
0.00000001
 43
0.00000001
 12
1.0
 22
0.0
 32
0.0
 13
1.0
 23
0.0
 33
0.0
 40
0.0
 40
0.0
 40
0.0
 40
0.0
 40
0.2546877117644763
 40
0.5062502124152478
 40
0.7546876058648174
 40
1.0
 40
1.0
 40
1.0
 40
1.0
 10
542.0726963945432
 20
484.7182813167576
 30
0.0
 10
541.3803568066593
 20
484.4363998046641
 30
0.0
 10
540.0041731619856
 20
483.8760956801164
 30
0.0
 10
537.9533362138034
 20
483.0411107082642
 30
0.0
 10
535.9284487007596
 20
482.2166935683391
 30
0.0
 10
534.5874991074857
 20
481.6707363129079
 30
0.0
 10
533.9212678231145
 20
481.3994853983902
 30
0.0
  0
SPLINE
  5
BB
330
1F
100
AcDbEntity
  8
0
  6
Continuous
 62
     7
370
    15
100
AcDbSpline
210
0.0
220
0.0
230
1.0
 70
     8
 71
     3
 72
    10
 73
     6
 74
     0
 42
0.00000001
 43
0.00000001
 12
1.0
 22
0.0
 32
0.0
 13
1.0
 23
0.0
 33
0.0
 40
0.0
 40
0.0
 40
0.0
 40
0.0
 40
0.3285977658580448
 40
0.6619310260630031
 40
0.9999999999999999
 40
0.9999999999999999
 40
0.9999999999999999
 40
0.9999999999999999
 10
537.0069821088288
 20
480.3236467092452
 30
0.0
 10
537.7952894928942
 20
480.644600014983
 30
0.0
 10
539.3832647313287
 20
481.2911319548171
 30
0.0
 10
541.7832766217514
 20
482.268279661801
 30
0.0
 10
543.3952901847956
 20
482.9246002956639
 30
0.0
 10
544.2069821088288
 20
483.2550752806738
 30
0.0
  0
SPLINE
  5
BC
330
1F
100
AcDbEntity
  8
0
  6
Continuous
 62
     7
370
    15
100
AcDbSpline
210
0.0
220
0.0
230
1.0
 70
     8
 71
     3
 72
    10
 73
     6
 74
     0
 42
0.00000001
 43
0.00000001
 12
1.0
 22
0.0
 32
0.0
 13
1.0
 23
0.0
 33
0.0
 40
0.0
 40
0.0
 40
0.0
 40
0.0
 40
0.328924614020362
 40
0.6622578535404101
 40
1.0
 40
1.0
 40
1.0
 40
1.0
 10
544.2069821088288
 20
477.3922181378165
 30
0.0
 10
543.4179363593637
 20
477.7134720820158
 30
0.0
 10
541.8292691629537
 20
478.3602857847861
 30
0.0
 10
539.4292563028825
 20
479.3374338872943
 30
0.0
 10
537.8179355858518
 20
479.9934723966058
 30
0.0
 10
537.0069821088289
 20
480.3236467092452
 30
0.0
  0
LINE
  5
BD
330
1F
100
AcDbEntity
  8
0
  6
Continuous
 62
     7
370
    15
100
AcDbLine
 10
544.2069818286
 20
469.5236463138
 30
0.0
 11
544.2069818286
 21
477.3922184521
 31
0.0
  0
LINE
  5
BE
330
1F
100
AcDbEntity
  8
0
  6
Continuous
 62
     7
370
    15
100
AcDbLine
 10
544.2069818286
 20
469.5236463138
 30
0.0
 11
542.0726959614
 21
469.5236463138
 31
0.0
  0
LINE
  5
BF
330
1F
100
AcDbEntity
  8
0
  6
Continuous
 62
     7
370
    15
100
AcDbLine
 10
542.0726959614
 20
491.1236478055
 30
0.0
 11
542.0726959614
 21
484.7182812208
 31
0.0
  0
LINE
  5
C0
330
1F
100
AcDbEntity
  8
0
  6
Continuous
 62
     7
370
    15
100
AcDbLine
 10
544.2069818286
 20
491.1236478055
 30
0.0
 11
542.0726959614
 21
491.1236478055
 31
0.0
  0
LINE
  5
C1
330
1F
100
AcDbEntity
  8
0
  6
Continuous
 62
     7
370
    15
100
AcDbLine
 10
544.2069818286
 20
483.2550747359
 30
0.0
 11
544.2069818286
 21
491.1236478055
 31
0.0
  0
LINE
  5
C2
330
1F
100
AcDbEntity
  8
0
  6
Continuous
 62
     7
370
    15
100
AcDbLine
 10
712.3412688283
 20
540.7182810867
 30
0.0
 11
712.3412688283
 21
547.123649534
 31
0.0
  0
SPLINE
  5
C3
330
1F
100
AcDbEntity
  8
0
  6
Continuous
 62
     7
370
    15
100
AcDbSpline
210
0.0
220
0.0
230
1.0
 70
     8
 71
     3
 72
    11
 73
     7
 74
     0
 42
0.00000001
 43
0.00000001
 12
1.0
 22
0.0
 32
0.0
 13
1.0
 23
0.0
 33
0.0
 40
0.0
 40
0.0
 40
0.0
 40
0.0
 40
0.2541002199826994
 40
0.5054668484261786
 40
0.7541000512726738
 40
1.0
 40
1.0
 40
1.0
 40
1.0
 10
720.4926963945436
 20
537.399485398377
 30
0.0
 10
719.8018647062474
 20
537.6807529464427
 30
0.0
 10
718.4276332463147
 20
538.2402621869106
 30
0.0
 10
716.3783254293272
 20
539.0746244108673
 30
0.0
 10
714.3519070979813
 20
539.8996649871771
 30
0.0
 10
713.0090068725953
 20
540.4464164941344
 30
0.0
 10
712.3412678231151
 20
540.7182813167445
 30
0.0
  0
LINE
  5
C4
330
1F
100
AcDbEntity
  8
0
  6
Continuous
 62
     7
370
    15
100
AcDbLine
 10
720.4926957397
 20
535.2478114927
 30
0.0
 11
720.4926957397
 21
537.399487015
 31
0.0
  0
SPLINE
  5
C5
330
1F
100
AcDbEntity
  8
0
  6
Continuous
 62
     7
370
    15
100
AcDbSpline
210
0.0
220
0.0
230
1.0
 70
     8
 71
     3
 72
    11
 73
     7
 74
     0
 42
0.00000001
 43
0.00000001
 12
1.0
 22
0.0
 32
0.0
 13
1.0
 23
0.0
 33
0.0
 40
0.0
 40
0.0
 40
0.0
 40
0.0
 40
0.2546877117644763
 40
0.5062502124152481
 40
0.754687605864819
 40
1.0
 40
1.0
 40
1.0
 40
1.0
 10
712.3412678231149
 20
531.92901210172
 30
0.0
 10
713.0336074109987
 20
532.2108936138135
 30
0.0
 10
714.4097910556725
 20
532.7711977383611
 30
0.0
 10
716.4606280038548
 20
533.6061827102133
 30
0.0
 10
718.4855155168984
 20
534.4305998501384
 30
0.0
 10
719.8264651101723
 20
534.9765571055694
 30
0.0
 10
720.4926963945435
 20
535.2478080200872
 30
0.0
  0
LINE
  5
C6
330
1F
100
AcDbEntity
  8
0
  6
Continuous
 62
     7
370
    15
100
AcDbLine
 10
710.2069829611
 20
525.5236489737
 30
0.0
 11
712.3412688283
 21
525.5236489737
 31
0.0
  0
SPLINE
  5
C7
330
1F
100
AcDbEntity
  8
0
  6
Continuous
 62
     7
370
    15
100
AcDbSpline
210
0.0
220
0.0
230
1.0
 70
     8
 71
     3
 72
    10
 73
     6
 74
     0
 42
0.00000001
 43
0.00000001
 12
1.0
 22
0.0
 32
0.0
 13
1.0
 23
0.0
 33
0.0
 40
0.0
 40
0.0
 40
0.0
 40
0.0
 40
0.3285977658580433
 40
0.6619310260630027
 40
0.9999999999999999
 40
0.9999999999999999
 40
0.9999999999999999
 40
0.9999999999999999
 10
717.4069821088292
 20
536.3236467092322
 30
0.0
 10
716.6186747247638
 20
536.0026934034944
 30
0.0
 10
715.0306994863294
 20
535.3561614636603
 30
0.0
 10
712.6306875959066
 20
534.3790137566764
 30
0.0
 10
711.0186740328625
 20
533.7226931228137
 30
0.0
 10
710.2069821088293
 20
533.3922181378036
 30
0.0
  0
SPLINE
  5
C8
330
1F
100
AcDbEntity
  8
0
  6
Continuous
 62
     7
370
    15
100
AcDbSpline
210
0.0
220
0.0
230
1.0
 70
     8
 71
     3
 72
    10
 73
     6
 74
     0
 42
0.00000001
 43
0.00000001
 12
1.0
 22
0.0
 32
0.0
 13
1.0
 23
0.0
 33
0.0
 40
0.0
 40
0.0
 40
0.0
 40
0.0
 40
0.3289246140203634
 40
0.6622578535404131
 40
1.0
 40
1.0
 40
1.0
 40
1.0
 10
710.2069821088293
 20
539.2550752806609
 30
0.0
 10
710.9960278582944
 20
538.9338213364615
 30
0.0
 10
712.5846950547043
 20
538.2870076336912
 30
0.0
 10
714.9847079147755
 20
537.3098595311831
 30
0.0
 10
716.5960286318061
 20
536.6538210218715
 30
0.0
 10
717.4069821088291
 20
536.3236467092323
 30
0.0
  0
LINE
  5
C9
330
1F
100
AcDbEntity
  8
0
  6
Continuous
 62
     7
370
    15
100
AcDbLine
 10
710.2069829611
 20
547.123649534
 30
0.0
 11
710.2069829611
 21
539.2550764644
 31
0.0
  0
LINE
  5
CA
330
1F
100
AcDbEntity
  8
0
  6
Continuous
 62
     7
370
    15
100
AcDbLine
 10
710.2069829611
 20
547.123649534
 30
0.0
 11
712.3412688283
 21
547.123649534
 31
0.0
  0
LINE
  5
CB
330
1F
100
AcDbEntity
  8
0
  6
Continuous
 62
     7
370
    15
100
AcDbLine
 10
712.3412688283
 20
525.5236489737
 30
0.0
 11
712.3412688283
 21
531.9290099704
 31
0.0
  0
LINE
  5
CC
330
1F
100
AcDbEntity
  8
0
  6
Continuous
 62
     7
370
    15
100
AcDbLine
 10
710.2069829611
 20
533.3922145927
 30
0.0
 11
710.2069829611
 21
525.5236489737
 31
0.0
  0
LINE
  5
CD
330
1F
100
AcDbEntity
  8
0
  6
Continuous
 62
     7
370
    15
100
AcDbLine
 10
629.3551077155
 20
508.3236483896
 30
0.0
 11
629.3551077155
 21
618.323640343
 31
0.0
  0
LINE
  5
CE
330
1F
100
AcDbEntity
  8
0
  6
Continuous
 62
     7
370
    15
100
AcDbLine
 10
629.3551077155
 20
398.3236452603
 30
0.0
 11
629.3551077155
 21
508.3236483896
 31
0.0
  0
LINE
  5
CF
330
1F
100
AcDbEntity
  8
0
  6
Continuous
 62
     7
370
    15
100
AcDbLine
 10
609.3551081626
 20
508.3236483896
 30
0.0
 11
609.3551081626
 21
618.323640343
 31
0.0
  0
LINE
  5
D0
330
1F
100
AcDbEntity
  8
0
  6
Continuous
 62
     7
370
    15
100
AcDbLine
 10
609.3551081626
 20
398.3236452603
 30
0.0
 11
609.3551081626
 21
508.3236483896
 31
0.0
  0
LINE
  5
D1
330
1F
100
AcDbEntity
  8
0
  6
Continuous
 62
     7
370
    15
100
AcDbLine
 10
527.2069809047
 20
508.3236483896
 30
0.0
 11
527.2069809047
 21
398.3236452603
 31
0.0
  0
LINE
  5
D2
330
1F
100
AcDbEntity
  8
0
  6
Continuous
 62
     7
370
    15
100
AcDbLine
 10
527.2069809047
 20
618.323640343
 30
0.0
 11
527.2069809047
 21
508.3236483896
 31
0.0
  0
LINE
  5
D3
330
1F
100
AcDbEntity
  8
0
  6
Continuous
 62
     7
370
    15
100
AcDbLine
 10
546.2069821564
 20
508.3236483896
 30
0.0
 11
546.2069821564
 21
398.3236452603
 31
0.0
  0
LINE
  5
D4
330
1F
100
AcDbEntity
  8
0
  6
Continuous
 62
     7
370
    15
100
AcDbLine
 10
546.2069821564
 20
618.323640343
 30
0.0
 11
546.2069821564
 21
508.3236483896
 31
0.0
  0
LINE
  5
D5
330
1F
100
AcDbEntity
  8
0
  6
Continuous
 62
     7
370
    15
100
AcDbLine
 10
708.206978908
 20
508.3236483896
 30
0.0
 11
708.206978908
 21
618.323640343
 31
0.0
  0
LINE
  5
D6
330
1F
100
AcDbEntity
  8
0
  6
Continuous
 62
     7
370
    15
100
AcDbLine
 10
708.206978908
 20
398.3236452603
 30
0.0
 11
708.206978908
 21
508.3236483896
 31
0.0
  0
LINE
  5
D7
330
1F
100
AcDbEntity
  8
0
  6
Continuous
 62
     7
370
    15
100
AcDbLine
 10
727.2069801597
 20
508.3236483896
 30
0.0
 11
727.2069801597
 21
618.323640343
 31
0.0
  0
LINE
  5
D8
330
1F
100
AcDbEntity
  8
0
  6
Continuous
 62
     7
370
    15
100
AcDbLine
 10
727.2069801597
 20
398.3236452603
 30
0.0
 11
727.2069801597
 21
508.3236483896
 31
0.0
  0
LINE
  5
D9
330
1F
100
AcDbEntity
  8
0
  6
Continuous
 62
     7
370
    15
100
AcDbLine
 10
539.1926963834
 20
470.1407900119
 30
0.0
 11
539.1926963834
 21
469.5236463138
 31
0.0
  0
SPLINE
  5
DA
330
1F
100
AcDbEntity
  8
0
  6
Continuous
 62
     7
370
    15
100
AcDbSpline
210
0.0
220
0.0
230
1.0
 70
     8
 71
     3
 72
    20
 73
    16
 74
     0
 42
0.00000001
 43
0.00000001
 12
1.0
 22
0.0
 32
0.0
 13
1.0
 23
0.0
 33
0.0
 40
0.0
 40
0.0
 40
0.0
 40
0.0
 40
0.041911517853908
 40
0.083856989436158
 40
0.1259031221598727
 40
0.1885762772817295
 40
0.25133565948015
 40
0.3763294590781989
 40
0.5009829714350712
 40
0.6253784320368206
 40
0.7497058289845044
 40
0.8122108231158285
 40
0.874397485791565
 40
0.9372940559314793
 40
1.0
 40
1.0
 40
1.0
 40
1.0
 10
537.1805367489908
 20
472.493967722999
 30
0.0
 10
537.1902494511667
 20
472.4508389610704
 30
0.0
 10
537.2096827240581
 20
472.3645464973604
 30
0.0
 10
537.2457717106277
 20
472.2365834374434
 30
0.0
 10
537.2936069191192
 20
472.0891829203878
 30
0.0
 10
537.3571055333025
 20
471.923661062772
 30
0.0
 10
537.4672711988886
 20
471.6820566694265
 30
0.0
 10
537.632577144961
 20
471.3928849494818
 30
0.0
 10
537.8722649848603
 20
471.07143415532
 30
0.0
 10
538.1505385265277
 20
470.7800212306439
 30
0.0
 10
538.4126203820123
 20
470.5659143022449
 30
0.0
 10
538.6382291699641
 20
470.4145580176626
 30
0.0
 10
538.815849640385
 20
470.3114229462943
 30
0.0
 10
539.000177538747
 20
470.2185837787167
 30
0.0
 10
539.1285884053738
 20
470.1666947199416
 30
0.0
 10
539.192696394543
 20
470.1407895663876
 30
0.0
  0
SPLINE
  5
DB
330
1F
100
AcDbEntity
  8
0
  6
Continuous
 62
     7
370
    15
100
AcDbSpline
210
0.0
220
0.0
230
1.0
 70
     8
 71
     3
 72
    10
 73
     6
 74
     0
 42
0.00000001
 43
0.00000001
 12
1.0
 22
0.0
 32
0.0
 13
1.0
 23
0.0
 33
0.0
 40
0.0
 40
0.0
 40
0.0
 40
0.0
 40
0.3303047512807696
 40
0.6636378731362752
 40
1.0
 40
1.0
 40
1.0
 40
1.0
 10
533.9212678231145
 20
470.0379324235305
 30
0.0
 10
534.2796381632921
 20
470.3079836204813
 30
0.0
 10
534.9996645311494
 20
470.8505619554504
 30
0.0
 10
536.0860990597238
 20
471.6692491026207
 30
0.0
 10
536.8146258200358
 20
472.2182338374899
 30
0.0
 10
537.1805367489909
 20
472.493967722999
 30
0.0
  0
LINE
  5
DC
330
1F
100
AcDbEntity
  8
0
  6
Continuous
 62
     7
370
    15
100
AcDbLine
 10
533.9212690501
 20
472.7103481108
 30
0.0
 11
533.9212690501
 21
470.0379328841
 31
0.0
  0
SPLINE
  5
DD
330
1F
100
AcDbEntity
  8
0
  6
Continuous
 62
     7
370
    15
100
AcDbSpline
210
0.0
220
0.0
230
1.0
 70
     8
 71
     3
 72
     9
 73
     5
 74
     0
 42
0.00000001
 43
0.00000001
 12
1.0
 22
0.0
 32
0.0
 13
1.0
 23
0.0
 33
0.0
 40
0.0
 40
0.0
 40
0.0
 40
0.0
 40
0.5031467738932195
 40
1.0
 40
1.0
 40
1.0
 40
1.0
 10
536.8028255207407
 20
474.8817571447325
 30
0.0
 10
536.3190629865464
 20
474.5172156891379
 30
0.0
 10
535.3575890006334
 20
473.7926925986411
 30
0.0
 10
534.3980285357408
 20
473.0696124003408
 30
0.0
 10
533.9212678231145
 20
472.7103476710813
 30
0.0
  0
SPLINE
  5
DE
330
1F
100
AcDbEntity
  8
0
  6
Continuous
 62
     7
370
    15
100
AcDbSpline
210
0.0
220
0.0
230
1.0
 70
     8
 71
     3
 72
     9
 73
     5
 74
     0
 42
0.00000001
 43
0.00000001
 12
1.0
 22
0.0
 32
0.0
 13
1.0
 23
0.0
 33
0.0
 40
0.0
 40
0.0
 40
0.0
 40
0.0
 40
0.5018570736065316
 40
1.0
 40
1.0
 40
1.0
 40
1.0
 10
533.9212678231145
 20
476.054962778766
 30
0.0
 10
534.4034084111413
 20
475.8586626210005
 30
0.0
 10
535.3641213578812
 20
475.4675150850002
 30
0.0
 10
536.3244463959754
 20
475.0765257274775
 30
0.0
 10
536.8028255207405
 20
474.8817571447324
 30
0.0
  0
LINE
  5
DF
330
1F
100
AcDbEntity
  8
0
  6
Continuous
 62
     7
370
    15
100
AcDbLine
 10
541.2498389391
 20
473.0711871797
 30
0.0
 11
541.2498389391
 21
475.3755884284
 31
0.0
  0
SPLINE
  5
E0
330
1F
100
AcDbEntity
  8
0
  6
Continuous
 62
     7
370
    15
100
AcDbSpline
210
0.0
220
0.0
230
1.0
 70
     8
 71
     3
 72
     9
 73
     5
 74
     0
 42
0.00000001
 43
0.00000001
 12
1.0
 22
0.0
 32
0.0
 13
1.0
 23
0.0
 33
0.0
 40
0.0
 40
0.0
 40
0.0
 40
0.0
 40
0.5016715618123043
 40
1.0
 40
1.0
 40
1.0
 40
1.0
 10
538.5772689212478
 20
474.1593051888116
 30
0.0
 10
539.0242766341446
 20
473.977309134153
 30
0.0
 10
539.915313214496
 20
473.614529840862
 30
0.0
 10
540.8059897865859
 20
473.2518973509138
 30
0.0
 10
541.2498392516858
 20
473.0711872685618
 30
0.0
  0
SPLINE
  5
E1
330
1F
100
AcDbEntity
  8
0
  6
Continuous
 62
     7
370
    15
100
AcDbSpline
210
0.0
220
0.0
230
1.0
 70
     8
 71
     3
 72
    26
 73
    22
 74
     0
 42
0.00000001
 43
0.00000001
 12
1.0
 22
0.0
 32
0.0
 13
1.0
 23
0.0
 33
0.0
 40
0.0
 40
0.0
 40
0.0
 40
0.0
 40
0.0312444712951911
 40
0.0625207021796884
 40
0.0939184546810694
 40
0.1255264555331068
 40
0.1879935603790377
 40
0.2504003196040073
 40
0.3127764471735527
 40
0.3751229151305596
 40
0.4374295309370555
 40
0.4996925611730226
 40
0.5619235596984505
 40
0.624183378950381
 40
0.6865304053412351
 40
0.7489899304356823
 40
0.8115663741258365
 40
0.8742554748597657
 40
0.9370563794141654
 40
0.9685546306231724
 40
1.0
 40
1.0
 40
1.0
 40
1.0
 10
541.2498392516858
 20
471.5807895663877
 30
0.0
 10
541.2059413021757
 20
471.5814484197687
 30
0.0
 10
541.1181007814738
 20
471.5827667962464
 30
0.0
 10
540.9865322926994
 20
471.5932112976112
 30
0.0
 10
540.8552148671976
 20
471.6098616624009
 30
0.0
 10
540.6819646165942
 20
471.6408503923657
 30
0.0
 10
540.4694074528813
 20
471.6952211692733
 30
0.0
 10
540.2233523791007
 20
471.7840748950686
 30
0.0
 10
539.987919943833
 20
471.895305070758
 30
0.0
 10
539.7652292052394
 20
472.0276349799546
 30
0.0
 10
539.5573496330302
 20
472.1797602846857
 30
0.0
 10
539.3664920261238
 20
472.350508657586
 30
0.0
 10
539.1944385374791
 20
472.5382438178074
 30
0.0
 10
539.0417223206234
 20
472.7406046141265
 30
0.0
 10
538.9091714536933
 20
472.9557935233227
 30
0.0
 10
538.797448645709
 20
473.1819421342486
 30
0.0
 10
538.7072927624018
 20
473.4172211039952
 30
0.0
 10
538.6393090894911
 20
473.65976897594
 30
0.0
 10
538.6020675700589
 20
473.8664342961605
 30
0.0
 10
538.5835470685373
 20
474.0333952930277
 30
0.0
 10
538.5793604645581
 20
474.1173587374014
 30
0.0
 10
538.5772689212478
 20
474.1593051888116
 30
0.0
  0
LINE
  5
E2
330
1F
100
AcDbEntity
  8
0
  6
Continuous
 62
     7
370
    15
100
AcDbLine
 10
541.2498389391
 20
469.5236463138
 30
0.0
 11
541.2498389391
 21
471.5807898009
 31
0.0
  0
LINE
  5
E3
330
1F
100
AcDbEntity
  8
0
  6
Continuous
 62
     7
370
    15
100
AcDbLine
 10
541.2498389391
 20
469.5236463138
 30
0.0
 11
539.1926963834
 21
469.5236463138
 31
0.0
  0
SPLINE
  5
E4
330
1F
100
AcDbEntity
  8
0
  6
Continuous
 62
     7
370
    15
100
AcDbSpline
210
0.0
220
0.0
230
1.0
 70
     8
 71
     3
 72
    11
 73
     7
 74
     0
 42
0.00000001
 43
0.00000001
 12
1.0
 22
0.0
 32
0.0
 13
1.0
 23
0.0
 33
0.0
 40
0.0
 40
0.0
 40
0.0
 40
0.0
 40
0.246365725077159
 40
0.4951542031318484
 40
0.7463655806704944
 40
1.0
 40
1.0
 40
1.0
 40
1.0
 10
541.2498392516859
 20
475.3755886166552
 30
0.0
 10
540.6483415130301
 20
475.6204838710804
 30
0.0
 10
539.4394309254211
 20
476.112682672345
 30
0.0
 10
537.6164153201804
 20
476.8549096865273
 30
0.0
 10
535.7751363983434
 20
477.6045740249739
 30
0.0
 10
534.5411981384345
 20
478.1069636751151
 30
0.0
 10
533.9212678231145
 20
478.3593641268594
 30
0.0
  0
LINE
  5
E5
330
1F
100
AcDbEntity
  8
0
  6
Continuous
 62
     7
370
    15
100
AcDbLine
 10
533.9212690501
 20
478.3593634182
 30
0.0
 11
533.9212690501
 21
476.0549621695
 31
0.0
  0
LINE
  5
E6
330
1F
100
AcDbEntity
  8
0
  6
Continuous
 62
     7
370
    15
100
AcDbLine
 10
715.2212609557
 20
546.506503042
 30
0.0
 11
715.2212609557
 21
547.123649534
 31
0.0
  0
SPLINE
  5
E7
330
1F
100
AcDbEntity
  8
0
  6
Continuous
 62
     7
370
    15
100
AcDbSpline
210
0.0
220
0.0
230
1.0
 70
     8
 71
     3
 72
    20
 73
    16
 74
     0
 42
0.00000001
 43
0.00000001
 12
1.0
 22
0.0
 32
0.0
 13
1.0
 23
0.0
 33
0.0
 40
0.0
 40
0.0
 40
0.0
 40
0.0
 40
0.0419115178539047
 40
0.083856989436158
 40
0.1259031221598728
 40
0.1885762772817281
 40
0.2513356594801486
 40
0.3763294590782024
 40
0.5009829714350751
 40
0.6253784320368201
 40
0.749705828984506
 40
0.8122108231158283
 40
0.8743974857915671
 40
0.9372940559314841
 40
1.0
 40
1.0
 40
1.0
 40
1.0
 10
717.2334274686672
 20
544.1533256954781
 30
0.0
 10
717.2237147664914
 20
544.1964544574067
 30
0.0
 10
717.2042814936
 20
544.2827469211167
 30
0.0
 10
717.1681925070305
 20
544.4107099810337
 30
0.0
 10
717.1203572985387
 20
544.5581104980893
 30
0.0
 10
717.0568586843556
 20
544.723632355705
 30
0.0
 10
716.9466930187693
 20
544.9652367490505
 30
0.0
 10
716.7813870726972
 20
545.2544084689952
 30
0.0
 10
716.5416992327978
 20
545.575859263157
 30
0.0
 10
716.2634256911304
 20
545.8672721878332
 30
0.0
 10
716.0013438356457
 20
546.0813791162321
 30
0.0
 10
715.775735047694
 20
546.2327354008144
 30
0.0
 10
715.5981145772731
 20
546.3358704721827
 30
0.0
 10
715.4137866789109
 20
546.4287096397603
 30
0.0
 10
715.2853758122842
 20
546.4805986985355
 30
0.0
 10
715.2212678231151
 20
546.5065038520893
 30
0.0
  0
SPLINE
  5
E8
330
1F
100
AcDbEntity
  8
0
  6
Continuous
 62
     7
370
    15
100
AcDbSpline
210
0.0
220
0.0
230
1.0
 70
     8
 71
     3
 72
    10
 73
     6
 74
     0
 42
0.00000001
 43
0.00000001
 12
1.0
 22
0.0
 32
0.0
 13
1.0
 23
0.0
 33
0.0
 40
0.0
 40
0.0
 40
0.0
 40
0.0
 40
0.3303047512807704
 40
0.6636378731362748
 40
1.0
 40
1.0
 40
1.0
 40
1.0
 10
720.4926963945437
 20
546.6093609949464
 30
0.0
 10
720.1343260543659
 20
546.3393097979957
 30
0.0
 10
719.4142996865085
 20
545.7967314630266
 30
0.0
 10
718.3278651579342
 20
544.9780443158564
 30
0.0
 10
717.5993383976222
 20
544.4290595809872
 30
0.0
 10
717.2334274686672
 20
544.153325695478
 30
0.0
  0
LINE
  5
E9
330
1F
100
AcDbEntity
  8
0
  6
Continuous
 62
     7
370
    15
100
AcDbLine
 10
720.4926957397
 20
543.9369468057
 30
0.0
 11
720.4926957397
 21
546.6093583071
 31
0.0
  0
SPLINE
  5
EA
330
1F
100
AcDbEntity
  8
0
  6
Continuous
 62
     7
370
    15
100
AcDbSpline
210
0.0
220
0.0
230
1.0
 70
     8
 71
     3
 72
     9
 73
     5
 74
     0
 42
0.00000001
 43
0.00000001
 12
1.0
 22
0.0
 32
0.0
 13
1.0
 23
0.0
 33
0.0
 40
0.0
 40
0.0
 40
0.0
 40
0.0
 40
0.5031467738932224
 40
0.9999999999999999
 40
0.9999999999999999
 40
0.9999999999999999
 40
0.9999999999999999
 10
717.6111386969172
 20
541.7655362737447
 30
0.0
 10
718.0949012311116
 20
542.1300777293393
 30
0.0
 10
719.0563752170245
 20
542.854600819836
 30
0.0
 10
720.0159356819172
 20
543.5776810181363
 30
0.0
 10
720.4926963945436
 20
543.9369457473958
 30
0.0
  0
SPLINE
  5
EB
330
1F
100
AcDbEntity
  8
0
  6
Continuous
 62
     7
370
    15
100
AcDbSpline
210
0.0
220
0.0
230
1.0
 70
     8
 71
     3
 72
     9
 73
     5
 74
     0
 42
0.00000001
 43
0.00000001
 12
1.0
 22
0.0
 32
0.0
 13
1.0
 23
0.0
 33
0.0
 40
0.0
 40
0.0
 40
0.0
 40
0.0
 40
0.5018570736065319
 40
1.0
 40
1.0
 40
1.0
 40
1.0
 10
720.4926963945437
 20
540.5923306397112
 30
0.0
 10
720.0105558065169
 20
540.7886307974768
 30
0.0
 10
719.0498428597767
 20
541.1797783334771
 30
0.0
 10
718.0895178216826
 20
541.5707676909998
 30
0.0
 10
717.6111386969175
 20
541.7655362737448
 30
0.0
  0
LINE
  5
EC
330
1F
100
AcDbEntity
  8
0
  6
Continuous
 62
     7
370
    15
100
AcDbLine
 10
720.4926957397
 20
538.2879314983
 30
0.0
 11
720.4926957397
 21
540.5923290217
 31
0.0
  0
LINE
  5
ED
330
1F
100
AcDbEntity
  8
0
  6
Continuous
 62
     7
370
    15
100
AcDbLine
 10
713.1641258506
 20
543.5761077368
 30
0.0
 11
713.1641258506
 21
541.2717027628
 31
0.0
  0
SPLINE
  5
EE
330
1F
100
AcDbEntity
  8
0
  6
Continuous
 62
     7
370
    15
100
AcDbSpline
210
0.0
220
0.0
230
1.0
 70
     8
 71
     3
 72
     9
 73
     5
 74
     0
 42
0.00000001
 43
0.00000001
 12
1.0
 22
0.0
 32
0.0
 13
1.0
 23
0.0
 33
0.0
 40
0.0
 40
0.0
 40
0.0
 40
0.0
 40
0.5016715618123009
 40
1.0
 40
1.0
 40
1.0
 40
1.0
 10
715.8366952964102
 20
542.4879882296656
 30
0.0
 10
715.3896875835135
 20
542.6699842843241
 30
0.0
 10
714.4986510031621
 20
543.0327635776152
 30
0.0
 10
713.6079744310722
 20
543.3953960675634
 30
0.0
 10
713.1641249659723
 20
543.5761061499154
 30
0.0
  0
SPLINE
  5
EF
330
1F
100
AcDbEntity
  8
0
  6
Continuous
 62
     7
370
    15
100
AcDbSpline
210
0.0
220
0.0
230
1.0
 70
     8
 71
     3
 72
    26
 73
    22
 74
     0
 42
0.00000001
 43
0.00000001
 12
1.0
 22
0.0
 32
0.0
 13
1.0
 23
0.0
 33
0.0
 40
0.0
 40
0.0
 40
0.0
 40
0.0
 40
0.0312444712951879
 40
0.0625207021796853
 40
0.0939184546810677
 40
0.1255264555331026
 40
0.1879935603790351
 40
0.2504003196040031
 40
0.312776447173552
 40
0.3751229151305611
 40
0.4374295309370543
 40
0.4996925611730196
 40
0.5619235596984469
 40
0.6241833789503809
 40
0.686530405341231
 40
0.7489899304356789
 40
0.8115663741258345
 40
0.8742554748597676
 40
0.9370563794141649
 40
0.9685546306231702
 40
1.0
 40
1.0
 40
1.0
 40
1.0
 10
713.1641249659723
 20
545.0665038520893
 30
0.0
 10
713.2080229154824
 20
545.0658449987084
 30
0.0
 10
713.2958634361842
 20
545.0645266222307
 30
0.0
 10
713.4274319249587
 20
545.0540821208659
 30
0.0
 10
713.5587493504605
 20
545.0374317560761
 30
0.0
 10
713.7319996010638
 20
545.0064430261112
 30
0.0
 10
713.9445567647767
 20
544.9520722492039
 30
0.0
 10
714.1906118385573
 20
544.8632185234084
 30
0.0
 10
714.4260442738248
 20
544.751988347719
 30
0.0
 10
714.6487350124187
 20
544.6196584385225
 30
0.0
 10
714.8566145846278
 20
544.4675331337913
 30
0.0
 10
715.0474721915344
 20
544.296784760891
 30
0.0
 10
715.219525680179
 20
544.1090496006698
 30
0.0
 10
715.3722418970347
 20
543.9066888043506
 30
0.0
 10
715.5047927639648
 20
543.6914998951544
 30
0.0
 10
715.6165155719491
 20
543.4653512842284
 30
0.0
 10
715.7066714552562
 20
543.230072314482
 30
0.0
 10
715.774655128167
 20
542.9875244425372
 30
0.0
 10
715.8118966475992
 20
542.7808591223167
 30
0.0
 10
715.8304171491208
 20
542.6138981254495
 30
0.0
 10
715.8346037530999
 20
542.5299346810758
 30
0.0
 10
715.8366952964102
 20
542.4879882296656
 30
0.0
  0
LINE
  5
F0
330
1F
100
AcDbEntity
  8
0
  6
Continuous
 62
     7
370
    15
100
AcDbLine
 10
713.1641258506
 20
547.123649534
 30
0.0
 11
713.1641258506
 21
545.0665069783
 31
0.0
  0
LINE
  5
F1
330
1F
100
AcDbEntity
  8
0
  6
Continuous
 62
     7
370
    15
100
AcDbLine
 10
713.1641258506
 20
547.123649534
 30
0.0
 11
715.2212609557
 21
547.123649534
 31
0.0
  0
SPLINE
  5
F2
330
1F
100
AcDbEntity
  8
0
  6
Continuous
 62
     7
370
    15
100
AcDbSpline
210
0.0
220
0.0
230
1.0
 70
     8
 71
     3
 72
    11
 73
     7
 74
     0
 42
0.00000001
 43
0.00000001
 12
1.0
 22
0.0
 32
0.0
 13
1.0
 23
0.0
 33
0.0
 40
0.0
 40
0.0
 40
0.0
 40
0.0
 40
0.2463657250771615
 40
0.4951542031318495
 40
0.7463655806704937
 40
1.0
 40
1.0
 40
1.0
 40
1.0
 10
713.1641249659722
 20
541.2717048018221
 30
0.0
 10
713.7656227046281
 20
541.0268095473969
 30
0.0
 10
714.9745332922371
 20
540.5346107461323
 30
0.0
 10
716.7975488974776
 20
539.7923837319499
 30
0.0
 10
718.6388278193147
 20
539.0427193935035
 30
0.0
 10
719.8727660792235
 20
538.5403297433622
 30
0.0
 10
720.4926963945436
 20
538.2879292916178
 30
0.0
  0
LINE
  5
F3
330
1F
100
AcDbEntity
  8
0
  6
Continuous
 62
     7
370
    15
100
AcDbLine
 10
729.2069842128
 20
490.8280795479
 30
0.0
 11
729.2069842128
 21
456.6321379078
 31
0.0
  0
LINE
  5
F4
330
1F
100
AcDbEntity
  8
0
  6
Continuous
 62
     7
370
    15
100
AcDbLine
 10
729.2069842128
 20
491.132137742
 30
0.0
 11
729.2069842128
 21
490.8280795479
 31
0.0
  0
LINE
  5
F5
330
1F
100
AcDbEntity
  8
0
  6
Continuous
 62
     7
370
    15
100
AcDbLine
 10
525.2069805769
 20
461.6845458785
 30
0.0
 11
525.2069805769
 21
491.132137742
 31
0.0
  0
LINE
  5
F6
330
1F
100
AcDbEntity
  8
0
  6
Continuous
 62
     7
370
    15
100
AcDbLine
 10
525.2069805769
 20
456.6321379078
 30
0.0
 11
525.2069805769
 21
461.6845458785
 31
0.0
  0
LINE
  5
F7
330
1F
100
AcDbEntity
  8
0
  6
Continuous
 62
     7
370
    15
100
AcDbLine
 10
729.2069842128
 20
560.0151581728
 30
0.0
 11
729.2069842128
 21
525.5151553118
 31
0.0
  0
LINE
  5
F8
330
1F
100
AcDbEntity
  8
0
  6
Continuous
 62
     7
370
    15
100
AcDbLine
 10
525.2069805769
 20
542.7651567423
 30
0.0
 11
525.2069805769
 21
560.0151581728
 31
0.0
  0
LINE
  5
F9
330
1F
100
AcDbEntity
  8
0
  6
Continuous
 62
     7
370
    15
100
AcDbLine
 10
525.2069805769
 20
525.5151553118
 30
0.0
 11
525.2069805769
 21
542.7651567423
 31
0.0
  0
SPLINE
  5
FA
330
1F
100
AcDbEntity
  8
0
  6
Continuous
 62
     7
370
    15
100
AcDbSpline
210
0.0
220
0.0
230
1.0
 70
     8
 71
     3
 72
    12
 73
     8
 74
     0
 42
0.00000001
 43
0.00000001
 12
1.0
 22
0.0
 32
0.0
 13
1.0
 23
0.0
 33
0.0
 40
0.0
 40
0.0
 40
0.0
 40
0.0
 40
0.2500000000000008
 40
0.2500000000000008
 40
0.5000000000000017
 40
0.5000000000000017
 40
1.0
 40
1.0
 40
1.0
 40
1.0
 10
511.206982108829
 20
476.9879663376105
 30
0.0
 10
511.206982108829
 20
476.4200275853245
 30
0.0
 10
511.2323153621222
 20
475.8495407798594
 30
0.0
 10
511.330352249199
 20
474.7209990466919
 30
0.0
 10
511.4029616181278
 20
474.1605026917298
 30
0.0
 10
511.6830083170618
 20
472.4889685054785
 30
0.0
 10
511.9524221459676
 20
471.3878468182785
 30
0.0
 10
512.2787788785533
 20
470.295835907708
 30
0.0
  0
SPLINE
  5
FB
330
1F
100
AcDbEntity
  8
0
  6
Continuous
 62
     7
370
    15
100
AcDbSpline
210
0.0
220
0.0
230
1.0
 70
     8
 71
     3
 72
    10
 73
     6
 74
     0
 42
0.00000001
 43
0.00000001
 12
1.0
 22
0.0
 32
0.0
 13
1.0
 23
0.0
 33
0.0
 40
0.0
 40
0.0
 40
0.0
 40
0.0
 40
0.5
 40
0.5
 40
1.0
 40
1.0
 40
1.0
 40
1.0
 10
512.2787788785532
 20
483.680096767513
 30
0.0
 10
511.9516051174417
 20
482.585352026213
 30
0.0
 10
511.6820625735235
 20
481.4826108482694
 30
0.0
 10
511.3091300652652
 20
479.2540745185038
 30
0.0
 10
511.206982108829
 20
478.1281070358167
 30
0.0
 10
511.206982108829
 20
476.9879663376105
 30
0.0
  0
LINE
  5
FC
330
1F
100
AcDbEntity
  8
0
  6
Continuous
 62
     7
370
    15
100
AcDbLine
 10
512.2787778286
 20
483.6800968313
 30
0.0
 11
525.2069805769
 21
483.6800968313
 31
0.0
  0
LINE
  5
FD
330
1F
100
AcDbEntity
  8
0
  6
Continuous
 62
     7
370
    15
100
AcDbLine
 10
512.2787778286
 20
470.2958356628
 30
0.0
 11
525.2069805769
 21
470.2958356628
 31
0.0
  0
SPLINE
  5
FE
330
1F
100
AcDbEntity
  8
0
  6
Continuous
 62
     7
370
    15
100
AcDbSpline
210
0.0
220
0.0
230
1.0
 70
     8
 71
     3
 72
    12
 73
     8
 74
     0
 42
0.00000001
 43
0.00000001
 12
1.0
 22
0.0
 32
0.0
 13
1.0
 23
0.0
 33
0.0
 40
0.0
 40
0.0
 40
0.0
 40
0.0
 40
0.2499999999999996
 40
0.2499999999999996
 40
0.4999999999999993
 40
0.4999999999999993
 40
1.0
 40
1.0
 40
1.0
 40
1.0
 10
511.206982108829
 20
465.3968564221417
 30
0.0
 10
511.206982108829
 20
465.8110258317006
 30
0.0
 10
511.2318735162891
 20
466.2265218782954
 30
0.0
 10
511.3307966405727
 20
467.0601330019462
 30
0.0
 10
511.4043171577629
 20
467.4738903540739
 30
0.0
 10
511.6860718059163
 20
468.701169962707
 30
0.0
 10
511.9553900286778
 20
469.5036982370068
 30
0.0
 10
512.2787788785536
 20
470.2958359077081
 30
0.0
  0
LINE
  5
FF
330
1F
100
AcDbEntity
  8
0
  6
Continuous
 62
     7
370
    15
100
AcDbLine
 10
511.2069820074
 20
476.9879667127
 30
0.0
 11
511.2069820074
 21
465.3968563342
 31
0.0
  0
SPLINE
  5
100
330
1F
100
AcDbEntity
  8
0
  6
Continuous
 62
     7
370
    15
100
AcDbSpline
210
0.0
220
0.0
230
1.0
 70
     8
 71
     3
 72
    12
 73
     8
 74
     0
 42
0.00000001
 43
0.00000001
 12
1.0
 22
0.0
 32
0.0
 13
1.0
 23
0.0
 33
0.0
 40
0.0
 40
0.0
 40
0.0
 40
0.0
 40
0.2500000000000008
 40
0.2500000000000008
 40
0.5000000000000017
 40
0.5000000000000017
 40
1.0
 40
1.0
 40
1.0
 40
1.0
 10
743.206982108829
 20
466.045279005618
 30
0.0
 10
743.206982108829
 20
466.4905490723915
 30
0.0
 10
743.1816488555359
 20
466.9378168401577
 30
0.0
 10
743.0836119684592
 20
467.8226056503271
 30
0.0
 10
743.0110025995302
 20
468.2620407978597
 30
0.0
 10
742.7309559005963
 20
469.5725415089497
 30
0.0
 10
742.4615420716905
 20
470.4358327092979
 30
0.0
 10
742.1351853391047
 20
471.2919809631545
 30
0.0
  0
SPLINE
  5
101
330
1F
100
AcDbEntity
  8
0
  6
Continuous
 62
     7
370
    15
100
AcDbSpline
210
0.0
220
0.0
230
1.0
 70
     8
 71
     3
 72
    10
 73
     6
 74
     0
 42
0.00000001
 43
0.00000001
 12
1.0
 22
0.0
 32
0.0
 13
1.0
 23
0.0
 33
0.0
 40
0.0
 40
0.0
 40
0.0
 40
0.0
 40
0.5000000000000003
 40
0.5000000000000003
 40
1.0
 40
1.0
 40
1.0
 40
1.0
 10
742.1351853391049
 20
471.2919809631545
 30
0.0
 10
742.4623591002164
 20
472.3621304078424
 30
0.0
 10
742.7319016441347
 20
473.4400966356678
 30
0.0
 10
743.1048341523929
 20
475.6185651185889
 30
0.0
 10
743.206982108829
 20
476.7192358328446
 30
0.0
 10
743.206982108829
 20
477.8337613373039
 30
0.0
  0
LINE
  5
102
330
1F
100
AcDbEntity
  8
0
  6
Continuous
 62
     7
370
    15
100
AcDbLine
 10
743.2069827823
 20
466.0452789666
 30
0.0
 11
743.2069827823
 21
477.83376221
 31
0.0
  0
SPLINE
  5
103
330
1F
100
AcDbEntity
  8
0
  6
Continuous
 62
     7
370
    15
100
AcDbSpline
210
0.0
220
0.0
230
1.0
 70
     8
 71
     3
 72
    10
 73
     6
 74
     0
 42
0.00000001
 43
0.00000001
 12
1.0
 22
0.0
 32
0.0
 13
1.0
 23
0.0
 33
0.0
 40
0.0
 40
0.0
 40
0.0
 40
0.0
 40
0.5
 40
0.5
 40
1.0
 40
1.0
 40
1.0
 40
1.0
 10
742.1351853391049
 20
460.7985770480815
 30
0.0
 10
742.4623591002164
 20
461.6568686545207
 30
0.0
 10
742.7319016441346
 20
462.5214295529634
 30
0.0
 10
743.1048341523929
 20
464.2686259123734
 30
0.0
 10
743.206982108829
 20
465.1513964825853
 30
0.0
 10
743.206982108829
 20
466.045279005618
 30
0.0
  0
LINE
  5
104
330
1F
100
AcDbEntity
  8
0
  6
Continuous
 62
     7
370
    15
100
AcDbLine
 10
742.1351869611
 20
460.7985770834
 30
0.0
 11
729.2069842128
 21
460.7985770834
 31
0.0
  0
LINE
  5
105
330
1F
100
AcDbEntity
  8
0
  6
Continuous
 62
     7
370
    15
100
AcDbLine
 10
742.1351869611
 20
471.2919810826
 30
0.0
 11
729.2069842128
 21
471.2919810826
 31
0.0
  0
SPLINE
  5
106
330
1F
100
AcDbEntity
  8
0
  6
Continuous
 62
     7
370
    15
100
AcDbSpline
210
0.0
220
0.0
230
1.0
 70
     8
 71
     3
 72
    12
 73
     8
 74
     0
 42
0.00000001
 43
0.00000001
 12
1.0
 22
0.0
 32
0.0
 13
1.0
 23
0.0
 33
0.0
 40
0.0
 40
0.0
 40
0.0
 40
0.0
 40
0.2499999999999992
 40
0.2499999999999992
 40
0.4999999999999983
 40
0.4999999999999983
 40
1.0
 40
1.0
 40
1.0
 40
1.0
 10
743.206982108829
 20
477.8337613373039
 30
0.0
 10
743.206982108829
 20
478.3889403826528
 30
0.0
 10
743.1816488555359
 20
478.9466102348462
 30
0.0
 10
743.0836119684592
 20
480.049797364681
 30
0.0
 10
743.0110025995302
 20
480.5977012187794
 30
0.0
 10
742.7309559005963
 20
482.2316815556657
 30
0.0
 10
742.4615420716905
 20
483.3080646773526
 30
0.0
 10
742.1351853391047
 20
484.3755417114533
 30
0.0
  0
LINE
  5
107
330
1F
100
AcDbEntity
  8
0
  6
Continuous
 62
     7
370
    15
100
AcDbLine
 10
742.1351869611
 20
484.3755414748
 30
0.0
 11
729.2069842128
 21
484.3755414748
 31
0.0
  0
SPLINE
  5
108
330
1F
100
AcDbEntity
  8
0
  6
Continuous
 62
     7
370
    15
100
AcDbSpline
210
0.0
220
0.0
230
1.0
 70
     8
 71
     3
 72
    12
 73
     8
 74
     0
 42
0.00000001
 43
0.00000001
 12
1.0
 22
0.0
 32
0.0
 13
1.0
 23
0.0
 33
0.0
 40
0.0
 40
0.0
 40
0.0
 40
0.0
 40
0.25
 40
0.25
 40
0.5
 40
0.5
 40
1.0
 40
1.0
 40
1.0
 40
1.0
 10
743.206982108829
 20
543.6495309421643
 30
0.0
 10
743.206982108829
 20
544.2359054746145
 30
0.0
 10
743.181648855536
 20
544.8249107722404
 30
0.0
 10
743.0836119684592
 20
545.9900859402894
 30
0.0
 10
743.0110025995302
 20
546.5687764888
 30
0.0
 10
742.7309559005963
 20
548.2945701117782
 30
0.0
 10
742.4615420716905
 20
549.4314351555942
 30
0.0
 10
742.1351853391047
 20
550.5588936791386
 30
0.0
  0
SPLINE
  5
109
330
1F
100
AcDbEntity
  8
0
  6
Continuous
 62
     7
370
    15
100
AcDbSpline
210
0.0
220
0.0
230
1.0
 70
     8
 71
     3
 72
    10
 73
     6
 74
     0
 42
0.00000001
 43
0.00000001
 12
1.0
 22
0.0
 32
0.0
 13
1.0
 23
0.0
 33
0.0
 40
0.0
 40
0.0
 40
0.0
 40
0.0
 40
0.5
 40
0.5
 40
1.0
 40
1.0
 40
1.0
 40
1.0
 10
742.1351853391049
 20
536.7401682051902
 30
0.0
 10
742.4623591002164
 20
537.87044930196
 30
0.0
 10
742.7319016441347
 20
539.0089864065815
 30
0.0
 10
743.1048341523929
 20
541.3098629415148
 30
0.0
 10
743.206982108829
 20
542.4723802966996
 30
0.0
 10
743.206982108829
 20
543.6495309421643
 30
0.0
  0
LINE
  5
10A
330
1F
100
AcDbEntity
  8
0
  6
Continuous
 62
     7
370
    15
100
AcDbLine
 10
742.1351869611
 20
536.7401702368
 30
0.0
 11
729.2069842128
 21
536.7401702368
 31
0.0
  0
LINE
  5
10B
330
1F
100
AcDbEntity
  8
0
  6
Continuous
 62
     7
370
    15
100
AcDbLine
 10
742.1351869611
 20
550.5588961804
 30
0.0
 11
729.2069842128
 21
550.5588961804
 31
0.0
  0
SPLINE
  5
10C
330
1F
100
AcDbEntity
  8
0
  6
Continuous
 62
     7
370
    15
100
AcDbSpline
210
0.0
220
0.0
230
1.0
 70
     8
 71
     3
 72
    12
 73
     8
 74
     0
 42
0.00000001
 43
0.00000001
 12
1.0
 22
0.0
 32
0.0
 13
1.0
 23
0.0
 33
0.0
 40
0.0
 40
0.0
 40
0.0
 40
0.0
 40
0.2499999999999987
 40
0.2499999999999987
 40
0.4999999999999973
 40
0.4999999999999973
 40
1.0
 40
1.0
 40
1.0
 40
1.0
 10
743.206982108829
 20
532.8432991766713
 30
0.0
 10
743.206982108829
 20
533.1727481873122
 30
0.0
 10
743.1820907013691
 20
533.5032524648291
 30
0.0
 10
743.0831675770853
 20
534.166344314704
 30
0.0
 10
743.0096470598952
 20
534.4954655562972
 30
0.0
 10
742.7278924117419
 20
535.4716990576428
 30
0.0
 10
742.4585741889804
 20
536.1100662085655
 30
0.0
 10
742.1351853391046
 20
536.7401682051902
 30
0.0
  0
LINE
  5
10D
330
1F
100
AcDbEntity
  8
0
  6
Continuous
 62
     7
370
    15
100
AcDbLine
 10
743.2069827823
 20
532.8433005178
 30
0.0
 11
743.2069827823
 21
543.6495332086
 31
0.0
  0
SPLINE
  5
10E
330
1F
100
AcDbEntity
  8
0
  6
Continuous
 62
     7
370
    15
100
AcDbSpline
210
0.0
220
0.0
230
1.0
 70
     8
 71
     3
 72
    10
 73
     6
 74
     0
 42
0.00000001
 43
0.00000001
 12
1.0
 22
0.0
 32
0.0
 13
1.0
 23
0.0
 33
0.0
 40
0.0
 40
0.0
 40
0.0
 40
0.0
 40
0.5000000000000001
 40
0.5000000000000001
 40
1.0
 40
1.0
 40
1.0
 40
1.0
 10
512.2787788785535
 20
460.4978769365753
 30
0.0
 10
511.9534950818158
 20
461.2946562601776
 30
0.0
 10
511.6806681246168
 20
462.1107145957128
 30
0.0
 10
511.307615162074
 20
463.7465259286569
 30
0.0
 10
511.206982108829
 20
464.5690094561014
 30
0.0
 10
511.206982108829
 20
465.3968564221417
 30
0.0
  0
LINE
  5
10F
330
1F
100
AcDbEntity
  8
0
  6
Continuous
 62
     7
370
    15
100
AcDbLine
 10
512.2787778286
 20
460.4978768892
 30
0.0
 11
525.2069805769
 21
460.4978768892
 31
0.0
  0
SPLINE
  5
110
330
1F
100
AcDbEntity
  8
0
  6
Continuous
 62
     7
370
    15
100
AcDbSpline
210
0.0
220
0.0
230
1.0
 70
     8
 71
     3
 72
    10
 73
     6
 74
     0
 42
0.00000001
 43
0.00000001
 12
1.0
 22
0.0
 32
0.0
 13
1.0
 23
0.0
 33
0.0
 40
0.0
 40
0.0
 40
0.0
 40
0.0
 40
0.5
 40
0.5
 40
1.0
 40
1.0
 40
1.0
 40
1.0
 10
742.1351853391049
 20
550.5588936791386
 30
0.0
 10
742.4623591002164
 20
551.0516981275986
 30
0.0
 10
742.7319016441347
 20
551.5481022092891
 30
0.0
 10
743.1048341523929
 20
552.5512882264783
 30
0.0
 10
743.206982108829
 20
553.0581477375188
 30
0.0
 10
743.206982108829
 20
553.5713873875939
 30
0.0
  0
LINE
  5
111
330
1F
100
AcDbEntity
  8
0
  6
Continuous
 62
     7
370
    15
100
AcDbLine
 10
743.2069827823
 20
543.6495332086
 30
0.0
 11
743.2069827823
 21
553.5713894331
 31
0.0
  0
SPLINE
  5
112
330
1F
100
AcDbEntity
  8
0
  6
Continuous
 62
     7
370
    15
100
AcDbSpline
210
0.0
220
0.0
230
1.0
 70
     8
 71
     3
 72
    12
 73
     8
 74
     0
 42
0.00000001
 43
0.00000001
 12
1.0
 22
0.0
 32
0.0
 13
1.0
 23
0.0
 33
0.0
 40
0.0
 40
0.0
 40
0.0
 40
0.0
 40
0.2500000000000002
 40
0.2500000000000002
 40
0.5000000000000004
 40
0.5000000000000004
 40
1.0
 40
1.0
 40
1.0
 40
1.0
 10
511.206982108829
 20
485.4732477118491
 30
0.0
 10
511.206982108829
 20
485.3210689818237
 30
0.0
 10
511.2323153621222
 20
485.1682075030067
 30
0.0
 10
511.330352249199
 20
484.8658156569797
 30
0.0
 10
511.4029616181278
 20
484.715631111307
 30
0.0
 10
511.6830083170618
 20
484.2677448759799
 30
0.0
 10
511.9524221459676
 20
483.9727002091263
 30
0.0
 10
512.2787788785533
 20
483.680096767513
 30
0.0
  0
LINE
  5
113
330
1F
100
AcDbEntity
  8
0
  6
Continuous
 62
     7
370
    15
100
AcDbLine
 10
511.2069820074
 20
485.4732485527
 30
0.0
 11
511.2069820074
 21
476.9879667127
 31
0.0
  0
SPLINE
  5
114
330
1F
100
AcDbEntity
  8
0
  6
Continuous
 62
     7
370
    15
100
AcDbSpline
210
0.0
220
0.0
230
1.0
 70
     8
 71
     3
 72
    10
 73
     6
 74
     0
 42
0.00000001
 43
0.00000001
 12
1.0
 22
0.0
 32
0.0
 13
1.0
 23
0.0
 33
0.0
 40
0.0
 40
0.0
 40
0.0
 40
0.0
 40
0.5
 40
0.5
 40
1.0
 40
1.0
 40
1.0
 40
1.0
 10
742.1351853391046
 20
528.9464301481523
 30
0.0
 10
742.4604691358422
 20
529.5802243246452
 30
0.0
 10
742.7332960930413
 20
530.2293538959327
 30
0.0
 10
743.106349055584
 20
531.5305519390416
 30
0.0
 10
743.206982108829
 20
532.1847923974899
 30
0.0
 10
743.206982108829
 20
532.8432991766713
 30
0.0
  0
LINE
  5
115
330
1F
100
AcDbEntity
  8
0
  6
Continuous
 62
     7
370
    15
100
AcDbLine
 10
742.1351869611
 20
528.9464307988
 30
0.0
 11
729.2069842128
 21
528.9464307988
 31
0.0
  0
SPLINE
  5
116
330
1F
100
AcDbEntity
  8
0
  6
Continuous
 62
     7
370
    15
100
AcDbSpline
210
0.0
220
0.0
230
1.0
 70
     8
 71
     3
 72
    12
 73
     8
 74
     0
 42
0.00000001
 43
0.00000001
 12
1.0
 22
0.0
 32
0.0
 13
1.0
 23
0.0
 33
0.0
 40
0.0
 40
0.0
 40
0.0
 40
0.0
 40
0.2500000000000011
 40
0.2500000000000011
 40
0.5000000000000021
 40
0.5000000000000021
 40
1.0
 40
1.0
 40
1.0
 40
1.0
 10
511.206982108829
 20
553.157460467514
 30
0.0
 10
511.206982108829
 20
552.8634737364273
 30
0.0
 10
511.2323153621222
 20
552.568168035959
 30
0.0
 10
511.330352249199
 20
551.9839918484855
 30
0.0
 10
511.4029616181278
 20
551.693857585736
 30
0.0
 10
511.6830083170618
 20
550.8286078218526
 30
0.0
 10
511.9524221459676
 20
550.258625294607
 30
0.0
 10
512.2787788785533
 20
549.6933588523763
 30
0.0
  0
SPLINE
  5
117
330
1F
100
AcDbEntity
  8
0
  6
Continuous
 62
     7
370
    15
100
AcDbSpline
210
0.0
220
0.0
230
1.0
 70
     8
 71
     3
 72
    12
 73
     8
 74
     0
 42
0.00000001
 43
0.00000001
 12
1.0
 22
0.0
 32
0.0
 13
1.0
 23
0.0
 33
0.0
 40
0.0
 40
0.0
 40
0.0
 40
0.0
 40
0.2499999999999998
 40
0.2499999999999998
 40
0.4999999999999996
 40
0.4999999999999996
 40
1.0
 40
1.0
 40
1.0
 40
1.0
 10
511.206982108829
 20
542.7651556221008
 30
0.0
 10
511.206982108829
 20
543.3508796182191
 30
0.0
 10
511.2318735162891
 20
543.9384797624257
 30
0.0
 10
511.3307966405727
 20
545.1173839192378
 30
0.0
 10
511.4043171577629
 20
545.7025251781484
 30
0.0
 10
511.6860718059163
 20
547.4381606455013
 30
0.0
 10
511.9553900286778
 20
548.5731070152038
 30
0.0
 10
512.2787788785536
 20
549.6933588523763
 30
0.0
  0
LINE
  5
118
330
1F
100
AcDbEntity
  8
0
  6
Continuous
 62
     7
370
    15
100
AcDbLine
 10
511.2069820074
 20
553.1574575269
 30
0.0
 11
511.2069820074
 21
542.7651567423
 31
0.0
  0
SPLINE
  5
119
330
1F
100
AcDbEntity
  8
0
  6
Continuous
 62
     7
370
    15
100
AcDbSpline
210
0.0
220
0.0
230
1.0
 70
     8
 71
     3
 72
    10
 73
     6
 74
     0
 42
0.00000001
 43
0.00000001
 12
1.0
 22
0.0
 32
0.0
 13
1.0
 23
0.0
 33
0.0
 40
0.0
 40
0.0
 40
0.0
 40
0.0
 40
0.5
 40
0.5
 40
1.0
 40
1.0
 40
1.0
 40
1.0
 10
512.2787788785532
 20
535.8369523918253
 30
0.0
 10
511.9516051174417
 20
535.2702708146767
 30
0.0
 10
511.6820625735235
 20
534.6994499773356
 30
0.0
 10
511.3091300652652
 20
533.5458746876432
 30
0.0
 10
511.206982108829
 20
532.963031030272
 30
0.0
 10
511.206982108829
 20
532.3728507766875
 30
0.0
  0
SPLINE
  5
11A
330
1F
100
AcDbEntity
  8
0
  6
Continuous
 62
     7
370
    15
100
AcDbSpline
210
0.0
220
0.0
230
1.0
 70
     8
 71
     3
 72
    10
 73
     6
 74
     0
 42
0.00000001
 43
0.00000001
 12
1.0
 22
0.0
 32
0.0
 13
1.0
 23
0.0
 33
0.0
 40
0.0
 40
0.0
 40
0.0
 40
0.0
 40
0.5
 40
0.5
 40
1.0
 40
1.0
 40
1.0
 40
1.0
 10
512.2787788785535
 20
535.8369523918253
 30
0.0
 10
511.9534950818158
 20
536.963768517482
 30
0.0
 10
511.6806681246168
 20
538.1178492832836
 30
0.0
 10
511.307615162074
 20
540.4312358558166
 30
0.0
 10
511.206982108829
 20
541.5944032151572
 30
0.0
 10
511.206982108829
 20
542.7651556221008
 30
0.0
  0
LINE
  5
11B
330
1F
100
AcDbEntity
  8
0
  6
Continuous
 62
     7
370
    15
100
AcDbLine
 10
511.2069820074
 20
542.7651567423
 30
0.0
 11
511.2069820074
 21
532.3728485072
 31
0.0
  0
SPLINE
  5
11C
330
1F
100
AcDbEntity
  8
0
  6
Continuous
 62
     7
370
    15
100
AcDbSpline
210
0.0
220
0.0
230
1.0
 70
     8
 71
     3
 72
    10
 73
     6
 74
     0
 42
0.00000001
 43
0.00000001
 12
1.0
 22
0.0
 32
0.0
 13
1.0
 23
0.0
 33
0.0
 40
0.0
 40
0.0
 40
0.0
 40
0.0
 40
0.5
 40
0.5
 40
1.0
 40
1.0
 40
1.0
 40
1.0
 10
512.2787788785532
 20
556.6215620826517
 30
0.0
 10
511.9516051174417
 20
556.0548805055032
 30
0.0
 10
511.6820625735235
 20
555.4840596681621
 30
0.0
 10
511.3091300652652
 20
554.3304843784697
 30
0.0
 10
511.206982108829
 20
553.7476407210986
 30
0.0
 10
511.206982108829
 20
553.157460467514
 30
0.0
  0
LINE
  5
11D
330
1F
100
AcDbEntity
  8
0
  6
Continuous
 62
     7
370
    15
100
AcDbLine
 10
512.2787778286
 20
556.621560272
 30
0.0
 11
525.2069805769
 21
556.621560272
 31
0.0
  0
LINE
  5
11E
330
1F
100
AcDbEntity
  8
0
  6
Continuous
 62
     7
370
    15
100
AcDbLine
 10
512.2787778286
 20
549.6933622324
 30
0.0
 11
525.2069805769
 21
549.6933622324
 31
0.0
  0
SPLINE
  5
11F
330
1F
100
AcDbEntity
  8
0
  6
Continuous
 62
     7
370
    15
100
AcDbSpline
210
0.0
220
0.0
230
1.0
 70
     8
 71
     3
 72
    12
 73
     8
 74
     0
 42
0.00000001
 43
0.00000001
 12
1.0
 22
0.0
 32
0.0
 13
1.0
 23
0.0
 33
0.0
 40
0.0
 40
0.0
 40
0.0
 40
0.0
 40
0.249999999999999
 40
0.249999999999999
 40
0.499999999999998
 40
0.499999999999998
 40
1.0
 40
1.0
 40
1.0
 40
1.0
 10
511.206982108829
 20
532.3728507766875
 30
0.0
 10
511.206982108829
 20
532.0788640456008
 30
0.0
 10
511.2323153621222
 20
531.7835583451326
 30
0.0
 10
511.330352249199
 20
531.1993821576591
 30
0.0
 10
511.4029616181278
 20
530.9092478949095
 30
0.0
 10
511.6830083170618
 20
530.043998131026
 30
0.0
 10
511.9524221459676
 20
529.4740156037805
 30
0.0
 10
512.2787788785533
 20
528.9087491615497
 30
0.0
  0
LINE
  5
120
330
1F
100
AcDbEntity
  8
0
  6
Continuous
 62
     7
370
    15
100
AcDbLine
 10
512.2787778286
 20
535.8369512522
 30
0.0
 11
525.2069805769
 21
535.8369512522
 31
0.0
  0
LINE
  5
121
330
1F
100
AcDbEntity
  8
0
  6
Continuous
 62
     7
370
    15
100
AcDbLine
 10
512.2787778286
 20
528.9087457621
 30
0.0
 11
525.2069805769
 21
528.9087457621
 31
0.0
  0
SPLINE
  5
122
330
1F
100
AcDbEntity
  8
0
  6
Continuous
 62
     7
370
    15
100
AcDbSpline
210
0.0
220
0.0
230
1.0
 70
     8
 71
     3
 72
    12
 73
     8
 74
     0
 42
0.00000001
 43
0.00000001
 12
1.0
 22
0.0
 32
0.0
 13
1.0
 23
0.0
 33
0.0
 40
0.0
 40
0.0
 40
0.0
 40
0.0
 40
0.25
 40
0.25
 40
0.5
 40
0.5
 40
1.0
 40
1.0
 40
1.0
 40
1.0
 10
743.206982108829
 20
553.5713873875939
 30
0.0
 10
743.206982108829
 20
553.8270476643877
 30
0.0
 10
743.181648855536
 20
554.083854959198
 30
0.0
 10
743.0836119684592
 20
554.5918732810921
 30
0.0
 10
743.0110025995302
 20
554.8441833280378
 30
0.0
 10
742.7309559005963
 20
555.5966322338527
 30
0.0
 10
742.4615420716905
 20
556.0923072942358
 30
0.0
 10
742.1351853391047
 20
556.5838810960491
 30
0.0
  0
LINE
  5
123
330
1F
100
AcDbEntity
  8
0
  6
Continuous
 62
     7
370
    15
100
AcDbLine
 10
742.1351869611
 20
556.5838826859
 30
0.0
 11
729.2069842128
 21
556.5838826859
 31
0.0
  0
SPLINE
  5
124
330
1F
100
AcDbEntity
  8
0
  6
Continuous
 62
     7
370
    15
100
AcDbSpline
210
0.0
220
0.0
230
1.0
 70
     8
 71
     3
 72
    12
 73
     8
 74
     0
 42
0.00000001
 43
0.00000001
 12
1.0
 22
0.0
 32
0.0
 13
1.0
 23
0.0
 33
0.0
 40
0.0
 40
0.0
 40
0.0
 40
0.0
 40
0.2499999999999981
 40
0.2499999999999981
 40
0.4999999999999962
 40
0.4999999999999962
 40
1.0
 40
1.0
 40
1.0
 40
1.0
 10
743.206982108829
 20
485.6706201280662
 30
0.0
 10
743.206982108829
 20
485.5611316387346
 30
0.0
 10
743.1820907013691
 20
485.4512924439149
 30
0.0
 10
743.0831675770854
 20
485.2309216958296
 30
0.0
 10
743.0096470598952
 20
485.1215421366716
 30
0.0
 10
742.7278924117418
 20
484.7971024575562
 30
0.0
 10
742.4585741889803
 20
484.5849486712769
 30
0.0
 10
742.1351853391046
 20
484.3755417114533
 30
0.0
  0
LINE
  5
125
330
1F
100
AcDbEntity
  8
0
  6
Continuous
 62
     7
370
    15
100
AcDbLine
 10
743.2069827823
 20
477.83376221
 30
0.0
 11
743.2069827823
 21
485.6706200206
 31
0.0
  0
SPLINE
  5
126
330
1F
100
AcDbEntity
  8
0
  6
Continuous
 62
     7
370
    15
100
AcDbSpline
210
0.0
220
0.0
230
1.0
 70
     8
 71
     3
 72
    10
 73
     6
 74
     0
 42
0.00000001
 43
0.00000001
 12
1.0
 22
0.0
 32
0.0
 13
1.0
 23
0.0
 33
0.0
 40
0.0
 40
0.0
 40
0.0
 40
0.0
 40
0.5
 40
0.5
 40
1.0
 40
1.0
 40
1.0
 40
1.0
 10
512.2787788785532
 20
487.2663986561852
 30
0.0
 10
511.9516051174417
 20
486.9730626868356
 30
0.0
 10
511.6820625735235
 20
486.6775840787451
 30
0.0
 10
511.3091300652652
 20
486.080449568881
 30
0.0
 10
511.206982108829
 20
485.7787474911913
 30
0.0
 10
511.206982108829
 20
485.4732477118491
 30
0.0
  0
LINE
  5
127
330
1F
100
AcDbEntity
  8
0
  6
Continuous
 62
     7
370
    15
100
AcDbLine
 10
512.2787778286
 20
487.2663984114
 30
0.0
 11
525.2069805769
 21
487.2663984114
 31
0.0
  0
SPLINE
  5
128
330
1F
100
AcDbEntity
  8
0
  6
Continuous
 62
     7
370
    15
100
AcDbSpline
210
0.0
220
0.0
230
1.0
 70
     8
 71
     3
 72
    11
 73
     7
 74
     0
 42
0.00000001
 43
0.00000001
 12
1.0
 22
0.0
 32
0.0
 13
1.0
 23
0.0
 33
0.0
 40
0.0
 40
0.0
 40
0.0
 40
0.0
 40
0.1853200813274312
 40
0.4551063568038417
 40
0.727540085434442
 40
0.9999999999999999
 40
0.9999999999999999
 40
0.9999999999999999
 40
0.9999999999999999
 10
743.0747945813447
 20
461.6668372453777
 30
0.0
 10
743.0430677009709
 20
461.612353100151
 30
0.0
 10
742.9651532902051
 20
461.4785517297865
 30
0.0
 10
742.7594952606229
 20
461.2667353499763
 30
0.0
 10
742.4813782703643
 20
461.0314624391765
 30
0.0
 10
742.2505877612222
 20
460.8762080223618
 30
0.0
 10
742.1351869611054
 20
460.7985770834265
 30
0.0
  0
LINE
  5
129
330
1F
100
AcDbEntity
  8
0
  6
Continuous
 62
     7
370
    15
100
AcDbLine
 10
743.2069827823
 20
461.882137837
 30
0.0
 11
743.2069827823
 21
466.0452789666
 31
0.0
  0
SPLINE
  5
12A
330
1F
100
AcDbEntity
  8
0
  6
Continuous
 62
     7
370
    15
100
AcDbSpline
210
0.0
220
0.0
230
1.0
 70
     8
 71
     3
 72
    10
 73
     6
 74
     0
 42
0.00000001
 43
0.00000001
 12
1.0
 22
0.0
 32
0.0
 13
1.0
 23
0.0
 33
0.0
 40
0.0
 40
0.0
 40
0.0
 40
0.0
 40
0.5
 40
0.5
 40
1.0
 40
1.0
 40
1.0
 40
1.0
 10
742.1351853391046
 20
486.9656985446791
 30
0.0
 10
742.4604691358422
 20
486.7550645324647
 30
0.0
 10
742.7332960930413
 20
486.5393339828344
 30
0.0
 10
743.106349055584
 20
486.1068961746769
 30
0.0
 10
743.206982108829
 20
485.889467082036
 30
0.0
 10
743.206982108829
 20
485.6706201280662
 30
0.0
  0
LINE
  5
12B
330
1F
100
AcDbEntity
  8
0
  6
Continuous
 62
     7
370
    15
100
AcDbLine
 10
742.1351869611
 20
486.9656985664
 30
0.0
 11
729.2069842128
 21
486.9656985664
 31
0.0
  0
SPLINE
  5
12C
330
1F
100
AcDbEntity
  8
0
  6
Continuous
 62
     7
370
    15
100
AcDbSpline
210
0.0
220
0.0
230
1.0
 70
     8
 71
     3
 72
    11
 73
     7
 74
     0
 42
0.00000001
 43
0.00000001
 12
1.0
 22
0.0
 32
0.0
 13
1.0
 23
0.0
 33
0.0
 40
0.0
 40
0.0
 40
0.0
 40
0.0
 40
0.3051756535627493
 40
0.6104369155367819
 40
0.9155391605868687
 40
1.0
 40
1.0
 40
1.0
 40
1.0
 10
512.2787778286248
 20
460.4978768892241
 30
0.0
 10
512.1746293517023
 20
460.5943945390356
 30
0.0
 10
511.9663031819429
 20
460.7874569139595
 30
0.0
 10
511.7095499783431
 20
461.0806374282151
 30
0.0
 10
511.5363769111212
 20
461.3045127193403
 30
0.0
 10
511.4715238198226
 20
461.4313160629813
 30
0.0
 10
511.457463076523
 20
461.4588081875471
 30
0.0
  0
LINE
  5
12D
330
1F
100
AcDbEntity
  8
0
  6
Continuous
 62
     7
370
    15
100
AcDbLine
 10
511.2069820074
 20
465.3968563342
 30
0.0
 11
511.2069820074
 21
461.882137837
 31
0.0
  0
LINE
  5
12E
330
1F
100
AcDbEntity
  8
0
  6
Continuous
 62
     7
370
    15
100
AcDbLine
 10
792.2069777755
 20
481.8821376228
 30
0.0
 11
792.2069777755
 21
465.8821377942
 31
0.0
  0
LINE
  5
12F
330
1F
100
AcDbEntity
  8
0
  6
Continuous
 62
     7
370
    15
100
AcDbLine
 10
462.2069795636
 20
481.8821376228
 30
0.0
 11
462.2069795636
 21
465.8821377942
 31
0.0
  0
LINE
  5
130
330
1F
100
AcDbEntity
  8
0
  6
Continuous
 62
     7
370
    15
100
AcDbLine
 10
462.2069795636
 20
535.196715411
 30
0.0
 11
462.2069795636
 21
534.765155431
 31
0.0
  0
LINE
  5
131
330
1F
100
AcDbEntity
  8
0
  6
Continuous
 62
     7
370
    15
100
AcDbLine
 10
462.2069795636
 20
550.7651580536
 30
0.0
 11
462.2069795636
 21
535.196715411
 31
0.0
  0
LINE
  5
132
330
1F
100
AcDbEntity
  8
0
  6
Continuous
 62
     7
370
    15
100
AcDbLine
 10
792.2069777755
 20
535.196715411
 30
0.0
 11
792.2069777755
 21
534.765155431
 31
0.0
  0
LINE
  5
133
330
1F
100
AcDbEntity
  8
0
  6
Continuous
 62
     7
370
    15
100
AcDbLine
 10
792.2069777755
 20
550.7651580536
 30
0.0
 11
792.2069777755
 21
535.196715411
 31
0.0
  0
SPLINE
  5
134
330
1F
100
AcDbEntity
  8
0
  6
Continuous
 62
     7
370
    15
100
AcDbSpline
210
0.0
220
0.0
230
1.0
 70
     8
 71
     3
 72
     9
 73
     5
 74
     0
 42
0.00000001
 43
0.00000001
 12
1.0
 22
0.0
 32
0.0
 13
1.0
 23
0.0
 33
0.0
 40
0.0
 40
0.0
 40
0.0
 40
0.0
 40
0.0633428677103644
 40
1.0
 40
1.0
 40
1.0
 40
1.0
 10
742.4402882365495
 20
529.4395027720956
 30
0.0
 10
742.4346624246169
 20
529.4290019621521
 30
0.0
 10
742.3458471856501
 20
529.2632246564655
 30
0.0
 10
742.2370720075186
 20
529.0996469883218
 30
0.0
 10
742.1351869611054
 20
528.9464307987718
 30
0.0
  0
LINE
  5
135
330
1F
100
AcDbEntity
  8
0
  6
Continuous
 62
     7
370
    15
100
AcDbLine
 10
743.2069827823
 20
530.7651547754
 30
0.0
 11
743.2069827823
 21
532.8433005178
 31
0.0
  0
LINE
  5
136
330
1F
100
AcDbEntity
  8
0
  6
Continuous
 62
     7
370
    15
100
AcDbLine
 10
511.2069820074
 20
532.3728485072
 30
0.0
 11
511.2069820074
 21
530.7651547754
 31
0.0
  0
LINE
  5
137
330
1F
100
AcDbEntity
  8
0
  6
Continuous
 62
     7
370
    15
100
AcDbLine
 10
511.2069820074
 20
554.7651587093
 30
0.0
 11
511.2069820074
 21
553.1574575269
 31
0.0
  0
LINE
  5
138
330
1F
100
AcDbEntity
  8
0
  6
Continuous
 62
     7
370
    15
100
AcDbLine
 10
743.2069827823
 20
553.5713894331
 30
0.0
 11
743.2069827823
 21
554.7651587093
 31
0.0
  0
LINE
  5
139
330
1F
100
AcDbEntity
  8
0
  6
Continuous
 62
     7
370
    15
100
AcDbLine
 10
511.2069820074
 20
485.8821382785
 30
0.0
 11
511.2069820074
 21
485.4732485527
 31
0.0
  0
LINE
  5
13A
330
1F
100
AcDbEntity
  8
0
  6
Continuous
 62
     7
370
    15
100
AcDbLine
 10
743.2069827823
 20
485.6706200206
 30
0.0
 11
743.2069827823
 21
485.8821382785
 31
0.0
  0
LINE
  5
13B
330
1F
100
AcDbEntity
  8
0
  6
Continuous
 62
     7
370
    15
100
AcDbLine
 10
589.7320367416
 20
444.241584655
 30
0.0
 11
589.7320367416
 21
465.8821377942
 31
0.0
  0
LINE
  5
13C
330
1F
100
AcDbEntity
  8
0
  6
Continuous
 62
     7
370
    15
100
AcDbLine
 10
589.7320367416
 20
481.8821376228
 30
0.0
 11
589.7320367416
 21
534.765155431
 31
0.0
  0
LINE
  5
13D
330
1F
100
AcDbEntity
  8
0
  6
Continuous
 62
     7
370
    15
100
AcDbLine
 10
589.7320367416
 20
550.7651580536
 30
0.0
 11
589.7320367416
 21
572.4057121241
 31
0.0
  0
LINE
  5
13E
330
1F
100
AcDbEntity
  8
0
  6
Continuous
 62
     7
370
    15
100
AcDbLine
 10
525.2069805769
 20
407.9244894946
 30
0.0
 11
525.2069805769
 21
442.4244886303
 31
0.0
  0
LINE
  5
13F
330
1F
100
AcDbEntity
  8
0
  6
Continuous
 62
     7
370
    15
100
AcDbLine
 10
729.2069842128
 20
434.8770039195
 30
0.0
 11
729.2069842128
 21
407.9244894946
 31
0.0
  0
LINE
  5
140
330
1F
100
AcDbEntity
  8
0
  6
Continuous
 62
     7
370
    15
100
AcDbLine
 10
729.2069842128
 20
442.4244886303
 30
0.0
 11
729.2069842128
 21
434.8770039195
 31
0.0
  0
LINE
  5
141
330
1F
100
AcDbEntity
  8
0
  6
Continuous
 62
     7
370
    15
100
AcDbLine
 10
729.2069842128
 20
608.7228072846
 30
0.0
 11
729.2069842128
 21
574.2228044236
 31
0.0
  0
LINE
  5
142
330
1F
100
AcDbEntity
  8
0
  6
Continuous
 62
     7
370
    15
100
AcDbLine
 10
525.2069805769
 20
603.6703897679
 30
0.0
 11
525.2069805769
 21
608.7228072846
 31
0.0
  0
LINE
  5
143
330
1F
100
AcDbEntity
  8
0
  6
Continuous
 62
     7
370
    15
100
AcDbLine
 10
525.2069805769
 20
574.2228044236
 30
0.0
 11
525.2069805769
 21
603.6703897679
 31
0.0
  0
SPLINE
  5
144
330
1F
100
AcDbEntity
  8
0
  6
Continuous
 62
     7
370
    15
100
AcDbSpline
210
0.0
220
0.0
230
1.0
 70
     8
 71
     3
 72
    10
 73
     6
 74
     0
 42
0.00000001
 43
0.00000001
 12
1.0
 22
0.0
 32
0.0
 13
1.0
 23
0.0
 33
0.0
 40
0.0
 40
0.0
 40
0.0
 40
0.0
 40
0.5000000000000003
 40
0.5000000000000003
 40
1.0
 40
1.0
 40
1.0
 40
1.0
 10
512.2787788785532
 20
595.0591065239279
 30
0.0
 10
511.9516051174417
 20
593.9643617826279
 30
0.0
 10
511.6820625735235
 20
592.8616206046844
 30
0.0
 10
511.3091300652652
 20
590.6330842749188
 30
0.0
 10
511.206982108829
 20
589.5071167922316
 30
0.0
 10
511.206982108829
 20
588.3669760940254
 30
0.0
  0
LINE
  5
145
330
1F
100
AcDbEntity
  8
0
  6
Continuous
 62
     7
370
    15
100
AcDbLine
 10
511.2069820074
 20
599.958093282
 30
0.0
 11
511.2069820074
 21
588.3669717276
 31
0.0
  0
SPLINE
  5
146
330
1F
100
AcDbEntity
  8
0
  6
Continuous
 62
     7
370
    15
100
AcDbSpline
210
0.0
220
0.0
230
1.0
 70
     8
 71
     3
 72
    10
 73
     6
 74
     0
 42
0.00000001
 43
0.00000001
 12
1.0
 22
0.0
 32
0.0
 13
1.0
 23
0.0
 33
0.0
 40
0.0
 40
0.0
 40
0.0
 40
0.0
 40
0.5
 40
0.5
 40
1.0
 40
1.0
 40
1.0
 40
1.0
 10
512.2787788785535
 20
595.0591065239279
 30
0.0
 10
511.9534950818158
 20
595.8558858475301
 30
0.0
 10
511.6806681246168
 20
596.6719441830654
 30
0.0
 10
511.307615162074
 20
598.3077555160095
 30
0.0
 10
511.206982108829
 20
599.130239043454
 30
0.0
 10
511.206982108829
 20
599.9580860094943
 30
0.0
  0
SPLINE
  5
147
330
1F
100
AcDbEntity
  8
0
  6
Continuous
 62
     7
370
    15
100
AcDbSpline
210
0.0
220
0.0
230
1.0
 70
     8
 71
     3
 72
    12
 73
     8
 74
     0
 42
0.00000001
 43
0.00000001
 12
1.0
 22
0.0
 32
0.0
 13
1.0
 23
0.0
 33
0.0
 40
0.0
 40
0.0
 40
0.0
 40
0.0
 40
0.2499999999999998
 40
0.2499999999999998
 40
0.4999999999999996
 40
0.4999999999999996
 40
1.0
 40
1.0
 40
1.0
 40
1.0
 10
511.206982108829
 20
588.3669760940254
 30
0.0
 10
511.206982108829
 20
587.7990373417394
 30
0.0
 10
511.2323153621221
 20
587.2285505362743
 30
0.0
 10
511.330352249199
 20
586.1000088031068
 30
0.0
 10
511.4029616181278
 20
585.5395124481447
 30
0.0
 10
511.6830083170618
 20
583.8679782618934
 30
0.0
 10
511.9524221459676
 20
582.7668565746935
 30
0.0
 10
512.2787788785533
 20
581.6748456641229
 30
0.0
  0
LINE
  5
148
330
1F
100
AcDbEntity
  8
0
  6
Continuous
 62
     7
370
    15
100
AcDbLine
 10
512.2787778286
 20
595.0591130221
 30
0.0
 11
525.2069805769
 21
595.0591130221
 31
0.0
  0
LINE
  5
149
330
1F
100
AcDbEntity
  8
0
  6
Continuous
 62
     7
370
    15
100
AcDbLine
 10
512.2787778286
 20
581.6748453343
 30
0.0
 11
525.2069805769
 21
581.6748453343
 31
0.0
  0
SPLINE
  5
14A
330
1F
100
AcDbEntity
  8
0
  6
Continuous
 62
     7
370
    15
100
AcDbSpline
210
0.0
220
0.0
230
1.0
 70
     8
 71
     3
 72
    12
 73
     8
 74
     0
 42
0.00000001
 43
0.00000001
 12
1.0
 22
0.0
 32
0.0
 13
1.0
 23
0.0
 33
0.0
 40
0.0
 40
0.0
 40
0.0
 40
0.0
 40
0.2499999999999998
 40
0.2499999999999998
 40
0.4999999999999996
 40
0.4999999999999996
 40
1.0
 40
1.0
 40
1.0
 40
1.0
 10
511.206982108829
 20
419.1744887832144
 30
0.0
 10
511.206982108829
 20
418.665288828221
 30
0.0
 10
511.2323153621221
 20
418.1538043512455
 30
0.0
 10
511.330352249199
 20
417.1419815139694
 30
0.0
 10
511.4029616181278
 20
416.6394542298709
 30
0.0
 10
511.6830083170618
 20
415.1407976775876
 30
0.0
 10
511.9524221459676
 20
414.1535589809718
 30
0.0
 10
512.2787788785533
 20
413.1744887832144
 30
0.0
  0
SPLINE
  5
14B
330
1F
100
AcDbEntity
  8
0
  6
Continuous
 62
     7
370
    15
100
AcDbSpline
210
0.0
220
0.0
230
1.0
 70
     8
 71
     3
 72
    10
 73
     6
 74
     0
 42
0.00000001
 43
0.00000001
 12
1.0
 22
0.0
 32
0.0
 13
1.0
 23
0.0
 33
0.0
 40
0.0
 40
0.0
 40
0.0
 40
0.0
 40
0.5
 40
0.5
 40
1.0
 40
1.0
 40
1.0
 40
1.0
 10
512.2787788785532
 20
425.1744887832144
 30
0.0
 10
511.9516051174417
 20
424.1929674998799
 30
0.0
 10
511.6820625735235
 20
423.204276807586
 30
0.0
 10
511.3091300652652
 20
421.2062257954827
 30
0.0
 10
511.206982108829
 20
420.1967109680467
 30
0.0
 10
511.206982108829
 20
419.1744887832144
 30
0.0
  0
LINE
  5
14C
330
1F
100
AcDbEntity
  8
0
  6
Continuous
 62
     7
370
    15
100
AcDbLine
 10
512.2787778286
 20
425.1744871998
 30
0.0
 11
525.2069805769
 21
425.1744871998
 31
0.0
  0
LINE
  5
14D
330
1F
100
AcDbEntity
  8
0
  6
Continuous
 62
     7
370
    15
100
AcDbLine
 10
512.2787778286
 20
413.1744889581
 30
0.0
 11
525.2069805769
 21
413.1744889581
 31
0.0
  0
SPLINE
  5
14E
330
1F
100
AcDbEntity
  8
0
  6
Continuous
 62
     7
370
    15
100
AcDbSpline
210
0.0
220
0.0
230
1.0
 70
     8
 71
     3
 72
    12
 73
     8
 74
     0
 42
0.00000001
 43
0.00000001
 12
1.0
 22
0.0
 32
0.0
 13
1.0
 23
0.0
 33
0.0
 40
0.0
 40
0.0
 40
0.0
 40
0.0
 40
0.2500000000000002
 40
0.2500000000000002
 40
0.5000000000000003
 40
0.5000000000000003
 40
1.0
 40
1.0
 40
1.0
 40
1.0
 10
511.206982108829
 20
431.1744887832144
 30
0.0
 10
511.206982108829
 20
430.665288828221
 30
0.0
 10
511.2323153621222
 20
430.1538043512455
 30
0.0
 10
511.330352249199
 20
429.1419815139694
 30
0.0
 10
511.4029616181278
 20
428.6394542298708
 30
0.0
 10
511.6830083170618
 20
427.1407976775875
 30
0.0
 10
511.9524221459676
 20
426.1535589809718
 30
0.0
 10
512.2787788785533
 20
425.1744887832144
 30
0.0
  0
LINE
  5
14F
330
1F
100
AcDbEntity
  8
0
  6
Continuous
 62
     7
370
    15
100
AcDbLine
 10
511.2069820074
 20
431.1744881833
 30
0.0
 11
511.2069820074
 21
419.1744899416
 31
0.0
  0
SPLINE
  5
150
330
1F
100
AcDbEntity
  8
0
  6
Continuous
 62
     7
370
    15
100
AcDbSpline
210
0.0
220
0.0
230
1.0
 70
     8
 71
     3
 72
    10
 73
     6
 74
     0
 42
0.00000001
 43
0.00000001
 12
1.0
 22
0.0
 32
0.0
 13
1.0
 23
0.0
 33
0.0
 40
0.0
 40
0.0
 40
0.0
 40
0.0
 40
0.5
 40
0.5
 40
1.0
 40
1.0
 40
1.0
 40
1.0
 10
512.2787788785532
 20
437.1744887832144
 30
0.0
 10
511.9516051174417
 20
436.1929674998798
 30
0.0
 10
511.6820625735235
 20
435.2042768075859
 30
0.0
 10
511.3091300652652
 20
433.2062257954827
 30
0.0
 10
511.206982108829
 20
432.1967109680466
 30
0.0
 10
511.206982108829
 20
431.1744887832144
 30
0.0
  0
LINE
  5
151
330
1F
100
AcDbEntity
  8
0
  6
Continuous
 62
     7
370
    15
100
AcDbLine
 10
512.2787778286
 20
437.1744891667
 30
0.0
 11
525.2069805769
 21
437.1744891667
 31
0.0
  0
SPLINE
  5
152
330
1F
100
AcDbEntity
  8
0
  6
Continuous
 62
     7
370
    15
100
AcDbSpline
210
0.0
220
0.0
230
1.0
 70
     8
 71
     3
 72
    10
 73
     6
 74
     0
 42
0.00000001
 43
0.00000001
 12
1.0
 22
0.0
 32
0.0
 13
1.0
 23
0.0
 33
0.0
 40
0.0
 40
0.0
 40
0.0
 40
0.0
 40
0.5
 40
0.5
 40
1.0
 40
1.0
 40
1.0
 40
1.0
 10
742.1351853391046
 20
437.6524504206802
 30
0.0
 10
742.4604691358422
 20
436.7207747674168
 30
0.0
 10
742.7332960930413
 20
435.766556127024
 30
0.0
 10
743.106349055584
 20
433.8537986707359
 30
0.0
 10
743.206982108829
 20
432.8920670406203
 30
0.0
 10
743.206982108829
 20
431.9240639310507
 30
0.0
  0
SPLINE
  5
153
330
1F
100
AcDbEntity
  8
0
  6
Continuous
 62
     7
370
    15
100
AcDbSpline
210
0.0
220
0.0
230
1.0
 70
     8
 71
     3
 72
    12
 73
     8
 74
     0
 42
0.00000001
 43
0.00000001
 12
1.0
 22
0.0
 32
0.0
 13
1.0
 23
0.0
 33
0.0
 40
0.0
 40
0.0
 40
0.0
 40
0.0
 40
0.2499999999999997
 40
0.2499999999999997
 40
0.4999999999999993
 40
0.4999999999999993
 40
1.0
 40
1.0
 40
1.0
 40
1.0
 10
743.206982108829
 20
431.9240639310507
 30
0.0
 10
743.206982108829
 20
431.4397748138733
 30
0.0
 10
743.1820907013691
 20
430.9539344573623
 30
0.0
 10
743.0831675770854
 20
429.9791913067949
 30
0.0
 10
743.0096470598952
 20
429.495384009194
 30
0.0
 10
742.7278924117419
 20
428.0603235134715
 30
0.0
 10
742.4585741889804
 20
427.1219256006838
 30
0.0
 10
742.1351853391046
 20
426.1956774414212
 30
0.0
  0
LINE
  5
154
330
1F
100
AcDbEntity
  8
0
  6
Continuous
 62
     7
370
    15
100
AcDbLine
 10
742.1351869611
 20
426.1956786776
 30
0.0
 11
729.2069842128
 21
426.1956786776
 31
0.0
  0
LINE
  5
155
330
1F
100
AcDbEntity
  8
0
  6
Continuous
 62
     7
370
    15
100
AcDbLine
 10
742.1351869611
 20
437.6524495
 30
0.0
 11
729.2069842128
 21
437.6524495
 31
0.0
  0
SPLINE
  5
156
330
1F
100
AcDbEntity
  8
0
  6
Continuous
 62
     7
370
    15
100
AcDbSpline
210
0.0
220
0.0
230
1.0
 70
     8
 71
     3
 72
    12
 73
     8
 74
     0
 42
0.00000001
 43
0.00000001
 12
1.0
 22
0.0
 32
0.0
 13
1.0
 23
0.0
 33
0.0
 40
0.0
 40
0.0
 40
0.0
 40
0.0
 40
0.2500000000000007
 40
0.2500000000000007
 40
0.5000000000000013
 40
0.5000000000000013
 40
1.0
 40
1.0
 40
1.0
 40
1.0
 10
743.206982108829
 20
419.9566966226882
 30
0.0
 10
743.206982108829
 20
420.4861780813721
 30
0.0
 10
743.1816488555359
 20
421.0180350548604
 30
0.0
 10
743.0836119684591
 20
422.070158933814
 30
0.0
 10
743.0110025995303
 20
422.5927019482108
 30
0.0
 10
742.7309559005963
 20
424.1510501954715
 30
0.0
 10
742.4615420716905
 20
425.1776107440876
 30
0.0
 10
742.1351853391047
 20
426.1956774414212
 30
0.0
  0
SPLINE
  5
157
330
1F
100
AcDbEntity
  8
0
  6
Continuous
 62
     7
370
    15
100
AcDbSpline
210
0.0
220
0.0
230
1.0
 70
     8
 71
     3
 72
    10
 73
     6
 74
     0
 42
0.00000001
 43
0.00000001
 12
1.0
 22
0.0
 32
0.0
 13
1.0
 23
0.0
 33
0.0
 40
0.0
 40
0.0
 40
0.0
 40
0.0
 40
0.5
 40
0.5
 40
1.0
 40
1.0
 40
1.0
 40
1.0
 10
742.135185339105
 20
413.7177158039553
 30
0.0
 10
742.4623591002164
 20
414.738331213939
 30
0.0
 10
742.7319016441347
 20
415.7664015914193
 30
0.0
 10
743.1048341523929
 20
417.8440352479797
 30
0.0
 10
743.206982108829
 20
418.8937591887463
 30
0.0
 10
743.206982108829
 20
419.9566966226882
 30
0.0
  0
LINE
  5
158
330
1F
100
AcDbEntity
  8
0
  6
Continuous
 62
     7
370
    15
100
AcDbLine
 10
742.1351869611
 20
413.7177145147
 30
0.0
 11
729.2069842128
 21
413.7177145147
 31
0.0
  0
LINE
  5
159
330
1F
100
AcDbEntity
  8
0
  6
Continuous
 62
     7
370
    15
100
AcDbLine
 10
743.2069827823
 20
419.9566965961
 30
0.0
 11
743.2069827823
 21
431.9240631574
 31
0.0
  0
SPLINE
  5
15A
330
1F
100
AcDbEntity
  8
0
  6
Continuous
 62
     7
370
    15
100
AcDbSpline
210
0.0
220
0.0
230
1.0
 70
     8
 71
     3
 72
    12
 73
     8
 74
     0
 42
0.00000001
 43
0.00000001
 12
1.0
 22
0.0
 32
0.0
 13
1.0
 23
0.0
 33
0.0
 40
0.0
 40
0.0
 40
0.0
 40
0.0
 40
0.2500000000000024
 40
0.2500000000000024
 40
0.5000000000000048
 40
0.5000000000000048
 40
1.0
 40
1.0
 40
1.0
 40
1.0
 10
743.206982108829
 20
589.2296630178963
 30
0.0
 10
743.206982108829
 20
589.8050627661866
 30
0.0
 10
743.1820907013691
 20
590.3823055926931
 30
0.0
 10
743.0831675770854
 20
591.5404298279705
 30
0.0
 10
743.0096470598952
 20
592.1152571106546
 30
0.0
 10
742.7278924117419
 20
593.820299447416
 30
0.0
 10
742.4585741889804
 20
594.9352407163035
 30
0.0
 10
742.1351853391046
 20
596.0357464654323
 30
0.0
  0
SPLINE
  5
15B
330
1F
100
AcDbEntity
  8
0
  6
Continuous
 62
     7
370
    15
100
AcDbSpline
210
0.0
220
0.0
230
1.0
 70
     8
 71
     3
 72
    10
 73
     6
 74
     0
 42
0.00000001
 43
0.00000001
 12
1.0
 22
0.0
 32
0.0
 13
1.0
 23
0.0
 33
0.0
 40
0.0
 40
0.0
 40
0.0
 40
0.0
 40
0.5
 40
0.5
 40
1.0
 40
1.0
 40
1.0
 40
1.0
 10
742.1351853391046
 20
582.4235795703603
 30
0.0
 10
742.4604691358422
 20
583.530533902724
 30
0.0
 10
742.7332960930413
 20
584.6642722958064
 30
0.0
 10
743.106349055584
 20
586.9368820238618
 30
0.0
 10
743.206982108829
 20
588.0795468458934
 30
0.0
 10
743.206982108829
 20
589.2296630178963
 30
0.0
  0
LINE
  5
15C
330
1F
100
AcDbEntity
  8
0
  6
Continuous
 62
     7
370
    15
100
AcDbLine
 10
742.1351869611
 20
582.4235765302
 30
0.0
 11
729.2069842128
 21
582.4235765302
 31
0.0
  0
LINE
  5
15D
330
1F
100
AcDbEntity
  8
0
  6
Continuous
 62
     7
370
    15
100
AcDbLine
 10
742.1351869611
 20
596.0357500279
 30
0.0
 11
729.2069842128
 21
596.0357500279
 31
0.0
  0
SPLINE
  5
15E
330
1F
100
AcDbEntity
  8
0
  6
Continuous
 62
     7
370
    15
100
AcDbSpline
210
0.0
220
0.0
230
1.0
 70
     8
 71
     3
 72
    10
 73
     6
 74
     0
 42
0.00000001
 43
0.00000001
 12
1.0
 22
0.0
 32
0.0
 13
1.0
 23
0.0
 33
0.0
 40
0.0
 40
0.0
 40
0.0
 40
0.0
 40
0.5
 40
0.5
 40
1.0
 40
1.0
 40
1.0
 40
1.0
 10
742.1351853391049
 20
596.0357464654322
 30
0.0
 10
742.4623591002164
 20
596.7759137153389
 30
0.0
 10
742.7319016441347
 20
597.5214874315168
 30
0.0
 10
743.1048341523929
 20
599.0282218731555
 30
0.0
 10
743.206982108829
 20
599.7894991131404
 30
0.0
 10
743.206982108829
 20
600.56035899788
 30
0.0
  0
LINE
  5
15F
330
1F
100
AcDbEntity
  8
0
  6
Continuous
 62
     7
370
    15
100
AcDbLine
 10
743.2069827823
 20
589.2296595538
 30
0.0
 11
743.2069827823
 21
600.560353514
 31
0.0
  0
SPLINE
  5
160
330
1F
100
AcDbEntity
  8
0
  6
Continuous
 62
     7
370
    15
100
AcDbSpline
210
0.0
220
0.0
230
1.0
 70
     8
 71
     3
 72
    12
 73
     8
 74
     0
 42
0.00000001
 43
0.00000001
 12
1.0
 22
0.0
 32
0.0
 13
1.0
 23
0.0
 33
0.0
 40
0.0
 40
0.0
 40
0.0
 40
0.0
 40
0.2499999999999998
 40
0.2499999999999998
 40
0.4999999999999996
 40
0.4999999999999996
 40
1.0
 40
1.0
 40
1.0
 40
1.0
 10
511.206982108829
 20
599.9580860094943
 30
0.0
 10
511.206982108829
 20
600.3722554190532
 30
0.0
 10
511.2318735162891
 20
600.7877514656481
 30
0.0
 10
511.3307966405727
 20
601.6213625892988
 30
0.0
 10
511.4043171577629
 20
602.0351199414265
 30
0.0
 10
511.6860718059163
 20
603.2623995500596
 30
0.0
 10
511.9553900286778
 20
604.0649278243595
 30
0.0
 10
512.2787788785536
 20
604.8570654950607
 30
0.0
  0
LINE
  5
161
330
1F
100
AcDbEntity
  8
0
  6
Continuous
 62
     7
370
    15
100
AcDbLine
 10
512.2787778286
 20
604.8570586407
 30
0.0
 11
525.2069805769
 21
604.8570586407
 31
0.0
  0
SPLINE
  5
162
330
1F
100
AcDbEntity
  8
0
  6
Continuous
 62
     7
370
    15
100
AcDbSpline
210
0.0
220
0.0
230
1.0
 70
     8
 71
     3
 72
    12
 73
     8
 74
     0
 42
0.00000001
 43
0.00000001
 12
1.0
 22
0.0
 32
0.0
 13
1.0
 23
0.0
 33
0.0
 40
0.0
 40
0.0
 40
0.0
 40
0.0
 40
0.2499999999999981
 40
0.2499999999999981
 40
0.4999999999999962
 40
0.4999999999999962
 40
1.0
 40
1.0
 40
1.0
 40
1.0
 10
743.206982108829
 20
600.56035899788
 30
0.0
 10
743.206982108829
 20
600.9443477475276
 30
0.0
 10
743.181648855536
 20
601.3300592599735
 30
0.0
 10
743.0836119684592
 20
602.0930769749996
 30
0.0
 10
743.0110025995303
 20
602.4720338495878
 30
0.0
 10
742.7309559005963
 20
603.6021738859705
 30
0.0
 10
742.4615420716905
 20
604.3466526491745
 30
0.0
 10
742.1351853391047
 20
605.0849715303278
 30
0.0
  0
LINE
  5
163
330
1F
100
AcDbEntity
  8
0
  6
Continuous
 62
     7
370
    15
100
AcDbLine
 10
742.1351869611
 20
605.0849719012
 30
0.0
 11
729.2069842128
 21
605.0849719012
 31
0.0
  0
SPLINE
  5
164
330
1F
100
AcDbEntity
  8
0
  6
Continuous
 62
     7
370
    15
100
AcDbSpline
210
0.0
220
0.0
230
1.0
 70
     8
 71
     3
 72
    10
 73
     6
 74
     0
 42
0.00000001
 43
0.00000001
 12
1.0
 22
0.0
 32
0.0
 13
1.0
 23
0.0
 33
0.0
 40
0.0
 40
0.0
 40
0.0
 40
0.0
 40
0.5
 40
0.5
 40
1.0
 40
1.0
 40
1.0
 40
1.0
 10
512.2787788785532
 20
581.674845664123
 30
0.0
 10
511.9516051174417
 20
581.3815096947735
 30
0.0
 10
511.6820625735235
 20
581.086031086683
 30
0.0
 10
511.3091300652652
 20
580.4888965768189
 30
0.0
 10
511.206982108829
 20
580.1871944991293
 30
0.0
 10
511.206982108829
 20
579.881694719787
 30
0.0
  0
LINE
  5
165
330
1F
100
AcDbEntity
  8
0
  6
Continuous
 62
     7
370
    15
100
AcDbLine
 10
511.2069820074
 20
588.3669717276
 30
0.0
 11
511.2069820074
 21
579.8816917503
 31
0.0
  0
LINE
  5
166
330
1F
100
AcDbEntity
  8
0
  6
Continuous
 62
     7
370
    15
100
AcDbLine
 10
743.2069827823
 20
580.1421118939
 30
0.0
 11
743.2069827823
 21
589.2296595538
 31
0.0
  0
SPLINE
  5
167
330
1F
100
AcDbEntity
  8
0
  6
Continuous
 62
     7
370
    15
100
AcDbSpline
210
0.0
220
0.0
230
1.0
 70
     8
 71
     3
 72
    12
 73
     8
 74
     0
 42
0.00000001
 43
0.00000001
 12
1.0
 22
0.0
 32
0.0
 13
1.0
 23
0.0
 33
0.0
 40
0.0
 40
0.0
 40
0.0
 40
0.0
 40
0.2499999999999998
 40
0.2499999999999998
 40
0.4999999999999996
 40
0.4999999999999996
 40
1.0
 40
1.0
 40
1.0
 40
1.0
 10
743.206982108829
 20
580.1421086552722
 30
0.0
 10
743.206982108829
 20
580.3357294698191
 30
0.0
 10
743.1816488555359
 20
580.5302189627756
 30
0.0
 10
743.0836119684592
 20
580.9149596918534
 30
0.0
 10
743.0110025995302
 20
581.1060432556383
 30
0.0
 10
742.7309559005963
 20
581.6759001449284
 30
0.0
 10
742.4615420716905
 20
582.0512928736915
 30
0.0
 10
742.1351853391047
 20
582.4235795703603
 30
0.0
  0
SPLINE
  5
168
330
1F
100
AcDbEntity
  8
0
  6
Continuous
 62
     7
370
    15
100
AcDbSpline
210
0.0
220
0.0
230
1.0
 70
     8
 71
     3
 72
    12
 73
     8
 74
     0
 42
0.00000001
 43
0.00000001
 12
1.0
 22
0.0
 32
0.0
 13
1.0
 23
0.0
 33
0.0
 40
0.0
 40
0.0
 40
0.0
 40
0.0
 40
0.2500000000000001
 40
0.2500000000000001
 40
0.5000000000000001
 40
0.5000000000000001
 40
1.0
 40
1.0
 40
1.0
 40
1.0
 10
743.206982108829
 20
413.2071214748519
 30
0.0
 10
743.206982108829
 20
413.2504539097519
 30
0.0
 10
743.181648855536
 20
413.2939807553132
 30
0.0
 10
743.0836119684592
 20
413.3800859224417
 30
0.0
 10
743.0110025995302
 20
413.422850519355
 30
0.0
 10
742.7309559005963
 20
413.5503847754999
 30
0.0
 10
742.4615420716906
 20
413.6343978554938
 30
0.0
 10
742.1351853391047
 20
413.7177158039553
 30
0.0
  0
LINE
  5
169
330
1F
100
AcDbEntity
  8
0
  6
Continuous
 62
     7
370
    15
100
AcDbLine
 10
743.2069827823
 20
413.2071225011
 30
0.0
 11
743.2069827823
 21
419.9566965961
 31
0.0
  0
SPLINE
  5
16A
330
1F
100
AcDbEntity
  8
0
  6
Continuous
 62
     7
370
    15
100
AcDbSpline
210
0.0
220
0.0
230
1.0
 70
     8
 71
     3
 72
    10
 73
     6
 74
     0
 42
0.00000001
 43
0.00000001
 12
1.0
 22
0.0
 32
0.0
 13
1.0
 23
0.0
 33
0.0
 40
0.0
 40
0.0
 40
0.0
 40
0.0
 40
0.5
 40
0.5
 40
1.0
 40
1.0
 40
1.0
 40
1.0
 10
742.1351853391049
 20
577.860637740184
 30
0.0
 10
742.4623591002164
 20
578.2338564502618
 30
0.0
 10
742.7319016441346
 20
578.609801293343
 30
0.0
 10
743.1048341523929
 20
579.3695505051724
 30
0.0
 10
743.206982108829
 20
579.7534136246967
 30
0.0
 10
743.206982108829
 20
580.1421086552722
 30
0.0
  0
LINE
  5
16B
330
1F
100
AcDbEntity
  8
0
  6
Continuous
 62
     7
370
    15
100
AcDbLine
 10
742.1351869611
 20
577.860639807
 30
0.0
 11
729.2069842128
 21
577.860639807
 31
0.0
  0
SPLINE
  5
16C
330
1F
100
AcDbEntity
  8
0
  6
Continuous
 62
     7
370
    15
100
AcDbSpline
210
0.0
220
0.0
230
1.0
 70
    24
 71
     3
 72
    12
 73
     8
 74
     0
 42
0.00000001
 43
0.00000001
 12
1.0
 22
0.0
 32
0.0
 13
1.0
 23
0.0
 33
0.0
 40
0.0
 40
0.0
 40
0.0
 40
0.0
 40
0.2500000000000009
 40
0.2500000000000009
 40
0.5000000000000019
 40
0.5000000000000019
 40
1.0
 40
1.0
 40
1.0
 40
1.0
 10
511.206982108829
 20
437.1744887832144
 30
0.0
 10
511.206982108829
 20
437.1744887832144
 30
0.0
 10
511.2318735162891
 20
437.1744887832144
 30
0.0
 10
511.3307966405727
 20
437.1744887832144
 30
0.0
 10
511.4043171577628
 20
437.1744887832144
 30
0.0
 10
511.6860718059163
 20
437.1744887832144
 30
0.0
 10
511.9553900286778
 20
437.1744887832144
 30
0.0
 10
512.2787788785536
 20
437.1744887832144
 30
0.0
  0
LINE
  5
16D
330
1F
100
AcDbEntity
  8
0
  6
Continuous
 62
     7
370
    15
100
AcDbLine
 10
511.2069820074
 20
437.1744891667
 30
0.0
 11
511.2069820074
 21
431.1744881833
 31
0.0
  0
SPLINE
  5
16E
330
1F
100
AcDbEntity
  8
0
  6
Continuous
 62
     7
370
    15
100
AcDbSpline
210
0.0
220
0.0
230
1.0
 70
    24
 71
     3
 72
    12
 73
     8
 74
     0
 42
0.00000001
 43
0.00000001
 12
1.0
 22
0.0
 32
0.0
 13
1.0
 23
0.0
 33
0.0
 40
0.0
 40
0.0
 40
0.0
 40
0.0
 40
0.2500000000000005
 40
0.2500000000000005
 40
0.500000000000001
 40
0.500000000000001
 40
1.0
 40
1.0
 40
1.0
 40
1.0
 10
511.206982108829
 20
413.1744887832144
 30
0.0
 10
511.206982108829
 20
413.1744887832144
 30
0.0
 10
511.2318735162891
 20
413.1744887832144
 30
0.0
 10
511.3307966405727
 20
413.1744887832144
 30
0.0
 10
511.4043171577628
 20
413.1744887832144
 30
0.0
 10
511.6860718059162
 20
413.1744887832144
 30
0.0
 10
511.9553900286778
 20
413.1744887832144
 30
0.0
 10
512.2787788785536
 20
413.1744887832144
 30
0.0
  0
LINE
  5
16F
330
1F
100
AcDbEntity
  8
0
  6
Continuous
 62
     7
370
    15
100
AcDbLine
 10
511.2069820074
 20
419.1744899416
 30
0.0
 11
511.2069820074
 21
413.1744889581
 31
0.0
  0
SPLINE
  5
170
330
1F
100
AcDbEntity
  8
0
  6
Continuous
 62
     7
370
    15
100
AcDbSpline
210
0.0
220
0.0
230
1.0
 70
     8
 71
     3
 72
    13
 73
     9
 74
     0
 42
0.00000001
 43
0.00000001
 12
1.0
 22
0.0
 32
0.0
 13
1.0
 23
0.0
 33
0.0
 40
0.0
 40
0.0
 40
0.0
 40
0.0
 40
0.1889473576390182
 40
0.3779485579556819
 40
0.5668510931764893
 40
0.759320894492468
 40
0.951913568539129
 40
1.0
 40
1.0
 40
1.0
 40
1.0
 10
742.1351869611054
 20
437.6524494999675
 30
0.0
 10
742.239121467196
 20
437.6249647048409
 30
0.0
 10
742.4470200966855
 20
437.5699872824856
 30
0.0
 10
742.7069840033677
 20
437.4865408109281
 30
0.0
 10
742.9243534062437
 20
437.401882858206
 30
0.0
 10
743.0805847050209
 20
437.3159798110223
 30
0.0
 10
743.1674015325516
 20
437.2508075998453
 30
0.0
 10
743.179141342603
 20
437.2144749218079
 30
0.0
 10
743.1814868954926
 20
437.2072158420114
 30
0.0
  0
LINE
  5
171
330
1F
100
AcDbEntity
  8
0
  6
Continuous
 62
     7
370
    15
100
AcDbLine
 10
743.2069827823
 20
431.9240631574
 30
0.0
 11
743.2069827823
 21
437.1744891667
 31
0.0
  0
SPLINE
  5
172
330
1F
100
AcDbEntity
  8
0
  6
Continuous
 62
     7
370
    15
100
AcDbSpline
210
0.0
220
0.0
230
1.0
 70
     8
 71
     3
 72
    12
 73
     8
 74
     0
 42
0.00000001
 43
0.00000001
 12
1.0
 22
0.0
 32
0.0
 13
1.0
 23
0.0
 33
0.0
 40
0.0
 40
0.0
 40
0.0
 40
0.0
 40
0.2499999999999991
 40
0.2499999999999991
 40
0.4999999999999981
 40
0.4999999999999981
 40
1.0
 40
1.0
 40
1.0
 40
1.0
 10
511.206982108829
 20
579.881694719787
 30
0.0
 10
511.206982108829
 20
579.7295159897616
 30
0.0
 10
511.2323153621222
 20
579.5766545109446
 30
0.0
 10
511.330352249199
 20
579.2742626649176
 30
0.0
 10
511.4029616181278
 20
579.1240781192449
 30
0.0
 10
511.6830083170618
 20
578.6761918839179
 30
0.0
 10
511.9524221459676
 20
578.3811472170644
 30
0.0
 10
512.2787788785533
 20
578.088543775451
 30
0.0
  0
LINE
  5
173
330
1F
100
AcDbEntity
  8
0
  6
Continuous
 62
     7
370
    15
100
AcDbLine
 10
512.2787778286
 20
578.0885456169
 30
0.0
 11
525.2069805769
 21
578.0885456169
 31
0.0
  0
SPLINE
  5
174
330
1F
100
AcDbEntity
  8
0
  6
Continuous
 62
     7
370
    15
100
AcDbSpline
210
0.0
220
0.0
230
1.0
 70
     8
 71
     3
 72
    11
 73
     7
 74
     0
 42
0.00000001
 43
0.00000001
 12
1.0
 22
0.0
 32
0.0
 13
1.0
 23
0.0
 33
0.0
 40
0.0
 40
0.0
 40
0.0
 40
0.0
 40
0.1328505825304447
 40
0.4218377685970464
 40
0.7109550954224626
 40
0.9999999999999999
 40
0.9999999999999999
 40
0.9999999999999999
 40
0.9999999999999999
 10
511.4576791433603
 20
603.8961274588136
 30
0.0
 10
511.4812499396207
 20
603.9393195109267
 30
0.0
 10
511.5560938124075
 20
604.0764663606996
 30
0.0
 10
511.7347931329583
 20
604.3054052012135
 30
0.0
 10
511.9825279144552
 20
604.5828206816728
 30
0.0
 10
512.1800361040478
 20
604.7656536217634
 30
0.0
 10
512.2787778286248
 20
604.8570586407212
 30
0.0
  0
LINE
  5
175
330
1F
100
AcDbEntity
  8
0
  6
Continuous
 62
     7
370
    15
100
AcDbLine
 10
511.2069820074
 20
603.4728003705
 30
0.0
 11
511.2069820074
 21
599.958093282
 31
0.0
  0
LINE
  5
176
330
1F
100
AcDbEntity
  8
0
  6
Continuous
 62
     7
370
    15
100
AcDbLine
 10
462.2069795636
 20
433.1744885111
 30
0.0
 11
462.2069795636
 21
417.1744896138
 31
0.0
  0
LINE
  5
177
330
1F
100
AcDbEntity
  8
0
  6
Continuous
 62
     7
370
    15
100
AcDbLine
 10
792.2069777755
 20
433.1744885111
 30
0.0
 11
792.2069777755
 21
417.1744896138
 31
0.0
  0
LINE
  5
178
330
1F
100
AcDbEntity
  8
0
  6
Continuous
 62
     7
370
    15
100
AcDbLine
 10
462.2069795636
 20
587.953971144
 30
0.0
 11
462.2069795636
 21
583.4728045428
 31
0.0
  0
LINE
  5
179
330
1F
100
AcDbEntity
  8
0
  6
Continuous
 62
     7
370
    15
100
AcDbLine
 10
462.2069795636
 20
587.953971144
 30
0.0
 11
462.2069795636
 21
599.4728071654
 31
0.0
  0
LINE
  5
17A
330
1F
100
AcDbEntity
  8
0
  6
Continuous
 62
     7
370
    15
100
AcDbLine
 10
792.2069777755
 20
587.953971144
 30
0.0
 11
792.2069777755
 21
583.4728045428
 31
0.0
  0
LINE
  5
17B
330
1F
100
AcDbEntity
  8
0
  6
Continuous
 62
     7
370
    15
100
AcDbLine
 10
792.2069777755
 20
587.953971144
 30
0.0
 11
792.2069777755
 21
599.4728071654
 31
0.0
  0
SPLINE
  5
17C
330
1F
100
AcDbEntity
  8
0
  6
Continuous
 62
     7
370
    15
100
AcDbSpline
210
0.0
220
0.0
230
1.0
 70
     8
 71
     3
 72
    10
 73
     6
 74
     0
 42
0.00000001
 43
0.00000001
 12
1.0
 22
0.0
 32
0.0
 13
1.0
 23
0.0
 33
0.0
 40
0.0
 40
0.0
 40
0.0
 40
0.0
 40
0.4115839820337073
 40
0.8232839715134821
 40
1.0
 40
1.0
 40
1.0
 40
1.0
 10
742.1351869611054
 20
605.0849719011811
 30
0.0
 10
742.2385293159195
 20
604.9621232913269
 30
0.0
 10
742.445243153218
 20
604.7163914459911
 30
0.0
 10
742.6629740282237
 20
604.4148499113488
 30
0.0
 10
742.7616043380553
 20
604.2355091260908
 30
0.0
 10
742.7912254838258
 20
604.1816486084489
 30
0.0
  0
LINE
  5
17D
330
1F
100
AcDbEntity
  8
0
  6
Continuous
 62
     7
370
    15
100
AcDbLine
 10
743.2069827823
 20
600.560353514
 30
0.0
 11
743.2069827823
 21
603.4728003705
 31
0.0
  0
SPLINE
  5
17E
330
1F
100
AcDbEntity
  8
0
  6
Continuous
 62
     7
370
    15
100
AcDbSpline
210
0.0
220
0.0
230
1.0
 70
     8
 71
     3
 72
    10
 73
     6
 74
     0
 42
0.00000001
 43
0.00000001
 12
1.0
 22
0.0
 32
0.0
 13
1.0
 23
0.0
 33
0.0
 40
0.0
 40
0.0
 40
0.0
 40
0.0
 40
0.5
 40
0.5
 40
1.0
 40
1.0
 40
1.0
 40
1.0
 10
742.1351853391049
 20
412.6965271457486
 30
0.0
 10
742.4623591002164
 20
412.7800536792761
 30
0.0
 10
742.7319016441347
 20
412.8641903227298
 30
0.0
 10
743.1048341523929
 20
413.0342225754031
 30
0.0
 10
743.206982108829
 20
413.1201313330754
 30
0.0
 10
743.206982108829
 20
413.2071214748519
 30
0.0
  0
LINE
  5
17F
330
1F
100
AcDbEntity
  8
0
  6
Continuous
 62
     7
370
    15
100
AcDbLine
 10
742.1351869611
 20
412.6965267622
 30
0.0
 11
729.2069842128
 21
412.6965267622
 31
0.0
  0
LINE
  5
180
330
1F
100
AcDbEntity
  8
0
  6
Continuous
 62
     7
370
    15
100
AcDbLine
 10
743.2069827823
 20
579.4728038871
 30
0.0
 11
743.2069827823
 21
580.1421118939
 31
0.0
  0
LINE
  5
181
330
1F
100
AcDbEntity
  8
0
  6
Continuous
 62
     7
370
    15
100
AcDbLine
 10
511.2069820074
 20
579.8816917503
 30
0.0
 11
511.2069820074
 21
579.4728038871
 31
0.0
  0
LINE
  5
182
330
1F
100
AcDbEntity
  8
0
  6
Continuous
 62
     7
370
    15
100
AcDbLine
 10
743.2069827823
 20
413.1744889581
 30
0.0
 11
743.2069827823
 21
413.2071225011
 31
0.0
  0
SPLINE
  5
183
330
1F
100
AcDbEntity
  8
0
  6
Continuous
 62
     7
370
    15
100
AcDbSpline
210
0.0
220
0.0
230
1.0
 70
     8
 71
     3
 72
    10
 73
     6
 74
     0
 42
0.00000001
 43
0.00000001
 12
1.0
 22
0.0
 32
0.0
 13
1.0
 23
0.0
 33
0.0
 40
0.0
 40
0.0
 40
0.0
 40
0.0
 40
0.4475627294293479
 40
0.8954675056866938
 40
1.0
 40
1.0
 40
1.0
 40
1.0
 10
512.2787778286248
 20
438.5587492996482
 30
0.0
 10
512.1979732970874
 20
438.353468638912
 30
0.0
 10
512.0363024796887
 20
437.9427504330652
 30
0.0
 10
511.8691217296154
 20
437.4812030185507
 30
0.0
 10
511.7959523722575
 20
437.2232913577747
 30
0.0
 10
511.7821072248727
 20
437.1744891667394
 30
0.0
  0
LINE
  5
184
330
1F
100
AcDbEntity
  8
0
  6
Continuous
 62
     7
370
    15
100
AcDbLine
 10
512.2787778286
 20
438.5587492996
 30
0.0
 11
525.2069805769
 21
438.5587492996
 31
0.0
  0
SPLINE
  5
185
330
1F
100
AcDbEntity
  8
0
  6
Continuous
 62
     7
370
    15
100
AcDbSpline
210
0.0
220
0.0
230
1.0
 70
     8
 71
     3
 72
     9
 73
     5
 74
     0
 42
0.00000001
 43
0.00000001
 12
1.0
 22
0.0
 32
0.0
 13
1.0
 23
0.0
 33
0.0
 40
0.0
 40
0.0
 40
0.0
 40
0.0
 40
0.4558053451120858
 40
0.9999999999999999
 40
0.9999999999999999
 40
0.9999999999999999
 40
0.9999999999999999
 10
742.6334370879441
 20
437.5075599217442
 30
0.0
 10
742.5657745856172
 20
437.7032263552836
 30
0.0
 10
742.4173285372053
 20
438.1325026585073
 30
0.0
 10
742.23461739052
 20
438.5561231191465
 30
0.0
 10
742.1351869611054
 20
438.7866551095275
 30
0.0
  0
LINE
  5
186
330
1F
100
AcDbEntity
  8
0
  6
Continuous
 62
     7
370
    15
100
AcDbLine
 10
742.1351869611
 20
438.7866551095
 30
0.0
 11
729.2069842128
 21
438.7866551095
 31
0.0
  0
SPLINE
  5
187
330
1F
100
AcDbEntity
  8
0
  6
Continuous
 62
     7
370
    15
100
AcDbSpline
210
0.0
220
0.0
230
1.0
 70
     8
 71
     3
 72
    11
 73
     7
 74
     0
 42
0.00000001
 43
0.00000001
 12
1.0
 22
0.0
 32
0.0
 13
1.0
 23
0.0
 33
0.0
 40
0.0
 40
0.0
 40
0.0
 40
0.0
 40
0.2559781672391375
 40
0.5120289720561061
 40
0.767945957988067
 40
1.0
 40
1.0
 40
1.0
 40
1.0
 10
742.1351869611054
 20
411.5623211526898
 30
0.0
 10
742.2391782472556
 20
411.6851323083853
 30
0.0
 10
742.4471903286161
 20
411.9307894692517
 30
0.0
 10
742.7063021490694
 20
412.3036859405232
 30
0.0
 10
742.9187357737857
 20
412.6677566726725
 30
0.0
 10
743.0117241165979
 20
412.9088837000126
 30
0.0
 10
743.0559446124345
 20
413.0235513711003
 30
0.0
  0
LINE
  5
188
330
1F
100
AcDbEntity
  8
0
  6
Continuous
 62
     7
370
    15
100
AcDbLine
 10
742.1351869611
 20
411.5623211527
 30
0.0
 11
729.2069842128
 21
411.5623211527
 31
0.0
  0
SPLINE
  5
189
330
1F
100
AcDbEntity
  8
0
  6
Continuous
 62
     7
370
    15
100
AcDbSpline
210
0.0
220
0.0
230
1.0
 70
     8
 71
     3
 72
    12
 73
     8
 74
     0
 42
0.00000001
 43
0.00000001
 12
1.0
 22
0.0
 32
0.0
 13
1.0
 23
0.0
 33
0.0
 40
0.0
 40
0.0
 40
0.0
 40
0.0
 40
0.1966727836910992
 40
0.3947869138538062
 40
0.5964809491745383
 40
0.7982658343681013
 40
1.0
 40
1.0
 40
1.0
 40
1.0
 10
511.2672572044641
 20
413.1744889581231
 30
0.0
 10
511.299211277557
 20
413.0823246995773
 30
0.0
 10
511.363353604038
 20
412.8973207426695
 30
0.0
 10
511.5252009641928
 20
412.6197150791101
 30
0.0
 10
511.732894506033
 20
412.341824453743
 30
0.0
 10
511.9830023865543
 20
412.0644846315237
 30
0.0
 10
512.1801942764882
 20
411.8816385247225
 30
0.0
 10
512.2787778286248
 20
411.7902269625691
 30
0.0
  0
LINE
  5
18A
330
1F
100
AcDbEntity
  8
0
  6
Continuous
 62
     7
370
    15
100
AcDbLine
 10
512.2787778286
 20
411.7902269626
 30
0.0
 11
525.2069805769
 21
411.7902269626
 31
0.0
  0
SPLINE
  5
18B
330
1F
100
AcDbEntity
  8
0
  6
Continuous
 62
     7
370
    15
100
AcDbSpline
210
0.0
220
0.0
230
1.0
 70
     8
 71
     3
 72
    11
 73
     7
 74
     0
 42
0.00000001
 43
0.00000001
 12
1.0
 22
0.0
 32
0.0
 13
1.0
 23
0.0
 33
0.0
 40
0.0
 40
0.0
 40
0.0
 40
0.0
 40
0.1328501257802361
 40
0.4218375273151848
 40
0.7109552219754107
 40
1.0
 40
1.0
 40
1.0
 40
1.0
 10
511.4576791433603
 20
437.5978050792245
 30
0.0
 10
511.481249962735
 20
437.6409979680225
 30
0.0
 10
511.556094123427
 20
437.778147867589
 30
0.0
 10
511.734793186182
 20
438.0070810059508
 30
0.0
 10
511.9825276406639
 20
438.2845119966727
 30
0.0
 10
512.1800360690871
 20
438.4673445514755
 30
0.0
 10
512.2787778286248
 20
438.5587492996482
 30
0.0
  0
SPLINE
  5
18C
330
1F
100
AcDbEntity
  8
0
  6
Continuous
 62
     7
370
    15
100
AcDbSpline
210
0.0
220
0.0
230
1.0
 70
     8
 71
     3
 72
    10
 73
     6
 74
     0
 42
0.00000001
 43
0.00000001
 12
1.0
 22
0.0
 32
0.0
 13
1.0
 23
0.0
 33
0.0
 40
0.0
 40
0.0
 40
0.0
 40
0.0
 40
0.4115831302984842
 40
0.8232836849893255
 40
1.0
 40
1.0
 40
1.0
 40
1.0
 10
742.1351869611054
 20
438.7866551095275
 30
0.0
 10
742.2385293981774
 20
438.6638075994074
 30
0.0
 10
742.4452437558498
 20
438.4180775308547
 30
0.0
 10
742.6629740245568
 20
438.1165401096621
 30
0.0
 10
742.7616043332475
 20
437.9371968209442
 30
0.0
 10
742.7912254838258
 20
437.8833355420855
 30
0.0
  0
SPLINE
  5
18D
330
1F
100
AcDbEntity
  8
0
  6
Continuous
 62
     7
370
    15
100
AcDbSpline
210
0.0
220
0.0
230
1.0
 70
     8
 71
     3
 72
     9
 73
     5
 74
     0
 42
0.00000001
 43
0.00000001
 12
1.0
 22
0.0
 32
0.0
 13
1.0
 23
0.0
 33
0.0
 40
0.0
 40
0.0
 40
0.0
 40
0.0
 40
0.634208836094044
 40
1.0
 40
1.0
 40
1.0
 40
1.0
 10
742.1351869611054
 20
460.0634123470289
 30
0.0
 10
742.2513729257731
 20
460.2946103585329
 30
0.0
 10
742.4345712006243
 20
460.6591559125303
 30
0.0
 10
742.576968479995
 20
461.0293556844885
 30
0.0
 10
742.6290561465531
 20
461.1647714899508
 30
0.0
  0
LINE
  5
18E
330
1F
100
AcDbEntity
  8
0
  6
Continuous
 62
     7
370
    15
100
AcDbLine
 10
742.1351869611
 20
460.063412347
 30
0.0
 11
729.2069842128
 21
460.063412347
 31
0.0
  0
SPLINE
  5
18F
330
1F
100
AcDbEntity
  8
0
  6
Continuous
 62
     7
370
    15
100
AcDbSpline
210
0.0
220
0.0
230
1.0
 70
     8
 71
     3
 72
     9
 73
     5
 74
     0
 42
0.00000001
 43
0.00000001
 12
1.0
 22
0.0
 32
0.0
 13
1.0
 23
0.0
 33
0.0
 40
0.0
 40
0.0
 40
0.0
 40
0.0
 40
0.5749469506541678
 40
1.0
 40
1.0
 40
1.0
 40
1.0
 10
512.2787778286248
 20
487.7385435664681
 30
0.0
 10
512.173708866462
 20
487.552200187519
 30
0.0
 10
511.9909633765635
 20
487.2280948439964
 30
0.0
 10
511.8446488414671
 20
486.8994254631168
 30
0.0
 10
511.7824574021608
 20
486.7597235405473
 30
0.0
  0
LINE
  5
190
330
1F
100
AcDbEntity
  8
0
  6
Continuous
 62
     7
370
    15
100
AcDbLine
 10
512.2787778286
 20
487.7385435665
 30
0.0
 11
525.2069805769
 21
487.7385435665
 31
0.0
  0
SPLINE
  5
191
330
1F
100
AcDbEntity
  8
0
  6
Continuous
 62
     7
370
    15
100
AcDbSpline
210
0.0
220
0.0
230
1.0
 70
     8
 71
     3
 72
     9
 73
     5
 74
     0
 42
0.00000001
 43
0.00000001
 12
1.0
 22
0.0
 32
0.0
 13
1.0
 23
0.0
 33
0.0
 40
0.0
 40
0.0
 40
0.0
 40
0.0
 40
0.4577696543285404
 40
1.0
 40
1.0
 40
1.0
 40
1.0
 10
511.7788587717325
 20
461.0085874136192
 30
0.0
 10
511.8470483440579
 20
460.857590925218
 30
0.0
 10
511.9960087910442
 20
460.5277383738891
 30
0.0
 10
512.1793595066972
 20
460.2022311961838
 30
0.0
 10
512.2787778286248
 20
460.0257313266983
 30
0.0
  0
LINE
  5
192
330
1F
100
AcDbEntity
  8
0
  6
Continuous
 62
     7
370
    15
100
AcDbLine
 10
512.2787778286
 20
460.0257313267
 30
0.0
 11
525.2069805769
 21
460.0257313267
 31
0.0
  0
SPLINE
  5
193
330
1F
100
AcDbEntity
  8
0
  6
Continuous
 62
     7
370
    15
100
AcDbSpline
210
0.0
220
0.0
230
1.0
 70
     8
 71
     3
 72
    10
 73
     6
 74
     0
 42
0.00000001
 43
0.00000001
 12
1.0
 22
0.0
 32
0.0
 13
1.0
 23
0.0
 33
0.0
 40
0.0
 40
0.0
 40
0.0
 40
0.0
 40
0.2762528152880747
 40
0.6381734153069977
 40
0.9999999999999999
 40
0.9999999999999999
 40
0.9999999999999999
 40
0.9999999999999999
 10
742.8332616595536
 20
486.4149255716828
 30
0.0
 10
742.7822304673015
 20
486.5346189393595
 30
0.0
 10
742.6643429800271
 20
486.8111233621657
 30
0.0
 10
742.4301392769601
 20
487.2400420894837
 30
0.0
 10
742.2334958850136
 20
487.5472700780429
 30
0.0
 10
742.1351869611054
 20
487.7008641177443
 30
0.0
  0
LINE
  5
194
330
1F
100
AcDbEntity
  8
0
  6
Continuous
 62
     7
370
    15
100
AcDbLine
 10
742.1351869611
 20
487.7008641177
 30
0.0
 11
729.2069842128
 21
487.7008641177
 31
0.0
  0
SPLINE
  5
195
330
1F
100
AcDbEntity
  8
0
  6
Continuous
 62
     7
370
    15
100
AcDbSpline
210
0.0
220
0.0
230
1.0
 70
     8
 71
     3
 72
     9
 73
     5
 74
     0
 42
0.00000001
 43
0.00000001
 12
1.0
 22
0.0
 32
0.0
 13
1.0
 23
0.0
 33
0.0
 40
0.0
 40
0.0
 40
0.0
 40
0.0
 40
0.0633365450747814
 40
1.0
 40
1.0
 40
1.0
 40
1.0
 10
742.4402882365495
 20
460.5564846695987
 30
0.0
 10
742.434662400032
 20
460.5459845471917
 30
0.0
 10
742.3458379068297
 20
460.3802015479039
 30
0.0
 10
742.2370678749543
 20
460.2166268183507
 30
0.0
 10
742.1351869611054
 20
460.0634123470289
 30
0.0
  0
LINE
  5
196
330
1F
100
AcDbEntity
  8
0
  6
Continuous
 62
     8
370
    15
100
AcDbLine
 10
602.9088490663
 20
433.1744885111
 30
0.0
 11
602.9088490663
 21
465.8821377942
 31
0.0
  0
LINE
  5
197
330
1F
100
AcDbEntity
  8
0
  6
Continuous
 62
     8
370
    15
100
AcDbLine
 10
602.9088490663
 20
481.8821376228
 30
0.0
 11
602.9088490663
 21
534.765155431
 31
0.0
  0
LINE
  5
198
330
1F
100
AcDbEntity
  8
0
  6
Continuous
 62
     8
370
    15
100
AcDbLine
 10
602.9088490663
 20
550.7651580536
 30
0.0
 11
602.9088490663
 21
583.4728045428
 31
0.0
  0
LINE
  5
199
330
1F
100
AcDbEntity
  8
0
  6
Continuous
 62
     8
370
    15
100
AcDbLine
 10
605.7265133617
 20
433.1744885111
 30
0.0
 11
605.7265133617
 21
465.8821377942
 31
0.0
  0
LINE
  5
19A
330
1F
100
AcDbEntity
  8
0
  6
Continuous
 62
     8
370
    15
100
AcDbLine
 10
605.7265133617
 20
481.8821376228
 30
0.0
 11
605.7265133617
 21
534.765155431
 31
0.0
  0
LINE
  5
19B
330
1F
100
AcDbEntity
  8
0
  6
Continuous
 62
     8
370
    15
100
AcDbLine
 10
605.7265133617
 20
550.7651580536
 30
0.0
 11
605.7265133617
 21
583.4728045428
 31
0.0
  0
LINE
  5
19C
330
1F
100
AcDbEntity
  8
0
  6
Continuous
 62
     8
370
    15
100
AcDbLine
 10
606.4925578443
 20
433.1744885111
 30
0.0
 11
606.4925578443
 21
465.8821377942
 31
0.0
  0
LINE
  5
19D
330
1F
100
AcDbEntity
  8
0
  6
Continuous
 62
     8
370
    15
100
AcDbLine
 10
606.4925578443
 20
481.8821376228
 30
0.0
 11
606.4925578443
 21
534.765155431
 31
0.0
  0
LINE
  5
19E
330
1F
100
AcDbEntity
  8
0
  6
Continuous
 62
     8
370
    15
100
AcDbLine
 10
606.4925578443
 20
550.7651580536
 30
0.0
 11
606.4925578443
 21
583.4728045428
 31
0.0
  0
LINE
  5
19F
330
1F
100
AcDbEntity
  8
FORMAT
  6
CENTERX2
370
     0
100
AcDbLine
 10
508.5418791888
 20
508.3236467092
 30
0.0
 11
740.4508578601
 21
508.3236467092
 31
0.0
  0
CIRCLE
  5
1A0
330
1F
100
AcDbEntity
  8
0
  6
Continuous
 62
     7
370
    15
100
AcDbCircle
 10
267.1890914753
 20
473.8821377964
 30
0.0
 40
8.000000000000009
  0
CIRCLE
  5
1A1
330
1F
100
AcDbEntity
  8
0
  6
Continuous
 62
     7
370
    15
100
AcDbCircle
 10
267.1890914753
 20
542.7651556221
 30
0.0
 40
8.00000000000005
  0
CIRCLE
  5
1A2
330
1F
100
AcDbEntity
  8
0
  6
Continuous
 62
     7
370
    15
100
AcDbCircle
 10
218.4814424621
 20
591.4728046352
 30
0.0
 40
8.0
  0
CIRCLE
  5
1A3
330
1F
100
AcDbEntity
  8
0
  6
Continuous
 62
     7
370
    15
100
AcDbCircle
 10
218.4814424621
 20
425.1744887832
 30
0.0
 40
7.999999999999999
  0
CIRCLE
  5
1A4
330
1F
100
AcDbEntity
  8
0
  6
Continuous
 62
     7
370
    15
100
AcDbCircle
 10
149.5984246364
 20
425.1744887832
 30
0.0
 40
7.999999999999991
  0
CIRCLE
  5
1A5
330
1F
100
AcDbEntity
  8
0
  6
Continuous
 62
     7
370
    15
100
AcDbCircle
 10
149.5984246364
 20
591.4728046353
 30
0.0
 40
7.999999999999999
  0
CIRCLE
  5
1A6
330
1F
100
AcDbEntity
  8
0
  6
Continuous
 62
     7
370
    15
100
AcDbCircle
 10
100.8907756232
 20
542.7651556221
 30
0.0
 40
8.000000000000044
  0
CIRCLE
  5
1A7
330
1F
100
AcDbEntity
  8
0
  6
Continuous
 62
     7
370
    15
100
AcDbCircle
 10
100.8907756232
 20
473.8821377964
 30
0.0
 40
8.000000000000037
  0
SPLINE
  5
1A8
330
1F
100
AcDbEntity
  8
0
  6
Continuous
 62
     7
370
    15
100
AcDbSpline
210
0.0
220
0.0
230
1.0
 70
    24
 71
     3
 72
    12
 73
     8
 74
     0
 42
0.00000001
 43
0.00000001
 12
1.0
 22
0.0
 32
0.0
 13
1.0
 23
0.0
 33
0.0
 40
0.0
 40
0.0
 40
0.0
 40
0.0
 40
0.2500000000000009
 40
0.2500000000000009
 40
0.5000000000000019
 40
0.5000000000000019
 40
1.0
 40
1.0
 40
1.0
 40
1.0
 10
276.2766458378821
 20
550.6020144128461
 30
0.0
 10
276.6606345875296
 20
550.1567443460725
 30
0.0
 10
277.0463460999756
 20
549.7094765783063
 30
0.0
 10
277.8093638150015
 20
548.8246877681369
 30
0.0
 10
278.1883206895898
 20
548.3852526206043
 30
0.0
 10
279.3184607259724
 20
547.0747519095144
 30
0.0
 10
280.0629394891766
 20
546.2114607091661
 30
0.0
 10
280.8012583703299
 20
545.3553124553096
 30
0.0
  0
SPLINE
  5
1A9
330
1F
100
AcDbEntity
  8
0
  6
Continuous
 62
     7
370
    15
100
AcDbSpline
210
0.0
220
0.0
230
1.0
 70
    24
 71
     3
 72
    10
 73
     6
 74
     0
 42
0.00000001
 43
0.00000001
 12
1.0
 22
0.0
 32
0.0
 13
1.0
 23
0.0
 33
0.0
 40
0.0
 40
0.0
 40
0.0
 40
0.0
 40
0.5
 40
0.5
 40
1.0
 40
1.0
 40
1.0
 40
1.0
 10
280.8012583703298
 20
545.3553124553097
 30
0.0
 10
280.4280396602519
 20
544.2851630106215
 30
0.0
 10
280.0520948171707
 20
543.2071967827961
 30
0.0
 10
279.2923456053413
 20
541.0287282998752
 30
0.0
 10
278.908482485817
 20
539.9280575856195
 30
0.0
 10
278.5197874552416
 20
538.8135320811601
 30
0.0
  0
ARC
  5
1AA
330
1F
100
AcDbEntity
  8
0
  6
Continuous
 62
     7
370
    15
100
AcDbCircle
 10
267.1890914753
 20
542.7651556221
 30
0.0
 40
12.00000000000007
100
AcDbArc
 50
340.7735871032
 51
40.7735871032
  0
SPLINE
  5
1AB
330
1F
100
AcDbEntity
  8
0
  6
Continuous
 62
     7
370
    15
100
AcDbSpline
210
0.0
220
0.0
230
1.0
 70
    24
 71
     3
 72
    12
 73
     8
 74
     0
 42
0.00000001
 43
0.00000001
 12
1.0
 22
0.0
 32
0.0
 13
1.0
 23
0.0
 33
0.0
 40
0.0
 40
0.0
 40
0.0
 40
0.0
 40
0.2499999999999993
 40
0.2499999999999993
 40
0.4999999999999987
 40
0.4999999999999987
 40
1.0
 40
1.0
 40
1.0
 40
1.0
 10
273.9386666230873
 20
483.8039942417927
 30
0.0
 10
274.4229557402645
 20
483.4745452311518
 30
0.0
 10
274.9087960967757
 20
483.1440409536349
 30
0.0
 10
275.8835392473431
 20
482.4809491037599
 30
0.0
 10
276.367346544944
 20
482.1518278621669
 30
0.0
 10
277.8024070406665
 20
481.1755943608212
 30
0.0
 10
278.7408049534541
 20
480.5372272098986
 30
0.0
 10
279.6670531127168
 20
479.9071252132738
 30
0.0
  0
ARC
  5
1AC
330
1F
100
AcDbEntity
  8
0
  6
Continuous
 62
     7
370
    15
100
AcDbCircle
 10
267.1890914753
 20
473.8821377964
 30
0.0
 40
12.00000000000004
100
AcDbArc
 50
355.7735871032
 51
55.7735871032
  0
SPLINE
  5
1AD
330
1F
100
AcDbEntity
  8
0
  6
Continuous
 62
     7
370
    15
100
AcDbSpline
210
0.0
220
0.0
230
1.0
 70
    24
 71
     3
 72
    10
 73
     6
 74
     0
 42
0.00000001
 43
0.00000001
 12
1.0
 22
0.0
 32
0.0
 13
1.0
 23
0.0
 33
0.0
 40
0.0
 40
0.0
 40
0.0
 40
0.0
 40
0.5
 40
0.5
 40
1.0
 40
1.0
 40
1.0
 40
1.0
 10
279.6670531127168
 20
479.9071252132739
 30
0.0
 10
279.5835265791893
 20
478.776844116504
 30
0.0
 10
279.4993899357356
 20
477.6383070118826
 30
0.0
 10
279.3293576830624
 20
475.3374304769493
 30
0.0
 10
279.24344892539
 20
474.1749131217643
 30
0.0
 10
279.1564587836135
 20
472.9977624762997
 30
0.0
  0
ARC
  5
1AE
330
1F
100
AcDbEntity
  8
0
  6
Continuous
 62
     7
370
    15
100
AcDbCircle
 10
267.1890914753
 20
473.8821377964
 30
0.0
 40
12.00000000000002
100
AcDbArc
 50
115.7735871032
 51
175.7735871032
  0
ARC
  5
1AF
330
1F
100
AcDbEntity
  8
0
  6
Continuous
 62
     7
370
    15
100
AcDbCircle
 10
267.1890914753
 20
473.8821377964
 30
0.0
 40
12.00000000000004
100
AcDbArc
 50
55.7735871032
 51
115.7735871032
  0
ARC
  5
1B0
330
1F
100
AcDbEntity
  8
0
  6
Continuous
 62
     7
370
    15
100
AcDbCircle
 10
267.1890914753
 20
473.8821377964
 30
0.0
 40
12.0
100
AcDbArc
 50
295.7735871032
 51
355.7735871032
  0
ARC
  5
1B1
330
1F
100
AcDbEntity
  8
0
  6
Continuous
 62
     7
370
    15
100
AcDbCircle
 10
267.1890914753
 20
473.8821377964
 30
0.0
 40
12.0
100
AcDbArc
 50
235.7735871032
 51
295.7735871032
  0
ARC
  5
1B2
330
1F
100
AcDbEntity
  8
0
  6
Continuous
 62
     7
370
    15
100
AcDbCircle
 10
267.1890914753
 20
473.8821377964
 30
0.0
 40
12.00000000000001
100
AcDbArc
 50
175.7735871032
 51
235.7735871032
  0
SPLINE
  5
1B3
330
1F
100
AcDbEntity
  8
0
  6
Continuous
 62
     7
370
    15
100
AcDbSpline
210
0.0
220
0.0
230
1.0
 70
    24
 71
     3
 72
    10
 73
     6
 74
     0
 42
0.00000001
 43
0.00000001
 12
1.0
 22
0.0
 32
0.0
 13
1.0
 23
0.0
 33
0.0
 40
0.0
 40
0.0
 40
0.0
 40
0.0
 40
0.5
 40
0.5
 40
1.0
 40
1.0
 40
1.0
 40
1.0
 10
278.6458644545102
 20
466.0883997393255
 30
0.0
 10
277.6252490445265
 20
465.5955952908654
 30
0.0
 10
276.5971786670462
 20
465.0991912091748
 30
0.0
 10
274.5195450104858
 20
464.0960051919858
 30
0.0
 10
273.4698210697192
 20
463.5891456809453
 30
0.0
 10
272.4068836357773
 20
463.0759060308701
 30
0.0
  0
SPLINE
  5
1B4
330
1F
100
AcDbEntity
  8
0
  6
Continuous
 62
     7
370
    15
100
AcDbSpline
210
0.0
220
0.0
230
1.0
 70
    24
 71
     3
 72
    12
 73
     8
 74
     0
 42
0.00000001
 43
0.00000001
 12
1.0
 22
0.0
 32
0.0
 13
1.0
 23
0.0
 33
0.0
 40
0.0
 40
0.0
 40
0.0
 40
0.0
 40
0.2500000000000001
 40
0.2500000000000001
 40
0.5000000000000002
 40
0.5000000000000002
 40
1.0
 40
1.0
 40
1.0
 40
1.0
 10
279.1564587836135
 20
472.9977624762997
 30
0.0
 10
279.1131263487136
 20
472.4113879438496
 30
0.0
 10
279.0695995031522
 20
471.8223826462237
 30
0.0
 10
278.9834943360239
 20
470.6572074781746
 30
0.0
 10
278.9407297391105
 20
470.078516929664
 30
0.0
 10
278.8131954829656
 20
468.3527233066858
 30
0.0
 10
278.7291824029716
 20
467.2158582628699
 30
0.0
 10
278.6458644545101
 20
466.0883997393254
 30
0.0
  0
SPLINE
  5
1B5
330
1F
100
AcDbEntity
  8
0
  6
Continuous
 62
     7
370
    15
100
AcDbSpline
210
0.0
220
0.0
230
1.0
 70
    24
 71
     3
 72
    12
 73
     8
 74
     0
 42
0.00000001
 43
0.00000001
 12
1.0
 22
0.0
 32
0.0
 13
1.0
 23
0.0
 33
0.0
 40
0.0
 40
0.0
 40
0.0
 40
0.0
 40
0.250000000000001
 40
0.250000000000001
 40
0.500000000000002
 40
0.500000000000002
 40
1.0
 40
1.0
 40
1.0
 40
1.0
 10
264.9459498578984
 20
554.5536379537696
 30
0.0
 10
265.5213496061887
 20
554.6631264431011
 30
0.0
 10
266.0985924326952
 20
554.7729656379208
 30
0.0
 10
267.2567166679726
 20
554.993336386006
 30
0.0
 10
267.8315439506567
 20
555.1027159451642
 30
0.0
 10
269.5365862874181
 20
555.4271556242795
 30
0.0
 10
270.6515275563056
 20
555.6393094105588
 30
0.0
 10
271.7520333054343
 20
555.8487163703825
 30
0.0
  0
ARC
  5
1B6
330
1F
100
AcDbEntity
  8
0
  6
Continuous
 62
     7
370
    15
100
AcDbCircle
 10
267.1890914753
 20
542.7651556221
 30
0.0
 40
12.00000000000007
100
AcDbArc
 50
40.7735871032
 51
100.7735871032
  0
SPLINE
  5
1B7
330
1F
100
AcDbEntity
  8
0
  6
Continuous
 62
     7
370
    15
100
AcDbSpline
210
0.0
220
0.0
230
1.0
 70
    24
 71
     3
 72
    10
 73
     6
 74
     0
 42
0.00000001
 43
0.00000001
 12
1.0
 22
0.0
 32
0.0
 13
1.0
 23
0.0
 33
0.0
 40
0.0
 40
0.0
 40
0.0
 40
0.0
 40
0.5
 40
0.5
 40
1.0
 40
1.0
 40
1.0
 40
1.0
 10
271.7520333054343
 20
555.8487163703825
 30
0.0
 10
272.492200555341
 20
554.9904247639433
 30
0.0
 10
273.2377742715188
 20
554.1258638655006
 30
0.0
 10
274.7445087131576
 20
552.3786675060906
 30
0.0
 10
275.5057859531424
 20
551.4958969358787
 30
0.0
 10
276.2766458378821
 20
550.6020144128461
 30
0.0
  0
ARC
  5
1B8
330
1F
100
AcDbEntity
  8
0
  6
Continuous
 62
     7
370
    15
100
AcDbCircle
 10
267.1890914753
 20
542.7651556221
 30
0.0
 40
12.00000000000003
100
AcDbArc
 50
160.7735871032
 51
220.7735871032
  0
ARC
  5
1B9
330
1F
100
AcDbEntity
  8
0
  6
Continuous
 62
     7
370
    15
100
AcDbCircle
 10
267.1890914753
 20
542.7651556221
 30
0.0
 40
12.00000000000007
100
AcDbArc
 50
100.7735871032
 51
160.7735871032
  0
ARC
  5
1BA
330
1F
100
AcDbEntity
  8
0
  6
Continuous
 62
     7
370
    15
100
AcDbCircle
 10
267.1890914753
 20
542.7651556221
 30
0.0
 40
12.00000000000005
100
AcDbArc
 50
280.7735871032
 51
340.7735871032
  0
ARC
  5
1BB
330
1F
100
AcDbEntity
  8
0
  6
Continuous
 62
     7
370
    15
100
AcDbCircle
 10
267.1890914753
 20
542.7651556221
 30
0.0
 40
11.99999999999999
100
AcDbArc
 50
220.7735871032
 51
280.7735871032
  0
SPLINE
  5
1BC
330
1F
100
AcDbEntity
  8
0
  6
Continuous
 62
     7
370
    15
100
AcDbSpline
210
0.0
220
0.0
230
1.0
 70
    24
 71
     3
 72
    12
 73
     8
 74
     0
 42
0.00000001
 43
0.00000001
 12
1.0
 22
0.0
 32
0.0
 13
1.0
 23
0.0
 33
0.0
 40
0.0
 40
0.0
 40
0.0
 40
0.0
 40
0.2499999999999981
 40
0.2499999999999981
 40
0.4999999999999962
 40
0.4999999999999962
 40
1.0
 40
1.0
 40
1.0
 40
1.0
 10
269.4322330926173
 20
530.9766732903978
 30
0.0
 10
270.0076328409077
 20
531.0861617797294
 30
0.0
 10
270.5848756674141
 20
531.1960009745491
 30
0.0
 10
271.7429999026916
 20
531.4163717226344
 30
0.0
 10
272.3178271853757
 20
531.5257512817924
 30
0.0
 10
274.0228695221371
 20
531.8501909609078
 30
0.0
 10
275.1378107910246
 20
532.062344747187
 30
0.0
 10
276.2383165401533
 20
532.2717517070108
 30
0.0
  0
SPLINE
  5
1BD
330
1F
100
AcDbEntity
  8
0
  6
Continuous
 62
     7
370
    15
100
AcDbSpline
210
0.0
220
0.0
230
1.0
 70
    24
 71
     3
 72
    12
 73
     8
 74
     0
 42
0.00000001
 43
0.00000001
 12
1.0
 22
0.0
 32
0.0
 13
1.0
 23
0.0
 33
0.0
 40
0.0
 40
0.0
 40
0.0
 40
0.0
 40
0.2500000000000009
 40
0.2500000000000009
 40
0.5000000000000019
 40
0.5000000000000019
 40
1.0
 40
1.0
 40
1.0
 40
1.0
 10
278.5197874552416
 20
538.8135320811601
 30
0.0
 10
278.3261666406946
 20
538.2583530358113
 30
0.0
 10
278.1316771477382
 20
537.7006831836178
 30
0.0
 10
277.7469364186602
 20
536.5974960537831
 30
0.0
 10
277.5558528548754
 20
536.0495921996846
 30
0.0
 10
276.9859959655853
 20
534.4156118627983
 30
0.0
 10
276.6106032368222
 20
533.3392287411114
 30
0.0
 10
276.2383165401533
 20
532.2717517070107
 30
0.0
  0
SPLINE
  5
1BE
330
1F
100
AcDbEntity
  8
0
  6
Continuous
 62
     7
370
    15
100
AcDbSpline
210
0.0
220
0.0
230
1.0
 70
    24
 71
     3
 72
    10
 73
     6
 74
     0
 42
0.00000001
 43
0.00000001
 12
1.0
 22
0.0
 32
0.0
 13
1.0
 23
0.0
 33
0.0
 40
0.0
 40
0.0
 40
0.0
 40
0.0
 40
0.5
 40
0.5
 40
1.0
 40
1.0
 40
1.0
 40
1.0
 10
262.6261496450813
 20
529.6815948737849
 30
0.0
 10
261.8859823951747
 20
530.539886480224
 30
0.0
 10
261.1404086789968
 20
531.4044473786668
 30
0.0
 10
259.6336742373581
 20
533.1516437380768
 30
0.0
 10
258.8723969973733
 20
534.0344143082885
 30
0.0
 10
258.1015371126336
 20
534.9282968313213
 30
0.0
  0
SPLINE
  5
1BF
330
1F
100
AcDbEntity
  8
0
  6
Continuous
 62
     7
370
    15
100
AcDbSpline
210
0.0
220
0.0
230
1.0
 70
    24
 71
     3
 72
    10
 73
     6
 74
     0
 42
0.00000001
 43
0.00000001
 12
1.0
 22
0.0
 32
0.0
 13
1.0
 23
0.0
 33
0.0
 40
0.0
 40
0.0
 40
0.0
 40
0.0
 40
0.5
 40
0.5
 40
1.0
 40
1.0
 40
1.0
 40
1.0
 10
262.6261496450813
 20
529.6815948737849
 30
0.0
 10
263.733103977445
 20
529.8922288859993
 30
0.0
 10
264.8668423705275
 20
530.1079594356295
 30
0.0
 10
267.1394520985829
 20
530.540397243787
 30
0.0
 10
268.2821169206146
 20
530.7578263364279
 30
0.0
 10
269.4322330926173
 20
530.9766732903978
 30
0.0
  0
SPLINE
  5
1C0
330
1F
100
AcDbEntity
  8
0
  6
Continuous
 62
     7
370
    15
100
AcDbSpline
210
0.0
220
0.0
230
1.0
 70
    24
 71
     3
 72
    12
 73
     8
 74
     0
 42
0.00000001
 43
0.00000001
 12
1.0
 22
0.0
 32
0.0
 13
1.0
 23
0.0
 33
0.0
 40
0.0
 40
0.0
 40
0.0
 40
0.0
 40
0.2500000000000012
 40
0.2500000000000012
 40
0.5000000000000001
 40
0.5000000000000001
 40
1.0
 40
1.0
 40
1.0
 40
1.0
 10
260.4395163274148
 20
463.9602813509337
 30
0.0
 10
260.9238054445922
 20
463.6308323402928
 30
0.0
 10
261.4096458011032
 20
463.3003280627759
 30
0.0
 10
262.3843889516706
 20
462.6372362129009
 30
0.0
 10
262.8681962492715
 20
462.3081149713078
 30
0.0
 10
264.303256744994
 20
461.3318814699622
 30
0.0
 10
265.2416546577817
 20
460.6935143190395
 30
0.0
 10
266.1679028170444
 20
460.0634123224148
 30
0.0
  0
SPLINE
  5
1C1
330
1F
100
AcDbEntity
  8
0
  6
Continuous
 62
     7
370
    15
100
AcDbSpline
210
0.0
220
0.0
230
1.0
 70
    24
 71
     3
 72
    12
 73
     8
 74
     0
 42
0.00000001
 43
0.00000001
 12
1.0
 22
0.0
 32
0.0
 13
1.0
 23
0.0
 33
0.0
 40
0.0
 40
0.0
 40
0.0
 40
0.0
 40
0.2499999999999987
 40
0.2499999999999987
 40
0.4999999999999973
 40
0.4999999999999973
 40
1.0
 40
1.0
 40
1.0
 40
1.0
 10
272.4068836357773
 20
463.0759060308701
 30
0.0
 10
271.8774021770934
 20
462.8202457540763
 30
0.0
 10
271.3455452036051
 20
462.563438459266
 30
0.0
 10
270.2934213246515
 20
462.0554201373718
 30
0.0
 10
269.7708783102547
 20
461.8031100904261
 30
0.0
 10
268.212530062994
 20
461.0506611846113
 30
0.0
 10
267.1859695143779
 20
460.5549861242282
 30
0.0
 10
266.1679028170443
 20
460.0634123224148
 30
0.0
  0
SPLINE
  5
1C2
330
1F
100
AcDbEntity
  8
0
  6
Continuous
 62
     7
370
    15
100
AcDbSpline
210
0.0
220
0.0
230
1.0
 70
    24
 71
     3
 72
    12
 73
     8
 74
     0
 42
0.00000001
 43
0.00000001
 12
1.0
 22
0.0
 32
0.0
 13
1.0
 23
0.0
 33
0.0
 40
0.0
 40
0.0
 40
0.0
 40
0.0
 40
0.2500000000000013
 40
0.2500000000000013
 40
0.5000000000000027
 40
0.5000000000000027
 40
1.0
 40
1.0
 40
1.0
 40
1.0
 10
261.9712993147248
 20
484.6883695618562
 30
0.0
 10
262.5007807734087
 20
484.9440298386501
 30
0.0
 10
263.032637746897
 20
485.2008371334604
 30
0.0
 10
264.0847616258506
 20
485.7088554553546
 30
0.0
 10
264.6073046402474
 20
485.9611655023003
 30
0.0
 10
266.165652887508
 20
486.7136144081151
 30
0.0
 10
267.1922134361241
 20
487.2092894684982
 30
0.0
 10
268.2102801334577
 20
487.7008632703116
 30
0.0
  0
SPLINE
  5
1C3
330
1F
100
AcDbEntity
  8
0
  6
Continuous
 62
     7
370
    15
100
AcDbSpline
210
0.0
220
0.0
230
1.0
 70
    24
 71
     3
 72
    10
 73
     6
 74
     0
 42
0.00000001
 43
0.00000001
 12
1.0
 22
0.0
 32
0.0
 13
1.0
 23
0.0
 33
0.0
 40
0.0
 40
0.0
 40
0.0
 40
0.0
 40
0.5
 40
0.5
 40
1.0
 40
1.0
 40
1.0
 40
1.0
 10
268.2102801334577
 20
487.7008632703116
 30
0.0
 10
269.1419557867212
 20
487.0670690938188
 30
0.0
 10
270.096174427114
 20
486.4179395225312
 30
0.0
 10
272.0089318834021
 20
485.1167414794223
 30
0.0
 10
272.9706635135176
 20
484.4625010209741
 30
0.0
 10
273.9386666230873
 20
483.8039942417927
 30
0.0
  0
SPLINE
  5
1C4
330
1F
100
AcDbEntity
  8
0
  6
Continuous
 62
     7
370
    15
100
AcDbSpline
210
0.0
220
0.0
230
1.0
 70
    24
 71
     3
 72
    10
 73
     6
 74
     0
 42
0.00000001
 43
0.00000001
 12
1.0
 22
0.0
 32
0.0
 13
1.0
 23
0.0
 33
0.0
 40
0.0
 40
0.0
 40
0.0
 40
0.0
 40
0.5
 40
0.5
 40
1.0
 40
1.0
 40
1.0
 40
1.0
 10
254.7111298377852
 20
467.8571503794525
 30
0.0
 10
254.7946563713127
 20
468.9874314762223
 30
0.0
 10
254.8787930147665
 20
470.1259685808438
 30
0.0
 10
255.0488252674397
 20
472.426845115777
 30
0.0
 10
255.1347340251121
 20
473.589362470962
 30
0.0
 10
255.2217241668886
 20
474.7665131164267
 30
0.0
  0
SPLINE
  5
1C5
330
1F
100
AcDbEntity
  8
0
  6
Continuous
 62
     7
370
    15
100
AcDbSpline
210
0.0
220
0.0
230
1.0
 70
    24
 71
     3
 72
    10
 73
     6
 74
     0
 42
0.00000001
 43
0.00000001
 12
1.0
 22
0.0
 32
0.0
 13
1.0
 23
0.0
 33
0.0
 40
0.0
 40
0.0
 40
0.0
 40
0.0
 40
0.5
 40
0.5
 40
1.0
 40
1.0
 40
1.0
 40
1.0
 10
254.7111298377852
 20
467.8571503794525
 30
0.0
 10
255.6428054910487
 20
467.2233562029597
 30
0.0
 10
256.5970241314415
 20
466.5742266316723
 30
0.0
 10
258.5097815877296
 20
465.2730285885633
 30
0.0
 10
259.4715132178451
 20
464.618788130115
 30
0.0
 10
260.4395163274148
 20
463.9602813509337
 30
0.0
  0
SPLINE
  5
1C6
330
1F
100
AcDbEntity
  8
0
  6
Continuous
 62
     7
370
    15
100
AcDbSpline
210
0.0
220
0.0
230
1.0
 70
    24
 71
     3
 72
    12
 73
     8
 74
     0
 42
0.00000001
 43
0.00000001
 12
1.0
 22
0.0
 32
0.0
 13
1.0
 23
0.0
 33
0.0
 40
0.0
 40
0.0
 40
0.0
 40
0.0
 40
0.25
 40
0.25
 40
0.5
 40
0.5
 40
1.0
 40
1.0
 40
1.0
 40
1.0
 10
255.8583954952741
 20
546.7167791630072
 30
0.0
 10
256.0520163098211
 20
547.2719582083561
 30
0.0
 10
256.2465058027775
 20
547.8296280605495
 30
0.0
 10
256.6312465318554
 20
548.9328151903843
 30
0.0
 10
256.8223300956403
 20
549.4807190444827
 30
0.0
 10
257.3921869849305
 20
551.1146993813691
 30
0.0
 10
257.7675797136935
 20
552.1910825030559
 30
0.0
 10
258.1398664103624
 20
553.2585595371567
 30
0.0
  0
SPLINE
  5
1C7
330
1F
100
AcDbEntity
  8
0
  6
Continuous
 62
     7
370
    15
100
AcDbSpline
210
0.0
220
0.0
230
1.0
 70
    24
 71
     3
 72
    10
 73
     6
 74
     0
 42
0.00000001
 43
0.00000001
 12
1.0
 22
0.0
 32
0.0
 13
1.0
 23
0.0
 33
0.0
 40
0.0
 40
0.0
 40
0.0
 40
0.0
 40
0.5
 40
0.5
 40
1.0
 40
1.0
 40
1.0
 40
1.0
 10
258.1398664103623
 20
553.2585595371565
 30
0.0
 10
259.246820742726
 20
553.469193549371
 30
0.0
 10
260.3805591358085
 20
553.6849240990013
 30
0.0
 10
262.6531688638639
 20
554.1173619071586
 30
0.0
 10
263.7958336858956
 20
554.3347909997997
 30
0.0
 10
264.9459498578984
 20
554.5536379537696
 30
0.0
  0
SPLINE
  5
1C8
330
1F
100
AcDbEntity
  8
0
  6
Continuous
 62
     7
370
    15
100
AcDbSpline
210
0.0
220
0.0
230
1.0
 70
    24
 71
     3
 72
    12
 73
     8
 74
     0
 42
0.00000001
 43
0.00000001
 12
1.0
 22
0.0
 32
0.0
 13
1.0
 23
0.0
 33
0.0
 40
0.0
 40
0.0
 40
0.0
 40
0.0
 40
0.2499999999999997
 40
0.2499999999999997
 40
0.4999999999999993
 40
0.4999999999999993
 40
1.0
 40
1.0
 40
1.0
 40
1.0
 10
255.2217241668886
 20
474.7665131164267
 30
0.0
 10
255.2650566017884
 20
475.3528876488767
 30
0.0
 10
255.3085834473498
 20
475.9418929465027
 30
0.0
 10
255.3946886144782
 20
477.1070681145518
 30
0.0
 10
255.4374532113916
 20
477.6857586630624
 30
0.0
 10
255.5649874675365
 20
479.4115522860405
 30
0.0
 10
255.6490005475304
 20
480.5484173298564
 30
0.0
 10
255.7323184959919
 20
481.675875853401
 30
0.0
  0
SPLINE
  5
1C9
330
1F
100
AcDbEntity
  8
0
  6
Continuous
 62
     7
370
    15
100
AcDbSpline
210
0.0
220
0.0
230
1.0
 70
    24
 71
     3
 72
    10
 73
     6
 74
     0
 42
0.00000001
 43
0.00000001
 12
1.0
 22
0.0
 32
0.0
 13
1.0
 23
0.0
 33
0.0
 40
0.0
 40
0.0
 40
0.0
 40
0.0
 40
0.5
 40
0.5
 40
1.0
 40
1.0
 40
1.0
 40
1.0
 10
255.7323184959919
 20
481.6758758534009
 30
0.0
 10
256.7529339059756
 20
482.1686803018609
 30
0.0
 10
257.7810042834558
 20
482.6650843835516
 30
0.0
 10
259.8586379400162
 20
483.6682704007405
 30
0.0
 10
260.9083618807829
 20
484.1751299117811
 30
0.0
 10
261.9712993147248
 20
484.6883695618562
 30
0.0
  0
SPLINE
  5
1CA
330
1F
100
AcDbEntity
  8
0
  6
Continuous
 62
     7
370
    15
100
AcDbSpline
210
0.0
220
0.0
230
1.0
 70
    24
 71
     3
 72
    10
 73
     6
 74
     0
 42
0.00000001
 43
0.00000001
 12
1.0
 22
0.0
 32
0.0
 13
1.0
 23
0.0
 33
0.0
 40
0.0
 40
0.0
 40
0.0
 40
0.0
 40
0.5
 40
0.5
 40
1.0
 40
1.0
 40
1.0
 40
1.0
 10
253.5769245801859
 20
540.1749987888577
 30
0.0
 10
253.9501432902639
 20
541.2451482335457
 30
0.0
 10
254.3260881333451
 20
542.3231144613711
 30
0.0
 10
255.0858373451744
 20
544.5015829442922
 30
0.0
 10
255.4697004646987
 20
545.6022536585479
 30
0.0
 10
255.8583954952741
 20
546.7167791630072
 30
0.0
  0
SPLINE
  5
1CB
330
1F
100
AcDbEntity
  8
0
  6
Continuous
 62
     7
370
    15
100
AcDbSpline
210
0.0
220
0.0
230
1.0
 70
    24
 71
     3
 72
    12
 73
     8
 74
     0
 42
0.00000001
 43
0.00000001
 12
1.0
 22
0.0
 32
0.0
 13
1.0
 23
0.0
 33
0.0
 40
0.0
 40
0.0
 40
0.0
 40
0.0
 40
0.2499999999999989
 40
0.2499999999999989
 40
0.4999999999999978
 40
0.4999999999999978
 40
1.0
 40
1.0
 40
1.0
 40
1.0
 10
258.1015371126336
 20
534.9282968313213
 30
0.0
 10
257.7175483629862
 20
535.3735668980947
 30
0.0
 10
257.3318368505402
 20
535.8208346658611
 30
0.0
 10
256.5688191355141
 20
536.7056234760304
 30
0.0
 10
256.1898622609259
 20
537.1450586235629
 30
0.0
 10
255.0597222245433
 20
538.4555593346529
 30
0.0
 10
254.3152434613391
 20
539.3188505350012
 30
0.0
 10
253.5769245801859
 20
540.1749987888578
 30
0.0
  0
SPLINE
  5
1CC
330
1F
100
AcDbEntity
  8
0
  6
Continuous
 62
     7
370
    15
100
AcDbSpline
210
0.0
220
0.0
230
1.0
 70
    24
 71
     3
 72
    10
 73
     6
 74
     0
 42
0.00000001
 43
0.00000001
 12
1.0
 22
0.0
 32
0.0
 13
1.0
 23
0.0
 33
0.0
 40
0.0
 40
0.0
 40
0.0
 40
0.0
 40
0.5
 40
0.5
 40
1.0
 40
1.0
 40
1.0
 40
1.0
 10
228.9748463771583
 20
434.2237138481028
 30
0.0
 10
229.1854803893726
 20
433.1167595157391
 30
0.0
 10
229.4012109390029
 20
431.9830211226566
 30
0.0
 10
229.8336487471604
 20
429.7104113946012
 30
0.0
 10
230.0510778398013
 20
428.5677465725695
 30
0.0
 10
230.2699247937712
 20
427.4176304005667
 30
0.0
  0
ARC
  5
1CD
330
1F
100
AcDbEntity
  8
0
  6
Continuous
 62
     7
370
    15
100
AcDbCircle
 10
218.4814424621
 20
425.1744887832
 30
0.0
 40
12.0
100
AcDbArc
 50
10.7735871032
 51
70.7735871032
  0
SPLINE
  5
1CE
330
1F
100
AcDbEntity
  8
0
  6
Continuous
 62
     7
370
    15
100
AcDbSpline
210
0.0
220
0.0
230
1.0
 70
    24
 71
     3
 72
    12
 73
     8
 74
     0
 42
0.00000001
 43
0.00000001
 12
1.0
 22
0.0
 32
0.0
 13
1.0
 23
0.0
 33
0.0
 40
0.0
 40
0.0
 40
0.0
 40
0.0
 40
0.25
 40
0.25
 40
0.5
 40
0.5
 40
1.0
 40
1.0
 40
1.0
 40
1.0
 10
222.4330660030089
 20
436.505184763191
 30
0.0
 10
222.9882450483577
 20
436.3115639486441
 30
0.0
 10
223.5459149005512
 20
436.1170744556876
 30
0.0
 10
224.649102030386
 20
435.7323337266097
 30
0.0
 10
225.1970058844844
 20
435.5412501628248
 30
0.0
 10
226.8309862213707
 20
434.9713932735347
 30
0.0
 10
227.9073693430576
 20
434.5960005447716
 30
0.0
 10
228.9748463771583
 20
434.2237138481028
 30
0.0
  0
SPLINE
  5
1CF
330
1F
100
AcDbEntity
  8
0
  6
Continuous
 62
     7
370
    15
100
AcDbSpline
210
0.0
220
0.0
230
1.0
 70
    24
 71
     3
 72
    12
 73
     8
 74
     0
 42
0.00000001
 43
0.00000001
 12
1.0
 22
0.0
 32
0.0
 13
1.0
 23
0.0
 33
0.0
 40
0.0
 40
0.0
 40
0.0
 40
0.0
 40
0.250000000000003
 40
0.250000000000003
 40
0.500000000000006
 40
0.500000000000006
 40
1.0
 40
1.0
 40
1.0
 40
1.0
 10
229.2876742275948
 20
596.6905967957754
 30
0.0
 10
229.5433345043887
 20
596.1611153370916
 30
0.0
 10
229.8001417991989
 20
595.6292583636033
 30
0.0
 10
230.3081601210932
 20
594.5771344846496
 30
0.0
 10
230.5604701680389
 20
594.0545914702528
 30
0.0
 10
231.3129190738537
 20
592.4962432229922
 30
0.0
 10
231.8085941342368
 20
591.4696826743761
 30
0.0
 10
232.3001679360502
 20
590.4516159770426
 30
0.0
  0
ARC
  5
1D0
330
1F
100
AcDbEntity
  8
0
  6
Continuous
 62
     7
370
    15
100
AcDbCircle
 10
218.4814424621
 20
591.4728046352
 30
0.0
 40
12.00000000000004
100
AcDbArc
 50
325.7735871032
 51
25.7735871032
  0
SPLINE
  5
1D1
330
1F
100
AcDbEntity
  8
0
  6
Continuous
 62
     7
370
    15
100
AcDbSpline
210
0.0
220
0.0
230
1.0
 70
    24
 71
     3
 72
    12
 73
     8
 74
     0
 42
0.00000001
 43
0.00000001
 12
1.0
 22
0.0
 32
0.0
 13
1.0
 23
0.0
 33
0.0
 40
0.0
 40
0.0
 40
0.0
 40
0.0
 40
0.2499999999999969
 40
0.2499999999999969
 40
0.4999999999999938
 40
0.4999999999999938
 40
1.0
 40
1.0
 40
1.0
 40
1.0
 10
228.4032989075314
 20
584.7232294874129
 30
0.0
 10
228.7327479181722
 20
585.2075186045903
 30
0.0
 10
229.0632521956892
 20
585.6933589611015
 30
0.0
 10
229.726344045564
 20
586.6681021116689
 30
0.0
 10
230.0554652871572
 20
587.1519094092697
 30
0.0
 10
231.0316987885029
 20
588.5869699049923
 30
0.0
 10
231.6700659394255
 20
589.5253678177799
 30
0.0
 10
232.3001679360502
 20
590.4516159770426
 30
0.0
  0
SPLINE
  5
1D2
330
1F
100
AcDbEntity
  8
0
  6
Continuous
 62
     7
370
    15
100
AcDbSpline
210
0.0
220
0.0
230
1.0
 70
    24
 71
     3
 72
    10
 73
     6
 74
     0
 42
0.00000001
 43
0.00000001
 12
1.0
 22
0.0
 32
0.0
 13
1.0
 23
0.0
 33
0.0
 40
0.0
 40
0.0
 40
0.0
 40
0.0
 40
0.5
 40
0.5
 40
1.0
 40
1.0
 40
1.0
 40
1.0
 10
224.5064298790125
 20
578.9948429977834
 30
0.0
 10
223.3761487822427
 20
579.0783695313108
 30
0.0
 10
222.2376116776213
 20
579.1625061747646
 30
0.0
 10
219.936735142688
 20
579.3325384274378
 30
0.0
 10
218.774217787503
 20
579.4184471851103
 30
0.0
 10
217.5970671420383
 20
579.5054373268867
 30
0.0
  0
ARC
  5
1D3
330
1F
100
AcDbEntity
  8
0
  6
Continuous
 62
     7
370
    15
100
AcDbCircle
 10
218.4814424621
 20
591.4728046352
 30
0.0
 40
12.00000000000004
100
AcDbArc
 50
265.7735871032
 51
325.7735871032
  0
SPLINE
  5
1D4
330
1F
100
AcDbEntity
  8
0
  6
Continuous
 62
     7
370
    15
100
AcDbSpline
210
0.0
220
0.0
230
1.0
 70
    24
 71
     3
 72
    10
 73
     6
 74
     0
 42
0.00000001
 43
0.00000001
 12
1.0
 22
0.0
 32
0.0
 13
1.0
 23
0.0
 33
0.0
 40
0.0
 40
0.0
 40
0.0
 40
0.0
 40
0.5
 40
0.5
 40
1.0
 40
1.0
 40
1.0
 40
1.0
 10
224.5064298790125
 20
578.9948429977834
 30
0.0
 10
225.1402240555053
 20
579.9265186510469
 30
0.0
 10
225.7893536267928
 20
580.8807372914397
 30
0.0
 10
227.0905516699017
 20
582.7934947477278
 30
0.0
 10
227.74479212835
 20
583.7552263778434
 30
0.0
 10
228.4032989075314
 20
584.7232294874129
 30
0.0
  0
ARC
  5
1D5
330
1F
100
AcDbEntity
  8
0
  6
Continuous
 62
     7
370
    15
100
AcDbCircle
 10
218.4814424621
 20
591.4728046352
 30
0.0
 40
12.00000000000002
100
AcDbArc
 50
205.7735871032
 51
265.7735871032
  0
ARC
  5
1D6
330
1F
100
AcDbEntity
  8
0
  6
Continuous
 62
     7
370
    15
100
AcDbCircle
 10
218.4814424621
 20
591.4728046352
 30
0.0
 40
12.00000000000002
100
AcDbArc
 50
145.7735871032
 51
205.7735871032
  0
ARC
  5
1D7
330
1F
100
AcDbEntity
  8
0
  6
Continuous
 62
     7
370
    15
100
AcDbCircle
 10
218.4814424621
 20
591.4728046352
 30
0.0
 40
11.99999999999998
100
AcDbArc
 50
85.7735871032
 51
145.7735871032
  0
ARC
  5
1D8
330
1F
100
AcDbEntity
  8
0
  6
Continuous
 62
     7
370
    15
100
AcDbCircle
 10
218.4814424621
 20
591.4728046352
 30
0.0
 40
11.99999999999998
100
AcDbArc
 50
25.7735871032
 51
85.7735871032
  0
SPLINE
  5
1D9
330
1F
100
AcDbEntity
  8
0
  6
Continuous
 62
     7
370
    15
100
AcDbSpline
210
0.0
220
0.0
230
1.0
 70
    24
 71
     3
 72
    12
 73
     8
 74
     0
 42
0.00000001
 43
0.00000001
 12
1.0
 22
0.0
 32
0.0
 13
1.0
 23
0.0
 33
0.0
 40
0.0
 40
0.0
 40
0.0
 40
0.0
 40
0.249999999999999
 40
0.249999999999999
 40
0.499999999999998
 40
0.499999999999998
 40
1.0
 40
1.0
 40
1.0
 40
1.0
 10
230.2699247937712
 20
427.4176304005667
 30
0.0
 10
230.3794132831028
 20
426.8422306522764
 30
0.0
 10
230.4892524779225
 20
426.2649878257699
 30
0.0
 10
230.7096232260077
 20
425.1068635904925
 30
0.0
 10
230.8190027851658
 20
424.5320363078084
 30
0.0
 10
231.1434424642812
 20
422.826993971047
 30
0.0
 10
231.3555962505604
 20
421.7120527021595
 30
0.0
 10
231.5650032103841
 20
420.6115469530308
 30
0.0
  0
SPLINE
  5
1DA
330
1F
100
AcDbEntity
  8
0
  6
Continuous
 62
     7
370
    15
100
AcDbSpline
210
0.0
220
0.0
230
1.0
 70
    24
 71
     3
 72
    10
 73
     6
 74
     0
 42
0.00000001
 43
0.00000001
 12
1.0
 22
0.0
 32
0.0
 13
1.0
 23
0.0
 33
0.0
 40
0.0
 40
0.0
 40
0.0
 40
0.0
 40
0.5
 40
0.5
 40
1.0
 40
1.0
 40
1.0
 40
1.0
 10
231.5650032103841
 20
420.6115469530308
 30
0.0
 10
230.706711603945
 20
419.8713797031241
 30
0.0
 10
229.8421507055022
 20
419.1258059869463
 30
0.0
 10
228.0949543460922
 20
417.6190715453075
 30
0.0
 10
227.2121837758804
 20
416.8577943053227
 30
0.0
 10
226.3183012528476
 20
416.0869344205831
 30
0.0
  0
ARC
  5
1DB
330
1F
100
AcDbEntity
  8
0
  6
Continuous
 62
     7
370
    15
100
AcDbCircle
 10
218.4814424621
 20
425.1744887832
 30
0.0
 40
11.99999999999999
100
AcDbArc
 50
310.7735871032
 51
10.7735871032
  0
ARC
  5
1DC
330
1F
100
AcDbEntity
  8
0
  6
Continuous
 62
     7
370
    15
100
AcDbCircle
 10
218.4814424621
 20
425.1744887832
 30
0.0
 40
12.00000000000004
100
AcDbArc
 50
70.7735871032
 51
130.7735871032
  0
ARC
  5
1DD
330
1F
100
AcDbEntity
  8
0
  6
Continuous
 62
     7
370
    15
100
AcDbCircle
 10
218.4814424621
 20
425.1744887832
 30
0.0
 40
11.99999999999998
100
AcDbArc
 50
250.7735871032
 51
310.7735871032
  0
ARC
  5
1DE
330
1F
100
AcDbEntity
  8
0
  6
Continuous
 62
     7
370
    15
100
AcDbCircle
 10
218.4814424621
 20
425.1744887832
 30
0.0
 40
12.0
100
AcDbArc
 50
190.7735871032
 51
250.7735871032
  0
ARC
  5
1DF
330
1F
100
AcDbEntity
  8
0
  6
Continuous
 62
     7
370
    15
100
AcDbCircle
 10
218.4814424621
 20
425.1744887832
 30
0.0
 40
12.00000000000004
100
AcDbArc
 50
130.7735871032
 51
190.7735871032
  0
SPLINE
  5
1E0
330
1F
100
AcDbEntity
  8
0
  6
Continuous
 62
     7
370
    15
100
AcDbSpline
210
0.0
220
0.0
230
1.0
 70
    24
 71
     3
 72
    12
 73
     8
 74
     0
 42
0.00000001
 43
0.00000001
 12
1.0
 22
0.0
 32
0.0
 13
1.0
 23
0.0
 33
0.0
 40
0.0
 40
0.0
 40
0.0
 40
0.0
 40
0.2499999999999998
 40
0.2499999999999998
 40
0.4999999999999996
 40
0.4999999999999996
 40
1.0
 40
1.0
 40
1.0
 40
1.0
 10
219.3658177821653
 20
603.4401719436116
 30
0.0
 10
219.9521923146153
 20
603.3968395087118
 30
0.0
 10
220.5411976122413
 20
603.3533126631504
 30
0.0
 10
221.7063727802904
 20
603.267207496022
 30
0.0
 10
222.285063328801
 20
603.2244428991086
 30
0.0
 10
224.0108569517791
 20
603.0969086429637
 30
0.0
 10
225.147721995595
 20
603.0128955629699
 30
0.0
 10
226.2751805191395
 20
602.9295776145084
 30
0.0
  0
SPLINE
  5
1E1
330
1F
100
AcDbEntity
  8
0
  6
Continuous
 62
     7
370
    15
100
AcDbSpline
210
0.0
220
0.0
230
1.0
 70
    24
 71
     3
 72
    10
 73
     6
 74
     0
 42
0.00000001
 43
0.00000001
 12
1.0
 22
0.0
 32
0.0
 13
1.0
 23
0.0
 33
0.0
 40
0.0
 40
0.0
 40
0.0
 40
0.0
 40
0.5
 40
0.5
 40
1.0
 40
1.0
 40
1.0
 40
1.0
 10
226.2751805191395
 20
602.9295776145084
 30
0.0
 10
226.7679849675995
 20
601.9089622045246
 30
0.0
 10
227.2643890492902
 20
600.8808918270444
 30
0.0
 10
228.2675750664792
 20
598.8032581704841
 30
0.0
 10
228.7744345775197
 20
597.7535342297174
 30
0.0
 10
229.2876742275948
 20
596.6905967957754
 30
0.0
  0
SPLINE
  5
1E2
330
1F
100
AcDbEntity
  8
0
  6
Continuous
 62
     7
370
    15
100
AcDbSpline
210
0.0
220
0.0
230
1.0
 70
    24
 71
     3
 72
    10
 73
     6
 74
     0
 42
0.00000001
 43
0.00000001
 12
1.0
 22
0.0
 32
0.0
 13
1.0
 23
0.0
 33
0.0
 40
0.0
 40
0.0
 40
0.0
 40
0.0
 40
0.5
 40
0.5
 40
1.0
 40
1.0
 40
1.0
 40
1.0
 10
221.0715992953112
 20
411.5623218881353
 30
0.0
 10
220.0014498506232
 20
411.9355405982133
 30
0.0
 10
218.9234836227978
 20
412.3114854412945
 30
0.0
 10
216.7450151398768
 20
413.0712346531239
 30
0.0
 10
215.6443444256211
 20
413.4550977726482
 30
0.0
 10
214.5298189211618
 20
413.8437928032236
 30
0.0
  0
SPLINE
  5
1E3
330
1F
100
AcDbEntity
  8
0
  6
Continuous
 62
     7
370
    15
100
AcDbSpline
210
0.0
220
0.0
230
1.0
 70
    24
 71
     3
 72
    12
 73
     8
 74
     0
 42
0.00000001
 43
0.00000001
 12
1.0
 22
0.0
 32
0.0
 13
1.0
 23
0.0
 33
0.0
 40
0.0
 40
0.0
 40
0.0
 40
0.0
 40
0.2499999999999997
 40
0.2499999999999997
 40
0.4999999999999994
 40
0.4999999999999994
 40
1.0
 40
1.0
 40
1.0
 40
1.0
 10
226.3183012528476
 20
416.0869344205831
 30
0.0
 10
225.8730311860741
 20
415.7029456709355
 30
0.0
 10
225.425763418308
 20
415.3172341584896
 30
0.0
 10
224.5409746081386
 20
414.5542164434636
 30
0.0
 10
224.1015394606059
 20
414.1752595688753
 30
0.0
 10
222.791038749516
 20
413.0451195324927
 30
0.0
 10
221.9277475491677
 20
412.3006407692885
 30
0.0
 10
221.0715992953112
 20
411.5623218881353
 30
0.0
  0
SPLINE
  5
1E4
330
1F
100
AcDbEntity
  8
0
  6
Continuous
 62
     7
370
    15
100
AcDbSpline
210
0.0
220
0.0
230
1.0
 70
    24
 71
     3
 72
    12
 73
     8
 74
     0
 42
0.00000001
 43
0.00000001
 12
1.0
 22
0.0
 32
0.0
 13
1.0
 23
0.0
 33
0.0
 40
0.0
 40
0.0
 40
0.0
 40
0.0
 40
0.25
 40
0.25
 40
0.5
 40
0.5
 40
1.0
 40
1.0
 40
1.0
 40
1.0
 10
210.644583671323
 20
434.2620431458316
 30
0.0
 10
211.0898537380965
 20
434.646031895479
 30
0.0
 10
211.5371215058627
 20
435.031743407925
 30
0.0
 10
212.4219103160321
 20
435.794761122951
 30
0.0
 10
212.8613454635647
 20
436.1737179975393
 30
0.0
 10
214.1718461746547
 20
437.3038580339219
 30
0.0
 10
215.0351373750029
 20
438.0483367971261
 30
0.0
 10
215.8912856288595
 20
438.7866556782793
 30
0.0
  0
SPLINE
  5
1E5
330
1F
100
AcDbEntity
  8
0
  6
Continuous
 62
     7
370
    15
100
AcDbSpline
210
0.0
220
0.0
230
1.0
 70
    24
 71
     3
 72
    10
 73
     6
 74
     0
 42
0.00000001
 43
0.00000001
 12
1.0
 22
0.0
 32
0.0
 13
1.0
 23
0.0
 33
0.0
 40
0.0
 40
0.0
 40
0.0
 40
0.0
 40
0.5
 40
0.5
 40
1.0
 40
1.0
 40
1.0
 40
1.0
 10
215.8912856288594
 20
438.7866556782793
 30
0.0
 10
216.9614350735474
 20
438.4134369682013
 30
0.0
 10
218.0394013013728
 20
438.0374921251201
 30
0.0
 10
220.2178697842939
 20
437.2777429132908
 30
0.0
 10
221.3185404985496
 20
436.8938797937665
 30
0.0
 10
222.4330660030089
 20
436.505184763191
 30
0.0
  0
SPLINE
  5
1E6
330
1F
100
AcDbEntity
  8
0
  6
Continuous
 62
     7
370
    15
100
AcDbSpline
210
0.0
220
0.0
230
1.0
 70
    24
 71
     3
 72
    12
 73
     8
 74
     0
 42
0.00000001
 43
0.00000001
 12
1.0
 22
0.0
 32
0.0
 13
1.0
 23
0.0
 33
0.0
 40
0.0
 40
0.0
 40
0.0
 40
0.0
 40
0.2500000000000003
 40
0.2500000000000003
 40
0.5000000000000006
 40
0.5000000000000006
 40
1.0
 40
1.0
 40
1.0
 40
1.0
 10
206.6929601303995
 20
422.9313471658479
 30
0.0
 10
206.8024486197311
 20
422.3559474175576
 30
0.0
 10
206.9122878145508
 20
421.7787045910511
 30
0.0
 10
207.132658562636
 20
420.6205803557737
 30
0.0
 10
207.2420381217941
 20
420.0457530730895
 30
0.0
 10
207.5664778009094
 20
418.3407107363282
 30
0.0
 10
207.7786315871887
 20
417.2257694674406
 30
0.0
 10
207.9880385470124
 20
416.1252637183119
 30
0.0
  0
SPLINE
  5
1E7
330
1F
100
AcDbEntity
  8
0
  6
Continuous
 62
     7
370
    15
100
AcDbSpline
210
0.0
220
0.0
230
1.0
 70
    24
 71
     3
 72
    12
 73
     8
 74
     0
 42
0.00000001
 43
0.00000001
 12
1.0
 22
0.0
 32
0.0
 13
1.0
 23
0.0
 33
0.0
 40
0.0
 40
0.0
 40
0.0
 40
0.0
 40
0.2500000000000002
 40
0.2500000000000002
 40
0.5000000000000003
 40
0.5000000000000003
 40
1.0
 40
1.0
 40
1.0
 40
1.0
 10
214.5298189211618
 20
413.8437928032236
 30
0.0
 10
213.9746398758129
 20
414.0374136177706
 30
0.0
 10
213.4169700236194
 20
414.231903110727
 30
0.0
 10
212.3137828937847
 20
414.6166438398049
 30
0.0
 10
211.7658790396862
 20
414.8077274035898
 30
0.0
 10
210.1318987028
 20
415.3775842928799
 30
0.0
 10
209.055515581113
 20
415.752977021643
 30
0.0
 10
207.9880385470124
 20
416.1252637183119
 30
0.0
  0
SPLINE
  5
1E8
330
1F
100
AcDbEntity
  8
0
  6
Continuous
 62
     7
370
    15
100
AcDbSpline
210
0.0
220
0.0
230
1.0
 70
    24
 71
     3
 72
    10
 73
     6
 74
     0
 42
0.00000001
 43
0.00000001
 12
1.0
 22
0.0
 32
0.0
 13
1.0
 23
0.0
 33
0.0
 40
0.0
 40
0.0
 40
0.0
 40
0.0
 40
0.5
 40
0.5
 40
1.0
 40
1.0
 40
1.0
 40
1.0
 10
210.6877044050642
 20
580.01603165599
 30
0.0
 10
210.1948999566041
 20
581.0366470659737
 30
0.0
 10
209.6984958749134
 20
582.064717443454
 30
0.0
 10
208.6953098577245
 20
584.1423511000143
 30
0.0
 10
208.1884503466839
 20
585.192075040781
 30
0.0
 10
207.6752106966088
 20
586.2550124747229
 30
0.0
  0
SPLINE
  5
1E9
330
1F
100
AcDbEntity
  8
0
  6
Continuous
 62
     7
370
    15
100
AcDbSpline
210
0.0
220
0.0
230
1.0
 70
    24
 71
     3
 72
    12
 73
     8
 74
     0
 42
0.00000001
 43
0.00000001
 12
1.0
 22
0.0
 32
0.0
 13
1.0
 23
0.0
 33
0.0
 40
0.0
 40
0.0
 40
0.0
 40
0.0
 40
0.2500000000000005
 40
0.2500000000000005
 40
0.5000000000000002
 40
0.5000000000000002
 40
1.0
 40
1.0
 40
1.0
 40
1.0
 10
217.5970671420383
 20
579.5054373268867
 30
0.0
 10
217.0106926095883
 20
579.5487697617866
 30
0.0
 10
216.4216873119624
 20
579.5922966073479
 30
0.0
 10
215.2565121439133
 20
579.6784017744762
 30
0.0
 10
214.6778215954027
 20
579.7211663713897
 30
0.0
 10
212.9520279724246
 20
579.8487006275346
 30
0.0
 10
211.8151629286086
 20
579.9327137075285
 30
0.0
 10
210.6877044050641
 20
580.01603165599
 30
0.0
  0
SPLINE
  5
1EA
330
1F
100
AcDbEntity
  8
0
  6
Continuous
 62
     7
370
    15
100
AcDbSpline
210
0.0
220
0.0
230
1.0
 70
    24
 71
     3
 72
    12
 73
     8
 74
     0
 42
0.00000001
 43
0.00000001
 12
1.0
 22
0.0
 32
0.0
 13
1.0
 23
0.0
 33
0.0
 40
0.0
 40
0.0
 40
0.0
 40
0.0
 40
0.249999999999997
 40
0.249999999999997
 40
0.499999999999994
 40
0.499999999999994
 40
1.0
 40
1.0
 40
1.0
 40
1.0
 10
208.5595860166723
 20
598.2223797830854
 30
0.0
 10
208.8890350273132
 20
598.7066689002628
 30
0.0
 10
209.2195393048301
 20
599.192509256774
 30
0.0
 10
209.882631154705
 20
600.1672524073413
 30
0.0
 10
210.2117523962981
 20
600.6510597049421
 30
0.0
 10
211.1879858976438
 20
602.0861202006647
 30
0.0
 10
211.8263530485664
 20
603.0245181134522
 30
0.0
 10
212.4564550451911
 20
603.950766272715
 30
0.0
  0
SPLINE
  5
1EB
330
1F
100
AcDbEntity
  8
0
  6
Continuous
 62
     7
370
    15
100
AcDbSpline
210
0.0
220
0.0
230
1.0
 70
    24
 71
     3
 72
    10
 73
     6
 74
     0
 42
0.00000001
 43
0.00000001
 12
1.0
 22
0.0
 32
0.0
 13
1.0
 23
0.0
 33
0.0
 40
0.0
 40
0.0
 40
0.0
 40
0.0
 40
0.4999999999999997
 40
0.4999999999999997
 40
1.0
 40
1.0
 40
1.0
 40
1.0
 10
212.4564550451911
 20
603.950766272715
 30
0.0
 10
213.5867361419609
 20
603.8672397391875
 30
0.0
 10
214.7252732465824
 20
603.7831030957338
 30
0.0
 10
217.0261497815156
 20
603.6130708430605
 30
0.0
 10
218.1886671367006
 20
603.5271620853881
 30
0.0
 10
219.3658177821653
 20
603.4401719436116
 30
0.0
  0
SPLINE
  5
1EC
330
1F
100
AcDbEntity
  8
0
  6
Continuous
 62
     7
370
    15
100
AcDbSpline
210
0.0
220
0.0
230
1.0
 70
    24
 71
     3
 72
    10
 73
     6
 74
     0
 42
0.00000001
 43
0.00000001
 12
1.0
 22
0.0
 32
0.0
 13
1.0
 23
0.0
 33
0.0
 40
0.0
 40
0.0
 40
0.0
 40
0.0
 40
0.5
 40
0.5
 40
1.0
 40
1.0
 40
1.0
 40
1.0
 10
205.3978817137865
 20
429.7374306133839
 30
0.0
 10
205.6085157260009
 20
428.6304762810203
 30
0.0
 10
205.8242462756312
 20
427.4967378879378
 30
0.0
 10
206.2566840837886
 20
425.2241281598824
 30
0.0
 10
206.4741131764295
 20
424.0814633378507
 30
0.0
 10
206.6929601303995
 20
422.9313471658479
 30
0.0
  0
SPLINE
  5
1ED
330
1F
100
AcDbEntity
  8
0
  6
Continuous
 62
     7
370
    15
100
AcDbSpline
210
0.0
220
0.0
230
1.0
 70
    24
 71
     3
 72
    10
 73
     6
 74
     0
 42
0.00000001
 43
0.00000001
 12
1.0
 22
0.0
 32
0.0
 13
1.0
 23
0.0
 33
0.0
 40
0.0
 40
0.0
 40
0.0
 40
0.0
 40
0.5000000000000002
 40
0.5000000000000002
 40
1.0
 40
1.0
 40
1.0
 40
1.0
 10
205.3978817137865
 20
429.7374306133838
 30
0.0
 10
206.2561733202257
 20
430.4775978632904
 30
0.0
 10
207.1207342186684
 20
431.2231715794683
 30
0.0
 10
208.8679305780784
 20
432.7299060211071
 30
0.0
 10
209.7507011482902
 20
433.4911832610919
 30
0.0
 10
210.644583671323
 20
434.2620431458316
 30
0.0
  0
SPLINE
  5
1EE
330
1F
100
AcDbEntity
  8
0
  6
Continuous
 62
     7
370
    15
100
AcDbSpline
210
0.0
220
0.0
230
1.0
 70
    24
 71
     3
 72
    12
 73
     8
 74
     0
 42
0.00000001
 43
0.00000001
 12
1.0
 22
0.0
 32
0.0
 13
1.0
 23
0.0
 33
0.0
 40
0.0
 40
0.0
 40
0.0
 40
0.0
 40
0.2500000000000027
 40
0.2500000000000027
 40
0.5000000000000053
 40
0.5000000000000053
 40
1.0
 40
1.0
 40
1.0
 40
1.0
 10
207.6752106966088
 20
586.2550124747229
 30
0.0
 10
207.4195504198149
 20
586.7844939334068
 30
0.0
 10
207.1627431250047
 20
587.3163509068952
 30
0.0
 10
206.6547248031104
 20
588.3684747858487
 30
0.0
 10
206.4024147561647
 20
588.8910178002455
 30
0.0
 10
205.6499658503499
 20
590.4493660475061
 30
0.0
 10
205.1542907899668
 20
591.4759265961222
 30
0.0
 10
204.6627169881534
 20
592.4939932934559
 30
0.0
  0
SPLINE
  5
1EF
330
1F
100
AcDbEntity
  8
0
  6
Continuous
 62
     7
370
    15
100
AcDbSpline
210
0.0
220
0.0
230
1.0
 70
    24
 71
     3
 72
    10
 73
     6
 74
     0
 42
0.00000001
 43
0.00000001
 12
1.0
 22
0.0
 32
0.0
 13
1.0
 23
0.0
 33
0.0
 40
0.0
 40
0.0
 40
0.0
 40
0.0
 40
0.5
 40
0.5
 40
1.0
 40
1.0
 40
1.0
 40
1.0
 10
204.6627169881534
 20
592.4939932934558
 30
0.0
 10
205.2965111646462
 20
593.4256689467194
 30
0.0
 10
205.9456407359337
 20
594.3798875871121
 30
0.0
 10
207.2468387790426
 20
596.2926450434002
 30
0.0
 10
207.9010792374909
 20
597.2543766735158
 30
0.0
 10
208.5595860166723
 20
598.2223797830854
 30
0.0
  0
ARC
  5
1F0
330
1F
100
AcDbEntity
  8
0
  6
Continuous
 62
     7
370
    15
100
AcDbCircle
 10
149.5984246364
 20
425.1744887832
 30
0.0
 40
12.00000000000004
100
AcDbArc
 50
25.7735871032
 51
85.7735871032
  0
ARC
  5
1F1
330
1F
100
AcDbEntity
  8
0
  6
Continuous
 62
     7
370
    15
100
AcDbCircle
 10
149.5984246364
 20
425.1744887832
 30
0.0
 40
12.0
100
AcDbArc
 50
325.7735871032
 51
25.7735871032
  0
ARC
  5
1F2
330
1F
100
AcDbEntity
  8
0
  6
Continuous
 62
     7
370
    15
100
AcDbCircle
 10
149.5984246364
 20
425.1744887832
 30
0.0
 40
11.99999999999999
100
AcDbArc
 50
265.7735871032
 51
325.7735871032
  0
ARC
  5
1F3
330
1F
100
AcDbEntity
  8
0
  6
Continuous
 62
     7
370
    15
100
AcDbCircle
 10
149.5984246364
 20
425.1744887832
 30
0.0
 40
12.00000000000002
100
AcDbArc
 50
205.7735871032
 51
265.7735871032
  0
ARC
  5
1F4
330
1F
100
AcDbEntity
  8
0
  6
Continuous
 62
     7
370
    15
100
AcDbCircle
 10
149.5984246364
 20
425.1744887832
 30
0.0
 40
12.00000000000002
100
AcDbArc
 50
145.7735871032
 51
205.7735871032
  0
ARC
  5
1F5
330
1F
100
AcDbEntity
  8
0
  6
Continuous
 62
     7
370
    15
100
AcDbCircle
 10
149.5984246364
 20
425.1744887832
 30
0.0
 40
12.00000000000004
100
AcDbArc
 50
85.7735871032
 51
145.7735871032
  0
SPLINE
  5
1F6
330
1F
100
AcDbEntity
  8
0
  6
Continuous
 62
     7
370
    15
100
AcDbSpline
210
0.0
220
0.0
230
1.0
 70
    24
 71
     3
 72
    12
 73
     8
 74
     0
 42
0.00000001
 43
0.00000001
 12
1.0
 22
0.0
 32
0.0
 13
1.0
 23
0.0
 33
0.0
 40
0.0
 40
0.0
 40
0.0
 40
0.0
 40
0.25
 40
0.25
 40
0.5
 40
0.5
 40
1.0
 40
1.0
 40
1.0
 40
1.0
 10
150.4827999564284
 20
437.1418560915769
 30
0.0
 10
151.0691744888785
 20
437.0985236566769
 30
0.0
 10
151.6581797865044
 20
437.0549968111156
 30
0.0
 10
152.8233549545535
 20
436.9688916439872
 30
0.0
 10
153.4020455030641
 20
436.9261270470738
 30
0.0
 10
155.1278391260422
 20
436.7985927909289
 30
0.0
 10
156.2647041698581
 20
436.714579710935
 30
0.0
 10
157.3921626934026
 20
436.6312617624735
 30
0.0
  0
SPLINE
  5
1F7
330
1F
100
AcDbEntity
  8
0
  6
Continuous
 62
     7
370
    15
100
AcDbSpline
210
0.0
220
0.0
230
1.0
 70
    24
 71
     3
 72
    10
 73
     6
 74
     0
 42
0.00000001
 43
0.00000001
 12
1.0
 22
0.0
 32
0.0
 13
1.0
 23
0.0
 33
0.0
 40
0.0
 40
0.0
 40
0.0
 40
0.0
 40
0.5
 40
0.5
 40
1.0
 40
1.0
 40
1.0
 40
1.0
 10
157.3921626934026
 20
436.6312617624735
 30
0.0
 10
157.8849671418627
 20
435.6106463524898
 30
0.0
 10
158.3813712235533
 20
434.5825759750095
 30
0.0
 10
159.3845572407423
 20
432.5049423184491
 30
0.0
 10
159.8914167517828
 20
431.4552183776825
 30
0.0
 10
160.4046564018579
 20
430.3922809437406
 30
0.0
  0
SPLINE
  5
1F8
330
1F
100
AcDbEntity
  8
0
  6
Continuous
 62
     7
370
    15
100
AcDbSpline
210
0.0
220
0.0
230
1.0
 70
    24
 71
     3
 72
    10
 73
     6
 74
     0
 42
0.00000001
 43
0.00000001
 12
1.0
 22
0.0
 32
0.0
 13
1.0
 23
0.0
 33
0.0
 40
0.0
 40
0.0
 40
0.0
 40
0.0
 40
0.5
 40
0.5
 40
1.0
 40
1.0
 40
1.0
 40
1.0
 10
163.4171501103132
 20
424.1533001250076
 30
0.0
 10
162.7833559338204
 20
423.2216244717442
 30
0.0
 10
162.1342263625329
 20
422.2674058313514
 30
0.0
 10
160.833028319424
 20
420.3546483750633
 30
0.0
 10
160.1787878609757
 20
419.3929167449477
 30
0.0
 10
159.5202810817943
 20
418.4249136353781
 30
0.0
  0
SPLINE
  5
1F9
330
1F
100
AcDbEntity
  8
0
  6
Continuous
 62
     7
370
    15
100
AcDbSpline
210
0.0
220
0.0
230
1.0
 70
    24
 71
     3
 72
    12
 73
     8
 74
     0
 42
0.00000001
 43
0.00000001
 12
1.0
 22
0.0
 32
0.0
 13
1.0
 23
0.0
 33
0.0
 40
0.0
 40
0.0
 40
0.0
 40
0.0
 40
0.249999999999999
 40
0.249999999999999
 40
0.499999999999998
 40
0.499999999999998
 40
1.0
 40
1.0
 40
1.0
 40
1.0
 10
160.4046564018579
 20
430.3922809437406
 30
0.0
 10
160.6603166786518
 20
429.8627994850567
 30
0.0
 10
160.917123973462
 20
429.3309425115683
 30
0.0
 10
161.4251422953563
 20
428.2788186326148
 30
0.0
 10
161.677452342302
 20
427.756275618218
 30
0.0
 10
162.4299012481168
 20
426.1979273709573
 30
0.0
 10
162.9255763084998
 20
425.1713668223412
 30
0.0
 10
163.4171501103132
 20
424.1533001250076
 30
0.0
  0
SPLINE
  5
1FA
330
1F
100
AcDbEntity
  8
0
  6
Continuous
 62
     7
370
    15
100
AcDbSpline
210
0.0
220
0.0
230
1.0
 70
    24
 71
     3
 72
    10
 73
     6
 74
     0
 42
0.00000001
 43
0.00000001
 12
1.0
 22
0.0
 32
0.0
 13
1.0
 23
0.0
 33
0.0
 40
0.0
 40
0.0
 40
0.0
 40
0.0
 40
0.5000000000000019
 40
0.5000000000000019
 40
1.0
 40
1.0
 40
1.0
 40
1.0
 10
162.6819853846802
 20
586.9098628050793
 30
0.0
 10
161.823693778241
 20
586.1696955551728
 30
0.0
 10
160.9591328797982
 20
585.4241218389949
 30
0.0
 10
159.2119365203883
 20
583.9173873973562
 30
0.0
 10
158.3291659501765
 20
583.1561101573714
 30
0.0
 10
157.4352834271437
 20
582.3852502726315
 30
0.0
  0
ARC
  5
1FB
330
1F
100
AcDbEntity
  8
0
  6
Continuous
 62
     7
370
    15
100
AcDbCircle
 10
149.5984246364
 20
591.4728046353
 30
0.0
 40
12.00000000000003
100
AcDbArc
 50
310.7735871032
 51
10.7735871032
  0
SPLINE
  5
1FC
330
1F
100
AcDbEntity
  8
0
  6
Continuous
 62
     7
370
    15
100
AcDbSpline
210
0.0
220
0.0
230
1.0
 70
    24
 71
     3
 72
    10
 73
     6
 74
     0
 42
0.00000001
 43
0.00000001
 12
1.0
 22
0.0
 32
0.0
 13
1.0
 23
0.0
 33
0.0
 40
0.0
 40
0.0
 40
0.0
 40
0.0
 40
0.5
 40
0.5
 40
1.0
 40
1.0
 40
1.0
 40
1.0
 10
162.6819853846802
 20
586.9098628050792
 30
0.0
 10
162.4713513724658
 20
588.0168171374429
 30
0.0
 10
162.2556208228355
 20
589.1505555305254
 30
0.0
 10
161.823183014678
 20
591.4231652585809
 30
0.0
 10
161.6057539220371
 20
592.5658300806125
 30
0.0
 10
161.3869069680672
 20
593.7159462526154
 30
0.0
  0
ARC
  5
1FD
330
1F
100
AcDbEntity
  8
0
  6
Continuous
 62
     7
370
    15
100
AcDbCircle
 10
149.5984246364
 20
591.4728046353
 30
0.0
 40
12.00000000000003
100
AcDbArc
 50
250.7735871032
 51
310.7735871032
  0
ARC
  5
1FE
330
1F
100
AcDbEntity
  8
0
  6
Continuous
 62
     7
370
    15
100
AcDbCircle
 10
149.5984246364
 20
591.4728046353
 30
0.0
 40
12.00000000000001
100
AcDbArc
 50
190.7735871032
 51
250.7735871032
  0
ARC
  5
1FF
330
1F
100
AcDbEntity
  8
0
  6
Continuous
 62
     7
370
    15
100
AcDbCircle
 10
149.5984246364
 20
591.4728046353
 30
0.0
 40
12.00000000000001
100
AcDbArc
 50
130.7735871032
 51
190.7735871032
  0
ARC
  5
200
330
1F
100
AcDbEntity
  8
0
  6
Continuous
 62
     7
370
    15
100
AcDbCircle
 10
149.5984246364
 20
591.4728046353
 30
0.0
 40
12.00000000000009
100
AcDbArc
 50
70.7735871032
 51
130.7735871032
  0
ARC
  5
201
330
1F
100
AcDbEntity
  8
0
  6
Continuous
 62
     7
370
    15
100
AcDbCircle
 10
149.5984246364
 20
591.4728046353
 30
0.0
 40
12.00000000000009
100
AcDbArc
 50
10.7735871032
 51
70.7735871032
  0
SPLINE
  5
202
330
1F
100
AcDbEntity
  8
0
  6
Continuous
 62
     7
370
    15
100
AcDbSpline
210
0.0
220
0.0
230
1.0
 70
    24
 71
     3
 72
    10
 73
     6
 74
     0
 42
0.00000001
 43
0.00000001
 12
1.0
 22
0.0
 32
0.0
 13
1.0
 23
0.0
 33
0.0
 40
0.0
 40
0.0
 40
0.0
 40
0.0
 40
0.5
 40
0.5
 40
1.0
 40
1.0
 40
1.0
 40
1.0
 10
155.6234120532755
 20
412.6965271457486
 30
0.0
 10
154.4931309565057
 20
412.7800536792761
 30
0.0
 10
153.3545938518842
 20
412.8641903227298
 30
0.0
 10
151.053717316951
 20
413.034222575403
 30
0.0
 10
149.891199961766
 20
413.1201313330754
 30
0.0
 10
148.7140493163013
 20
413.2071214748519
 30
0.0
  0
SPLINE
  5
203
330
1F
100
AcDbEntity
  8
0
  6
Continuous
 62
     7
370
    15
100
AcDbSpline
210
0.0
220
0.0
230
1.0
 70
    24
 71
     3
 72
    12
 73
     8
 74
     0
 42
0.00000001
 43
0.00000001
 12
1.0
 22
0.0
 32
0.0
 13
1.0
 23
0.0
 33
0.0
 40
0.0
 40
0.0
 40
0.0
 40
0.0
 40
0.2499999999999989
 40
0.2499999999999989
 40
0.4999999999999979
 40
0.4999999999999979
 40
1.0
 40
1.0
 40
1.0
 40
1.0
 10
159.5202810817943
 20
418.4249136353781
 30
0.0
 10
159.1908320711534
 20
417.9406245182008
 30
0.0
 10
158.8603277936365
 20
417.4547841616896
 30
0.0
 10
158.1972359437616
 20
416.4800410111222
 30
0.0
 10
157.8681147021685
 20
415.9962337135214
 30
0.0
 10
156.8918812008228
 20
414.5611732177989
 30
0.0
 10
156.2535140499002
 20
413.6227753050113
 30
0.0
 10
155.6234120532754
 20
412.6965271457486
 30
0.0
  0
SPLINE
  5
204
330
1F
100
AcDbEntity
  8
0
  6
Continuous
 62
     7
370
    15
100
AcDbSpline
210
0.0
220
0.0
230
1.0
 70
    24
 71
     3
 72
    12
 73
     8
 74
     0
 42
0.00000001
 43
0.00000001
 12
1.0
 22
0.0
 32
0.0
 13
1.0
 23
0.0
 33
0.0
 40
0.0
 40
0.0
 40
0.0
 40
0.0
 40
0.2500000000000007
 40
0.2500000000000007
 40
0.5000000000000014
 40
0.5000000000000014
 40
1.0
 40
1.0
 40
1.0
 40
1.0
 10
153.5500481773048
 20
602.8035006152395
 30
0.0
 10
154.1052272226537
 20
602.6098798006926
 30
0.0
 10
154.6628970748471
 20
602.4153903077362
 30
0.0
 10
155.7660842046819
 20
602.0306495786583
 30
0.0
 10
156.3139880587804
 20
601.8395660148733
 30
0.0
 10
157.9479683956666
 20
601.2697091255833
 30
0.0
 10
159.0243515173536
 20
600.8943163968202
 30
0.0
 10
160.0918285514542
 20
600.5220297001514
 30
0.0
  0
SPLINE
  5
205
330
1F
100
AcDbEntity
  8
0
  6
Continuous
 62
     7
370
    15
100
AcDbSpline
210
0.0
220
0.0
230
1.0
 70
    24
 71
     3
 72
    12
 73
     8
 74
     0
 42
0.00000001
 43
0.00000001
 12
1.0
 22
0.0
 32
0.0
 13
1.0
 23
0.0
 33
0.0
 40
0.0
 40
0.0
 40
0.0
 40
0.0
 40
0.2500000000000026
 40
0.2500000000000026
 40
0.5000000000000051
 40
0.5000000000000051
 40
1.0
 40
1.0
 40
1.0
 40
1.0
 10
161.3869069680672
 20
593.7159462526154
 30
0.0
 10
161.2774184787356
 20
594.2913460009056
 30
0.0
 10
161.1675792839159
 20
594.8685888274122
 30
0.0
 10
160.9472085358306
 20
596.0267130626896
 30
0.0
 10
160.8378289766725
 20
596.6015403453737
 30
0.0
 10
160.5133892975572
 20
598.3065826821351
 30
0.0
 10
160.3012355112779
 20
599.4215239510227
 30
0.0
 10
160.0918285514542
 20
600.5220297001514
 30
0.0
  0
SPLINE
  5
206
330
1F
100
AcDbEntity
  8
0
  6
Continuous
 62
     7
370
    15
100
AcDbSpline
210
0.0
220
0.0
230
1.0
 70
    24
 71
     3
 72
    10
 73
     6
 74
     0
 42
0.00000001
 43
0.00000001
 12
1.0
 22
0.0
 32
0.0
 13
1.0
 23
0.0
 33
0.0
 40
0.0
 40
0.0
 40
0.0
 40
0.0
 40
0.5
 40
0.5
 40
1.0
 40
1.0
 40
1.0
 40
1.0
 10
152.1885814696074
 20
577.8606377401838
 30
0.0
 10
151.1184320249193
 20
578.2338564502618
 30
0.0
 10
150.0404657970939
 20
578.6098012933429
 30
0.0
 10
147.8619973141728
 20
579.3695505051724
 30
0.0
 10
146.7613265999172
 20
579.7534136246967
 30
0.0
 10
145.6468010954578
 20
580.1421086552721
 30
0.0
  0
SPLINE
  5
207
330
1F
100
AcDbEntity
  8
0
  6
Continuous
 62
     7
370
    15
100
AcDbSpline
210
0.0
220
0.0
230
1.0
 70
    24
 71
     3
 72
    12
 73
     8
 74
     0
 42
0.00000001
 43
0.00000001
 12
1.0
 22
0.0
 32
0.0
 13
1.0
 23
0.0
 33
0.0
 40
0.0
 40
0.0
 40
0.0
 40
0.0
 40
0.250000000000001
 40
0.250000000000001
 40
0.500000000000002
 40
0.500000000000002
 40
1.0
 40
1.0
 40
1.0
 40
1.0
 10
157.4352834271437
 20
582.3852502726315
 30
0.0
 10
156.9900133603702
 20
582.0012615229841
 30
0.0
 10
156.542745592604
 20
581.6155500105381
 30
0.0
 10
155.6579567824347
 20
580.852532295512
 30
0.0
 10
155.218521634902
 20
580.4735754209239
 30
0.0
 10
153.9080209238121
 20
579.3434353845413
 30
0.0
 10
153.0447297234638
 20
578.598956621337
 30
0.0
 10
152.1885814696073
 20
577.8606377401838
 30
0.0
  0
SPLINE
  5
208
330
1F
100
AcDbEntity
  8
0
  6
Continuous
 62
     7
370
    15
100
AcDbSpline
210
0.0
220
0.0
230
1.0
 70
    24
 71
     3
 72
    12
 73
     8
 74
     0
 42
0.00000001
 43
0.00000001
 12
1.0
 22
0.0
 32
0.0
 13
1.0
 23
0.0
 33
0.0
 40
0.0
 40
0.0
 40
0.0
 40
0.0
 40
0.2500000000000001
 40
0.2500000000000001
 40
0.5000000000000001
 40
0.5000000000000001
 40
1.0
 40
1.0
 40
1.0
 40
1.0
 10
148.7140493163013
 20
413.2071214748519
 30
0.0
 10
148.1276747838513
 20
413.2504539097518
 30
0.0
 10
147.5386694862253
 20
413.2939807553132
 30
0.0
 10
146.3734943181762
 20
413.3800859224416
 30
0.0
 10
145.7948037696656
 20
413.4228505193549
 30
0.0
 10
144.0690101466875
 20
413.5503847754999
 30
0.0
 10
142.9321451028715
 20
413.6343978554938
 30
0.0
 10
141.804686579327
 20
413.7177158039553
 30
0.0
  0
SPLINE
  5
209
330
1F
100
AcDbEntity
  8
0
  6
Continuous
 62
     7
370
    15
100
AcDbSpline
210
0.0
220
0.0
230
1.0
 70
    24
 71
     3
 72
    10
 73
     6
 74
     0
 42
0.00000001
 43
0.00000001
 12
1.0
 22
0.0
 32
0.0
 13
1.0
 23
0.0
 33
0.0
 40
0.0
 40
0.0
 40
0.0
 40
0.0
 40
0.5
 40
0.5
 40
1.0
 40
1.0
 40
1.0
 40
1.0
 10
141.8046865793271
 20
413.7177158039552
 30
0.0
 10
141.311882130867
 20
414.738331213939
 30
0.0
 10
140.8154780491764
 20
415.7664015914192
 30
0.0
 10
139.8122920319875
 20
417.8440352479796
 30
0.0
 10
139.3054325209469
 20
418.8937591887463
 30
0.0
 10
138.7921928708718
 20
419.9566966226882
 30
0.0
  0
SPLINE
  5
20A
330
1F
100
AcDbEntity
  8
0
  6
Continuous
 62
     7
370
    15
100
AcDbSpline
210
0.0
220
0.0
230
1.0
 70
    24
 71
     3
 72
    10
 73
     6
 74
     0
 42
0.00000001
 43
0.00000001
 12
1.0
 22
0.0
 32
0.0
 13
1.0
 23
0.0
 33
0.0
 40
0.0
 40
0.0
 40
0.0
 40
0.0
 40
0.5
 40
0.5
 40
1.0
 40
1.0
 40
1.0
 40
1.0
 10
143.5734372194543
 20
437.6524504206802
 30
0.0
 10
142.9396430429614
 20
436.7207747674168
 30
0.0
 10
142.2905134716739
 20
435.7665561270239
 30
0.0
 10
140.989315428565
 20
433.8537986707358
 30
0.0
 10
140.3350749701167
 20
432.8920670406203
 30
0.0
 10
139.6765681909353
 20
431.9240639310506
 30
0.0
  0
SPLINE
  5
20B
330
1F
100
AcDbEntity
  8
0
  6
Continuous
 62
     7
370
    15
100
AcDbSpline
210
0.0
220
0.0
230
1.0
 70
    24
 71
     3
 72
    10
 73
     6
 74
     0
 42
0.00000001
 43
0.00000001
 12
1.0
 22
0.0
 32
0.0
 13
1.0
 23
0.0
 33
0.0
 40
0.0
 40
0.0
 40
0.0
 40
0.0
 40
0.5
 40
0.5
 40
1.0
 40
1.0
 40
1.0
 40
1.0
 10
143.5734372194542
 20
437.6524504206802
 30
0.0
 10
144.703718316224
 20
437.5689238871527
 30
0.0
 10
145.8422554208455
 20
437.4847872436989
 30
0.0
 10
148.1431319557788
 20
437.3147549910258
 30
0.0
 10
149.3056493109637
 20
437.2288462333534
 30
0.0
 10
150.4827999564284
 20
437.1418560915769
 30
0.0
  0
SPLINE
  5
20C
330
1F
100
AcDbEntity
  8
0
  6
Continuous
 62
     7
370
    15
100
AcDbSpline
210
0.0
220
0.0
230
1.0
 70
    24
 71
     3
 72
    12
 73
     8
 74
     0
 42
0.00000001
 43
0.00000001
 12
1.0
 22
0.0
 32
0.0
 13
1.0
 23
0.0
 33
0.0
 40
0.0
 40
0.0
 40
0.0
 40
0.0
 40
0.2499999999999981
 40
0.2499999999999981
 40
0.4999999999999962
 40
0.4999999999999962
 40
1.0
 40
1.0
 40
1.0
 40
1.0
 10
141.7615658456189
 20
600.5603589978799
 30
0.0
 10
142.2068359123925
 20
600.9443477475274
 30
0.0
 10
142.6541036801587
 20
601.3300592599735
 30
0.0
 10
143.5388924903281
 20
602.0930769749995
 30
0.0
 10
143.9783276378606
 20
602.4720338495877
 30
0.0
 10
145.2888283489506
 20
603.6021738859704
 30
0.0
 10
146.1521195492988
 20
604.3466526491745
 30
0.0
 10
147.0082678031554
 20
605.0849715303278
 30
0.0
  0
SPLINE
  5
20D
330
1F
100
AcDbEntity
  8
0
  6
Continuous
 62
     7
370
    15
100
AcDbSpline
210
0.0
220
0.0
230
1.0
 70
    24
 71
     3
 72
    10
 73
     6
 74
     0
 42
0.00000001
 43
0.00000001
 12
1.0
 22
0.0
 32
0.0
 13
1.0
 23
0.0
 33
0.0
 40
0.0
 40
0.0
 40
0.0
 40
0.0
 40
0.5
 40
0.5
 40
1.0
 40
1.0
 40
1.0
 40
1.0
 10
147.0082678031553
 20
605.0849715303277
 30
0.0
 10
148.0784172478434
 20
604.7117528202498
 30
0.0
 10
149.1563834756687
 20
604.3358079771687
 30
0.0
 10
151.3348519585898
 20
603.5760587653391
 30
0.0
 10
152.4355226728455
 20
603.192195645815
 30
0.0
 10
153.5500481773048
 20
602.8035006152395
 30
0.0
  0
SPLINE
  5
20E
330
1F
100
AcDbEntity
  8
0
  6
Continuous
 62
     7
370
    15
100
AcDbSpline
210
0.0
220
0.0
230
1.0
 70
    24
 71
     3
 72
    12
 73
     8
 74
     0
 42
0.00000001
 43
0.00000001
 12
1.0
 22
0.0
 32
0.0
 13
1.0
 23
0.0
 33
0.0
 40
0.0
 40
0.0
 40
0.0
 40
0.0
 40
0.2500000000000024
 40
0.2500000000000024
 40
0.5000000000000048
 40
0.5000000000000048
 40
1.0
 40
1.0
 40
1.0
 40
1.0
 10
137.8099423046955
 20
589.2296630178962
 30
0.0
 10
137.7004538153639
 20
589.8050627661866
 30
0.0
 10
137.5906146205442
 20
590.3823055926931
 30
0.0
 10
137.3702438724589
 20
591.5404298279703
 30
0.0
 10
137.2608643133009
 20
592.1152571106546
 30
0.0
 10
136.9364246341855
 20
593.820299447416
 30
0.0
 10
136.7242708479062
 20
594.9352407163035
 30
0.0
 10
136.5148638880825
 20
596.0357464654322
 30
0.0
  0
SPLINE
  5
20F
330
1F
100
AcDbEntity
  8
0
  6
Continuous
 62
     7
370
    15
100
AcDbSpline
210
0.0
220
0.0
230
1.0
 70
    24
 71
     3
 72
    10
 73
     6
 74
     0
 42
0.00000001
 43
0.00000001
 12
1.0
 22
0.0
 32
0.0
 13
1.0
 23
0.0
 33
0.0
 40
0.0
 40
0.0
 40
0.0
 40
0.0
 40
0.5
 40
0.5
 40
1.0
 40
1.0
 40
1.0
 40
1.0
 10
136.5148638880825
 20
596.0357464654322
 30
0.0
 10
137.3731554945217
 20
596.7759137153388
 30
0.0
 10
138.2377163929644
 20
597.5214874315168
 30
0.0
 10
139.9849127523744
 20
599.0282218731554
 30
0.0
 10
140.8676833225862
 20
599.7894991131403
 30
0.0
 10
141.7615658456189
 20
600.5603589978799
 30
0.0
  0
SPLINE
  5
210
330
1F
100
AcDbEntity
  8
0
  6
Continuous
 62
     7
370
    15
100
AcDbSpline
210
0.0
220
0.0
230
1.0
 70
    24
 71
     3
 72
    10
 73
     6
 74
     0
 42
0.00000001
 43
0.00000001
 12
1.0
 22
0.0
 32
0.0
 13
1.0
 23
0.0
 33
0.0
 40
0.0
 40
0.0
 40
0.0
 40
0.0
 40
0.5
 40
0.5
 40
1.0
 40
1.0
 40
1.0
 40
1.0
 10
139.1050207213084
 20
582.4235795703603
 30
0.0
 10
138.8943867090941
 20
583.530533902724
 30
0.0
 10
138.6786561594638
 20
584.6642722958064
 30
0.0
 10
138.2462183513063
 20
586.9368820238617
 30
0.0
 10
138.0287892586654
 20
588.0795468458934
 30
0.0
 10
137.8099423046955
 20
589.2296630178962
 30
0.0
  0
SPLINE
  5
211
330
1F
100
AcDbEntity
  8
0
  6
Continuous
 62
     7
370
    15
100
AcDbSpline
210
0.0
220
0.0
230
1.0
 70
    24
 71
     3
 72
    12
 73
     8
 74
     0
 42
0.00000001
 43
0.00000001
 12
1.0
 22
0.0
 32
0.0
 13
1.0
 23
0.0
 33
0.0
 40
0.0
 40
0.0
 40
0.0
 40
0.0
 40
0.2499999999999998
 40
0.2499999999999998
 40
0.4999999999999996
 40
0.4999999999999996
 40
1.0
 40
1.0
 40
1.0
 40
1.0
 10
145.6468010954578
 20
580.1421086552721
 30
0.0
 10
145.091622050109
 20
580.3357294698191
 30
0.0
 10
144.5339521979155
 20
580.5302189627755
 30
0.0
 10
143.4307650680807
 20
580.9149596918534
 30
0.0
 10
142.8828612139823
 20
581.1060432556382
 30
0.0
 10
141.248880877096
 20
581.6759001449283
 30
0.0
 10
140.1724977554091
 20
582.0512928736914
 30
0.0
 10
139.1050207213084
 20
582.4235795703603
 30
0.0
  0
SPLINE
  5
212
330
1F
100
AcDbEntity
  8
0
  6
Continuous
 62
     7
370
    15
100
AcDbSpline
210
0.0
220
0.0
230
1.0
 70
    24
 71
     3
 72
    12
 73
     8
 74
     0
 42
0.00000001
 43
0.00000001
 12
1.0
 22
0.0
 32
0.0
 13
1.0
 23
0.0
 33
0.0
 40
0.0
 40
0.0
 40
0.0
 40
0.0
 40
0.2499999999999997
 40
0.2499999999999997
 40
0.4999999999999993
 40
0.4999999999999993
 40
1.0
 40
1.0
 40
1.0
 40
1.0
 10
139.6765681909353
 20
431.9240639310506
 30
0.0
 10
139.3471191802945
 20
431.4397748138733
 30
0.0
 10
139.0166149027775
 20
430.9539344573622
 30
0.0
 10
138.3535230529026
 20
429.9791913067948
 30
0.0
 10
138.0244018113095
 20
429.495384009194
 30
0.0
 10
137.0481683099638
 20
428.0603235134714
 30
0.0
 10
136.4098011590412
 20
427.1219256006838
 30
0.0
 10
135.7796991624165
 20
426.1956774414211
 30
0.0
  0
SPLINE
  5
213
330
1F
100
AcDbEntity
  8
0
  6
Continuous
 62
     7
370
    15
100
AcDbSpline
210
0.0
220
0.0
230
1.0
 70
    24
 71
     3
 72
    12
 73
     8
 74
     0
 42
0.00000001
 43
0.00000001
 12
1.0
 22
0.0
 32
0.0
 13
1.0
 23
0.0
 33
0.0
 40
0.0
 40
0.0
 40
0.0
 40
0.0
 40
0.2500000000000007
 40
0.2500000000000007
 40
0.5000000000000013
 40
0.5000000000000013
 40
1.0
 40
1.0
 40
1.0
 40
1.0
 10
138.7921928708718
 20
419.9566966226882
 30
0.0
 10
138.5365325940779
 20
420.4861780813721
 30
0.0
 10
138.2797252992677
 20
421.0180350548604
 30
0.0
 10
137.7717069773734
 20
422.070158933814
 30
0.0
 10
137.5193969304277
 20
422.5927019482107
 30
0.0
 10
136.7669480246129
 20
424.1510501954715
 30
0.0
 10
136.2712729642298
 20
425.1776107440875
 30
0.0
 10
135.7796991624165
 20
426.1956774414211
 30
0.0
  0
ARC
  5
214
330
1F
100
AcDbEntity
  8
0
  6
Continuous
 62
     7
370
    15
100
AcDbCircle
 10
100.8907756232
 20
473.8821377964
 30
0.0
 40
12.00000000000001
100
AcDbArc
 50
340.7735871032
 51
40.7735871032
  0
SPLINE
  5
215
330
1F
100
AcDbEntity
  8
0
  6
Continuous
 62
     7
370
    15
100
AcDbSpline
210
0.0
220
0.0
230
1.0
 70
    24
 71
     3
 72
    12
 73
     8
 74
     0
 42
0.00000001
 43
0.00000001
 12
1.0
 22
0.0
 32
0.0
 13
1.0
 23
0.0
 33
0.0
 40
0.0
 40
0.0
 40
0.0
 40
0.0
 40
0.2500000000000012
 40
0.2500000000000012
 40
0.5000000000000024
 40
0.5000000000000024
 40
1.0
 40
1.0
 40
1.0
 40
1.0
 10
109.9783299858334
 20
481.7189965871425
 30
0.0
 10
110.3623187354809
 20
481.273726520369
 30
0.0
 10
110.7480302479269
 20
480.8264587526028
 30
0.0
 10
111.5110479629529
 20
479.9416699424334
 30
0.0
 10
111.8900048375411
 20
479.5022347949009
 30
0.0
 10
113.0201448739238
 20
478.1917340838109
 30
0.0
 10
113.7646236371279
 20
477.3284428834626
 30
0.0
 10
114.5029425182811
 20
476.472294629606
 30
0.0
  0
SPLINE
  5
216
330
1F
100
AcDbEntity
  8
0
  6
Continuous
 62
     7
370
    15
100
AcDbSpline
210
0.0
220
0.0
230
1.0
 70
    24
 71
     3
 72
    10
 73
     6
 74
     0
 42
0.00000001
 43
0.00000001
 12
1.0
 22
0.0
 32
0.0
 13
1.0
 23
0.0
 33
0.0
 40
0.0
 40
0.0
 40
0.0
 40
0.0
 40
0.5
 40
0.5
 40
1.0
 40
1.0
 40
1.0
 40
1.0
 10
114.5029425182811
 20
476.4722946296061
 30
0.0
 10
114.1297238082031
 20
475.4021451849181
 30
0.0
 10
113.7537789651219
 20
474.3241789570927
 30
0.0
 10
112.9940297532926
 20
472.1457104741717
 30
0.0
 10
112.6101666337683
 20
471.0450397599159
 30
0.0
 10
112.2214716031928
 20
469.9305142554567
 30
0.0
  0
SPLINE
  5
217
330
1F
100
AcDbEntity
  8
0
  6
Continuous
 62
     7
370
    15
100
AcDbSpline
210
0.0
220
0.0
230
1.0
 70
    24
 71
     3
 72
    10
 73
     6
 74
     0
 42
0.00000001
 43
0.00000001
 12
1.0
 22
0.0
 32
0.0
 13
1.0
 23
0.0
 33
0.0
 40
0.0
 40
0.0
 40
0.0
 40
0.0
 40
0.5
 40
0.5
 40
1.0
 40
1.0
 40
1.0
 40
1.0
 10
113.3687372606823
 20
548.7901430390114
 30
0.0
 10
113.2852107271548
 20
547.6598619422415
 30
0.0
 10
113.2010740837011
 20
546.5213248376201
 30
0.0
 10
113.0310418310278
 20
544.2204483026868
 30
0.0
 10
112.9451330733554
 20
543.0579309475017
 30
0.0
 10
112.8581429315789
 20
541.8807803020371
 30
0.0
  0
ARC
  5
218
330
1F
100
AcDbEntity
  8
0
  6
Continuous
 62
     7
370
    15
100
AcDbCircle
 10
100.8907756232
 20
542.7651556221
 30
0.0
 40
12.00000000000003
100
AcDbArc
 50
355.7735871032
 51
55.7735871032
  0
SPLINE
  5
219
330
1F
100
AcDbEntity
  8
0
  6
Continuous
 62
     7
370
    15
100
AcDbSpline
210
0.0
220
0.0
230
1.0
 70
    24
 71
     3
 72
    10
 73
     6
 74
     0
 42
0.00000001
 43
0.00000001
 12
1.0
 22
0.0
 32
0.0
 13
1.0
 23
0.0
 33
0.0
 40
0.0
 40
0.0
 40
0.0
 40
0.0
 40
0.5
 40
0.5
 40
1.0
 40
1.0
 40
1.0
 40
1.0
 10
113.3687372606823
 20
548.7901430390114
 30
0.0
 10
112.4370616074188
 20
549.4239372155041
 30
0.0
 10
111.482842967026
 20
550.0730667867916
 30
0.0
 10
109.5700855107379
 20
551.3742648299005
 30
0.0
 10
108.6083538806224
 20
552.0285052883488
 30
0.0
 10
107.6403507710528
 20
552.6870120675302
 30
0.0
  0
ARC
  5
21A
330
1F
100
AcDbEntity
  8
0
  6
Continuous
 62
     7
370
    15
100
AcDbCircle
 10
100.8907756232
 20
473.8821377964
 30
0.0
 40
12.00000000000001
100
AcDbArc
 50
280.7735871032
 51
340.7735871032
  0
ARC
  5
21B
330
1F
100
AcDbEntity
  8
0
  6
Continuous
 62
     7
370
    15
100
AcDbCircle
 10
100.8907756232
 20
473.8821377964
 30
0.0
 40
12.0
100
AcDbArc
 50
220.7735871032
 51
280.7735871032
  0
ARC
  5
21C
330
1F
100
AcDbEntity
  8
0
  6
Continuous
 62
     7
370
    15
100
AcDbCircle
 10
100.8907756232
 20
473.8821377964
 30
0.0
 40
12.00000000000002
100
AcDbArc
 50
160.7735871032
 51
220.7735871032
  0
ARC
  5
21D
330
1F
100
AcDbEntity
  8
0
  6
Continuous
 62
     7
370
    15
100
AcDbCircle
 10
100.8907756232
 20
473.8821377964
 30
0.0
 40
12.00000000000002
100
AcDbArc
 50
100.7735871032
 51
160.7735871032
  0
ARC
  5
21E
330
1F
100
AcDbEntity
  8
0
  6
Continuous
 62
     7
370
    15
100
AcDbCircle
 10
100.8907756232
 20
473.8821377964
 30
0.0
 40
12.0
100
AcDbArc
 50
40.7735871032
 51
100.7735871032
  0
SPLINE
  5
21F
330
1F
100
AcDbEntity
  8
0
  6
Continuous
 62
     7
370
    15
100
AcDbSpline
210
0.0
220
0.0
230
1.0
 70
    24
 71
     3
 72
    10
 73
     6
 74
     0
 42
0.00000001
 43
0.00000001
 12
1.0
 22
0.0
 32
0.0
 13
1.0
 23
0.0
 33
0.0
 40
0.0
 40
0.0
 40
0.0
 40
0.0
 40
0.5
 40
0.5
 40
1.0
 40
1.0
 40
1.0
 40
1.0
 10
105.4537174533857
 20
486.965698544679
 30
0.0
 10
106.1938847032923
 20
486.1074069382398
 30
0.0
 10
106.9394584194702
 20
485.2428460397971
 30
0.0
 10
108.4461928611089
 20
483.4956496803871
 30
0.0
 10
109.2074701010937
 20
482.6128791101753
 30
0.0
 10
109.9783299858334
 20
481.7189965871425
 30
0.0
  0
SPLINE
  5
220
330
1F
100
AcDbEntity
  8
0
  6
Continuous
 62
     7
370
    15
100
AcDbSpline
210
0.0
220
0.0
230
1.0
 70
    24
 71
     3
 72
    10
 73
     6
 74
     0
 42
0.00000001
 43
0.00000001
 12
1.0
 22
0.0
 32
0.0
 13
1.0
 23
0.0
 33
0.0
 40
0.0
 40
0.0
 40
0.0
 40
0.0
 40
0.5
 40
0.5
 40
1.0
 40
1.0
 40
1.0
 40
1.0
 10
105.4537174533857
 20
486.965698544679
 30
0.0
 10
104.3467631210221
 20
486.7550645324646
 30
0.0
 10
103.2130247279396
 20
486.5393339828344
 30
0.0
 10
100.9404149998842
 20
486.1068961746769
 30
0.0
 10
99.79775017785256
 20
485.889467082036
 30
0.0
 10
98.64763400584972
 20
485.6706201280661
 30
0.0
  0
SPLINE
  5
221
330
1F
100
AcDbEntity
  8
0
  6
Continuous
 62
     7
370
    15
100
AcDbSpline
210
0.0
220
0.0
230
1.0
 70
    24
 71
     3
 72
    10
 73
     6
 74
     0
 42
0.00000001
 43
0.00000001
 12
1.0
 22
0.0
 32
0.0
 13
1.0
 23
0.0
 33
0.0
 40
0.0
 40
0.0
 40
0.0
 40
0.0
 40
0.5
 40
0.5
 40
1.0
 40
1.0
 40
1.0
 40
1.0
 10
112.3475486024756
 20
534.9714175650629
 30
0.0
 10
111.3269331924918
 20
534.4786131166028
 30
0.0
 10
110.2988628150115
 20
533.9822090349122
 30
0.0
 10
108.2212291584512
 20
532.9790230177233
 30
0.0
 10
107.1715052176845
 20
532.4721635066827
 30
0.0
 10
106.1085677837426
 20
531.9589238566076
 30
0.0
  0
ARC
  5
222
330
1F
100
AcDbEntity
  8
0
  6
Continuous
 62
     7
370
    15
100
AcDbCircle
 10
100.8907756232
 20
542.7651556221
 30
0.0
 40
12.0
100
AcDbArc
 50
295.7735871032
 51
355.7735871032
  0
SPLINE
  5
223
330
1F
100
AcDbEntity
  8
0
  6
Continuous
 62
     7
370
    15
100
AcDbSpline
210
0.0
220
0.0
230
1.0
 70
    24
 71
     3
 72
    12
 73
     8
 74
     0
 42
0.00000001
 43
0.00000001
 12
1.0
 22
0.0
 32
0.0
 13
1.0
 23
0.0
 33
0.0
 40
0.0
 40
0.0
 40
0.0
 40
0.0
 40
0.25
 40
0.25
 40
0.5
 40
0.5
 40
1.0
 40
1.0
 40
1.0
 40
1.0
 10
112.8581429315789
 20
541.8807803020371
 30
0.0
 10
112.814810496679
 20
541.2944057695871
 30
0.0
 10
112.7712836511176
 20
540.7054004719612
 30
0.0
 10
112.6851784839893
 20
539.540225303912
 30
0.0
 10
112.6424138870759
 20
538.9615347554014
 30
0.0
 10
112.5148796309309
 20
537.2357411324233
 30
0.0
 10
112.430866550937
 20
536.0988760886074
 30
0.0
 10
112.3475486024755
 20
534.9714175650629
 30
0.0
  0
ARC
  5
224
330
1F
100
AcDbEntity
  8
0
  6
Continuous
 62
     7
370
    15
100
AcDbCircle
 10
100.8907756232
 20
542.7651556221
 30
0.0
 40
11.99999999999998
100
AcDbArc
 50
235.7735871032
 51
295.7735871032
  0
ARC
  5
225
330
1F
100
AcDbEntity
  8
0
  6
Continuous
 62
     7
370
    15
100
AcDbCircle
 10
100.8907756232
 20
542.7651556221
 30
0.0
 40
12.0
100
AcDbArc
 50
175.7735871032
 51
235.7735871032
  0
ARC
  5
226
330
1F
100
AcDbEntity
  8
0
  6
Continuous
 62
     7
370
    15
100
AcDbCircle
 10
100.8907756232
 20
542.7651556221
 30
0.0
 40
12.00000000000008
100
AcDbArc
 50
115.7735871032
 51
175.7735871032
  0
ARC
  5
227
330
1F
100
AcDbEntity
  8
0
  6
Continuous
 62
     7
370
    15
100
AcDbCircle
 10
100.8907756232
 20
542.7651556221
 30
0.0
 40
12.00000000000008
100
AcDbArc
 50
55.7735871032
 51
115.7735871032
  0
SPLINE
  5
228
330
1F
100
AcDbEntity
  8
0
  6
Continuous
 62
     7
370
    15
100
AcDbSpline
210
0.0
220
0.0
230
1.0
 70
    24
 71
     3
 72
    10
 73
     6
 74
     0
 42
0.00000001
 43
0.00000001
 12
1.0
 22
0.0
 32
0.0
 13
1.0
 23
0.0
 33
0.0
 40
0.0
 40
0.0
 40
0.0
 40
0.0
 40
0.5
 40
0.5
 40
1.0
 40
1.0
 40
1.0
 40
1.0
 10
109.9400006881046
 20
463.3887338813072
 30
0.0
 10
108.8330463557409
 20
463.1780998690929
 30
0.0
 10
107.6993079626585
 20
462.9623693194626
 30
0.0
 10
105.426698234603
 20
462.5299315113052
 30
0.0
 10
104.2840334125713
 20
462.3125024186643
 30
0.0
 10
103.1339172405685
 20
462.0936554646943
 30
0.0
  0
SPLINE
  5
229
330
1F
100
AcDbEntity
  8
0
  6
Continuous
 62
     7
370
    15
100
AcDbSpline
210
0.0
220
0.0
230
1.0
 70
    24
 71
     3
 72
    12
 73
     8
 74
     0
 42
0.00000001
 43
0.00000001
 12
1.0
 22
0.0
 32
0.0
 13
1.0
 23
0.0
 33
0.0
 40
0.0
 40
0.0
 40
0.0
 40
0.0
 40
0.2499999999999997
 40
0.2499999999999997
 40
0.4999999999999993
 40
0.4999999999999993
 40
1.0
 40
1.0
 40
1.0
 40
1.0
 10
112.2214716031928
 20
469.9305142554567
 30
0.0
 10
112.0278507886459
 20
469.3753352101078
 30
0.0
 10
111.8333612956894
 20
468.8176653579143
 30
0.0
 10
111.4486205666115
 20
467.7144782280795
 30
0.0
 10
111.2575370028266
 20
467.1665743739811
 30
0.0
 10
110.6876801135365
 20
465.5325940370948
 30
0.0
 10
110.3122873847734
 20
464.4562109154079
 30
0.0
 10
109.9400006881045
 20
463.3887338813072
 30
0.0
  0
SPLINE
  5
22A
330
1F
100
AcDbEntity
  8
0
  6
Continuous
 62
     7
370
    15
100
AcDbSpline
210
0.0
220
0.0
230
1.0
 70
    24
 71
     3
 72
    10
 73
     6
 74
     0
 42
0.00000001
 43
0.00000001
 12
1.0
 22
0.0
 32
0.0
 13
1.0
 23
0.0
 33
0.0
 40
0.0
 40
0.0
 40
0.0
 40
0.0
 40
0.5
 40
0.5
 40
1.0
 40
1.0
 40
1.0
 40
1.0
 10
96.32783379303255
 20
460.7985770480814
 30
0.0
 10
95.58766654312595
 20
461.6568686545206
 30
0.0
 10
94.84209282694803
 20
462.5214295529634
 30
0.0
 10
93.33535838530932
 20
464.2686259123734
 30
0.0
 10
92.5740811453245
 20
465.1513964825852
 30
0.0
 10
91.80322126058485
 20
466.0452790056179
 30
0.0
  0
SPLINE
  5
22B
330
1F
100
AcDbEntity
  8
0
  6
Continuous
 62
     7
370
    15
100
AcDbSpline
210
0.0
220
0.0
230
1.0
 70
    24
 71
     3
 72
    12
 73
     8
 74
     0
 42
0.00000001
 43
0.00000001
 12
1.0
 22
0.0
 32
0.0
 13
1.0
 23
0.0
 33
0.0
 40
0.0
 40
0.0
 40
0.0
 40
0.0
 40
0.2499999999999981
 40
0.2499999999999981
 40
0.4999999999999962
 40
0.4999999999999962
 40
1.0
 40
1.0
 40
1.0
 40
1.0
 10
103.1339172405685
 20
462.0936554646943
 30
0.0
 10
102.5585174922782
 20
461.9841669753628
 30
0.0
 10
101.9812746657717
 20
461.8743277805431
 30
0.0
 10
100.8231504304944
 20
461.6539570324578
 30
0.0
 10
100.2483231478102
 20
461.5445774732997
 30
0.0
 10
98.54328081104887
 20
461.2201377941844
 30
0.0
 10
97.4283395421613
 20
461.0079840079052
 30
0.0
 10
96.32783379303255
 20
460.7985770480815
 30
0.0
  0
SPLINE
  5
22C
330
1F
100
AcDbEntity
  8
0
  6
Continuous
 62
     7
370
    15
100
AcDbSpline
210
0.0
220
0.0
230
1.0
 70
    24
 71
     3
 72
    12
 73
     8
 74
     0
 42
0.00000001
 43
0.00000001
 12
1.0
 22
0.0
 32
0.0
 13
1.0
 23
0.0
 33
0.0
 40
0.0
 40
0.0
 40
0.0
 40
0.0
 40
0.25
 40
0.25
 40
0.5
 40
0.5
 40
1.0
 40
1.0
 40
1.0
 40
1.0
 10
95.6729834626903
 20
553.5713873875939
 30
0.0
 10
96.20246492137419
 20
553.8270476643876
 30
0.0
 10
96.73432189486253
 20
554.083854959198
 30
0.0
 10
97.7864457738161
 20
554.5918732810921
 30
0.0
 10
98.3089887882129
 20
554.8441833280378
 30
0.0
 10
99.8673370354736
 20
555.5966322338526
 30
0.0
 10
100.8938975840896
 20
556.0923072942358
 30
0.0
 10
101.9119642814232
 20
556.583881096049
 30
0.0
  0
SPLINE
  5
22D
330
1F
100
AcDbEntity
  8
0
  6
Continuous
 62
     7
370
    15
100
AcDbSpline
210
0.0
220
0.0
230
1.0
 70
    24
 71
     3
 72
    12
 73
     8
 74
     0
 42
0.00000001
 43
0.00000001
 12
1.0
 22
0.0
 32
0.0
 13
1.0
 23
0.0
 33
0.0
 40
0.0
 40
0.0
 40
0.0
 40
0.0
 40
0.2499999999999987
 40
0.2499999999999987
 40
0.4999999999999973
 40
0.4999999999999973
 40
1.0
 40
1.0
 40
1.0
 40
1.0
 10
107.6403507710528
 20
552.6870120675302
 30
0.0
 10
107.1560616538754
 20
553.016461078171
 30
0.0
 10
106.6702212973643
 20
553.346965355688
 30
0.0
 10
105.6954781467969
 20
554.0100572055628
 30
0.0
 10
105.2116708491961
 20
554.3391784471561
 30
0.0
 10
103.7766103534735
 20
555.3154119485017
 30
0.0
 10
102.8382124406859
 20
555.9537790994244
 30
0.0
 10
101.9119642814232
 20
556.583881096049
 30
0.0
  0
SPLINE
  5
22E
330
1F
100
AcDbEntity
  8
0
  6
Continuous
 62
     7
370
    15
100
AcDbSpline
210
0.0
220
0.0
230
1.0
 70
    24
 71
     3
 72
    10
 73
     6
 74
     0
 42
0.00000001
 43
0.00000001
 12
1.0
 22
0.0
 32
0.0
 13
1.0
 23
0.0
 33
0.0
 40
0.0
 40
0.0
 40
0.0
 40
0.0
 40
0.5
 40
0.5
 40
1.0
 40
1.0
 40
1.0
 40
1.0
 10
99.86958696500966
 20
528.9464301481523
 30
0.0
 10
98.9379113117462
 20
529.5802243246452
 30
0.0
 10
97.98369267135337
 20
530.2293538959326
 30
0.0
 10
96.07093521506532
 20
531.5305519390416
 30
0.0
 10
95.10920358494978
 20
532.1847923974898
 30
0.0
 10
94.14120047538013
 20
532.8432991766713
 30
0.0
  0
SPLINE
  5
22F
330
1F
100
AcDbEntity
  8
0
  6
Continuous
 62
     7
370
    15
100
AcDbSpline
210
0.0
220
0.0
230
1.0
 70
    24
 71
     3
 72
    12
 73
     8
 74
     0
 42
0.00000001
 43
0.00000001
 12
1.0
 22
0.0
 32
0.0
 13
1.0
 23
0.0
 33
0.0
 40
0.0
 40
0.0
 40
0.0
 40
0.0
 40
0.25
 40
0.25
 40
0.5
 40
0.5
 40
1.0
 40
1.0
 40
1.0
 40
1.0
 10
106.1085677837426
 20
531.9589238566076
 30
0.0
 10
105.5790863250587
 20
531.7032635798138
 30
0.0
 10
105.0472293515704
 20
531.4464562850035
 30
0.0
 10
103.9951054726168
 20
530.9384379631092
 30
0.0
 10
103.47256245822
 20
530.6861279161635
 30
0.0
 10
101.9142142109593
 20
529.9336790103488
 30
0.0
 10
100.8876536623432
 20
529.4380039499657
 30
0.0
 10
99.86958696500966
 20
528.9464301481523
 30
0.0
  0
SPLINE
  5
230
330
1F
100
AcDbEntity
  8
0
  6
Continuous
 62
     7
370
    15
100
AcDbSpline
210
0.0
220
0.0
230
1.0
 70
    24
 71
     3
 72
    12
 73
     8
 74
     0
 42
0.00000001
 43
0.00000001
 12
1.0
 22
0.0
 32
0.0
 13
1.0
 23
0.0
 33
0.0
 40
0.0
 40
0.0
 40
0.0
 40
0.0
 40
0.2499999999999992
 40
0.2499999999999992
 40
0.4999999999999983
 40
0.4999999999999983
 40
1.0
 40
1.0
 40
1.0
 40
1.0
 10
89.56007964322544
 20
477.8337613373038
 30
0.0
 10
89.75370045777234
 20
478.3889403826527
 30
0.0
 10
89.94818995072887
 20
478.9466102348462
 30
0.0
 10
90.33293067980675
 20
480.0497973646809
 30
0.0
 10
90.52401424359167
 20
480.5977012187794
 30
0.0
 10
91.09387113288176
 20
482.2316815556656
 30
0.0
 10
91.46926386164486
 20
483.3080646773525
 30
0.0
 10
91.84155055831376
 20
484.3755417114532
 30
0.0
  0
SPLINE
  5
231
330
1F
100
AcDbEntity
  8
0
  6
Continuous
 62
     7
370
    15
100
AcDbSpline
210
0.0
220
0.0
230
1.0
 70
    24
 71
     3
 72
    12
 73
     8
 74
     0
 42
0.00000001
 43
0.00000001
 12
1.0
 22
0.0
 32
0.0
 13
1.0
 23
0.0
 33
0.0
 40
0.0
 40
0.0
 40
0.0
 40
0.0
 40
0.2499999999999981
 40
0.2499999999999981
 40
0.4999999999999962
 40
0.4999999999999962
 40
1.0
 40
1.0
 40
1.0
 40
1.0
 10
98.64763400584972
 20
485.6706201280661
 30
0.0
 10
98.07223425755937
 20
485.5611316387345
 30
0.0
 10
97.49499143105295
 20
485.4512924439148
 30
0.0
 10
96.33686719577553
 20
485.2309216958295
 30
0.0
 10
95.76203991309134
 20
485.1215421366715
 30
0.0
 10
94.05699757633002
 20
484.7971024575562
 30
0.0
 10
92.94205630744248
 20
484.5849486712769
 30
0.0
 10
91.84155055831373
 20
484.3755417114532
 30
0.0
  0
SPLINE
  5
232
330
1F
100
AcDbEntity
  8
0
  6
Continuous
 62
     7
370
    15
100
AcDbSpline
210
0.0
220
0.0
230
1.0
 70
    24
 71
     3
 72
    12
 73
     8
 74
     0
 42
0.00000001
 43
0.00000001
 12
1.0
 22
0.0
 32
0.0
 13
1.0
 23
0.0
 33
0.0
 40
0.0
 40
0.0
 40
0.0
 40
0.0
 40
0.2499999999999987
 40
0.2499999999999987
 40
0.4999999999999973
 40
0.4999999999999973
 40
1.0
 40
1.0
 40
1.0
 40
1.0
 10
94.14120047538013
 20
532.8432991766713
 30
0.0
 10
93.6569113582028
 20
533.1727481873121
 30
0.0
 10
93.1710710016917
 20
533.5032524648291
 30
0.0
 10
92.19632785112434
 20
534.166344314704
 30
0.0
 10
91.71252055352345
 20
534.4954655562972
 30
0.0
 10
90.27746005780088
 20
535.4716990576428
 30
0.0
 10
89.3390621450133
 20
536.1100662085655
 30
0.0
 10
88.4128139857506
 20
536.7401682051901
 30
0.0
  0
SPLINE
  5
233
330
1F
100
AcDbEntity
  8
0
  6
Continuous
 62
     7
370
    15
100
AcDbSpline
210
0.0
220
0.0
230
1.0
 70
    24
 71
     3
 72
    10
 73
     6
 74
     0
 42
0.00000001
 43
0.00000001
 12
1.0
 22
0.0
 32
0.0
 13
1.0
 23
0.0
 33
0.0
 40
0.0
 40
0.0
 40
0.0
 40
0.0
 40
0.5
 40
0.5
 40
1.0
 40
1.0
 40
1.0
 40
1.0
 10
88.4128139857506
 20
536.7401682051901
 30
0.0
 10
88.49634051927809
 20
537.87044930196
 30
0.0
 10
88.58047716273185
 20
539.0089864065814
 30
0.0
 10
88.75050941540505
 20
541.3098629415148
 30
0.0
 10
88.83641817307749
 20
542.4723802966996
 30
0.0
 10
88.92340831485399
 20
543.6495309421642
 30
0.0
  0
SPLINE
  5
234
330
1F
100
AcDbEntity
  8
0
  6
Continuous
 62
     7
370
    15
100
AcDbSpline
210
0.0
220
0.0
230
1.0
 70
    24
 71
     3
 72
    12
 73
     8
 74
     0
 42
0.00000001
 43
0.00000001
 12
1.0
 22
0.0
 32
0.0
 13
1.0
 23
0.0
 33
0.0
 40
0.0
 40
0.0
 40
0.0
 40
0.0
 40
0.25
 40
0.25
 40
0.5
 40
0.5
 40
1.0
 40
1.0
 40
1.0
 40
1.0
 10
88.92340831485399
 20
543.6495309421642
 30
0.0
 10
88.96674074975388
 20
544.2359054746145
 30
0.0
 10
89.01026759531524
 20
544.8249107722403
 30
0.0
 10
89.09637276244365
 20
545.9900859402894
 30
0.0
 10
89.13913735935705
 20
546.5687764887999
 30
0.0
 10
89.26667161550198
 20
548.2945701117781
 30
0.0
 10
89.3506846954959
 20
549.4314351555942
 30
0.0
 10
89.4340026439574
 20
550.5588936791386
 30
0.0
  0
SPLINE
  5
235
330
1F
100
AcDbEntity
  8
0
  6
Continuous
 62
     7
370
    15
100
AcDbSpline
210
0.0
220
0.0
230
1.0
 70
    24
 71
     3
 72
    10
 73
     6
 74
     0
 42
0.00000001
 43
0.00000001
 12
1.0
 22
0.0
 32
0.0
 13
1.0
 23
0.0
 33
0.0
 40
0.0
 40
0.0
 40
0.0
 40
0.0
 40
0.5
 40
0.5
 40
1.0
 40
1.0
 40
1.0
 40
1.0
 10
89.43400264395734
 20
550.5588936791385
 30
0.0
 10
90.45461805394112
 20
551.0516981275986
 30
0.0
 10
91.48268843142132
 20
551.5481022092891
 30
0.0
 10
93.56032208798173
 20
552.5512882264782
 30
0.0
 10
94.61004602874837
 20
553.0581477375188
 30
0.0
 10
95.6729834626903
 20
553.5713873875939
 30
0.0
  0
SPLINE
  5
236
330
1F
100
AcDbEntity
  8
0
  6
Continuous
 62
     7
370
    15
100
AcDbSpline
210
0.0
220
0.0
230
1.0
 70
    24
 71
     3
 72
    10
 73
     6
 74
     0
 42
0.00000001
 43
0.00000001
 12
1.0
 22
0.0
 32
0.0
 13
1.0
 23
0.0
 33
0.0
 40
0.0
 40
0.0
 40
0.0
 40
0.0
 40
0.5000000000000003
 40
0.5000000000000003
 40
1.0
 40
1.0
 40
1.0
 40
1.0
 10
87.27860872813714
 20
471.2919809631544
 30
0.0
 10
87.65182743821512
 20
472.3621304078424
 30
0.0
 10
88.0277722812963
 20
473.4400966356678
 30
0.0
 10
88.78752149312571
 20
475.6185651185888
 30
0.0
 10
89.17138461264997
 20
476.7192358328446
 30
0.0
 10
89.56007964322544
 20
477.8337613373038
 30
0.0
  0
SPLINE
  5
237
330
1F
100
AcDbEntity
  8
0
  6
Continuous
 62
     7
370
    15
100
AcDbSpline
210
0.0
220
0.0
230
1.0
 70
    24
 71
     3
 72
    12
 73
     8
 74
     0
 42
0.00000001
 43
0.00000001
 12
1.0
 22
0.0
 32
0.0
 13
1.0
 23
0.0
 33
0.0
 40
0.0
 40
0.0
 40
0.0
 40
0.0
 40
0.2500000000000008
 40
0.2500000000000008
 40
0.5000000000000017
 40
0.5000000000000017
 40
1.0
 40
1.0
 40
1.0
 40
1.0
 10
91.80322126058485
 20
466.0452790056179
 30
0.0
 10
91.41923251093739
 20
466.4905490723914
 30
0.0
 10
91.03352099849135
 20
466.9378168401577
 30
0.0
 10
90.27050328346539
 20
467.8226056503271
 30
0.0
 10
89.89154640887718
 20
468.2620407978596
 30
0.0
 10
88.76140637249443
 20
469.5725415089496
 30
0.0
 10
88.0169276092903
 20
470.4358327092979
 30
0.0
 10
87.27860872813714
 20
471.2919809631545
 30
0.0
  0
CIRCLE
  5
238
330
1F
100
AcDbEntity
  8
0
  6
Continuous
 62
     7
370
    15
100
AcDbCircle
 10
267.1890914753
 20
473.8821377964
 30
0.0
 40
17.25000000000002
  0
CIRCLE
  5
239
330
1F
100
AcDbEntity
  8
0
  6
Continuous
 62
     7
370
    15
100
AcDbCircle
 10
267.1890914753
 20
542.7651556221
 30
0.0
 40
17.24999999999998
  0
CIRCLE
  5
23A
330
1F
100
AcDbEntity
  8
0
  6
Continuous
 62
     7
370
    15
100
AcDbCircle
 10
218.4814424621
 20
591.4728046352
 30
0.0
 40
17.25000000000001
  0
CIRCLE
  5
23B
330
1F
100
AcDbEntity
  8
0
  6
Continuous
 62
     7
370
    15
100
AcDbCircle
 10
218.4814424621
 20
425.1744887832
 30
0.0
 40
17.24999999999998
  0
CIRCLE
  5
23C
330
1F
100
AcDbEntity
  8
0
  6
Continuous
 62
     7
370
    15
100
AcDbCircle
 10
149.5984246364
 20
425.1744887832
 30
0.0
 40
17.25
  0
CIRCLE
  5
23D
330
1F
100
AcDbEntity
  8
0
  6
Continuous
 62
     7
370
    15
100
AcDbCircle
 10
149.5984246364
 20
591.4728046353
 30
0.0
 40
17.25
  0
CIRCLE
  5
23E
330
1F
100
AcDbEntity
  8
0
  6
Continuous
 62
     7
370
    15
100
AcDbCircle
 10
100.8907756232
 20
542.7651556221
 30
0.0
 40
17.25000000000004
  0
CIRCLE
  5
23F
330
1F
100
AcDbEntity
  8
0
  6
Continuous
 62
     7
370
    15
100
AcDbCircle
 10
100.8907756232
 20
473.8821377964
 30
0.0
 40
17.25000000000001
  0
CIRCLE
  5
240
330
1F
100
AcDbEntity
  8
0
  6
Continuous
 62
     7
370
    15
100
AcDbCircle
 10
184.0399335492
 20
508.3236467092
 30
0.0
 40
50.49999999999997
  0
CIRCLE
  5
241
330
1F
100
AcDbEntity
  8
0
  6
Continuous
 62
     7
370
    15
100
AcDbCircle
 10
184.0399335492
 20
508.3236467092
 30
0.0
 40
110.0
  0
LINE
  5
242
330
1F
100
AcDbEntity
  8
0
  6
Continuous
 62
     7
370
    15
100
AcDbLine
 10
80.9176570767
 20
546.6093583071
 30
0.0
 11
79.4176540369
 21
546.6093583071
 31
0.0
  0
LINE
  5
243
330
1F
100
AcDbEntity
  8
0
  6
Continuous
 62
     7
370
    15
100
AcDbLine
 10
79.9645117515
 20
543.9369468057
 30
0.0
 11
78.4645161623
 21
543.9369468057
 31
0.0
  0
ARC
  5
244
330
1F
100
AcDbEntity
  8
0
  6
Continuous
 62
     7
370
    15
100
AcDbCircle
 10
182.5399335492
 20
508.3236467092
 30
0.0
 40
110.0
100
AcDbArc
 50
159.6317902411
 51
161.1096988022
  0
LINE
  5
245
330
1F
100
AcDbEntity
  8
0
  6
Continuous
 62
     7
370
    15
100
AcDbLine
 10
79.2466110581
 20
541.7655346954
 30
0.0
 11
77.7466154689
 21
541.7655346954
 31
0.0
  0
SPLINE
  5
246
330
1F
100
AcDbEntity
  8
0
  6
Continuous
 62
     7
370
    15
100
AcDbSpline
210
0.0
220
0.0
230
1.0
 70
     8
 71
     3
 72
     9
 73
     5
 74
     0
 42
0.00000001
 43
0.00000001
 12
1.0
 22
0.0
 32
0.0
 13
1.0
 23
0.0
 33
0.0
 40
0.0
 40
0.0
 40
0.0
 40
0.0
 40
0.5031467738932224
 40
0.9999999999999999
 40
0.9999999999999999
 40
0.9999999999999999
 40
0.9999999999999999
 10
77.74661304475369
 20
541.7655362737446
 30
0.0
 10
77.86399276412607
 20
542.1300777293392
 30
0.0
 10
78.0972839734965
 20
542.8546008198359
 30
0.0
 10
78.34261873932583
 20
543.5776810181363
 30
0.0
 10
78.46451410920427
 20
543.9369457473958
 30
0.0
  0
LINE
  5
247
330
1F
100
AcDbEntity
  8
0
  6
Continuous
 62
     7
370
    15
100
AcDbLine
 10
78.8794240946
 20
540.5923290217
 30
0.0
 11
77.3794285053
 21
540.5923290217
 31
0.0
  0
LINE
  5
248
330
1F
100
AcDbEntity
  8
0
  6
Continuous
 62
     7
370
    15
100
AcDbLine
 10
78.1997597808
 20
538.2879314983
 30
0.0
 11
76.6997641915
 21
538.2879314983
 31
0.0
  0
ARC
  5
249
330
1F
100
AcDbEntity
  8
0
  6
Continuous
 62
     7
370
    15
100
AcDbCircle
 10
182.5399335492
 20
508.3236467092
 30
0.0
 40
110.0
100
AcDbArc
 50
162.9412772945
 51
164.1927161473
  0
SPLINE
  5
24A
330
1F
100
AcDbEntity
  8
0
  6
Continuous
 62
     7
370
    15
100
AcDbSpline
210
0.0
220
0.0
230
1.0
 70
     8
 71
     3
 72
     9
 73
     5
 74
     0
 42
0.00000001
 43
0.00000001
 12
1.0
 22
0.0
 32
0.0
 13
1.0
 23
0.0
 33
0.0
 40
0.0
 40
0.0
 40
0.0
 40
0.0
 40
0.5018570736065319
 40
1.0
 40
1.0
 40
1.0
 40
1.0
 10
77.37942747687512
 20
540.5923306397112
 30
0.0
 10
77.43996281089252
 20
540.7886307974768
 30
0.0
 10
77.5605854686193
 20
541.179778333477
 30
0.0
 10
77.68475758388085
 20
541.5707676909997
 30
0.0
 10
77.74661304475372
 20
541.7655362737447
 30
0.0
  0
LINE
  5
24B
330
1F
100
AcDbEntity
  8
0
  6
Continuous
 62
     7
370
    15
100
AcDbLine
 10
77.9522514933
 20
537.399487015
 30
0.0
 11
76.4522559041
 21
537.399487015
 31
0.0
  0
LINE
  5
24C
330
1F
100
AcDbEntity
  8
0
  6
Continuous
 62
     7
370
    15
100
AcDbLine
 10
77.385865807
 20
535.2478114927
 30
0.0
 11
75.8858702177
 21
535.2478114927
 31
0.0
  0
ARC
  5
24D
330
1F
100
AcDbEntity
  8
0
  6
Continuous
 62
     7
370
    15
100
AcDbCircle
 10
182.5399335492
 20
508.3236467092
 30
0.0
 40
110.0
100
AcDbArc
 50
164.6731040461
 51
165.8320475344
  0
LINE
  5
24E
330
1F
100
AcDbEntity
  8
0
  6
Continuous
 62
     7
370
    15
100
AcDbLine
 10
76.4522559041
 20
537.399487015
 30
0.0
 11
76.700822174
 21
538.2879314983
 31
0.0
  0
LINE
  5
24F
330
1F
100
AcDbEntity
  8
0
  6
Continuous
 62
     7
370
    15
100
AcDbLine
 10
77.3982561225
 20
540.65249246
 30
0.0
 11
77.4181566233
 21
540.7182810867
 31
0.0
  0
LINE
  5
250
330
1F
100
AcDbEntity
  8
0
  6
Continuous
 62
     7
370
    15
100
AcDbLine
 10
75.1025683278
 20
531.9290099704
 30
0.0
 11
75.1096761817
 21
531.9605482781
 31
0.0
  0
LINE
  5
251
330
1F
100
AcDbEntity
  8
0
  6
Continuous
 62
     7
370
    15
100
AcDbLine
 10
75.6663910145
 20
534.3593670094
 30
0.0
 11
75.8858702177
 21
535.2478114927
 31
0.0
  0
LINE
  5
252
330
1F
100
AcDbEntity
  8
0
  6
Continuous
 62
     7
370
    15
100
AcDbLine
 10
76.6303247804
 20
532.0549620354
 30
0.0
 11
75.1303217405
 21
532.0549620354
 31
0.0
  0
ARC
  5
253
330
1F
100
AcDbEntity
  8
0
  6
Continuous
 62
     7
370
    15
100
AcDbCircle
 10
182.5399335492
 20
508.3236467092
 30
0.0
 40
110.0
100
AcDbArc
 50
166.3088344322
 51
167.5410996824
  0
LINE
  5
254
330
1F
100
AcDbEntity
  8
0
  6
Continuous
 62
     7
370
    15
100
AcDbLine
 10
77.1655148858
 20
534.3593670094
 30
0.0
 11
75.665511846
 21
534.3593670094
 31
0.0
  0
LINE
  5
255
330
1F
100
AcDbEntity
  8
0
  6
Continuous
 62
     7
370
    15
100
AcDbLine
 10
76.5295780295
 20
531.5943075383
 30
0.0
 11
75.0295824403
 21
531.5943075383
 31
0.0
  0
LINE
  5
256
330
1F
100
AcDbEntity
  8
0
  6
Continuous
 62
     7
370
    15
100
AcDbLine
 10
75.0295824403
 20
531.5943075383
 30
0.0
 11
75.1303217405
 21
532.0549620354
 31
0.0
  0
LINE
  5
257
330
1F
100
AcDbEntity
  8
0
  6
Continuous
 62
     7
370
    15
100
AcDbLine
 10
75.8587128514
 20
528.2440943682
 30
0.0
 11
74.3587172622
 21
528.2440943682
 31
0.0
  0
LINE
  5
258
330
1F
100
AcDbEntity
  8
0
  6
Continuous
 62
     7
370
    15
100
AcDbLine
 10
75.7796398395
 20
527.8097776735
 30
0.0
 11
74.2796367997
 21
527.8097776735
 31
0.0
  0
LINE
  5
259
330
1F
100
AcDbEntity
  8
0
  6
Continuous
 62
     7
370
    15
100
AcDbLine
 10
74.2796367997
 20
527.8097776735
 30
0.0
 11
74.3587172622
 21
528.2440943682
 31
0.0
  0
LINE
  5
25A
330
1F
100
AcDbEntity
  8
0
  6
Continuous
 62
     7
370
    15
100
AcDbLine
 10
75.3929845089
 20
525.5236489737
 30
0.0
 11
73.892981469
 21
525.5236489737
 31
0.0
  0
ARC
  5
25B
330
1F
100
AcDbEntity
  8
0
  6
Continuous
 62
     7
370
    15
100
AcDbCircle
 10
182.5399335492
 20
508.3236467092
 30
0.0
 40
110.0
100
AcDbArc
 50
169.796396936
 51
171.0041087467
  0
ARC
  5
25C
330
1F
100
AcDbEntity
  8
0
  6
Continuous
 62
     7
370
    15
100
AcDbCircle
 10
182.5399335492
 20
508.3236467092
 30
0.0
 40
110.0
100
AcDbArc
 50
167.7867114452
 51
169.5664561262
  0
SPLINE
  5
25D
330
1F
100
AcDbEntity
  8
0
  6
Continuous
 62
     7
370
    15
100
AcDbSpline
210
0.0
220
0.0
230
1.0
 70
     8
 71
     3
 72
     9
 73
     5
 74
     0
 42
0.00000001
 43
0.00000001
 12
1.0
 22
0.0
 32
0.0
 13
1.0
 23
0.0
 33
0.0
 40
0.0
 40
0.0
 40
0.0
 40
0.0
 40
0.5016715618123009
 40
1.0
 40
1.0
 40
1.0
 40
1.0
 10
77.9799136158246
 20
542.4879882296656
 30
0.0
 10
78.03964230192292
 20
542.6699842843241
 30
0.0
 10
78.15870164402028
 20
543.0327635776151
 30
0.0
 10
78.28086154082969
 20
543.3953960675633
 30
0.0
 10
78.34173729141591
 20
543.5761061499153
 30
0.0
  0
LINE
  5
25E
330
1F
100
AcDbEntity
  8
0
  6
Continuous
 62
     7
370
    15
100
AcDbLine
 10
81.1100534195
 20
547.123649534
 30
0.0
 11
79.6100578302
 21
547.123649534
 31
0.0
  0
ARC
  5
25F
330
1F
100
AcDbEntity
  8
0
  6
Continuous
 62
     7
370
    15
100
AcDbCircle
 10
182.5399335492
 20
508.3236467092
 30
0.0
 40
110.0
100
AcDbArc
 50
159.3457816866
 51
159.6317902411
  0
LINE
  5
260
330
1F
100
AcDbEntity
  8
0
  6
Continuous
 62
     7
370
    15
100
AcDbLine
 10
76.9345319861
 20
483.2550747359
 30
0.0
 11
75.4345363969
 21
483.2550747359
 31
0.0
  0
LINE
  5
261
330
1F
100
AcDbEntity
  8
0
  6
Continuous
 62
     7
370
    15
100
AcDbLine
 10
77.663243472
 20
480.3236475253
 30
0.0
 11
76.1632478827
 21
480.3236475253
 31
0.0
  0
SPLINE
  5
262
330
1F
100
AcDbEntity
  8
0
  6
Continuous
 62
     7
370
    15
100
AcDbSpline
210
0.0
220
0.0
230
1.0
 70
     8
 71
     3
 72
    10
 73
     6
 74
     0
 42
0.00000001
 43
0.00000001
 12
1.0
 22
0.0
 32
0.0
 13
1.0
 23
0.0
 33
0.0
 40
0.0
 40
0.0
 40
0.0
 40
0.0
 40
0.3285977658580448
 40
0.6619310260630031
 40
0.9999999999999999
 40
0.9999999999999999
 40
0.9999999999999999
 40
0.9999999999999999
 10
76.16324437345251
 20
480.3236467092452
 30
0.0
 10
76.07969702807999
 20
480.644600014983
 30
0.0
 10
75.91139831824889
 20
481.291131954817
 30
0.0
 10
75.66838629448985
 20
482.2682796618009
 30
0.0
 10
75.51285010007874
 20
482.9246002956638
 30
0.0
 10
75.43453346813928
 20
483.2550752806737
 30
0.0
  0
LINE
  5
263
330
1F
100
AcDbEntity
  8
0
  6
Continuous
 62
     7
370
    15
100
AcDbLine
 10
78.478359341
 20
477.3922184521
 30
0.0
 11
76.9783563012
 21
477.3922184521
 31
0.0
  0
LINE
  5
264
330
1F
100
AcDbEntity
  8
0
  6
Continuous
 62
     7
370
    15
100
AcDbLine
 10
81.1100534195
 20
469.5236463138
 30
0.0
 11
79.6100578302
 21
469.5236463138
 31
0.0
  0
ARC
  5
265
330
1F
100
AcDbEntity
  8
0
  6
Continuous
 62
     7
370
    15
100
AcDbCircle
 10
182.5399335492
 20
508.3236467092
 30
0.0
 40
110.0
100
AcDbArc
 50
196.3315273566
 51
200.6542183134
  0
LINE
  5
266
330
1F
100
AcDbEntity
  8
0
  6
Continuous
 62
     7
370
    15
100
AcDbLine
 10
75.3929845089
 20
491.1236478055
 30
0.0
 11
73.892981469
 21
491.1236478055
 31
0.0
  0
ARC
  5
267
330
1F
100
AcDbEntity
  8
0
  6
Continuous
 62
     7
370
    15
100
AcDbCircle
 10
182.5399335492
 20
508.3236467092
 30
0.0
 40
110.0
100
AcDbArc
 50
188.9958912533
 51
193.1732381644
  0
SPLINE
  5
268
330
1F
100
AcDbEntity
  8
0
  6
Continuous
 62
     7
370
    15
100
AcDbSpline
210
0.0
220
0.0
230
1.0
 70
     8
 71
     3
 72
    10
 73
     6
 74
     0
 42
0.00000001
 43
0.00000001
 12
1.0
 22
0.0
 32
0.0
 13
1.0
 23
0.0
 33
0.0
 40
0.0
 40
0.0
 40
0.0
 40
0.0
 40
0.328924614020362
 40
0.6622578535404101
 40
1.0
 40
1.0
 40
1.0
 40
1.0
 10
76.97835565968411
 20
477.3922181378164
 30
0.0
 10
76.88517842112233
 20
477.7134720820157
 30
0.0
 10
76.69757507561856
 20
478.3602857847861
 30
0.0
 10
76.4257751328608
 20
479.3374338872942
 30
0.0
 10
76.25113707886558
 20
479.9934723966057
 30
0.0
 10
76.16324437345251
 20
480.3236467092451
 30
0.0
  0
LINE
  5
269
330
1F
100
AcDbEntity
  8
0
  6
Continuous
 62
     7
370
    15
100
AcDbLine
 10
75.665511846
 20
482.2879297698
 30
0.0
 11
75.4397965068
 21
483.2332817876
 31
0.0
  0
LINE
  5
26A
330
1F
100
AcDbEntity
  8
0
  6
Continuous
 62
     7
370
    15
100
AcDbLine
 10
76.8323100203
 20
477.9036020899
 30
0.0
 11
76.6997641915
 21
478.3593634182
 31
0.0
  0
INSERT
  5
276
330
1F
100
AcDbEntity
  8
FORMAT
100
AcDbBlockReference
  2
SW_CENTERMARKSYMBOL_0
 10
184.0399335492
 20
508.3236467092
 30
0.0
  0
LINE
  5
277
330
1F
100
AcDbEntity
  8
0
  6
Continuous
 62
     7
370
    15
100
AcDbLine
 10
74.0399367207
 20
203.6295683163
 30
0.0
 11
74.0399367207
 21
184.6295670646
 31
0.0
  0
LINE
  5
278
330
1F
100
AcDbEntity
  8
0
  6
Continuous
 62
     7
370
    15
100
AcDbLine
 10
294.0399355287
 20
184.6295670646
 30
0.0
 11
294.0399355287
 21
203.6295683163
 31
0.0
  0
LINE
  5
279
330
1F
100
AcDbEntity
  8
0
  6
Continuous
 62
     7
370
    15
100
AcDbLine
 10
294.0399355287
 20
3.6295690614
 30
0.0
 11
294.0399355287
 21
22.6295703131
 31
0.0
  0
LINE
  5
27A
330
1F
100
AcDbEntity
  8
0
  6
Continuous
 62
     7
370
    15
100
AcDbLine
 10
74.0399367207
 20
22.6295703131
 30
0.0
 11
74.0399367207
 21
20.62956626
 31
0.0
  0
LINE
  5
27B
330
1F
100
AcDbEntity
  8
0
  6
Continuous
 62
     7
370
    15
100
AcDbLine
 10
74.0399367207
 20
18.4952803927
 30
0.0
 11
74.0399367207
 21
17.6724233705
 31
0.0
  0
LINE
  5
27C
330
1F
100
AcDbEntity
  8
0
  6
Continuous
 62
     7
370
    15
100
AcDbLine
 10
74.0399367207
 20
15.6152882653
 30
0.0
 11
74.0399367207
 21
12.6241036731
 31
0.0
  0
LINE
  5
27D
330
1F
100
AcDbEntity
  8
0
  6
Continuous
 62
     7
370
    15
100
AcDbLine
 10
74.0399367207
 20
10.3438534814
 30
0.0
 11
74.0399367207
 21
3.6295690614
 31
0.0
  0
LINE
  5
27E
330
1F
100
AcDbEntity
  8
0
  6
Continuous
 62
     7
370
    15
100
AcDbLine
 10
74.0399367207
 20
121.4814410585
 30
0.0
 11
74.0399367207
 21
101.4814415055
 31
0.0
  0
LINE
  5
27F
330
1F
100
AcDbEntity
  8
0
  6
Continuous
 62
     7
370
    15
100
AcDbLine
 10
294.0399355287
 20
101.4814415055
 30
0.0
 11
294.0399355287
 21
121.4814410585
 31
0.0
  0
LINE
  5
280
330
1F
100
AcDbEntity
  8
0
  6
Continuous
 62
     7
370
    15
100
AcDbLine
 10
166.8484254772
 20
203.6295683163
 30
0.0
 11
166.8484254772
 21
205.6295686441
 31
0.0
  0
LINE
  5
281
330
1F
100
AcDbEntity
  8
0
  6
Continuous
 62
     7
370
    15
100
AcDbLine
 10
132.3484263414
 20
205.6295686441
 30
0.0
 11
132.3484263414
 21
203.6295683163
 31
0.0
  0
LINE
  5
282
330
1F
100
AcDbEntity
  8
0
  6
Continuous
 62
     7
370
    15
100
AcDbLine
 10
132.3484263414
 20
3.6295690614
 30
0.0
 11
132.3484263414
 21
1.6295650083
 31
0.0
  0
LINE
  5
283
330
1F
100
AcDbEntity
  8
0
  6
Continuous
 62
     7
370
    15
100
AcDbLine
 10
166.8484254772
 20
1.6295650083
 30
0.0
 11
166.8484254772
 21
3.6295690614
 31
0.0
  0
LINE
  5
284
330
1F
100
AcDbEntity
  8
0
  6
Continuous
 62
     7
370
    15
100
AcDbLine
 10
235.7314421827
 20
203.6295683163
 30
0.0
 11
235.7314421827
 21
205.6295686441
 31
0.0
  0
LINE
  5
285
330
1F
100
AcDbEntity
  8
0
  6
Continuous
 62
     7
370
    15
100
AcDbLine
 10
201.2314424649
 20
205.6295686441
 30
0.0
 11
201.2314424649
 21
203.6295683163
 31
0.0
  0
LINE
  5
286
330
1F
100
AcDbEntity
  8
0
  6
Continuous
 62
     7
370
    15
100
AcDbLine
 10
201.2314424649
 20
3.6295690614
 30
0.0
 11
201.2314424649
 21
1.6295650083
 31
0.0
  0
LINE
  5
287
330
1F
100
AcDbEntity
  8
0
  6
Continuous
 62
     7
370
    15
100
AcDbLine
 10
235.7314421827
 20
1.6295650083
 30
0.0
 11
235.7314421827
 21
3.6295690614
 31
0.0
  0
LINE
  5
288
330
1F
100
AcDbEntity
  8
0
  6
Continuous
 62
     7
370
    15
100
AcDbLine
 10
137.379706561
 20
-12.2441611213
 30
0.0
 11
137.598425805
 21
-12.3704335612
 31
0.0
  0
LINE
  5
289
330
1F
100
AcDbEntity
  8
0
  6
Continuous
 62
     7
370
    15
100
AcDbLine
 10
137.598425805
 20
219.6295672136
 30
0.0
 11
137.1724686617
 21
219.3836384493
 31
0.0
  0
LINE
  5
28A
330
1F
100
AcDbEntity
  8
0
  6
Continuous
 62
     7
370
    15
100
AcDbLine
 10
157.598425358
 20
219.6295672136
 30
0.0
 11
157.598425358
 21
268.6295696574
 31
0.0
  0
LINE
  5
28B
330
1F
100
AcDbEntity
  8
0
  6
Continuous
 62
     7
370
    15
100
AcDbLine
 10
141.5984264606
 20
268.6295696574
 30
0.0
 11
141.5984264606
 21
219.6295672136
 31
0.0
  0
LINE
  5
28C
330
1F
100
AcDbEntity
  8
0
  6
Continuous
 62
     7
370
    15
100
AcDbLine
 10
157.598425358
 20
121.4814410585
 30
0.0
 11
157.598425358
 21
184.6295670646
 31
0.0
  0
LINE
  5
28D
330
1F
100
AcDbEntity
  8
0
  6
Continuous
 62
     7
370
    15
100
AcDbLine
 10
141.5984264606
 20
184.6295670646
 30
0.0
 11
141.5984264606
 21
121.4814410585
 31
0.0
  0
LINE
  5
28E
330
1F
100
AcDbEntity
  8
0
  6
Continuous
 62
     7
370
    15
100
AcDbLine
 10
157.598425358
 20
22.6295703131
 30
0.0
 11
157.598425358
 21
101.4814415055
 31
0.0
  0
LINE
  5
28F
330
1F
100
AcDbEntity
  8
0
  6
Continuous
 62
     7
370
    15
100
AcDbLine
 10
141.5984264606
 20
101.4814415055
 30
0.0
 11
141.5984264606
 21
22.6295703131
 31
0.0
  0
LINE
  5
290
330
1F
100
AcDbEntity
  8
0
  6
Continuous
 62
     7
370
    15
100
AcDbLine
 10
157.598425358
 20
-61.3704285544
 30
0.0
 11
157.598425358
 21
-12.3704335612
 31
0.0
  0
LINE
  5
291
330
1F
100
AcDbEntity
  8
0
  6
Continuous
 62
     7
370
    15
100
AcDbLine
 10
141.5984264606
 20
-12.3704335612
 30
0.0
 11
141.5984264606
 21
-61.3704285544
 31
0.0
  0
LINE
  5
292
330
1F
100
AcDbEntity
  8
0
  6
Continuous
 62
     7
370
    15
100
AcDbLine
 10
226.4814420635
 20
219.6295672136
 30
0.0
 11
226.4814420635
 21
268.6295696574
 31
0.0
  0
LINE
  5
293
330
1F
100
AcDbEntity
  8
0
  6
Continuous
 62
     7
370
    15
100
AcDbLine
 10
210.4814422348
 20
268.6295696574
 30
0.0
 11
210.4814422348
 21
219.6295672136
 31
0.0
  0
LINE
  5
294
330
1F
100
AcDbEntity
  8
0
  6
Continuous
 62
     7
370
    15
100
AcDbLine
 10
226.4814420635
 20
121.4814410585
 30
0.0
 11
226.4814420635
 21
184.6295670646
 31
0.0
  0
LINE
  5
295
330
1F
100
AcDbEntity
  8
0
  6
Continuous
 62
     7
370
    15
100
AcDbLine
 10
210.4814422348
 20
184.6295670646
 30
0.0
 11
210.4814422348
 21
121.4814410585
 31
0.0
  0
LINE
  5
296
330
1F
100
AcDbEntity
  8
0
  6
Continuous
 62
     7
370
    15
100
AcDbLine
 10
226.4814420635
 20
22.6295703131
 30
0.0
 11
226.4814420635
 21
101.4814415055
 31
0.0
  0
LINE
  5
297
330
1F
100
AcDbEntity
  8
0
  6
Continuous
 62
     7
370
    15
100
AcDbLine
 10
210.4814422348
 20
101.4814415055
 30
0.0
 11
210.4814422348
 21
22.6295703131
 31
0.0
  0
LINE
  5
298
330
1F
100
AcDbEntity
  8
0
  6
Continuous
 62
     7
370
    15
100
AcDbLine
 10
226.4814420635
 20
-61.3704285544
 30
0.0
 11
226.4814420635
 21
-12.3704335612
 31
0.0
  0
LINE
  5
299
330
1F
100
AcDbEntity
  8
0
  6
Continuous
 62
     7
370
    15
100
AcDbLine
 10
210.4814422348
 20
-12.3704335612
 30
0.0
 11
210.4814422348
 21
-61.3704285544
 31
0.0
  0
LINE
  5
29A
330
1F
100
AcDbEntity
  8
0
  6
Continuous
 62
     7
370
    15
100
AcDbLine
 10
205.1552163468
 20
-11.6047373933
 30
0.0
 11
206.4814425105
 21
-12.3704335612
 31
0.0
  0
LINE
  5
29B
330
1F
100
AcDbEntity
  8
0
  6
Continuous
 62
     7
370
    15
100
AcDbLine
 10
232.3378480071
 20
218.5577713924
 30
0.0
 11
230.4814427191
 21
219.6295672136
 31
0.0
  0
LINE
  5
29C
330
1F
100
AcDbEntity
  8
0
  6
Continuous
 62
     7
370
    15
100
AcDbLine
 10
206.4814425105
 20
219.6295672136
 30
0.0
 11
204.6250358255
 21
218.5577713924
 31
0.0
  0
LINE
  5
29D
330
1F
100
AcDbEntity
  8
0
  6
Continuous
 62
     7
370
    15
100
AcDbLine
 10
230.4814427191
 20
-12.3704335612
 30
0.0
 11
231.8076684171
 21
-11.6047373933
 31
0.0
  0
LINE
  5
29E
330
1F
100
AcDbEntity
  8
0
  6
Continuous
 62
     7
370
    15
100
AcDbLine
 10
162.0243831569
 20
219.3836384493
 30
0.0
 11
161.5984260136
 21
219.6295672136
 31
0.0
  0
LINE
  5
29F
330
1F
100
AcDbEntity
  8
0
  6
Continuous
 62
     7
370
    15
100
AcDbLine
 10
161.5984260136
 20
-12.3704335612
 30
0.0
 11
161.8167727286
 21
-12.2443697375
 31
0.0
  0
LINE
  5
2A0
330
1F
100
AcDbEntity
  8
0
  6
Continuous
 62
     7
370
    15
100
AcDbLine
 10
259.1890922779
 20
131.8181167397
 30
0.0
 11
248.1219961339
 21
141.1045124794
 31
0.0
  0
LINE
  5
2A1
330
1F
100
AcDbEntity
  8
0
  6
Continuous
 62
     7
370
    15
100
AcDbLine
 10
119.9578723902
 20
141.1045124794
 30
0.0
 11
108.8907725209
 21
131.8181167397
 31
0.0
  0
LINE
  5
2A2
330
1F
100
AcDbEntity
  8
0
  6
Continuous
 62
     7
370
    15
100
AcDbLine
 10
108.8907725209
 20
123.6295663792
 30
0.0
 11
141.5984264606
 21
123.6295663792
 31
0.0
  0
LINE
  5
2A3
330
1F
100
AcDbEntity
  8
0
  6
Continuous
 62
     7
370
    15
100
AcDbLine
 10
157.598425358
 20
123.6295663792
 30
0.0
 11
210.4814422348
 21
123.6295663792
 31
0.0
  0
LINE
  5
2A4
330
1F
100
AcDbEntity
  8
0
  6
Continuous
 62
     7
370
    15
100
AcDbLine
 10
226.4814420635
 20
123.6295663792
 30
0.0
 11
259.1890922779
 21
123.6295663792
 31
0.0
  0
LWPOLYLINE
  5
2A5
330
1F
100
AcDbEntity
  8
0
  6
Continuous
 62
     7
370
    15
100
AcDbPolyline
 90
        3
 70
   128
 43
0.0
 10
259.1890922779
 20
122.7392145473
 10
258.9502080375
 20
123.2850831973
 10
258.787856161
 20
123.6295663792
  0
LWPOLYLINE
  5
2A6
330
1F
100
AcDbEntity
  8
0
  6
Continuous
 62
     7
370
    15
100
AcDbPolyline
 90
        3
 70
   128
 43
0.0
 10
109.2920086378
 20
123.6295663792
 10
109.1296604866
 20
123.2850831973
 10
108.8907725209
 20
122.7392145473
  0
LINE
  5
2A7
330
1F
100
AcDbEntity
  8
0
  6
Continuous
 62
     7
370
    15
100
AcDbLine
 10
118.4379464978
 20
184.6295670646
 30
0.0
 11
119.9578723902
 21
141.1045124794
 31
0.0
  0
LINE
  5
2A8
330
1F
100
AcDbEntity
  8
0
  6
Continuous
 62
     7
370
    15
100
AcDbLine
 10
248.1219961339
 20
141.1045124794
 30
0.0
 11
249.6419257516
 21
184.6295670646
 31
0.0
  0
LINE
  5
2A9
330
1F
100
AcDbEntity
  8
0
  6
Continuous
 62
     7
370
    15
100
AcDbLine
 10
239.5399331147
 20
22.6295703131
 30
0.0
 11
239.5399331147
 21
101.4814415055
 31
0.0
  0
LINE
  5
2AA
330
1F
100
AcDbEntity
  8
0
  6
Continuous
 62
     7
370
    15
100
AcDbLine
 10
128.5399354094
 20
101.4814415055
 30
0.0
 11
128.5399354094
 21
22.6295703131
 31
0.0
  0
LINE
  5
2AB
330
1F
100
AcDbEntity
  8
0
  6
Continuous
 62
     7
370
    15
100
AcDbLine
 10
118.1407726401
 20
203.6295683163
 30
0.0
 11
118.1407726401
 21
205.6295686441
 31
0.0
  0
LINE
  5
2AC
330
1F
100
AcDbEntity
  8
0
  6
Continuous
 62
     7
370
    15
100
AcDbLine
 10
83.6407772297
 20
205.6295686441
 30
0.0
 11
83.6407772297
 21
203.6295683163
 31
0.0
  0
LINE
  5
2AD
330
1F
100
AcDbEntity
  8
0
  6
Continuous
 62
     7
370
    15
100
AcDbLine
 10
83.6407772297
 20
3.6295690614
 30
0.0
 11
83.6407772297
 21
1.6295650083
 31
0.0
  0
LINE
  5
2AE
330
1F
100
AcDbEntity
  8
0
  6
Continuous
 62
     7
370
    15
100
AcDbLine
 10
118.1407726401
 20
1.6295650083
 30
0.0
 11
118.1407726401
 21
3.6295690614
 31
0.0
  0
LINE
  5
2AF
330
1F
100
AcDbEntity
  8
0
  6
Continuous
 62
     7
370
    15
100
AcDbLine
 10
284.4390950197
 20
203.6295683163
 30
0.0
 11
284.4390950197
 21
205.6295686441
 31
0.0
  0
LINE
  5
2B0
330
1F
100
AcDbEntity
  8
0
  6
Continuous
 62
     7
370
    15
100
AcDbLine
 10
249.9390921587
 20
205.6295686441
 30
0.0
 11
249.9390921587
 21
203.6295683163
 31
0.0
  0
LINE
  5
2B1
330
1F
100
AcDbEntity
  8
0
  6
Continuous
 62
     7
370
    15
100
AcDbLine
 10
249.9390921587
 20
3.6295690614
 30
0.0
 11
249.9390921587
 21
1.6295650083
 31
0.0
  0
LINE
  5
2B2
330
1F
100
AcDbEntity
  8
0
  6
Continuous
 62
     7
370
    15
100
AcDbLine
 10
284.4390950197
 20
1.6295650083
 30
0.0
 11
284.4390950197
 21
3.6295690614
 31
0.0
  0
LINE
  5
2B3
330
1F
100
AcDbEntity
  8
0
  6
Continuous
 62
     7
370
    15
100
AcDbLine
 10
112.8907731766
 20
-12.3704335612
 30
0.0
 11
112.9263571495
 21
-12.3498848599
 31
0.0
  0
LINE
  5
2B4
330
1F
100
AcDbEntity
  8
0
  6
Continuous
 62
     7
370
    15
100
AcDbLine
 10
279.6151346558
 20
219.3835937458
 30
0.0
 11
279.1890881056
 21
219.6295672136
 31
0.0
  0
LINE
  5
2B5
330
1F
100
AcDbEntity
  8
0
  6
Continuous
 62
     7
370
    15
100
AcDbLine
 10
108.8907725209
 20
219.6295672136
 30
0.0
 11
108.8907725209
 21
268.6295696574
 31
0.0
  0
LINE
  5
2B6
330
1F
100
AcDbEntity
  8
0
  6
Continuous
 62
     7
370
    15
100
AcDbLine
 10
92.8907773489
 20
268.6295696574
 30
0.0
 11
92.8907773489
 21
219.6295672136
 31
0.0
  0
LINE
  5
2B7
330
1F
100
AcDbEntity
  8
0
  6
Continuous
 62
     7
370
    15
100
AcDbLine
 10
108.8907725209
 20
121.4814410585
 30
0.0
 11
108.8907725209
 21
184.6295670646
 31
0.0
  0
LINE
  5
2B8
330
1F
100
AcDbEntity
  8
0
  6
Continuous
 62
     7
370
    15
100
AcDbLine
 10
92.8907773489
 20
184.6295670646
 30
0.0
 11
92.8907773489
 21
121.4814410585
 31
0.0
  0
LINE
  5
2B9
330
1F
100
AcDbEntity
  8
0
  6
Continuous
 62
     7
370
    15
100
AcDbLine
 10
108.8907725209
 20
22.6295703131
 30
0.0
 11
108.8907725209
 21
101.4814415055
 31
0.0
  0
LINE
  5
2BA
330
1F
100
AcDbEntity
  8
0
  6
Continuous
 62
     7
370
    15
100
AcDbLine
 10
92.8907773489
 20
101.4814415055
 30
0.0
 11
92.8907773489
 21
22.6295703131
 31
0.0
  0
LINE
  5
2BB
330
1F
100
AcDbEntity
  8
0
  6
Continuous
 62
     7
370
    15
100
AcDbLine
 10
108.8907725209
 20
-61.3704285544
 30
0.0
 11
108.8907725209
 21
-12.3704335612
 31
0.0
  0
LINE
  5
2BC
330
1F
100
AcDbEntity
  8
0
  6
Continuous
 62
     7
370
    15
100
AcDbLine
 10
92.8907773489
 20
-12.3704335612
 30
0.0
 11
92.8907773489
 21
-61.3704285544
 31
0.0
  0
LINE
  5
2BD
330
1F
100
AcDbEntity
  8
0
  6
Continuous
 62
     7
370
    15
100
AcDbLine
 10
275.1890949005
 20
219.6295672136
 30
0.0
 11
275.1890949005
 21
268.6295696574
 31
0.0
  0
LINE
  5
2BE
330
1F
100
AcDbEntity
  8
0
  6
Continuous
 62
     7
370
    15
100
AcDbLine
 10
259.1890922779
 20
268.6295696574
 30
0.0
 11
259.1890922779
 21
219.6295672136
 31
0.0
  0
LINE
  5
2BF
330
1F
100
AcDbEntity
  8
0
  6
Continuous
 62
     7
370
    15
100
AcDbLine
 10
275.1890949005
 20
121.4814410585
 30
0.0
 11
275.1890949005
 21
184.6295670646
 31
0.0
  0
LINE
  5
2C0
330
1F
100
AcDbEntity
  8
0
  6
Continuous
 62
     7
370
    15
100
AcDbLine
 10
259.1890922779
 20
184.6295670646
 30
0.0
 11
259.1890922779
 21
121.4814410585
 31
0.0
  0
LINE
  5
2C1
330
1F
100
AcDbEntity
  8
0
  6
Continuous
 62
     7
370
    15
100
AcDbLine
 10
275.1890949005
 20
22.6295703131
 30
0.0
 11
275.1890949005
 21
101.4814415055
 31
0.0
  0
LINE
  5
2C2
330
1F
100
AcDbEntity
  8
0
  6
Continuous
 62
     7
370
    15
100
AcDbLine
 10
259.1890922779
 20
101.4814415055
 30
0.0
 11
259.1890922779
 21
22.6295703131
 31
0.0
  0
LINE
  5
2C3
330
1F
100
AcDbEntity
  8
0
  6
Continuous
 62
     7
370
    15
100
AcDbLine
 10
275.1890949005
 20
-61.3704285544
 30
0.0
 11
275.1890949005
 21
-12.3704335612
 31
0.0
  0
LINE
  5
2C4
330
1F
100
AcDbEntity
  8
0
  6
Continuous
 62
     7
370
    15
100
AcDbLine
 10
259.1890922779
 20
-12.3704335612
 30
0.0
 11
259.1890922779
 21
-61.3704285544
 31
0.0
  0
LINE
  5
2C5
330
1F
100
AcDbEntity
  8
0
  6
Continuous
 62
     7
370
    15
100
AcDbLine
 10
279.1890881056
 20
-12.3704335612
 30
0.0
 11
279.9007601136
 21
-11.9595489425
 31
0.0
  0
LINE
  5
2C6
330
1F
100
AcDbEntity
  8
0
  6
Continuous
 62
     7
370
    15
100
AcDbLine
 10
254.4774270648
 20
-11.9595489425
 30
0.0
 11
255.1890916222
 21
-12.3704335612
 31
0.0
  0
LINE
  5
2C7
330
1F
100
AcDbEntity
  8
0
  6
Continuous
 62
     7
370
    15
100
AcDbLine
 10
255.1890916222
 20
219.6295672136
 30
0.0
 11
254.7630487973
 21
219.3835937458
 31
0.0
  0
LINE
  5
2C8
330
1F
100
AcDbEntity
  8
0
  6
Continuous
 62
     7
370
    15
100
AcDbLine
 10
88.8551927203
 20
-12.3498848599
 30
0.0
 11
88.8907766932
 21
-12.3704335612
 31
0.0
  0
LINE
  5
2C9
330
1F
100
AcDbEntity
  8
0
  6
Continuous
 62
     7
370
    15
100
AcDbLine
 10
113.3168197268
 20
219.3835937458
 30
0.0
 11
112.8907731766
 21
219.6295672136
 31
0.0
  0
LINE
  5
2CA
330
1F
100
AcDbEntity
  8
0
  6
Continuous
 62
     7
370
    15
100
AcDbLine
 10
112.9263571495
 20
-12.3498848599
 30
0.0
 11
113.602437734
 21
-11.9595489425
 31
0.0
  0
LINE
  5
2CB
330
1F
100
AcDbEntity
  8
0
  6
Continuous
 62
     7
370
    15
100
AcDbLine
 10
88.1791121358
 20
-11.9595489425
 30
0.0
 11
88.8454473609
 21
-12.3442671222
 31
0.0
  0
LINE
  5
2CC
330
1F
100
AcDbEntity
  8
0
  6
Continuous
 62
     7
370
    15
100
AcDbLine
 10
88.8907766932
 20
219.6295672136
 30
0.0
 11
88.464730143
 21
219.3835937458
 31
0.0
  0
LINE
  5
2CD
330
1F
100
AcDbEntity
  8
0
  6
Continuous
 62
     7
370
    15
100
AcDbLine
 10
136.272200107
 20
-11.6047373933
 30
0.0
 11
137.379706561
 21
-12.2441611213
 31
0.0
  0
LINE
  5
2CE
330
1F
100
AcDbEntity
  8
0
  6
Continuous
 62
     7
370
    15
100
AcDbLine
 10
163.4548313016
 20
218.5577713924
 30
0.0
 11
162.0646945232
 21
219.3603702861
 31
0.0
  0
LINE
  5
2CF
330
1F
100
AcDbEntity
  8
0
  6
Continuous
 62
     7
370
    15
100
AcDbLine
 10
137.1724686617
 20
219.3836384493
 30
0.0
 11
135.7420167917
 21
218.5577713924
 31
0.0
  0
LINE
  5
2D0
330
1F
100
AcDbEntity
  8
0
  6
Continuous
 62
     7
370
    15
100
AcDbLine
 10
161.8441387111
 20
-12.2285745067
 30
0.0
 11
162.9246517116
 21
-11.6047373933
 31
0.0
  0
LINE
  5
2D1
330
1F
100
AcDbEntity
  8
0
  6
Continuous
 62
     7
370
    15
100
AcDbLine
 10
294.0399355287
 20
203.6295683163
 30
0.0
 11
74.0399367207
 21
203.6295683163
 31
0.0
  0
LINE
  5
2D2
330
1F
100
AcDbEntity
  8
0
  6
Continuous
 62
     7
370
    15
100
AcDbLine
 10
294.0399355287
 20
184.6295670646
 30
0.0
 11
74.0399367207
 21
184.6295670646
 31
0.0
  0
LINE
  5
2D3
330
1F
100
AcDbEntity
  8
0
  6
Continuous
 62
     7
370
    15
100
AcDbLine
 10
74.0399367207
 20
3.6295690614
 30
0.0
 11
294.0399355287
 21
3.6295690614
 31
0.0
  0
LINE
  5
2D4
330
1F
100
AcDbEntity
  8
0
  6
Continuous
 62
     7
370
    15
100
AcDbLine
 10
76.9549242252
 20
20.4280727583
 30
0.0
 11
76.9345319861
 21
20.62956626
 31
0.0
  0
LINE
  5
2D5
330
1F
100
AcDbEntity
  8
0
  6
Continuous
 62
     7
370
    15
100
AcDbLine
 10
78.8177928919
 20
17.6724233705
 30
0.0
 11
78.9181596631
 21
18.4952803927
 31
0.0
  0
LINE
  5
2D6
330
1F
100
AcDbEntity
  8
0
  6
Continuous
 62
     7
370
    15
100
AcDbLine
 10
81.1100534195
 20
20.62956626
 30
0.0
 11
81.1100534195
 21
18.4952803927
 31
0.0
  0
SPLINE
  5
2D7
330
1F
100
AcDbEntity
  8
0
  6
Continuous
 62
     7
370
    15
100
AcDbSpline
210
0.0
220
0.0
230
1.0
 70
     8
 71
     3
 72
    10
 73
     6
 74
     0
 42
0.00000001
 43
0.00000001
 12
1.0
 22
0.0
 32
0.0
 13
1.0
 23
0.0
 33
0.0
 40
0.0
 40
0.0
 40
0.0
 40
0.0
 40
0.3327603538404745
 40
0.6660907675496169
 40
1.0
 40
1.0
 40
1.0
 40
1.0
 10
80.91765621968483
 20
10.34385282652025
 30
0.0
 10
80.81738555206447
 20
10.70488836863145
 30
0.0
 10
80.61667244070034
 20
11.42757795163643
 30
0.0
 10
80.32372913706618
 20
12.51402188770923
 30
0.0
 10
80.13383665953327
 20
13.23987857483402
 30
0.0
 10
80.03880805656271
 20
13.60312175239675
 30
0.0
  0
SPLINE
  5
2D8
330
1F
100
AcDbEntity
  8
0
  6
Continuous
 62
     7
370
    15
100
AcDbSpline
210
0.0
220
0.0
230
1.0
 70
     8
 71
     3
 72
    14
 73
    10
 74
     0
 42
0.00000001
 43
0.00000001
 12
1.0
 22
0.0
 32
0.0
 13
1.0
 23
0.0
 33
0.0
 40
0.0
 40
0.0
 40
0.0
 40
0.0
 40
0.25
 40
0.25
 40
0.5
 40
0.5
 40
0.75
 40
0.75
 40
1.0
 40
1.0
 40
1.0
 40
1.0
 10
80.03880805656274
 20
13.60312175239672
 30
0.0
 10
80.1284774069024
 20
13.65840363910645
 30
0.0
 10
80.21516318040503
 20
13.74527297010467
 30
0.0
 10
80.38253853186983
 20
13.97862179858572
 30
0.0
 10
80.46363944356449
 20
14.12702791683476
 30
0.0
 10
80.610466549214
 20
14.4711513391903
 30
0.0
 10
80.67788649365879
 20
14.67006752533401
 30
0.0
 10
80.79452155996583
 20
15.11445645293208
 30
0.0
 10
80.84268829926552
 20
15.35497769414179
 30
0.0
 10
80.87952728593964
 20
15.61528139794882
 30
0.0
  0
LINE
  5
2D9
330
1F
100
AcDbEntity
  8
0
  6
Continuous
 62
     7
370
    15
100
AcDbLine
 10
81.1100534195
 20
17.6724233705
 30
0.0
 11
81.1100534195
 21
15.6152882653
 31
0.0
  0
LINE
  5
2DA
330
1F
100
AcDbEntity
  8
0
  6
Continuous
 62
     7
370
    15
100
AcDbLine
 10
74.0399367207
 20
22.6295703131
 30
0.0
 11
294.0399355287
 21
22.6295703131
 31
0.0
  0
LINE
  5
2DB
330
1F
100
AcDbEntity
  8
0
  6
Continuous
 62
     7
370
    15
100
AcDbLine
 10
74.0399367207
 20
101.4814415055
 30
0.0
 11
294.0399355287
 21
101.4814415055
 31
0.0
  0
LINE
  5
2DC
330
1F
100
AcDbEntity
  8
0
  6
Continuous
 62
     7
370
    15
100
AcDbLine
 10
74.0399367207
 20
121.4814410585
 30
0.0
 11
294.0399355287
 21
121.4814410585
 31
0.0
  0
LINE
  5
2DD
330
1F
100
AcDbEntity
  8
0
  6
Continuous
 62
     7
370
    15
100
AcDbLine
 10
137.4008326823
 20
205.6295686441
 30
0.0
 11
166.8484254772
 21
205.6295686441
 31
0.0
  0
LINE
  5
2DE
330
1F
100
AcDbEntity
  8
0
  6
Continuous
 62
     7
370
    15
100
AcDbLine
 10
132.3484263414
 20
205.6295686441
 30
0.0
 11
137.4008326823
 21
205.6295686441
 31
0.0
  0
LINE
  5
2DF
330
1F
100
AcDbEntity
  8
0
  6
Continuous
 62
     7
370
    15
100
AcDbLine
 10
166.544367283
 20
1.6295650083
 30
0.0
 11
132.3484263414
 21
1.6295650083
 31
0.0
  0
LINE
  5
2E0
330
1F
100
AcDbEntity
  8
0
  6
Continuous
 62
     7
370
    15
100
AcDbLine
 10
166.8484254772
 20
1.6295650083
 30
0.0
 11
166.544367283
 21
1.6295650083
 31
0.0
  0
LINE
  5
2E1
330
1F
100
AcDbEntity
  8
0
  6
Continuous
 62
     7
370
    15
100
AcDbLine
 10
218.4814426148
 20
205.6295686441
 30
0.0
 11
235.7314421827
 21
205.6295686441
 31
0.0
  0
LINE
  5
2E2
330
1F
100
AcDbEntity
  8
0
  6
Continuous
 62
     7
370
    15
100
AcDbLine
 10
201.2314424649
 20
205.6295686441
 30
0.0
 11
218.4814426148
 21
205.6295686441
 31
0.0
  0
LINE
  5
2E3
330
1F
100
AcDbEntity
  8
0
  6
Continuous
 62
     7
370
    15
100
AcDbLine
 10
235.7314421827
 20
1.6295650083
 30
0.0
 11
201.2314424649
 21
1.6295650083
 31
0.0
  0
SPLINE
  5
2E4
330
1F
100
AcDbEntity
  8
0
  6
Continuous
 62
     7
370
    15
100
AcDbSpline
210
0.0
220
0.0
230
1.0
 70
     8
 71
     3
 72
    12
 73
     8
 74
     0
 42
0.00000001
 43
0.00000001
 12
1.0
 22
0.0
 32
0.0
 13
1.0
 23
0.0
 33
0.0
 40
0.0
 40
0.0
 40
0.0
 40
0.0
 40
0.2500000000000006
 40
0.2500000000000006
 40
0.5000000000000011
 40
0.5000000000000011
 40
1.0
 40
1.0
 40
1.0
 40
1.0
 10
152.7042531776114
 20
219.629567112235
 30
0.0
 10
152.1363144253254
 20
219.629567112235
 30
0.0
 10
151.5658276198603
 20
219.6042338589418
 30
0.0
 10
150.4372858866928
 20
219.506196971865
 30
0.0
 10
149.8767895317307
 20
219.4335876029362
 30
0.0
 10
148.2052553454793
 20
219.1535409040022
 30
0.0
 10
147.1041336582795
 20
218.8841270750964
 30
0.0
 10
146.012122747709
 20
218.5577703425106
 30
0.0
  0
SPLINE
  5
2E5
330
1F
100
AcDbEntity
  8
0
  6
Continuous
 62
     7
370
    15
100
AcDbSpline
210
0.0
220
0.0
230
1.0
 70
     8
 71
     3
 72
    12
 73
     8
 74
     0
 42
0.00000001
 43
0.00000001
 12
1.0
 22
0.0
 32
0.0
 13
1.0
 23
0.0
 33
0.0
 40
0.0
 40
0.0
 40
0.0
 40
0.0
 40
0.2499999999999998
 40
0.2499999999999998
 40
0.4999999999999996
 40
0.4999999999999996
 40
1.0
 40
1.0
 40
1.0
 40
1.0
 10
141.1131432621427
 20
219.629567112235
 30
0.0
 10
141.5273126717015
 20
219.629567112235
 30
0.0
 10
141.9428087182963
 20
219.6046757047749
 30
0.0
 10
142.7764198419471
 20
219.5057525804913
 30
0.0
 10
143.1901771940749
 20
219.4322320633011
 30
0.0
 10
144.4174568027079
 20
219.1504774151477
 30
0.0
 10
145.2199850770077
 20
218.8811591923862
 30
0.0
 10
146.012122747709
 20
218.5577703425105
 30
0.0
  0
LINE
  5
2E6
330
1F
100
AcDbEntity
  8
0
  6
Continuous
 62
     7
370
    15
100
AcDbLine
 10
152.7042544478
 20
219.6295672136
 30
0.0
 11
141.1131440693
 21
219.6295672136
 31
0.0
  0
SPLINE
  5
2E7
330
1F
100
AcDbEntity
  8
0
  6
Continuous
 62
     7
370
    15
100
AcDbSpline
210
0.0
220
0.0
230
1.0
 70
     8
 71
     3
 72
    10
 73
     6
 74
     0
 42
0.00000001
 43
0.00000001
 12
1.0
 22
0.0
 32
0.0
 13
1.0
 23
0.0
 33
0.0
 40
0.0
 40
0.0
 40
0.0
 40
0.0
 40
0.5
 40
0.5
 40
1.0
 40
1.0
 40
1.0
 40
1.0
 10
159.396383607514
 20
218.5577703425107
 30
0.0
 10
158.3016388662139
 20
218.8849441036223
 30
0.0
 10
157.1988976882703
 20
219.1544866475405
 30
0.0
 10
154.9703613585048
 20
219.5274191557988
 30
0.0
 10
153.8443938758176
 20
219.629567112235
 30
0.0
 10
152.7042531776114
 20
219.629567112235
 30
0.0
  0
LINE
  5
2E8
330
1F
100
AcDbEntity
  8
0
  6
Continuous
 62
     7
370
    15
100
AcDbLine
 10
159.3963845664
 20
218.5577713924
 30
0.0
 11
159.3963845664
 21
205.6295686441
 31
0.0
  0
LINE
  5
2E9
330
1F
100
AcDbEntity
  8
0
  6
Continuous
 62
     7
370
    15
100
AcDbLine
 10
146.0121243292
 20
218.5577713924
 30
0.0
 11
146.0121243292
 21
205.6295686441
 31
0.0
  0
SPLINE
  5
2EA
330
1F
100
AcDbEntity
  8
0
  6
Continuous
 62
     7
370
    15
100
AcDbSpline
210
0.0
220
0.0
230
1.0
 70
     8
 71
     3
 72
    12
 73
     8
 74
     0
 42
0.00000001
 43
0.00000001
 12
1.0
 22
0.0
 32
0.0
 13
1.0
 23
0.0
 33
0.0
 40
0.0
 40
0.0
 40
0.0
 40
0.0
 40
0.2499999999999981
 40
0.2499999999999981
 40
0.4999999999999962
 40
0.4999999999999962
 40
1.0
 40
1.0
 40
1.0
 40
1.0
 10
141.7615658456189
 20
-12.37043288776513
 30
0.0
 10
142.2068359123925
 20
-12.37043288776515
 30
0.0
 10
142.6541036801587
 20
-12.345099634472
 30
0.0
 10
143.5388924903281
 20
-12.24706274739518
 30
0.0
 10
143.9783276378606
 20
-12.17445337846637
 30
0.0
 10
145.2888283489506
 20
-11.89440667953234
 30
0.0
 10
146.1521195492988
 20
-11.62499285062657
 30
0.0
 10
147.0082678031554
 20
-11.2986361180408
 30
0.0
  0
SPLINE
  5
2EB
330
1F
100
AcDbEntity
  8
0
  6
Continuous
 62
     7
370
    15
100
AcDbSpline
210
0.0
220
0.0
230
1.0
 70
     8
 71
     3
 72
    10
 73
     6
 74
     0
 42
0.00000001
 43
0.00000001
 12
1.0
 22
0.0
 32
0.0
 13
1.0
 23
0.0
 33
0.0
 40
0.0
 40
0.0
 40
0.0
 40
0.0
 40
0.5
 40
0.5
 40
1.0
 40
1.0
 40
1.0
 40
1.0
 10
136.5148638880825
 20
-11.29863611804091
 30
0.0
 10
137.3731554945217
 20
-11.6258098791524
 30
0.0
 10
138.2377163929644
 20
-11.89535242307072
 30
0.0
 10
139.9849127523744
 20
-12.26828493132898
 30
0.0
 10
140.8676833225862
 20
-12.37043288776515
 30
0.0
 10
141.7615658456189
 20
-12.37043288776513
 30
0.0
  0
LINE
  5
2EC
330
1F
100
AcDbEntity
  8
0
  6
Continuous
 62
     7
370
    15
100
AcDbLine
 10
136.514865517
 20
-11.29863774
 30
0.0
 11
136.514865517
 21
1.6295650083
 31
0.0
  0
LINE
  5
2ED
330
1F
100
AcDbEntity
  8
0
  6
Continuous
 62
     7
370
    15
100
AcDbLine
 10
147.008266955
 20
-11.29863774
 30
0.0
 11
147.008266955
 21
1.6295650083
 31
0.0
  0
SPLINE
  5
2EE
330
1F
100
AcDbEntity
  8
0
  6
Continuous
 62
     7
370
    15
100
AcDbSpline
210
0.0
220
0.0
230
1.0
 70
     8
 71
     3
 72
    12
 73
     8
 74
     0
 42
0.00000001
 43
0.00000001
 12
1.0
 22
0.0
 32
0.0
 13
1.0
 23
0.0
 33
0.0
 40
0.0
 40
0.0
 40
0.0
 40
0.0
 40
0.2500000000000007
 40
0.2500000000000007
 40
0.5000000000000014
 40
0.5000000000000014
 40
1.0
 40
1.0
 40
1.0
 40
1.0
 10
153.5500481773048
 20
-12.37043288776513
 30
0.0
 10
154.1052272226537
 20
-12.37043288776513
 30
0.0
 10
154.6628970748471
 20
-12.345099634472
 30
0.0
 10
155.7660842046819
 20
-12.24706274739523
 30
0.0
 10
156.3139880587804
 20
-12.17445337846632
 30
0.0
 10
157.9479683956666
 20
-11.8944066795324
 30
0.0
 10
159.0243515173536
 20
-11.62499285062663
 30
0.0
 10
160.0918285514542
 20
-11.2986361180408
 30
0.0
  0
SPLINE
  5
2EF
330
1F
100
AcDbEntity
  8
0
  6
Continuous
 62
     7
370
    15
100
AcDbSpline
210
0.0
220
0.0
230
1.0
 70
     8
 71
     3
 72
    10
 73
     6
 74
     0
 42
0.00000001
 43
0.00000001
 12
1.0
 22
0.0
 32
0.0
 13
1.0
 23
0.0
 33
0.0
 40
0.0
 40
0.0
 40
0.0
 40
0.0
 40
0.5
 40
0.5
 40
1.0
 40
1.0
 40
1.0
 40
1.0
 10
147.0082678031553
 20
-11.29863611804094
 30
0.0
 10
148.0784172478434
 20
-11.62580987915243
 30
0.0
 10
149.1563834756687
 20
-11.89535242307077
 30
0.0
 10
151.3348519585898
 20
-12.26828493132898
 30
0.0
 10
152.4355226728455
 20
-12.37043288776515
 30
0.0
 10
153.5500481773048
 20
-12.37043288776513
 30
0.0
  0
LINE
  5
2F0
330
1F
100
AcDbEntity
  8
0
  6
Continuous
 62
     7
370
    15
100
AcDbLine
 10
160.0918292099
 20
-11.29863774
 30
0.0
 11
160.0918292099
 21
1.6295650083
 31
0.0
  0
LINE
  5
2F1
330
1F
100
AcDbEntity
  8
0
  6
Continuous
 62
     7
370
    15
100
AcDbLine
 10
141.7615643734
 20
-12.3704335612
 30
0.0
 11
153.5500480825
 21
-12.3704335612
 31
0.0
  0
SPLINE
  5
2F2
330
1F
100
AcDbEntity
  8
0
  6
Continuous
 62
     7
370
    15
100
AcDbSpline
210
0.0
220
0.0
230
1.0
 70
     8
 71
     3
 72
    12
 73
     8
 74
     0
 42
0.00000001
 43
0.00000001
 12
1.0
 22
0.0
 32
0.0
 13
1.0
 23
0.0
 33
0.0
 40
0.0
 40
0.0
 40
0.0
 40
0.0
 40
0.2499999999999998
 40
0.2499999999999998
 40
0.4999999999999996
 40
0.4999999999999996
 40
1.0
 40
1.0
 40
1.0
 40
1.0
 10
219.3658177821653
 20
-12.37043288776513
 30
0.0
 10
219.9521923146153
 20
-12.37043288776515
 30
0.0
 10
220.5411976122413
 20
-12.34509963447195
 30
0.0
 10
221.7063727802904
 20
-12.2470627473952
 30
0.0
 10
222.285063328801
 20
-12.17445337846634
 30
0.0
 10
224.0108569517791
 20
-11.89440667953234
 30
0.0
 10
225.147721995595
 20
-11.62499285062651
 30
0.0
 10
226.2751805191395
 20
-11.29863611804077
 30
0.0
  0
SPLINE
  5
2F3
330
1F
100
AcDbEntity
  8
0
  6
Continuous
 62
     7
370
    15
100
AcDbSpline
210
0.0
220
0.0
230
1.0
 70
     8
 71
     3
 72
    10
 73
     6
 74
     0
 42
0.00000001
 43
0.00000001
 12
1.0
 22
0.0
 32
0.0
 13
1.0
 23
0.0
 33
0.0
 40
0.0
 40
0.0
 40
0.0
 40
0.0
 40
0.4999999999999997
 40
0.4999999999999997
 40
1.0
 40
1.0
 40
1.0
 40
1.0
 10
212.4564550451911
 20
-11.29863611804091
 30
0.0
 10
213.5867361419609
 20
-11.62580987915243
 30
0.0
 10
214.7252732465824
 20
-11.89535242307066
 30
0.0
 10
217.0261497815156
 20
-12.26828493132895
 30
0.0
 10
218.1886671367006
 20
-12.37043288776515
 30
0.0
 10
219.3658177821653
 20
-12.37043288776513
 30
0.0
  0
LINE
  5
2F4
330
1F
100
AcDbEntity
  8
0
  6
Continuous
 62
     7
370
    15
100
AcDbLine
 10
212.456455178
 20
-11.29863774
 30
0.0
 11
212.456455178
 21
1.6295650083
 31
0.0
  0
LINE
  5
2F5
330
1F
100
AcDbEntity
  8
0
  6
Continuous
 62
     7
370
    15
100
AcDbLine
 10
226.2751801902
 20
-11.29863774
 30
0.0
 11
226.2751801902
 21
1.6295650083
 31
0.0
  0
SPLINE
  5
2F6
330
1F
100
AcDbEntity
  8
0
  6
Continuous
 62
     7
370
    15
100
AcDbSpline
210
0.0
220
0.0
230
1.0
 70
     8
 71
     3
 72
    12
 73
     8
 74
     0
 42
0.00000001
 43
0.00000001
 12
1.0
 22
0.0
 32
0.0
 13
1.0
 23
0.0
 33
0.0
 40
0.0
 40
0.0
 40
0.0
 40
0.0
 40
0.249999999999997
 40
0.249999999999997
 40
0.499999999999994
 40
0.499999999999994
 40
1.0
 40
1.0
 40
1.0
 40
1.0
 10
208.5595860166723
 20
-12.37043288776513
 30
0.0
 10
208.8890350273132
 20
-12.37043288776513
 30
0.0
 10
209.2195393048301
 20
-12.34554148030514
 30
0.0
 10
209.882631154705
 20
-12.24661835602139
 30
0.0
 10
210.2117523962981
 20
-12.17309783883128
 30
0.0
 10
211.1879858976438
 20
-11.89134319067786
 30
0.0
 10
211.8263530485664
 20
-11.62202496791645
 30
0.0
 10
212.4564550451911
 20
-11.29863611804063
 30
0.0
  0
LINE
  5
2F7
330
1F
100
AcDbEntity
  8
0
  6
Continuous
 62
     7
370
    15
100
AcDbLine
 10
208.5595863903
 20
-12.3704335612
 30
0.0
 11
219.3658172184
 21
-12.3704335612
 31
0.0
  0
SPLINE
  5
2F8
330
1F
100
AcDbEntity
  8
0
  6
Continuous
 62
     7
370
    15
100
AcDbSpline
210
0.0
220
0.0
230
1.0
 70
     8
 71
     3
 72
    10
 73
     6
 74
     0
 42
0.00000001
 43
0.00000001
 12
1.0
 22
0.0
 32
0.0
 13
1.0
 23
0.0
 33
0.0
 40
0.0
 40
0.0
 40
0.0
 40
0.0
 40
0.5
 40
0.5
 40
1.0
 40
1.0
 40
1.0
 40
1.0
 10
136.2141637765764
 20
218.5577703425105
 30
0.0
 10
137.0109431001786
 20
218.8830541392481
 30
0.0
 10
137.8270014357138
 20
219.1558810964472
 30
0.0
 10
139.4628127686578
 20
219.5289340589899
 30
0.0
 10
140.2852962961023
 20
219.629567112235
 30
0.0
 10
141.1131432621427
 20
219.629567112235
 30
0.0
  0
LINE
  5
2F9
330
1F
100
AcDbEntity
  8
0
  6
Continuous
 62
     7
370
    15
100
AcDbLine
 10
136.2141600841
 20
218.5577713924
 30
0.0
 11
136.2141600841
 21
205.6295686441
 31
0.0
  0
SPLINE
  5
2FA
330
1F
100
AcDbEntity
  8
0
  6
Continuous
 62
     7
370
    15
100
AcDbSpline
210
0.0
220
0.0
230
1.0
 70
     8
 71
     3
 72
    10
 73
     6
 74
     0
 42
0.00000001
 43
0.00000001
 12
1.0
 22
0.0
 32
0.0
 13
1.0
 23
0.0
 33
0.0
 40
0.0
 40
0.0
 40
0.0
 40
0.0
 40
0.5
 40
0.5
 40
1.0
 40
1.0
 40
1.0
 40
1.0
 10
226.2751805191395
 20
-11.29863611804091
 30
0.0
 10
226.7679849675995
 20
-11.6258098791524
 30
0.0
 10
227.2643890492902
 20
-11.89535242307072
 30
0.0
 10
228.2675750664792
 20
-12.26828493132898
 30
0.0
 10
228.7744345775197
 20
-12.37043288776515
 30
0.0
 10
229.2876742275948
 20
-12.37043288776513
 30
0.0
  0
LINE
  5
2FB
330
1F
100
AcDbEntity
  8
0
  6
Continuous
 62
     7
370
    15
100
AcDbLine
 10
219.3658172184
 20
-12.3704335612
 30
0.0
 11
229.287673443
 21
-12.3704335612
 31
0.0
  0
SPLINE
  5
2FC
330
1F
100
AcDbEntity
  8
0
  6
Continuous
 62
     7
370
    15
100
AcDbSpline
210
0.0
220
0.0
230
1.0
 70
     8
 71
     3
 72
    12
 73
     8
 74
     0
 42
0.00000001
 43
0.00000001
 12
1.0
 22
0.0
 32
0.0
 13
1.0
 23
0.0
 33
0.0
 40
0.0
 40
0.0
 40
0.0
 40
0.0
 40
0.2500000000000004
 40
0.2500000000000004
 40
0.5000000000000009
 40
0.5000000000000009
 40
1.0
 40
1.0
 40
1.0
 40
1.0
 10
161.1895345518501
 20
219.629567112235
 30
0.0
 10
161.0373558218247
 20
219.629567112235
 30
0.0
 10
160.8844943430077
 20
219.6042338589418
 30
0.0
 10
160.5821024969807
 20
219.506196971865
 30
0.0
 10
160.431917951308
 20
219.4335876029362
 30
0.0
 10
159.9840317159809
 20
219.1535409040022
 30
0.0
 10
159.6889870491273
 20
218.8841270750964
 30
0.0
 10
159.3963836075139
 20
218.5577703425106
 30
0.0
  0
LINE
  5
2FD
330
1F
100
AcDbEntity
  8
0
  6
Continuous
 62
     7
370
    15
100
AcDbLine
 10
161.1895344252
 20
219.6295672136
 30
0.0
 11
152.7042544478
 21
219.6295672136
 31
0.0
  0
SPLINE
  5
2FE
330
1F
100
AcDbEntity
  8
0
  6
Continuous
 62
     7
370
    15
100
AcDbSpline
210
0.0
220
0.0
230
1.0
 70
     8
 71
     3
 72
    10
 73
     6
 74
     0
 42
0.00000001
 43
0.00000001
 12
1.0
 22
0.0
 32
0.0
 13
1.0
 23
0.0
 33
0.0
 40
0.0
 40
0.0
 40
0.0
 40
0.0
 40
0.5
 40
0.5
 40
1.0
 40
1.0
 40
1.0
 40
1.0
 10
204.6627169881534
 20
-11.29863611804066
 30
0.0
 10
205.2965111646462
 20
-11.62391991477824
 30
0.0
 10
205.9456407359337
 20
-11.89674687197737
 30
0.0
 10
207.2468387790426
 20
-12.26979983452009
 30
0.0
 10
207.9010792374909
 20
-12.37043288776515
 30
0.0
 10
208.5595860166723
 20
-12.37043288776513
 30
0.0
  0
LINE
  5
2FF
330
1F
100
AcDbEntity
  8
0
  6
Continuous
 62
     7
370
    15
100
AcDbLine
 10
204.6627171369
 20
-11.29863774
 30
0.0
 11
204.6627171369
 21
1.6295650083
 31
0.0
  0
SPLINE
  5
300
330
1F
100
AcDbEntity
  8
0
  6
Continuous
 62
     7
370
    15
100
AcDbSpline
210
0.0
220
0.0
230
1.0
 70
     8
 71
     3
 72
    12
 73
     8
 74
     0
 42
0.00000001
 43
0.00000001
 12
1.0
 22
0.0
 32
0.0
 13
1.0
 23
0.0
 33
0.0
 40
0.0
 40
0.0
 40
0.0
 40
0.0
 40
0.2499999999999977
 40
0.2499999999999977
 40
0.4999999999999953
 40
0.4999999999999953
 40
1.0
 40
1.0
 40
1.0
 40
1.0
 10
228.873747307515
 20
219.629567112235
 30
0.0
 10
228.5797605764282
 20
219.629567112235
 30
0.0
 10
228.2844548759601
 20
219.6042338589418
 30
0.0
 10
227.7002786884865
 20
219.506196971865
 30
0.0
 10
227.4101444257371
 20
219.4335876029362
 30
0.0
 10
226.5448946618535
 20
219.1535409040022
 30
0.0
 10
225.974912134608
 20
218.8841270750964
 30
0.0
 10
225.4096456923772
 20
218.5577703425106
 30
0.0
  0
SPLINE
  5
301
330
1F
100
AcDbEntity
  8
0
  6
Continuous
 62
     7
370
    15
100
AcDbSpline
210
0.0
220
0.0
230
1.0
 70
     8
 71
     3
 72
    12
 73
     8
 74
     0
 42
0.00000001
 43
0.00000001
 12
1.0
 22
0.0
 32
0.0
 13
1.0
 23
0.0
 33
0.0
 40
0.0
 40
0.0
 40
0.0
 40
0.0
 40
0.2500000000000002
 40
0.2500000000000002
 40
0.5000000000000004
 40
0.5000000000000004
 40
1.0
 40
1.0
 40
1.0
 40
1.0
 10
218.4814424621017
 20
219.629567112235
 30
0.0
 10
219.0671664582199
 20
219.629567112235
 30
0.0
 10
219.6547666024267
 20
219.6046757047749
 30
0.0
 10
220.8336707592386
 20
219.5057525804912
 30
0.0
 10
221.4188120181494
 20
219.4322320633011
 30
0.0
 10
223.1544474855022
 20
219.1504774151477
 30
0.0
 10
224.2893938552048
 20
218.8811591923863
 30
0.0
 10
225.4096456923772
 20
218.5577703425105
 30
0.0
  0
LINE
  5
302
330
1F
100
AcDbEntity
  8
0
  6
Continuous
 62
     7
370
    15
100
AcDbLine
 10
228.8737471247
 20
219.6295672136
 30
0.0
 11
218.4814426148
 21
219.6295672136
 31
0.0
  0
SPLINE
  5
303
330
1F
100
AcDbEntity
  8
0
  6
Continuous
 62
     7
370
    15
100
AcDbSpline
210
0.0
220
0.0
230
1.0
 70
     8
 71
     3
 72
    10
 73
     6
 74
     0
 42
0.00000001
 43
0.00000001
 12
1.0
 22
0.0
 32
0.0
 13
1.0
 23
0.0
 33
0.0
 40
0.0
 40
0.0
 40
0.0
 40
0.0
 40
0.5
 40
0.5
 40
1.0
 40
1.0
 40
1.0
 40
1.0
 10
211.5532392318262
 20
218.5577703425105
 30
0.0
 10
212.6800553574829
 20
218.8830541392481
 30
0.0
 10
213.8341361232844
 20
219.1558810964471
 30
0.0
 10
216.1475226958175
 20
219.5289340589899
 30
0.0
 10
217.310690055158
 20
219.629567112235
 30
0.0
 10
218.4814424621017
 20
219.629567112235
 30
0.0
  0
LINE
  5
304
330
1F
100
AcDbEntity
  8
0
  6
Continuous
 62
     7
370
    15
100
AcDbLine
 10
225.4096462423
 20
218.5577713924
 30
0.0
 11
225.4096462423
 21
205.6295686441
 31
0.0
  0
LINE
  5
305
330
1F
100
AcDbEntity
  8
0
  6
Continuous
 62
     7
370
    15
100
AcDbLine
 10
211.5532389873
 20
218.5577713924
 30
0.0
 11
211.5532389873
 21
205.6295686441
 31
0.0
  0
SPLINE
  5
306
330
1F
100
AcDbEntity
  8
0
  6
Continuous
 62
     7
370
    15
100
AcDbSpline
210
0.0
220
0.0
230
1.0
 70
     8
 71
     3
 72
    10
 73
     6
 74
     0
 42
0.00000001
 43
0.00000001
 12
1.0
 22
0.0
 32
0.0
 13
1.0
 23
0.0
 33
0.0
 40
0.0
 40
0.0
 40
0.0
 40
0.0
 40
0.4999999999999996
 40
0.4999999999999996
 40
1.0
 40
1.0
 40
1.0
 40
1.0
 10
232.3378489226529
 20
218.5577703425107
 30
0.0
 10
231.7711673455043
 20
218.8849441036223
 30
0.0
 10
231.2003465081631
 20
219.1544866475405
 30
0.0
 10
230.0467712184707
 20
219.5274191557988
 30
0.0
 10
229.4639275610995
 20
219.6295671122349
 30
0.0
 10
228.873747307515
 20
219.629567112235
 30
0.0
  0
LINE
  5
307
330
1F
100
AcDbEntity
  8
0
  6
Continuous
 62
     7
370
    15
100
AcDbLine
 10
232.3378480071
 20
218.5577713924
 30
0.0
 11
232.3378480071
 21
205.6295686441
 31
0.0
  0
SPLINE
  5
308
330
1F
100
AcDbEntity
  8
0
  6
Continuous
 62
     7
370
    15
100
AcDbSpline
210
0.0
220
0.0
230
1.0
 70
     8
 71
     3
 72
    10
 73
     6
 74
     0
 42
0.00000001
 43
0.00000001
 12
1.0
 22
0.0
 32
0.0
 13
1.0
 23
0.0
 33
0.0
 40
0.0
 40
0.0
 40
0.0
 40
0.0
 40
0.5
 40
0.5
 40
1.0
 40
1.0
 40
1.0
 40
1.0
 10
211.5532392318262
 20
218.5577703425107
 30
0.0
 10
210.9865576546776
 20
218.8849441036223
 30
0.0
 10
210.4157368173365
 20
219.1544866475405
 30
0.0
 10
209.2621615276441
 20
219.5274191557988
 30
0.0
 10
208.679317870273
 20
219.629567112235
 30
0.0
 10
208.0891376166885
 20
219.629567112235
 30
0.0
  0
LINE
  5
309
330
1F
100
AcDbEntity
  8
0
  6
Continuous
 62
     7
370
    15
100
AcDbLine
 10
218.4814426148
 20
219.6295672136
 30
0.0
 11
208.0891371736
 21
219.6295672136
 31
0.0
  0
SPLINE
  5
30A
330
1F
100
AcDbEntity
  8
0
  6
Continuous
 62
     7
370
    15
100
AcDbSpline
210
0.0
220
0.0
230
1.0
 70
     8
 71
     3
 72
    12
 73
     8
 74
     0
 42
0.00000001
 43
0.00000001
 12
1.0
 22
0.0
 32
0.0
 13
1.0
 23
0.0
 33
0.0
 40
0.0
 40
0.0
 40
0.0
 40
0.0
 40
0.2500000000000003
 40
0.2500000000000003
 40
0.5000000000000006
 40
0.5000000000000006
 40
1.0
 40
1.0
 40
1.0
 40
1.0
 10
208.0891376166885
 20
219.629567112235
 30
0.0
 10
207.7951508856017
 20
219.629567112235
 30
0.0
 10
207.4998451851336
 20
219.6042338589418
 30
0.0
 10
206.91566899766
 20
219.506196971865
 30
0.0
 10
206.6255347349106
 20
219.4335876029362
 30
0.0
 10
205.7602849710271
 20
219.1535409040022
 30
0.0
 10
205.1903024437815
 20
218.8841270750964
 30
0.0
 10
204.6250360015508
 20
218.5577703425106
 30
0.0
  0
LINE
  5
30B
330
1F
100
AcDbEntity
  8
0
  6
Continuous
 62
     7
370
    15
100
AcDbLine
 10
204.6250358255
 20
218.5577713924
 30
0.0
 11
204.6250358255
 21
205.6295686441
 31
0.0
  0
SPLINE
  5
30C
330
1F
100
AcDbEntity
  8
0
  6
Continuous
 62
     7
370
    15
100
AcDbSpline
210
0.0
220
0.0
230
1.0
 70
     8
 71
     3
 72
    12
 73
     8
 74
     0
 42
0.00000001
 43
0.00000001
 12
1.0
 22
0.0
 32
0.0
 13
1.0
 23
0.0
 33
0.0
 40
0.0
 40
0.0
 40
0.0
 40
0.0
 40
0.250000000000003
 40
0.250000000000003
 40
0.500000000000006
 40
0.500000000000006
 40
1.0
 40
1.0
 40
1.0
 40
1.0
 10
229.2876742275948
 20
-12.37043288776513
 30
0.0
 10
229.5433345043887
 20
-12.37043288776513
 30
0.0
 10
229.8001417991989
 20
-12.34509963447192
 30
0.0
 10
230.3081601210932
 20
-12.24706274739518
 30
0.0
 10
230.5604701680389
 20
-12.17445337846637
 30
0.0
 10
231.3129190738537
 20
-11.89440667953234
 30
0.0
 10
231.8085941342368
 20
-11.62499285062663
 30
0.0
 10
232.3001679360502
 20
-11.2986361180408
 30
0.0
  0
LINE
  5
30D
330
1F
100
AcDbEntity
  8
0
  6
Continuous
 62
     7
370
    15
100
AcDbLine
 10
232.3001666957
 20
-11.29863774
 30
0.0
 11
232.3001666957
 21
1.6295650083
 31
0.0
  0
SPLINE
  5
30E
330
1F
100
AcDbEntity
  8
0
  6
Continuous
 62
     7
370
    15
100
AcDbSpline
210
0.0
220
0.0
230
1.0
 70
     8
 71
     3
 72
    12
 73
     8
 74
     0
 42
0.00000001
 43
0.00000001
 12
1.0
 22
0.0
 32
0.0
 13
1.0
 23
0.0
 33
0.0
 40
0.0
 40
0.0
 40
0.0
 40
0.0
 40
0.2500000000000026
 40
0.2500000000000026
 40
0.5000000000000051
 40
0.5000000000000051
 40
1.0
 40
1.0
 40
1.0
 40
1.0
 10
161.3869069680672
 20
-12.37043288776513
 30
0.0
 10
161.2774184787356
 20
-12.37043288776518
 30
0.0
 10
161.1675792839159
 20
-12.34554148030509
 30
0.0
 10
160.9472085358306
 20
-12.24661835602142
 30
0.0
 10
160.8378289766725
 20
-12.17309783883128
 30
0.0
 10
160.5133892975572
 20
-11.89134319067794
 30
0.0
 10
160.3012355112779
 20
-11.62202496791648
 30
0.0
 10
160.0918285514542
 20
-11.29863611804063
 30
0.0
  0
LINE
  5
30F
330
1F
100
AcDbEntity
  8
0
  6
Continuous
 62
     7
370
    15
100
AcDbLine
 10
153.5500480825
 20
-12.3704335612
 30
0.0
 11
161.3869077557
 21
-12.3704335612
 31
0.0
  0
SPLINE
  5
310
330
1F
100
AcDbEntity
  8
0
  6
Continuous
 62
     7
370
    15
100
AcDbSpline
210
0.0
220
0.0
230
1.0
 70
     8
 71
     3
 72
    10
 73
     6
 74
     0
 42
0.00000001
 43
0.00000001
 12
1.0
 22
0.0
 32
0.0
 13
1.0
 23
0.0
 33
0.0
 40
0.0
 40
0.0
 40
0.0
 40
0.0
 40
0.5
 40
0.5
 40
1.0
 40
1.0
 40
1.0
 40
1.0
 10
162.9826854961863
 20
218.5577703425107
 30
0.0
 10
162.6893495268367
 20
218.8849441036223
 30
0.0
 10
162.3938709187462
 20
219.1544866475405
 30
0.0
 10
161.796736408882
 20
219.5274191557988
 30
0.0
 10
161.4950343311923
 20
219.629567112235
 30
0.0
 10
161.1895345518501
 20
219.629567112235
 30
0.0
  0
LINE
  5
311
330
1F
100
AcDbEntity
  8
0
  6
Continuous
 62
     7
370
    15
100
AcDbLine
 10
162.9826842839
 20
218.5577713924
 30
0.0
 11
162.9826842839
 21
205.6295686441
 31
0.0
  0
SPLINE
  5
312
330
1F
100
AcDbEntity
  8
0
  6
Continuous
 62
     7
370
    15
100
AcDbSpline
210
0.0
220
0.0
230
1.0
 70
     8
 71
     3
 72
    11
 73
     7
 74
     0
 42
0.00000001
 43
0.00000001
 12
1.0
 22
0.0
 32
0.0
 13
1.0
 23
0.0
 33
0.0
 40
0.0
 40
0.0
 40
0.0
 40
0.0
 40
0.1853201787599618
 40
0.4551062731157537
 40
0.7275385683931694
 40
1.0
 40
1.0
 40
1.0
 40
1.0
 10
137.3831226521873
 20
-12.23824536028076
 30
0.0
 10
137.3286373663002
 20
-12.20651846412399
 30
0.0
 10
137.1948332896711
 20
-12.12860406988983
 30
0.0
 10
136.9830280169677
 20
-11.92294702934693
 30
0.0
 10
136.7477480686365
 20
-11.64482693142499
 30
0.0
 10
136.5924958014299
 20
-11.4140382507146
 30
0.0
 10
136.5148655170345
 20
-11.2986377400415
 30
0.0
  0
LINE
  5
313
330
1F
100
AcDbEntity
  8
0
  6
Continuous
 62
     7
370
    15
100
AcDbLine
 10
137.598425805
 20
-12.3704335612
 30
0.0
 11
141.7615643734
 21
-12.3704335612
 31
0.0
  0
SPLINE
  5
314
330
1F
100
AcDbEntity
  8
0
  6
Continuous
 62
     7
370
    15
100
AcDbSpline
210
0.0
220
0.0
230
1.0
 70
     8
 71
     3
 72
    10
 73
     6
 74
     0
 42
0.00000001
 43
0.00000001
 12
1.0
 22
0.0
 32
0.0
 13
1.0
 23
0.0
 33
0.0
 40
0.0
 40
0.0
 40
0.0
 40
0.0
 40
0.5
 40
0.5
 40
1.0
 40
1.0
 40
1.0
 40
1.0
 10
162.6819853846802
 20
-11.29863611804066
 30
0.0
 10
162.4713513724658
 20
-11.62391991477824
 30
0.0
 10
162.2556208228355
 20
-11.89674687197737
 30
0.0
 10
161.823183014678
 20
-12.26979983452009
 30
0.0
 10
161.6057539220371
 20
-12.37043288776515
 30
0.0
 10
161.3869069680672
 20
-12.37043288776513
 30
0.0
  0
LINE
  5
315
330
1F
100
AcDbEntity
  8
0
  6
Continuous
 62
     7
370
    15
100
AcDbLine
 10
162.6819863016
 20
-11.29863774
 30
0.0
 11
162.6819863016
 21
1.6295650083
 31
0.0
  0
SPLINE
  5
316
330
1F
100
AcDbEntity
  8
0
  6
Continuous
 62
     7
370
    15
100
AcDbSpline
210
0.0
220
0.0
230
1.0
 70
     8
 71
     3
 72
    11
 73
     7
 74
     0
 42
0.00000001
 43
0.00000001
 12
1.0
 22
0.0
 32
0.0
 13
1.0
 23
0.0
 33
0.0
 40
0.0
 40
0.0
 40
0.0
 40
0.0
 40
0.3051759077223323
 40
0.6104370495174001
 40
0.9155409169219688
 40
1.0
 40
1.0
 40
1.0
 40
1.0
 10
136.2141600841426
 20
218.5577713924391
 30
0.0
 10
136.3106799741267
 20
218.6619197721428
 30
0.0
 10
136.5037467116072
 20
218.8702456196609
 30
0.0
 10
136.7969302603689
 20
219.1270005946848
 30
0.0
 10
137.0207951676054
 20
219.300170568733
 30
0.0
 10
137.1476056143198
 20
219.3650253273186
 30
0.0
 10
137.1750987166309
 20
219.379086144541
 30
0.0
  0
LINE
  5
317
330
1F
100
AcDbEntity
  8
0
  6
Continuous
 62
     7
370
    15
100
AcDbLine
 10
141.1131440693
 20
219.6295672136
 30
0.0
 11
137.598425805
 21
219.6295672136
 31
0.0
  0
LINE
  5
318
330
1F
100
AcDbEntity
  8
0
  6
Continuous
 62
     7
370
    15
100
AcDbLine
 10
157.598425358
 20
268.6295696574
 30
0.0
 11
141.5984264606
 21
268.6295696574
 31
0.0
  0
LINE
  5
319
330
1F
100
AcDbEntity
  8
0
  6
Continuous
 62
     7
370
    15
100
AcDbLine
 10
157.598425358
 20
-61.3704285544
 30
0.0
 11
141.5984264606
 21
-61.3704285544
 31
0.0
  0
LINE
  5
31A
330
1F
100
AcDbEntity
  8
0
  6
Continuous
 62
     7
370
    15
100
AcDbLine
 10
210.9130050087
 20
268.6295696574
 30
0.0
 11
210.4814422348
 21
268.6295696574
 31
0.0
  0
LINE
  5
31B
330
1F
100
AcDbEntity
  8
0
  6
Continuous
 62
     7
370
    15
100
AcDbLine
 10
226.4814420635
 20
268.6295696574
 30
0.0
 11
210.9130050087
 21
268.6295696574
 31
0.0
  0
LINE
  5
31C
330
1F
100
AcDbEntity
  8
0
  6
Continuous
 62
     7
370
    15
100
AcDbLine
 10
210.9130050087
 20
-61.3704285544
 30
0.0
 11
210.4814422348
 21
-61.3704285544
 31
0.0
  0
LINE
  5
31D
330
1F
100
AcDbEntity
  8
0
  6
Continuous
 62
     7
370
    15
100
AcDbLine
 10
226.4814420635
 20
-61.3704285544
 30
0.0
 11
210.9130050087
 21
-61.3704285544
 31
0.0
  0
SPLINE
  5
31E
330
1F
100
AcDbEntity
  8
0
  6
Continuous
 62
     7
370
    15
100
AcDbSpline
210
0.0
220
0.0
230
1.0
 70
     8
 71
     3
 72
     9
 73
     5
 74
     0
 42
0.00000001
 43
0.00000001
 12
1.0
 22
0.0
 32
0.0
 13
1.0
 23
0.0
 33
0.0
 40
0.0
 40
0.0
 40
0.0
 40
0.0
 40
0.063341679548561
 40
1.0
 40
1.0
 40
1.0
 40
1.0
 10
205.1557891102278
 20
-11.60373901548553
 30
0.0
 10
205.1452890960844
 20
-11.59811319893259
 30
0.0
 10
204.9795212443591
 20
-11.50929622102725
 30
0.0
 10
204.8159383840736
 20
-11.40052200992295
 30
0.0
 10
204.662717136904
 20
-11.2986377400415
 30
0.0
  0
LINE
  5
31F
330
1F
100
AcDbEntity
  8
0
  6
Continuous
 62
     7
370
    15
100
AcDbLine
 10
206.4814425105
 20
-12.3704335612
 30
0.0
 11
208.5595863903
 21
-12.3704335612
 31
0.0
  0
LINE
  5
320
330
1F
100
AcDbEntity
  8
0
  6
Continuous
 62
     7
370
    15
100
AcDbLine
 10
230.4814427191
 20
219.6295672136
 30
0.0
 11
228.8737471247
 21
219.6295672136
 31
0.0
  0
LINE
  5
321
330
1F
100
AcDbEntity
  8
0
  6
Continuous
 62
     7
370
    15
100
AcDbLine
 10
208.0891371736
 20
219.6295672136
 30
0.0
 11
206.4814425105
 21
219.6295672136
 31
0.0
  0
LINE
  5
322
330
1F
100
AcDbEntity
  8
0
  6
Continuous
 62
     7
370
    15
100
AcDbLine
 10
229.287673443
 20
-12.3704335612
 30
0.0
 11
230.4814427191
 21
-12.3704335612
 31
0.0
  0
LINE
  5
323
330
1F
100
AcDbEntity
  8
0
  6
Continuous
 62
     7
370
    15
100
AcDbLine
 10
161.5984260136
 20
219.6295672136
 30
0.0
 11
161.1895344252
 21
219.6295672136
 31
0.0
  0
LINE
  5
324
330
1F
100
AcDbEntity
  8
0
  6
Continuous
 62
     7
370
    15
100
AcDbLine
 10
161.3869077557
 20
-12.3704335612
 30
0.0
 11
161.5984260136
 21
-12.3704335612
 31
0.0
  0
LINE
  5
325
330
1F
100
AcDbEntity
  8
0
  6
Continuous
 62
     7
370
    15
100
AcDbLine
 10
119.9578723902
 20
141.1045124794
 30
0.0
 11
141.5984264606
 21
141.1045124794
 31
0.0
  0
LINE
  5
326
330
1F
100
AcDbEntity
  8
0
  6
Continuous
 62
     7
370
    15
100
AcDbLine
 10
157.598425358
 20
141.1045124794
 30
0.0
 11
210.4814422348
 21
141.1045124794
 31
0.0
  0
LINE
  5
327
330
1F
100
AcDbEntity
  8
0
  6
Continuous
 62
     7
370
    15
100
AcDbLine
 10
226.4814420635
 20
141.1045124794
 30
0.0
 11
248.1219961339
 21
141.1045124794
 31
0.0
  0
LINE
  5
328
330
1F
100
AcDbEntity
  8
0
  6
Continuous
 62
     7
370
    15
100
AcDbLine
 10
83.6407772297
 20
205.6295686441
 30
0.0
 11
118.1407726401
 21
205.6295686441
 31
0.0
  0
LINE
  5
329
330
1F
100
AcDbEntity
  8
0
  6
Continuous
 62
     7
370
    15
100
AcDbLine
 10
110.593289792
 20
1.6295650083
 30
0.0
 11
83.6407772297
 21
1.6295650083
 31
0.0
  0
LINE
  5
32A
330
1F
100
AcDbEntity
  8
0
  6
Continuous
 62
     7
370
    15
100
AcDbLine
 10
118.1407726401
 20
1.6295650083
 30
0.0
 11
110.593289792
 21
1.6295650083
 31
0.0
  0
LINE
  5
32B
330
1F
100
AcDbEntity
  8
0
  6
Continuous
 62
     7
370
    15
100
AcDbLine
 10
279.3866849536
 20
205.6295686441
 30
0.0
 11
284.4390950197
 21
205.6295686441
 31
0.0
  0
LINE
  5
32C
330
1F
100
AcDbEntity
  8
0
  6
Continuous
 62
     7
370
    15
100
AcDbLine
 10
249.9390921587
 20
205.6295686441
 30
0.0
 11
279.3866849536
 21
205.6295686441
 31
0.0
  0
LINE
  5
32D
330
1F
100
AcDbEntity
  8
0
  6
Continuous
 62
     7
370
    15
100
AcDbLine
 10
284.4390950197
 20
1.6295650083
 30
0.0
 11
249.9390921587
 21
1.6295650083
 31
0.0
  0
SPLINE
  5
32E
330
1F
100
AcDbEntity
  8
0
  6
Continuous
 62
     7
370
    15
100
AcDbSpline
210
0.0
220
0.0
230
1.0
 70
     8
 71
     3
 72
    10
 73
     6
 74
     0
 42
0.00000001
 43
0.00000001
 12
1.0
 22
0.0
 32
0.0
 13
1.0
 23
0.0
 33
0.0
 40
0.0
 40
0.0
 40
0.0
 40
0.0
 40
0.5
 40
0.5
 40
1.0
 40
1.0
 40
1.0
 40
1.0
 10
270.77539336393
 20
218.5577703425107
 30
0.0
 10
269.68064862263
 20
218.8849441036223
 30
0.0
 10
268.5779074446864
 20
219.1544866475405
 30
0.0
 10
266.3493711149208
 20
219.5274191557988
 30
0.0
 10
265.2234036322337
 20
219.629567112235
 30
0.0
 10
264.0832629340275
 20
219.629567112235
 30
0.0
  0
LINE
  5
32F
330
1F
100
AcDbEntity
  8
0
  6
Continuous
 62
     7
370
    15
100
AcDbLine
 10
275.6743735665
 20
219.6295672136
 30
0.0
 11
264.0832594627
 21
219.6295672136
 31
0.0
  0
SPLINE
  5
330
330
1F
100
AcDbEntity
  8
0
  6
Continuous
 62
     7
370
    15
100
AcDbSpline
210
0.0
220
0.0
230
1.0
 70
     8
 71
     3
 72
    10
 73
     6
 74
     0
 42
0.00000001
 43
0.00000001
 12
1.0
 22
0.0
 32
0.0
 13
1.0
 23
0.0
 33
0.0
 40
0.0
 40
0.0
 40
0.0
 40
0.0
 40
0.5
 40
0.5
 40
1.0
 40
1.0
 40
1.0
 40
1.0
 10
270.7753933639299
 20
218.5577703425105
 30
0.0
 10
271.5721726875322
 20
218.8830541392481
 30
0.0
 10
272.3882310230674
 20
219.1558810964472
 30
0.0
 10
274.0240423560114
 20
219.5289340589899
 30
0.0
 10
274.846525883456
 20
219.629567112235
 30
0.0
 10
275.6743728494964
 20
219.629567112235
 30
0.0
  0
SPLINE
  5
331
330
1F
100
AcDbEntity
  8
0
  6
Continuous
 62
     7
370
    15
100
AcDbSpline
210
0.0
220
0.0
230
1.0
 70
     8
 71
     3
 72
    12
 73
     8
 74
     0
 42
0.00000001
 43
0.00000001
 12
1.0
 22
0.0
 32
0.0
 13
1.0
 23
0.0
 33
0.0
 40
0.0
 40
0.0
 40
0.0
 40
0.0
 40
0.2500000000000002
 40
0.2500000000000002
 40
0.5000000000000004
 40
0.5000000000000004
 40
1.0
 40
1.0
 40
1.0
 40
1.0
 10
264.0832629340275
 20
219.629567112235
 30
0.0
 10
263.5153241817415
 20
219.629567112235
 30
0.0
 10
262.9448373762764
 20
219.6042338589418
 30
0.0
 10
261.8162956431088
 20
219.506196971865
 30
0.0
 10
261.2557992881468
 20
219.4335876029362
 30
0.0
 10
259.5842651018955
 20
219.1535409040022
 30
0.0
 10
258.4831434146955
 20
218.8841270750964
 30
0.0
 10
257.391132504125
 20
218.5577703425106
 30
0.0
  0
LINE
  5
332
330
1F
100
AcDbEntity
  8
0
  6
Continuous
 62
     7
370
    15
100
AcDbLine
 10
270.7753933066
 20
218.5577713924
 30
0.0
 11
270.7753933066
 21
205.6295686441
 31
0.0
  0
LINE
  5
333
330
1F
100
AcDbEntity
  8
0
  6
Continuous
 62
     7
370
    15
100
AcDbLine
 10
257.3911330694
 20
218.5577713924
 30
0.0
 11
257.3911330694
 21
205.6295686441
 31
0.0
  0
SPLINE
  5
334
330
1F
100
AcDbEntity
  8
0
  6
Continuous
 62
     7
370
    15
100
AcDbSpline
210
0.0
220
0.0
230
1.0
 70
     8
 71
     3
 72
    12
 73
     8
 74
     0
 42
0.00000001
 43
0.00000001
 12
1.0
 22
0.0
 32
0.0
 13
1.0
 23
0.0
 33
0.0
 40
0.0
 40
0.0
 40
0.0
 40
0.0
 40
0.2500000000000015
 40
0.2500000000000015
 40
0.500000000000003
 40
0.500000000000003
 40
1.0
 40
1.0
 40
1.0
 40
1.0
 10
106.8907756232164
 20
219.629567112235
 30
0.0
 10
106.3815756682231
 20
219.629567112235
 30
0.0
 10
105.8700911912475
 20
219.6042338589418
 30
0.0
 10
104.8582683539715
 20
219.506196971865
 30
0.0
 10
104.3557410698729
 20
219.4335876029362
 30
0.0
 10
102.8570845175895
 20
219.1535409040022
 30
0.0
 10
101.8698458209738
 20
218.8841270750964
 30
0.0
 10
100.8907756232164
 20
218.5577703425106
 30
0.0
  0
SPLINE
  5
335
330
1F
100
AcDbEntity
  8
0
  6
Continuous
 62
     7
370
    15
100
AcDbSpline
210
0.0
220
0.0
230
1.0
 70
     8
 71
     3
 72
    10
 73
     6
 74
     0
 42
0.00000001
 43
0.00000001
 12
1.0
 22
0.0
 32
0.0
 13
1.0
 23
0.0
 33
0.0
 40
0.0
 40
0.0
 40
0.0
 40
0.0
 40
0.5
 40
0.5
 40
1.0
 40
1.0
 40
1.0
 40
1.0
 10
100.8907756232165
 20
218.5577703425107
 30
0.0
 10
99.90925433988193
 20
218.8849441036223
 30
0.0
 10
98.92056364758797
 20
219.1544866475405
 30
0.0
 10
96.9225126354848
 20
219.5274191557988
 30
0.0
 10
95.91299780804869
 20
219.629567112235
 30
0.0
 10
94.89077562321646
 20
219.629567112235
 30
0.0
  0
LINE
  5
336
330
1F
100
AcDbEntity
  8
0
  6
Continuous
 62
     7
370
    15
100
AcDbLine
 10
106.8907759184
 20
219.6295672136
 30
0.0
 11
94.8907739514
 21
219.6295672136
 31
0.0
  0
SPLINE
  5
337
330
1F
100
AcDbEntity
  8
0
  6
Continuous
 62
     7
370
    15
100
AcDbSpline
210
0.0
220
0.0
230
1.0
 70
     8
 71
     3
 72
    10
 73
     6
 74
     0
 42
0.00000001
 43
0.00000001
 12
1.0
 22
0.0
 32
0.0
 13
1.0
 23
0.0
 33
0.0
 40
0.0
 40
0.0
 40
0.0
 40
0.0
 40
0.5
 40
0.5
 40
1.0
 40
1.0
 40
1.0
 40
1.0
 10
112.8907756232165
 20
218.5577703425107
 30
0.0
 10
111.9092543398819
 20
218.8849441036223
 30
0.0
 10
110.920563647588
 20
219.1544866475405
 30
0.0
 10
108.9225126354848
 20
219.5274191557988
 30
0.0
 10
107.9129978080487
 20
219.629567112235
 30
0.0
 10
106.8907756232164
 20
219.629567112235
 30
0.0
  0
LINE
  5
338
330
1F
100
AcDbEntity
  8
0
  6
Continuous
 62
     7
370
    15
100
AcDbLine
 10
112.8907731766
 20
218.5577713924
 30
0.0
 11
112.8907731766
 21
205.6295686441
 31
0.0
  0
LINE
  5
339
330
1F
100
AcDbEntity
  8
0
  6
Continuous
 62
     7
370
    15
100
AcDbLine
 10
100.8907786602
 20
218.5577713924
 30
0.0
 11
100.8907786602
 21
205.6295686441
 31
0.0
  0
SPLINE
  5
33A
330
1F
100
AcDbEntity
  8
0
  6
Continuous
 62
     7
370
    15
100
AcDbSpline
210
0.0
220
0.0
230
1.0
 70
     8
 71
     3
 72
    12
 73
     8
 74
     0
 42
0.00000001
 43
0.00000001
 12
1.0
 22
0.0
 32
0.0
 13
1.0
 23
0.0
 33
0.0
 40
0.0
 40
0.0
 40
0.0
 40
0.0
 40
0.2500000000000011
 40
0.2500000000000011
 40
0.5000000000000021
 40
0.5000000000000021
 40
1.0
 40
1.0
 40
1.0
 40
1.0
 10
94.89077562321646
 20
219.629567112235
 30
0.0
 10
94.38157566822308
 20
219.629567112235
 30
0.0
 10
93.87009119124757
 20
219.6042338589418
 30
0.0
 10
92.85826835397148
 20
219.506196971865
 30
0.0
 10
92.35574106987293
 20
219.4335876029362
 30
0.0
 10
90.85708451758956
 20
219.1535409040022
 30
0.0
 10
89.86984582097385
 20
218.8841270750964
 30
0.0
 10
88.89077562321646
 20
218.5577703425106
 30
0.0
  0
LINE
  5
33B
330
1F
100
AcDbEntity
  8
0
  6
Continuous
 62
     7
370
    15
100
AcDbLine
 10
88.8907766932
 20
218.5577713924
 30
0.0
 11
88.8907766932
 21
205.6295686441
 31
0.0
  0
SPLINE
  5
33C
330
1F
100
AcDbEntity
  8
0
  6
Continuous
 62
     7
370
    15
100
AcDbSpline
210
0.0
220
0.0
230
1.0
 70
     8
 71
     3
 72
    12
 73
     8
 74
     0
 42
0.00000001
 43
0.00000001
 12
1.0
 22
0.0
 32
0.0
 13
1.0
 23
0.0
 33
0.0
 40
0.0
 40
0.0
 40
0.0
 40
0.0
 40
0.25
 40
0.25
 40
0.5
 40
0.5
 40
1.0
 40
1.0
 40
1.0
 40
1.0
 10
95.6729834626903
 20
-12.37043288776513
 30
0.0
 10
96.20246492137419
 20
-12.37043288776513
 30
0.0
 10
96.73432189486253
 20
-12.34509963447197
 30
0.0
 10
97.7864457738161
 20
-12.2470627473952
 30
0.0
 10
98.3089887882129
 20
-12.17445337846634
 30
0.0
 10
99.8673370354736
 20
-11.89440667953237
 30
0.0
 10
100.8938975840896
 20
-11.62499285062654
 30
0.0
 10
101.9119642814232
 20
-11.29863611804077
 30
0.0
  0
SPLINE
  5
33D
330
1F
100
AcDbEntity
  8
0
  6
Continuous
 62
     7
370
    15
100
AcDbSpline
210
0.0
220
0.0
230
1.0
 70
     8
 71
     3
 72
    10
 73
     6
 74
     0
 42
0.00000001
 43
0.00000001
 12
1.0
 22
0.0
 32
0.0
 13
1.0
 23
0.0
 33
0.0
 40
0.0
 40
0.0
 40
0.0
 40
0.0
 40
0.5
 40
0.5
 40
1.0
 40
1.0
 40
1.0
 40
1.0
 10
89.43400264395734
 20
-11.29863611804091
 30
0.0
 10
90.45461805394112
 20
-11.6258098791524
 30
0.0
 10
91.48268843142132
 20
-11.89535242307072
 30
0.0
 10
93.56032208798173
 20
-12.26828493132898
 30
0.0
 10
94.61004602874837
 20
-12.37043288776515
 30
0.0
 10
95.6729834626903
 20
-12.37043288776513
 30
0.0
  0
LINE
  5
33E
330
1F
100
AcDbEntity
  8
0
  6
Continuous
 62
     7
370
    15
100
AcDbLine
 10
89.4340059751
 20
-11.29863774
 30
0.0
 11
89.4340059751
 21
1.6295650083
 31
0.0
  0
LINE
  5
33F
330
1F
100
AcDbEntity
  8
0
  6
Continuous
 62
     7
370
    15
100
AcDbLine
 10
101.9119626874
 20
-11.29863774
 30
0.0
 11
101.9119626874
 21
1.6295650083
 31
0.0
  0
SPLINE
  5
340
330
1F
100
AcDbEntity
  8
0
  6
Continuous
 62
     7
370
    15
100
AcDbSpline
210
0.0
220
0.0
230
1.0
 70
     8
 71
     3
 72
    10
 73
     6
 74
     0
 42
0.00000001
 43
0.00000001
 12
1.0
 22
0.0
 32
0.0
 13
1.0
 23
0.0
 33
0.0
 40
0.0
 40
0.0
 40
0.0
 40
0.0
 40
0.5
 40
0.5
 40
1.0
 40
1.0
 40
1.0
 40
1.0
 10
113.3687372606823
 20
-11.29863611804069
 30
0.0
 10
112.4370616074188
 20
-11.62391991477824
 30
0.0
 10
111.482842967026
 20
-11.89674687197739
 30
0.0
 10
109.5700855107379
 20
-12.26979983452006
 30
0.0
 10
108.6083538806224
 20
-12.37043288776515
 30
0.0
 10
107.6403507710528
 20
-12.37043288776513
 30
0.0
  0
SPLINE
  5
341
330
1F
100
AcDbEntity
  8
0
  6
Continuous
 62
     7
370
    15
100
AcDbSpline
210
0.0
220
0.0
230
1.0
 70
     8
 71
     3
 72
    12
 73
     8
 74
     0
 42
0.00000001
 43
0.00000001
 12
1.0
 22
0.0
 32
0.0
 13
1.0
 23
0.0
 33
0.0
 40
0.0
 40
0.0
 40
0.0
 40
0.0
 40
0.2499999999999987
 40
0.2499999999999987
 40
0.4999999999999973
 40
0.4999999999999973
 40
1.0
 40
1.0
 40
1.0
 40
1.0
 10
107.6403507710528
 20
-12.37043288776513
 30
0.0
 10
107.1560616538754
 20
-12.37043288776513
 30
0.0
 10
106.6702212973643
 20
-12.34554148030512
 30
0.0
 10
105.6954781467969
 20
-12.24661835602137
 30
0.0
 10
105.2116708491961
 20
-12.17309783883128
 30
0.0
 10
103.7766103534735
 20
-11.89134319067789
 30
0.0
 10
102.8382124406859
 20
-11.62202496791642
 30
0.0
 10
101.9119642814232
 20
-11.29863611804063
 30
0.0
  0
LINE
  5
342
330
1F
100
AcDbEntity
  8
0
  6
Continuous
 62
     7
370
    15
100
AcDbLine
 10
113.3687353724
 20
-11.29863774
 30
0.0
 11
113.3687353724
 21
1.6295650083
 31
0.0
  0
LINE
  5
343
330
1F
100
AcDbEntity
  8
0
  6
Continuous
 62
     7
370
    15
100
AcDbLine
 10
95.672980606
 20
-12.3704335612
 30
0.0
 11
107.6403490299
 21
-12.3704335612
 31
0.0
  0
SPLINE
  5
344
330
1F
100
AcDbEntity
  8
0
  6
Continuous
 62
     7
370
    15
100
AcDbSpline
210
0.0
220
0.0
230
1.0
 70
     8
 71
     3
 72
    12
 73
     8
 74
     0
 42
0.00000001
 43
0.00000001
 12
1.0
 22
0.0
 32
0.0
 13
1.0
 23
0.0
 33
0.0
 40
0.0
 40
0.0
 40
0.0
 40
0.0
 40
0.250000000000001
 40
0.250000000000001
 40
0.500000000000002
 40
0.500000000000002
 40
1.0
 40
1.0
 40
1.0
 40
1.0
 10
264.9459498578984
 20
-12.37043288776513
 30
0.0
 10
265.5213496061887
 20
-12.37043288776515
 30
0.0
 10
266.0985924326952
 20
-12.34554148030514
 30
0.0
 10
267.2567166679726
 20
-12.24661835602142
 30
0.0
 10
267.8315439506567
 20
-12.17309783883128
 30
0.0
 10
269.5365862874181
 20
-11.89134319067786
 30
0.0
 10
270.6515275563056
 20
-11.62202496791645
 30
0.0
 10
271.7520333054343
 20
-11.29863611804063
 30
0.0
  0
SPLINE
  5
345
330
1F
100
AcDbEntity
  8
0
  6
Continuous
 62
     7
370
    15
100
AcDbSpline
210
0.0
220
0.0
230
1.0
 70
     8
 71
     3
 72
    10
 73
     6
 74
     0
 42
0.00000001
 43
0.00000001
 12
1.0
 22
0.0
 32
0.0
 13
1.0
 23
0.0
 33
0.0
 40
0.0
 40
0.0
 40
0.0
 40
0.0
 40
0.5
 40
0.5
 40
1.0
 40
1.0
 40
1.0
 40
1.0
 10
258.1398664103623
 20
-11.29863611804066
 30
0.0
 10
259.246820742726
 20
-11.62391991477824
 30
0.0
 10
260.3805591358085
 20
-11.89674687197737
 30
0.0
 10
262.6531688638639
 20
-12.26979983452006
 30
0.0
 10
263.7958336858956
 20
-12.37043288776515
 30
0.0
 10
264.9459498578984
 20
-12.37043288776513
 30
0.0
  0
LINE
  5
346
330
1F
100
AcDbEntity
  8
0
  6
Continuous
 62
     7
370
    15
100
AcDbLine
 10
258.1398679906
 20
-11.29863774
 30
0.0
 11
258.1398679906
 21
1.6295650083
 31
0.0
  0
LINE
  5
347
330
1F
100
AcDbEntity
  8
0
  6
Continuous
 62
     7
370
    15
100
AcDbLine
 10
271.7520303124
 20
-11.29863774
 30
0.0
 11
271.7520303124
 21
1.6295650083
 31
0.0
  0
SPLINE
  5
348
330
1F
100
AcDbEntity
  8
0
  6
Continuous
 62
     7
370
    15
100
AcDbSpline
210
0.0
220
0.0
230
1.0
 70
     8
 71
     3
 72
    10
 73
     6
 74
     0
 42
0.00000001
 43
0.00000001
 12
1.0
 22
0.0
 32
0.0
 13
1.0
 23
0.0
 33
0.0
 40
0.0
 40
0.0
 40
0.0
 40
0.0
 40
0.5
 40
0.5
 40
1.0
 40
1.0
 40
1.0
 40
1.0
 10
271.7520333054343
 20
-11.29863611804091
 30
0.0
 10
272.492200555341
 20
-11.6258098791524
 30
0.0
 10
273.2377742715188
 20
-11.89535242307072
 30
0.0
 10
274.7445087131576
 20
-12.26828493132898
 30
0.0
 10
275.5057859531424
 20
-12.37043288776515
 30
0.0
 10
276.2766458378821
 20
-12.37043288776513
 30
0.0
  0
LINE
  5
349
330
1F
100
AcDbEntity
  8
0
  6
Continuous
 62
     7
370
    15
100
AcDbLine
 10
264.9459472889
 20
-12.3704335612
 30
0.0
 11
276.2766486997
 21
-12.3704335612
 31
0.0
  0
SPLINE
  5
34A
330
1F
100
AcDbEntity
  8
0
  6
Continuous
 62
     7
370
    15
100
AcDbSpline
210
0.0
220
0.0
230
1.0
 70
     8
 71
     3
 72
    12
 73
     8
 74
     0
 42
0.00000001
 43
0.00000001
 12
1.0
 22
0.0
 32
0.0
 13
1.0
 23
0.0
 33
0.0
 40
0.0
 40
0.0
 40
0.0
 40
0.0
 40
0.2500000000000008
 40
0.2500000000000008
 40
0.5000000000000016
 40
0.5000000000000016
 40
1.0
 40
1.0
 40
1.0
 40
1.0
 10
275.6743728494964
 20
219.629567112235
 30
0.0
 10
276.0885422590552
 20
219.629567112235
 30
0.0
 10
276.50403830565
 20
219.6046757047749
 30
0.0
 10
277.3376494293008
 20
219.5057525804912
 30
0.0
 10
277.7514067814286
 20
219.4322320633011
 30
0.0
 10
278.9786863900616
 20
219.1504774151477
 30
0.0
 10
279.7812146643615
 20
218.8811591923862
 30
0.0
 10
280.5733523350627
 20
218.5577703425105
 30
0.0
  0
LINE
  5
34B
330
1F
100
AcDbEntity
  8
0
  6
Continuous
 62
     7
370
    15
100
AcDbLine
 10
280.5733538264
 20
218.5577713924
 30
0.0
 11
280.5733538264
 21
205.6295686441
 31
0.0
  0
SPLINE
  5
34C
330
1F
100
AcDbEntity
  8
0
  6
Continuous
 62
     7
370
    15
100
AcDbSpline
210
0.0
220
0.0
230
1.0
 70
     8
 71
     3
 72
    12
 73
     8
 74
     0
 42
0.00000001
 43
0.00000001
 12
1.0
 22
0.0
 32
0.0
 13
1.0
 23
0.0
 33
0.0
 40
0.0
 40
0.0
 40
0.0
 40
0.0
 40
0.2500000000000009
 40
0.2500000000000009
 40
0.5000000000000019
 40
0.5000000000000019
 40
1.0
 40
1.0
 40
1.0
 40
1.0
 10
276.2766458378821
 20
-12.37043288776513
 30
0.0
 10
276.6606345875296
 20
-12.37043288776513
 30
0.0
 10
277.0463460999756
 20
-12.34509963447195
 30
0.0
 10
277.8093638150015
 20
-12.2470627473952
 30
0.0
 10
278.1883206895898
 20
-12.17445337846634
 30
0.0
 10
279.3184607259724
 20
-11.89440667953243
 30
0.0
 10
280.0629394891766
 20
-11.62499285062654
 30
0.0
 10
280.8012583703299
 20
-11.29863611804077
 30
0.0
  0
LINE
  5
34D
330
1F
100
AcDbEntity
  8
0
  6
Continuous
 62
     7
370
    15
100
AcDbLine
 10
280.8012596363
 20
-11.29863774
 30
0.0
 11
280.8012596363
 21
1.6295650083
 31
0.0
  0
SPLINE
  5
34E
330
1F
100
AcDbEntity
  8
0
  6
Continuous
 62
     7
370
    15
100
AcDbSpline
210
0.0
220
0.0
230
1.0
 70
     8
 71
     3
 72
    10
 73
     6
 74
     0
 42
0.00000001
 43
0.00000001
 12
1.0
 22
0.0
 32
0.0
 13
1.0
 23
0.0
 33
0.0
 40
0.0
 40
0.0
 40
0.0
 40
0.0
 40
0.5
 40
0.5
 40
1.0
 40
1.0
 40
1.0
 40
1.0
 10
257.391132504125
 20
218.5577703425107
 30
0.0
 10
257.0977965347756
 20
218.8849441036223
 30
0.0
 10
256.802317926685
 20
219.1544866475405
 30
0.0
 10
256.2051834168209
 20
219.5274191557988
 30
0.0
 10
255.9034813391312
 20
219.629567112235
 30
0.0
 10
255.597981559789
 20
219.629567112235
 30
0.0
  0
LINE
  5
34F
330
1F
100
AcDbEntity
  8
0
  6
Continuous
 62
     7
370
    15
100
AcDbLine
 10
264.0832594627
 20
219.6295672136
 30
0.0
 11
255.5979832107
 21
219.6295672136
 31
0.0
  0
LINE
  5
350
330
1F
100
AcDbEntity
  8
0
  6
Continuous
 62
     7
370
    15
100
AcDbLine
 10
255.8583959037
 20
-12.3704335612
 30
0.0
 11
264.9459472889
 21
-12.3704335612
 31
0.0
  0
SPLINE
  5
351
330
1F
100
AcDbEntity
  8
0
  6
Continuous
 62
     7
370
    15
100
AcDbSpline
210
0.0
220
0.0
230
1.0
 70
     8
 71
     3
 72
    12
 73
     8
 74
     0
 42
0.00000001
 43
0.00000001
 12
1.0
 22
0.0
 32
0.0
 13
1.0
 23
0.0
 33
0.0
 40
0.0
 40
0.0
 40
0.0
 40
0.0
 40
0.25
 40
0.25
 40
0.5
 40
0.5
 40
1.0
 40
1.0
 40
1.0
 40
1.0
 10
255.8583954952741
 20
-12.37043288776513
 30
0.0
 10
256.0520163098211
 20
-12.37043288776513
 30
0.0
 10
256.2465058027775
 20
-12.34509963447197
 30
0.0
 10
256.6312465318554
 20
-12.2470627473952
 30
0.0
 10
256.8223300956403
 20
-12.17445337846634
 30
0.0
 10
257.3921869849305
 20
-11.89440667953237
 30
0.0
 10
257.7675797136935
 20
-11.62499285062654
 30
0.0
 10
258.1398664103624
 20
-11.29863611804077
 30
0.0
  0
SPLINE
  5
352
330
1F
100
AcDbEntity
  8
0
  6
Continuous
 62
     7
370
    15
100
AcDbSpline
210
0.0
220
0.0
230
1.0
 70
     8
 71
     3
 72
    12
 73
     8
 74
     0
 42
0.00000001
 43
0.00000001
 12
1.0
 22
0.0
 32
0.0
 13
1.0
 23
0.0
 33
0.0
 40
0.0
 40
0.0
 40
0.0
 40
0.0
 40
0.25
 40
0.25
 40
0.5
 40
0.5
 40
1.0
 40
1.0
 40
1.0
 40
1.0
 10
88.92340831485399
 20
-12.37043288776513
 30
0.0
 10
88.96674074975388
 20
-12.37043288776513
 30
0.0
 10
89.01026759531524
 20
-12.34509963447197
 30
0.0
 10
89.09637276244365
 20
-12.2470627473952
 30
0.0
 10
89.13913735935705
 20
-12.17445337846634
 30
0.0
 10
89.26667161550198
 20
-11.89440667953237
 30
0.0
 10
89.3506846954959
 20
-11.62499285062654
 30
0.0
 10
89.4340026439574
 20
-11.29863611804077
 30
0.0
  0
LINE
  5
353
330
1F
100
AcDbEntity
  8
0
  6
Continuous
 62
     7
370
    15
100
AcDbLine
 10
88.9234102363
 20
-12.3704335612
 30
0.0
 11
95.672980606
 21
-12.3704335612
 31
0.0
  0
SPLINE
  5
354
330
1F
100
AcDbEntity
  8
0
  6
Continuous
 62
     7
370
    15
100
AcDbSpline
210
0.0
220
0.0
230
1.0
 70
     8
 71
     3
 72
    10
 73
     6
 74
     0
 42
0.00000001
 43
0.00000001
 12
1.0
 22
0.0
 32
0.0
 13
1.0
 23
0.0
 33
0.0
 40
0.0
 40
0.0
 40
0.0
 40
0.0
 40
0.5
 40
0.5
 40
1.0
 40
1.0
 40
1.0
 40
1.0
 10
253.5769245801859
 20
-11.29863611804091
 30
0.0
 10
253.9501432902639
 20
-11.6258098791524
 30
0.0
 10
254.3260881333451
 20
-11.89535242307072
 30
0.0
 10
255.0858373451744
 20
-12.26828493132898
 30
0.0
 10
255.4697004646987
 20
-12.37043288776515
 30
0.0
 10
255.8583954952741
 20
-12.37043288776513
 30
0.0
  0
LINE
  5
355
330
1F
100
AcDbEntity
  8
0
  6
Continuous
 62
     7
370
    15
100
AcDbLine
 10
253.5769238168
 20
-11.29863774
 30
0.0
 11
253.5769238168
 21
1.6295650083
 31
0.0
  0
SPLINE
  5
356
330
1F
100
AcDbEntity
  8
0
  6
Continuous
 62
     7
370
    15
100
AcDbSpline
210
0.0
220
0.0
230
1.0
 70
    24
 71
     3
 72
    12
 73
     8
 74
     0
 42
0.00000001
 43
0.00000001
 12
1.0
 22
0.0
 32
0.0
 13
1.0
 23
0.0
 33
0.0
 40
0.0
 40
0.0
 40
0.0
 40
0.0
 40
0.2499999999999988
 40
0.2499999999999988
 40
0.4999999999999976
 40
0.4999999999999976
 40
1.0
 40
1.0
 40
1.0
 40
1.0
 10
112.8907756232165
 20
219.629567112235
 30
0.0
 10
112.8907756232164
 20
219.629567112235
 30
0.0
 10
112.8907756232165
 20
219.6046757047749
 30
0.0
 10
112.8907756232164
 20
219.5057525804912
 30
0.0
 10
112.8907756232165
 20
219.4322320633011
 30
0.0
 10
112.8907756232165
 20
219.1504774151477
 30
0.0
 10
112.8907756232165
 20
218.8811591923862
 30
0.0
 10
112.8907756232165
 20
218.5577703425105
 30
0.0
  0
LINE
  5
357
330
1F
100
AcDbEntity
  8
0
  6
Continuous
 62
     7
370
    15
100
AcDbLine
 10
112.8907731766
 20
219.6295672136
 30
0.0
 11
106.8907759184
 21
219.6295672136
 31
0.0
  0
SPLINE
  5
358
330
1F
100
AcDbEntity
  8
0
  6
Continuous
 62
     7
370
    15
100
AcDbSpline
210
0.0
220
0.0
230
1.0
 70
    24
 71
     3
 72
    12
 73
     8
 74
     0
 42
0.00000001
 43
0.00000001
 12
1.0
 22
0.0
 32
0.0
 13
1.0
 23
0.0
 33
0.0
 40
0.0
 40
0.0
 40
0.0
 40
0.0
 40
0.2499999999999998
 40
0.2499999999999998
 40
0.4999999999999996
 40
0.4999999999999996
 40
1.0
 40
1.0
 40
1.0
 40
1.0
 10
88.89077562321646
 20
219.629567112235
 30
0.0
 10
88.89077562321643
 20
219.629567112235
 30
0.0
 10
88.89077562321646
 20
219.6046757047749
 30
0.0
 10
88.89077562321646
 20
219.5057525804912
 30
0.0
 10
88.89077562321646
 20
219.4322320633011
 30
0.0
 10
88.89077562321648
 20
219.1504774151477
 30
0.0
 10
88.89077562321648
 20
218.8811591923862
 30
0.0
 10
88.89077562321646
 20
218.5577703425105
 30
0.0
  0
LINE
  5
359
330
1F
100
AcDbEntity
  8
0
  6
Continuous
 62
     7
370
    15
100
AcDbLine
 10
94.8907739514
 20
219.6295672136
 30
0.0
 11
88.8907766932
 21
219.6295672136
 31
0.0
  0
SPLINE
  5
35A
330
1F
100
AcDbEntity
  8
0
  6
Continuous
 62
     7
370
    15
100
AcDbSpline
210
0.0
220
0.0
230
1.0
 70
     8
 71
     3
 72
    13
 73
     9
 74
     0
 42
0.00000001
 43
0.00000001
 12
1.0
 22
0.0
 32
0.0
 13
1.0
 23
0.0
 33
0.0
 40
0.0
 40
0.0
 40
0.0
 40
0.0
 40
0.1889479461168427
 40
0.3779485407163328
 40
0.5668505087058303
 40
0.7593215127695395
 40
0.9519135895919263
 40
1.0
 40
1.0
 40
1.0
 40
1.0
 10
113.3687353724384
 20
-11.2986377400415
 30
0.0
 10
113.3412503458068
 20
-11.40257211138379
 30
0.0
 10
113.2862726341118
 20
-11.61046981435651
 30
0.0
 10
113.2028299848153
 20
-11.87043482875846
 30
0.0
 10
113.1181670650161
 20
-12.08780530589901
 30
0.0
 10
113.0322674283181
 20
-12.24403450896183
 30
0.0
 10
112.9670910713975
 20
-12.33085238569123
 30
0.0
 10
112.93076195983
 20
-12.3425921297296
 30
0.0
 10
112.9235035771274
 20
-12.34493767442871
 30
0.0
  0
LINE
  5
35B
330
1F
100
AcDbEntity
  8
0
  6
Continuous
 62
     7
370
    15
100
AcDbLine
 10
107.6403490299
 20
-12.3704335612
 30
0.0
 11
112.8907731766
 21
-12.3704335612
 31
0.0
  0
SPLINE
  5
35C
330
1F
100
AcDbEntity
  8
0
  6
Continuous
 62
     7
370
    15
100
AcDbSpline
210
0.0
220
0.0
230
1.0
 70
     8
 71
     3
 72
    12
 73
     8
 74
     0
 42
0.00000001
 43
0.00000001
 12
1.0
 22
0.0
 32
0.0
 13
1.0
 23
0.0
 33
0.0
 40
0.0
 40
0.0
 40
0.0
 40
0.0
 40
0.2500000000000001
 40
0.2500000000000001
 40
0.5000000000000001
 40
0.5000000000000001
 40
1.0
 40
1.0
 40
1.0
 40
1.0
 10
255.597981559789
 20
219.629567112235
 30
0.0
 10
255.4458028297636
 20
219.629567112235
 30
0.0
 10
255.2929413509466
 20
219.6042338589418
 30
0.0
 10
254.9905495049196
 20
219.506196971865
 30
0.0
 10
254.840364959247
 20
219.4335876029362
 30
0.0
 10
254.3924787239199
 20
219.1535409040022
 30
0.0
 10
254.0974340570663
 20
218.8841270750964
 30
0.0
 10
253.8048306154529
 20
218.5577703425106
 30
0.0
  0
LINE
  5
35D
330
1F
100
AcDbEntity
  8
0
  6
Continuous
 62
     7
370
    15
100
AcDbLine
 10
253.8048296267
 20
218.5577713924
 30
0.0
 11
253.8048296267
 21
205.6295686441
 31
0.0
  0
SPLINE
  5
35E
330
1F
100
AcDbEntity
  8
0
  6
Continuous
 62
     7
370
    15
100
AcDbSpline
210
0.0
220
0.0
230
1.0
 70
     8
 71
     3
 72
    11
 73
     7
 74
     0
 42
0.00000001
 43
0.00000001
 12
1.0
 22
0.0
 32
0.0
 13
1.0
 23
0.0
 33
0.0
 40
0.0
 40
0.0
 40
0.0
 40
0.0
 40
0.1328495164361861
 40
0.4218373467336056
 40
0.7109558032149047
 40
1.0
 40
1.0
 40
1.0
 40
1.0
 10
279.6124077433491
 20
219.3788700777037
 30
0.0
 10
279.6555999177502
 20
219.3552992266425
 30
0.0
 10
279.7927481192477
 20
219.2804546540867
 30
0.0
 10
280.0216834297366
 20
219.1017558527802
 30
0.0
 10
280.2991079459145
 20
218.8540223393623
 30
0.0
 10
280.4819463608899
 20
218.6565132520026
 30
0.0
 10
280.5733538264179
 20
218.5577713924391
 30
0.0
  0
LINE
  5
35F
330
1F
100
AcDbEntity
  8
0
  6
Continuous
 62
     7
370
    15
100
AcDbLine
 10
279.1890881056
 20
219.6295672136
 30
0.0
 11
275.6743735665
 21
219.6295672136
 31
0.0
  0
LINE
  5
360
330
1F
100
AcDbEntity
  8
0
  6
Continuous
 62
     7
370
    15
100
AcDbLine
 10
108.8907725209
 20
268.6295696574
 30
0.0
 11
92.8907773489
 21
268.6295696574
 31
0.0
  0
LINE
  5
361
330
1F
100
AcDbEntity
  8
0
  6
Continuous
 62
     7
370
    15
100
AcDbLine
 10
108.8907725209
 20
-61.3704285544
 30
0.0
 11
92.8907773489
 21
-61.3704285544
 31
0.0
  0
LINE
  5
362
330
1F
100
AcDbEntity
  8
0
  6
Continuous
 62
     7
370
    15
100
AcDbLine
 10
263.6702588791
 20
268.6295696574
 30
0.0
 11
259.1890922779
 21
268.6295696574
 31
0.0
  0
LINE
  5
363
330
1F
100
AcDbEntity
  8
0
  6
Continuous
 62
     7
370
    15
100
AcDbLine
 10
275.1890949005
 20
268.6295696574
 30
0.0
 11
263.6702588791
 21
268.6295696574
 31
0.0
  0
LINE
  5
364
330
1F
100
AcDbEntity
  8
0
  6
Continuous
 62
     7
370
    15
100
AcDbLine
 10
263.6702588791
 20
-61.3704285544
 30
0.0
 11
259.1890922779
 21
-61.3704285544
 31
0.0
  0
LINE
  5
365
330
1F
100
AcDbEntity
  8
0
  6
Continuous
 62
     7
370
    15
100
AcDbLine
 10
275.1890949005
 20
-61.3704285544
 30
0.0
 11
263.6702588791
 21
-61.3704285544
 31
0.0
  0
SPLINE
  5
366
330
1F
100
AcDbEntity
  8
0
  6
Continuous
 62
     7
370
    15
100
AcDbSpline
210
0.0
220
0.0
230
1.0
 70
     8
 71
     3
 72
    10
 73
     6
 74
     0
 42
0.00000001
 43
0.00000001
 12
1.0
 22
0.0
 32
0.0
 13
1.0
 23
0.0
 33
0.0
 40
0.0
 40
0.0
 40
0.0
 40
0.0
 40
0.4115822740811739
 40
0.8232841881528213
 40
0.9999999999999999
 40
0.9999999999999999
 40
0.9999999999999999
 40
0.9999999999999999
 10
280.8012596362972
 20
-11.29863774004153
 30
0.0
 10
280.6784106552811
 20
-11.40198034765524
 30
0.0
 10
280.4326769831326
 20
-11.60869560282704
 30
0.0
 10
280.1311386934038
 20
-11.82642416256224
 30
0.0
 10
279.9517969320012
 20
-11.92505506216193
 30
0.0
 10
279.897936343565
 20
-11.95467626276184
 30
0.0
  0
LINE
  5
367
330
1F
100
AcDbEntity
  8
0
  6
Continuous
 62
     7
370
    15
100
AcDbLine
 10
276.2766486997
 20
-12.3704335612
 30
0.0
 11
279.1890881056
 21
-12.3704335612
 31
0.0
  0
SPLINE
  5
368
330
1F
100
AcDbEntity
  8
0
  6
Continuous
 62
     7
370
    15
100
AcDbSpline
210
0.0
220
0.0
230
1.0
 70
     8
 71
     3
 72
    10
 73
     6
 74
     0
 42
0.00000001
 43
0.00000001
 12
1.0
 22
0.0
 32
0.0
 13
1.0
 23
0.0
 33
0.0
 40
0.0
 40
0.0
 40
0.0
 40
0.0
 40
0.5
 40
0.5
 40
1.0
 40
1.0
 40
1.0
 40
1.0
 10
88.4128139857506
 20
-11.29863611804091
 30
0.0
 10
88.49634051927809
 20
-11.6258098791524
 30
0.0
 10
88.58047716273185
 20
-11.89535242307072
 30
0.0
 10
88.75050941540505
 20
-12.26828493132898
 30
0.0
 10
88.83641817307749
 20
-12.37043288776515
 30
0.0
 10
88.92340831485399
 20
-12.37043288776513
 30
0.0
  0
LINE
  5
369
330
1F
100
AcDbEntity
  8
0
  6
Continuous
 62
     7
370
    15
100
AcDbLine
 10
88.4128144974
 20
-11.29863774
 30
0.0
 11
88.4128144974
 21
1.6295650083
 31
0.0
  0
LINE
  5
36A
330
1F
100
AcDbEntity
  8
0
  6
Continuous
 62
     7
370
    15
100
AcDbLine
 10
77.4181566233
 20
18.4952803927
 30
0.0
 11
79.6100578302
 21
18.4952803927
 31
0.0
  0
SPLINE
  5
36B
330
1F
100
AcDbEntity
  8
0
  6
Continuous
 62
     7
370
    15
100
AcDbSpline
210
0.0
220
0.0
230
1.0
 70
     8
 71
     3
 72
    11
 73
     7
 74
     0
 42
0.00000001
 43
0.00000001
 12
1.0
 22
0.0
 32
0.0
 13
1.0
 23
0.0
 33
0.0
 40
0.0
 40
0.0
 40
0.0
 40
0.0
 40
0.2541002199826994
 40
0.5054668484261786
 40
0.7541000512726738
 40
1.0
 40
1.0
 40
1.0
 40
1.0
 10
76.4522546957375
 20
10.34385282652034
 30
0.0
 10
76.53002941049733
 20
11.03468451481657
 30
0.0
 10
76.68474214533705
 20
12.40891597474922
 30
0.0
 10
76.92463763745083
 20
14.45822379173678
 30
0.0
 10
77.16787940011841
 20
16.48464212308257
 30
0.0
 10
77.33503990775861
 20
17.82754234846864
 30
0.0
 10
77.41815821868911
 20
18.49528139794887
 30
0.0
  0
LINE
  5
36C
330
1F
100
AcDbEntity
  8
0
  6
Continuous
 62
     7
370
    15
100
AcDbLine
 10
75.8858702177
 20
10.3438534814
 30
0.0
 11
76.4522559041
 21
10.3438534814
 31
0.0
  0
SPLINE
  5
36D
330
1F
100
AcDbEntity
  8
0
  6
Continuous
 62
     7
370
    15
100
AcDbSpline
210
0.0
220
0.0
230
1.0
 70
     8
 71
     3
 72
    11
 73
     7
 74
     0
 42
0.00000001
 43
0.00000001
 12
1.0
 22
0.0
 32
0.0
 13
1.0
 23
0.0
 33
0.0
 40
0.0
 40
0.0
 40
0.0
 40
0.0
 40
0.2546877117644763
 40
0.5062502124152481
 40
0.754687605864819
 40
1.0
 40
1.0
 40
1.0
 40
1.0
 10
75.1025716834151
 20
18.49528139794906
 30
0.0
 10
75.16516862750095
 20
17.80294181006525
 30
0.0
 10
75.28959440376029
 20
16.42675816539144
 30
0.0
 10
75.48386865007298
 20
14.37592121720921
 30
0.0
 10
75.68146612475299
 20
12.35103370416549
 30
0.0
 10
75.81802263709179
 20
11.0100841108916
 30
0.0
 10
75.88586875230824
 20
10.34385282652039
 30
0.0
  0
LINE
  5
36E
330
1F
100
AcDbEntity
  8
0
  6
Continuous
 62
     7
370
    15
100
AcDbLine
 10
73.892981469
 20
18.4952803927
 30
0.0
 11
75.1025683278
 21
18.4952803927
 31
0.0
  0
LINE
  5
36F
330
1F
100
AcDbEntity
  8
0
  6
Continuous
 62
     7
370
    15
100
AcDbLine
 10
73.892981469
 20
20.62956626
 30
0.0
 11
73.892981469
 21
18.4952803927
 31
0.0
  0
LINE
  5
370
330
1F
100
AcDbEntity
  8
0
  6
Continuous
 62
     7
370
    15
100
AcDbLine
 10
75.4345363969
 20
20.62956626
 30
0.0
 11
73.892981469
 21
20.62956626
 31
0.0
  0
SPLINE
  5
371
330
1F
100
AcDbEntity
  8
0
  6
Continuous
 62
     7
370
    15
100
AcDbSpline
210
0.0
220
0.0
230
1.0
 70
     8
 71
     3
 72
    10
 73
     6
 74
     0
 42
0.00000001
 43
0.00000001
 12
1.0
 22
0.0
 32
0.0
 13
1.0
 23
0.0
 33
0.0
 40
0.0
 40
0.0
 40
0.0
 40
0.0
 40
0.3285977658580433
 40
0.6619310260630027
 40
0.9999999999999999
 40
0.9999999999999999
 40
0.9999999999999999
 40
0.9999999999999999
 10
76.16324437345742
 20
13.42956711223467
 30
0.0
 10
76.07969702808484
 20
14.21787449630008
 30
0.0
 10
75.91139831825363
 20
15.80584973473453
 30
0.0
 10
75.66838629449457
 20
18.20586162515736
 30
0.0
 10
75.51285010008336
 20
19.81787518820149
 30
0.0
 10
75.43453346814385
 20
20.62956711223468
 30
0.0
  0
SPLINE
  5
372
330
1F
100
AcDbEntity
  8
0
  6
Continuous
 62
     7
370
    15
100
AcDbSpline
210
0.0
220
0.0
230
1.0
 70
     8
 71
     3
 72
    10
 73
     6
 74
     0
 42
0.00000001
 43
0.00000001
 12
1.0
 22
0.0
 32
0.0
 13
1.0
 23
0.0
 33
0.0
 40
0.0
 40
0.0
 40
0.0
 40
0.0
 40
0.3289246140203634
 40
0.6622578535404131
 40
1.0
 40
1.0
 40
1.0
 40
1.0
 10
76.97835565968938
 20
20.62956711223465
 30
0.0
 10
76.88517842112758
 20
19.84052136276951
 30
0.0
 10
76.69757507562372
 20
18.25185416635958
 30
0.0
 10
76.42577513286581
 20
15.85184130628839
 30
0.0
 10
76.25113707887054
 20
14.24052058925779
 30
0.0
 10
76.16324437345745
 20
13.42956711223481
 30
0.0
  0
LINE
  5
373
330
1F
100
AcDbEntity
  8
0
  6
Continuous
 62
     7
370
    15
100
AcDbLine
 10
79.6100578302
 20
20.62956626
 30
0.0
 11
76.9783563012
 21
20.62956626
 31
0.0
  0
LINE
  5
374
330
1F
100
AcDbEntity
  8
0
  6
Continuous
 62
     7
370
    15
100
AcDbLine
 10
79.6100578302
 20
20.62956626
 30
0.0
 11
79.6100578302
 21
18.4952803927
 31
0.0
  0
LINE
  5
375
330
1F
100
AcDbEntity
  8
0
  6
Continuous
 62
     7
370
    15
100
AcDbLine
 10
81.1100534195
 20
18.4952803927
 30
0.0
 11
79.6100578302
 21
18.4952803927
 31
0.0
  0
LINE
  5
376
330
1F
100
AcDbEntity
  8
0
  6
Continuous
 62
     7
370
    15
100
AcDbLine
 10
81.1100534195
 20
20.62956626
 30
0.0
 11
79.6100578302
 21
20.62956626
 31
0.0
  0
LINE
  5
377
330
1F
100
AcDbEntity
  8
0
  6
Continuous
 62
     7
370
    15
100
AcDbLine
 10
79.379529416
 20
15.6152882653
 30
0.0
 11
79.6100578302
 21
15.6152882653
 31
0.0
  0
SPLINE
  5
378
330
1F
100
AcDbEntity
  8
0
  6
Continuous
 62
     7
370
    15
100
AcDbSpline
210
0.0
220
0.0
230
1.0
 70
     8
 71
     3
 72
    20
 73
    16
 74
     0
 42
0.00000001
 43
0.00000001
 12
1.0
 22
0.0
 32
0.0
 13
1.0
 23
0.0
 33
0.0
 40
0.0
 40
0.0
 40
0.0
 40
0.0
 40
0.0419115178539047
 40
0.083856989436158
 40
0.1259031221598728
 40
0.1885762772817281
 40
0.2513356594801486
 40
0.3763294590782024
 40
0.5009829714350751
 40
0.6253784320368201
 40
0.749705828984506
 40
0.8122108231158283
 40
0.8743974857915671
 40
0.9372940559314841
 40
1.0
 40
1.0
 40
1.0
 40
1.0
 10
78.53880805656274
 20
13.60312175239675
 30
0.0
 10
78.5536838750478
 20
13.61283445457254
 30
0.0
 10
78.58344756334712
 20
13.63226772746401
 30
0.0
 10
78.62780975301875
 20
13.66835671403341
 30
0.0
 10
78.67909798993792
 20
13.71619192252516
 30
0.0
 10
78.73697776503028
 20
13.77969053670841
 30
0.0
 10
78.82194044135218
 20
13.88985620229455
 30
0.0
 10
78.92448598013213
 20
14.05516214836688
 30
0.0
 10
79.03965280122127
 20
14.29484998826613
 30
0.0
 10
79.14503713614573
 20
14.57312352993359
 30
0.0
 10
79.22311133448065
 20
14.83520538541824
 30
0.0
 10
79.278588189281
 20
15.06081417336996
 30
0.0
 10
79.31651386479379
 20
15.2384346437909
 30
0.0
 10
79.35075066439256
 20
15.42276254215297
 30
0.0
 10
79.36994478902085
 20
15.55117340877971
 30
0.0
 10
79.37952728593959
 20
15.61528139794882
 30
0.0
  0
SPLINE
  5
379
330
1F
100
AcDbEntity
  8
0
  6
Continuous
 62
     7
370
    15
100
AcDbSpline
210
0.0
220
0.0
230
1.0
 70
     8
 71
     3
 72
    10
 73
     6
 74
     0
 42
0.00000001
 43
0.00000001
 12
1.0
 22
0.0
 32
0.0
 13
1.0
 23
0.0
 33
0.0
 40
0.0
 40
0.0
 40
0.0
 40
0.0
 40
0.3303047512807704
 40
0.6636378731362748
 40
1.0
 40
1.0
 40
1.0
 40
1.0
 10
79.41765621968486
 20
10.34385282652025
 30
0.0
 10
79.31811962121127
 20
10.70222316669805
 30
0.0
 10
79.11813383156068
 20
11.42224953455539
 30
0.0
 10
78.82513574107047
 20
12.50868406312974
 30
0.0
 10
78.6345379734426
 20
13.23721082344165
 30
0.0
 10
78.53880805656271
 20
13.60312175239675
 30
0.0
  0
LINE
  5
37A
330
1F
100
AcDbEntity
  8
0
  6
Continuous
 62
     7
370
    15
100
AcDbLine
 10
78.4645161623
 20
10.3438534814
 30
0.0
 11
79.4176540369
 21
10.3438534814
 31
0.0
  0
SPLINE
  5
37B
330
1F
100
AcDbEntity
  8
0
  6
Continuous
 62
     7
370
    15
100
AcDbSpline
210
0.0
220
0.0
230
1.0
 70
     8
 71
     3
 72
     9
 73
     5
 74
     0
 42
0.00000001
 43
0.00000001
 12
1.0
 22
0.0
 32
0.0
 13
1.0
 23
0.0
 33
0.0
 40
0.0
 40
0.0
 40
0.0
 40
0.0
 40
0.5031467738932224
 40
0.9999999999999999
 40
0.9999999999999999
 40
0.9999999999999999
 40
0.9999999999999999
 10
77.74661304475369
 20
13.22541052414664
 30
0.0
 10
77.86399276412607
 20
12.74164798995228
 30
0.0
 10
78.0972839734965
 20
11.78017400403936
 30
0.0
 10
78.34261873932583
 20
10.82061353914673
 30
0.0
 10
78.46451410920427
 20
10.34385282652031
 30
0.0
  0
SPLINE
  5
37C
330
1F
100
AcDbEntity
  8
0
  6
Continuous
 62
     7
370
    15
100
AcDbSpline
210
0.0
220
0.0
230
1.0
 70
     8
 71
     3
 72
     9
 73
     5
 74
     0
 42
0.00000001
 43
0.00000001
 12
1.0
 22
0.0
 32
0.0
 13
1.0
 23
0.0
 33
0.0
 40
0.0
 40
0.0
 40
0.0
 40
0.0
 40
0.5018570736065319
 40
1.0
 40
1.0
 40
1.0
 40
1.0
 10
77.37942747687512
 20
10.34385282652028
 30
0.0
 10
77.43996281089252
 20
10.82599341454715
 30
0.0
 10
77.5605854686193
 20
11.7867063612872
 30
0.0
 10
77.68475758388085
 20
12.74703139938133
 30
0.0
 10
77.74661304475372
 20
13.22541052414647
 30
0.0
  0
LINE
  5
37D
330
1F
100
AcDbEntity
  8
0
  6
Continuous
 62
     7
370
    15
100
AcDbLine
 10
76.6997641915
 20
10.3438534814
 30
0.0
 11
77.3794285053
 21
10.3438534814
 31
0.0
  0
SPLINE
  5
37E
330
1F
100
AcDbEntity
  8
0
  6
Continuous
 62
     7
370
    15
100
AcDbSpline
210
0.0
220
0.0
230
1.0
 70
     8
 71
     3
 72
    11
 73
     7
 74
     0
 42
0.00000001
 43
0.00000001
 12
1.0
 22
0.0
 32
0.0
 13
1.0
 23
0.0
 33
0.0
 40
0.0
 40
0.0
 40
0.0
 40
0.0
 40
0.2463657250771615
 40
0.4951542031318495
 40
0.7463655806704937
 40
1.0
 40
1.0
 40
1.0
 40
1.0
 10
77.59030054402949
 20
17.6724242550918
 30
0.0
 10
77.51395616135478
 20
17.07092651643594
 30
0.0
 10
77.36051662768975
 20
15.86201592882694
 30
0.0
 10
77.1364623460409
 20
14.0390003235864
 30
0.0
 10
76.91511578470033
 20
12.19772140174927
 30
0.0
 10
76.77177637162261
 20
10.96378314184038
 30
0.0
 10
76.69976268144524
 20
10.34385282652037
 30
0.0
  0
LINE
  5
37F
330
1F
100
AcDbEntity
  8
0
  6
Continuous
 62
     7
370
    15
100
AcDbLine
 10
78.3417380446
 20
17.6724233705
 30
0.0
 11
77.590302288
 21
17.6724233705
 31
0.0
  0
SPLINE
  5
380
330
1F
100
AcDbEntity
  8
0
  6
Continuous
 62
     7
370
    15
100
AcDbSpline
210
0.0
220
0.0
230
1.0
 70
     8
 71
     3
 72
     9
 73
     5
 74
     0
 42
0.00000001
 43
0.00000001
 12
1.0
 22
0.0
 32
0.0
 13
1.0
 23
0.0
 33
0.0
 40
0.0
 40
0.0
 40
0.0
 40
0.0
 40
0.5016715618123009
 40
1.0
 40
1.0
 40
1.0
 40
1.0
 10
77.9799136158246
 20
14.99985392465369
 30
0.0
 10
78.03964230192292
 20
15.44686163755046
 30
0.0
 10
78.15870164402028
 20
16.33789821790185
 30
0.0
 10
78.28086154082969
 20
17.22857478999176
 30
0.0
 10
78.34173729141591
 20
17.67242425509169
 30
0.0
  0
SPLINE
  5
381
330
1F
100
AcDbEntity
  8
0
  6
Continuous
 62
     7
370
    15
100
AcDbSpline
210
0.0
220
0.0
230
1.0
 70
     8
 71
     3
 72
    26
 73
    22
 74
     0
 42
0.00000001
 43
0.00000001
 12
1.0
 22
0.0
 32
0.0
 13
1.0
 23
0.0
 33
0.0
 40
0.0
 40
0.0
 40
0.0
 40
0.0
 40
0.0312444712951879
 40
0.0625207021796853
 40
0.0939184546810677
 40
0.1255264555331026
 40
0.1879935603790351
 40
0.2504003196040031
 40
0.312776447173552
 40
0.3751229151305611
 40
0.4374295309370543
 40
0.4996925611730196
 40
0.5619235596984469
 40
0.6241833789503809
 40
0.686530405341231
 40
0.7489899304356789
 40
0.8115663741258345
 40
0.8742554748597676
 40
0.9370563794141649
 40
0.9685546306231702
 40
1.0
 40
1.0
 40
1.0
 40
1.0
 10
78.85790786985514
 20
17.67242425509169
 30
0.0
 10
78.85767437349061
 20
17.62852630558157
 30
0.0
 10
78.85720714341556
 20
17.5406857848798
 30
0.0
 10
78.85350636975444
 20
17.40911729610528
 30
0.0
 10
78.84760916611575
 20
17.27779987060349
 30
0.0
 10
78.83664038165946
 20
17.1045496200001
 30
0.0
 10
78.81741604276829
 20
16.89199245628717
 30
0.0
 10
78.78607372917665
 20
16.64593738250664
 30
0.0
 10
78.74695945938409
 20
16.41050494723906
 30
0.0
 10
78.70060045643865
 20
16.18781420864524
 30
0.0
 10
78.64754105867303
 20
15.9799346364361
 30
0.0
 10
78.58828440728551
 20
15.78907702952956
 30
0.0
 10
78.52349660137112
 20
15.61702354088501
 30
0.0
 10
78.45408736450891
 20
15.46430732402934
 30
0.0
 10
78.38076159926044
 20
15.33175645709911
 30
0.0
 10
78.30423702634235
 20
15.22003364911489
 30
0.0
 10
78.22520507185784
 20
15.12987776580771
 30
0.0
 10
78.14434834640441
 20
15.06189409289693
 30
0.0
 10
78.07600148879682
 20
15.02465257346483
 30
0.0
 10
78.02110258673214
 20
15.00613207194318
 30
0.0
 10
77.99363558069523
 20
15.00194546796405
 30
0.0
 10
77.9799136158246
 20
14.99985392465375
 30
0.0
  0
LINE
  5
382
330
1F
100
AcDbEntity
  8
0
  6
Continuous
 62
     7
370
    15
100
AcDbLine
 10
79.6100578302
 20
17.6724233705
 30
0.0
 11
78.8579068178
 21
17.6724233705
 31
0.0
  0
LINE
  5
383
330
1F
100
AcDbEntity
  8
0
  6
Continuous
 62
     7
370
    15
100
AcDbLine
 10
79.6100578302
 20
17.6724233705
 30
0.0
 11
79.6100578302
 21
15.6152882653
 31
0.0
  0
LINE
  5
384
330
1F
100
AcDbEntity
  8
0
  6
Continuous
 62
     7
370
    15
100
AcDbLine
 10
81.1100534195
 20
17.6724233705
 30
0.0
 11
79.6100578302
 21
17.6724233705
 31
0.0
  0
LINE
  5
385
330
1F
100
AcDbEntity
  8
0
  6
Continuous
 62
     7
370
    15
100
AcDbLine
 10
81.1100534195
 20
15.6152882653
 30
0.0
 11
79.6100578302
 21
15.6152882653
 31
0.0
  0
LINE
  5
386
330
1F
100
AcDbEntity
  8
0
  6
Continuous
 62
     7
370
    15
100
AcDbLine
 10
255.1890916222
 20
-12.3704335612
 30
0.0
 11
255.8583959037
 21
-12.3704335612
 31
0.0
  0
LINE
  5
387
330
1F
100
AcDbEntity
  8
0
  6
Continuous
 62
     7
370
    15
100
AcDbLine
 10
80.0388089413
 20
13.6031248647
 30
0.0
 11
78.5388059014
 21
13.6031248647
 31
0.0
  0
LINE
  5
388
330
1F
100
AcDbEntity
  8
0
  6
Continuous
 62
     7
370
    15
100
AcDbLine
 10
80.9176570767
 20
10.3438534814
 30
0.0
 11
79.4176540369
 21
10.3438534814
 31
0.0
  0
LINE
  5
389
330
1F
100
AcDbEntity
  8
0
  6
Continuous
 62
     7
370
    15
100
AcDbLine
 10
255.5979832107
 20
219.6295672136
 30
0.0
 11
255.1890916222
 21
219.6295672136
 31
0.0
  0
LINE
  5
38A
330
1F
100
AcDbEntity
  8
0
  6
Continuous
 62
     7
370
    15
100
AcDbLine
 10
88.8907766932
 20
-12.3704335612
 30
0.0
 11
88.9234102363
 21
-12.3704335612
 31
0.0
  0
LINE
  5
38B
330
1F
100
AcDbEntity
  8
0
  6
Continuous
 62
     7
370
    15
100
AcDbLine
 10
78.8579068178
 20
17.6724233705
 30
0.0
 11
78.3417380446
 21
17.6724233705
 31
0.0
  0
LINE
  5
38C
330
1F
100
AcDbEntity
  8
0
  6
Continuous
 62
     7
370
    15
100
AcDbLine
 10
78.4645161623
 20
10.3438534814
 30
0.0
 11
77.3794285053
 21
10.3438534814
 31
0.0
  0
LINE
  5
38D
330
1F
100
AcDbEntity
  8
0
  6
Continuous
 62
     7
370
    15
100
AcDbLine
 10
76.6997641915
 20
10.3438534814
 30
0.0
 11
76.4522559041
 21
10.3438534814
 31
0.0
  0
LINE
  5
38E
330
1F
100
AcDbEntity
  8
0
  6
Continuous
 62
     7
370
    15
100
AcDbLine
 10
76.9345319861
 20
20.62956626
 30
0.0
 11
75.4345363969
 21
20.62956626
 31
0.0
  0
LINE
  5
38F
330
1F
100
AcDbEntity
  8
0
  6
Continuous
 62
     7
370
    15
100
AcDbLine
 10
73.892981469
 20
10.3438534814
 30
0.0
 11
74.2796367997
 21
10.3438534814
 31
0.0
  0
SPLINE
  5
390
330
1F
100
AcDbEntity
  8
0
  6
Continuous
 62
     7
370
    15
100
AcDbSpline
210
0.0
220
0.0
230
1.0
 70
     8
 71
     3
 72
     9
 73
     5
 74
     0
 42
0.00000001
 43
0.00000001
 12
1.0
 22
0.0
 32
0.0
 13
1.0
 23
0.0
 33
0.0
 40
0.0
 40
0.0
 40
0.0
 40
0.0
 40
0.4950317062293694
 40
1.0
 40
1.0
 40
1.0
 40
1.0
 10
74.23270113852737
 20
15.61528139794902
 30
0.0
 10
74.17424321220875
 20
14.74557478477573
 30
0.0
 10
74.05615395533289
 20
12.98870426066775
 30
0.0
 10
73.94773201481163
 20
11.23129086857519
 30
0.0
 10
73.89298237249928
 20
10.34385282652053
 30
0.0
  0
LINE
  5
391
330
1F
100
AcDbEntity
  8
0
  6
Continuous
 62
     7
370
    15
100
AcDbLine
 10
73.892981469
 20
15.6152882653
 30
0.0
 11
74.2326981419
 21
15.6152882653
 31
0.0
  0
LINE
  5
392
330
1F
100
AcDbEntity
  8
0
  6
Continuous
 62
     7
370
    15
100
AcDbLine
 10
73.892981469
 20
17.6724233705
 30
0.0
 11
73.892981469
 21
15.6152882653
 31
0.0
  0
LINE
  5
393
330
1F
100
AcDbEntity
  8
0
  6
Continuous
 62
     7
370
    15
100
AcDbLine
 10
74.9824724192
 20
17.6724233705
 30
0.0
 11
73.892981469
 21
17.6724233705
 31
0.0
  0
SPLINE
  5
394
330
1F
100
AcDbEntity
  8
0
  6
Continuous
 62
     7
370
    15
100
AcDbSpline
210
0.0
220
0.0
230
1.0
 70
     8
 71
     3
 72
    10
 73
     6
 74
     0
 42
0.00000001
 43
0.00000001
 12
1.0
 22
0.0
 32
0.0
 13
1.0
 23
0.0
 33
0.0
 40
0.0
 40
0.0
 40
0.0
 40
0.0
 40
0.3282293392669099
 40
0.6615626093391636
 40
1.0
 40
1.0
 40
1.0
 40
1.0
 10
75.66551463362109
 20
10.34385282652039
 30
0.0
 10
75.58696852738206
 20
11.14536172673269
 30
0.0
 10
75.42865493142811
 20
12.76084290406218
 30
0.0
 10
75.20084877014749
 20
15.20371198503465
 30
0.0
 10
75.05563068453527
 20
16.84536240598294
 30
0.0
 10
74.98246995745365
 20
17.67242425509185
 30
0.0
  0
LINE
  5
395
330
1F
100
AcDbEntity
  8
0
  6
Continuous
 62
     7
370
    15
100
AcDbLine
 10
75.1303217405
 20
10.3438534814
 30
0.0
 11
75.665511846
 21
10.3438534814
 31
0.0
  0
LINE
  5
396
330
1F
100
AcDbEntity
  8
0
  6
Continuous
 62
     7
370
    15
100
AcDbLine
 10
75.0295824403
 20
11.4752837497
 30
0.0
 11
75.1303217405
 21
10.3438534814
 31
0.0
  0
LINE
  5
397
330
1F
100
AcDbEntity
  8
0
  6
Continuous
 62
     7
370
    15
100
AcDbLine
 10
74.3587172622
 20
11.4752837497
 30
0.0
 11
75.0295824403
 21
11.4752837497
 31
0.0
  0
LINE
  5
398
330
1F
100
AcDbEntity
  8
0
  6
Continuous
 62
     7
370
    15
100
AcDbLine
 10
74.2796367997
 20
10.3438534814
 30
0.0
 11
74.3587172622
 21
11.4752837497
 31
0.0
  0
SPLINE
  5
399
330
1F
100
AcDbEntity
  8
0
  6
Continuous
 62
     7
370
    15
100
AcDbSpline
210
0.0
220
0.0
230
1.0
 70
     8
 71
     3
 72
     9
 73
     5
 74
     0
 42
0.00000001
 43
0.00000001
 12
1.0
 22
0.0
 32
0.0
 13
1.0
 23
0.0
 33
0.0
 40
0.0
 40
0.0
 40
0.0
 40
0.0
 40
0.5001911612749037
 40
1.0
 40
1.0
 40
1.0
 40
1.0
 10
74.45762103556089
 20
13.42956711223478
 30
0.0
 10
74.48881406087956
 20
13.85637899438402
 30
0.0
 10
74.55117626903845
 20
14.70967652379534
 30
0.0
 10
74.61584460664238
 20
15.56282442828905
 30
0.0
 10
74.6481664133625
 20
15.98923529169477
 30
0.0
  0
LINE
  5
39A
330
1F
100
AcDbEntity
  8
0
  6
Continuous
 62
     7
370
    15
100
AcDbLine
 10
74.457616269
 20
13.4295710402
 30
0.0
 11
74.860431909
 21
13.4295710402
 31
0.0
  0
SPLINE
  5
39B
330
1F
100
AcDbEntity
  8
0
  6
Continuous
 62
     7
370
    15
100
AcDbSpline
210
0.0
220
0.0
230
1.0
 70
     8
 71
     3
 72
     9
 73
     5
 74
     0
 42
0.00000001
 43
0.00000001
 12
1.0
 22
0.0
 32
0.0
 13
1.0
 23
0.0
 33
0.0
 40
0.0
 40
0.0
 40
0.0
 40
0.0
 40
0.5002097588219446
 40
1.0
 40
1.0
 40
1.0
 40
1.0
 10
74.64816641336245
 20
15.98923529169469
 30
0.0
 10
74.68290730164945
 20
15.56239859727643
 30
0.0
 10
74.75235994161555
 20
14.70908318930939
 30
0.0
 10
74.82441870312614
 20
13.85595317022775
 30
0.0
 10
74.8604329689205
 20
13.4295671122347
 30
0.0
  0
LINE
  5
39C
330
1F
100
AcDbEntity
  8
0
  6
Continuous
 62
     7
370
    15
100
AcDbLine
 10
75.1780203575
 20
17.6724233705
 30
0.0
 11
74.9824724192
 21
17.6724233705
 31
0.0
  0
LINE
  5
39D
330
1F
100
AcDbEntity
  8
0
  6
Continuous
 62
     7
370
    15
100
AcDbLine
 10
75.8858702177
 20
10.3438534814
 30
0.0
 11
75.665511846
 21
10.3438534814
 31
0.0
  0
LINE
  5
39E
330
1F
100
AcDbEntity
  8
0
  6
Continuous
 62
     7
370
    15
100
AcDbLine
 10
75.1303217405
 20
10.3438534814
 30
0.0
 11
74.2796367997
 21
10.3438534814
 31
0.0
  0
LINE
  5
39F
330
1F
100
AcDbEntity
  8
0
  6
Continuous
 62
     7
370
    15
100
AcDbLine
 10
74.0399367207
 20
194.6350337046
 30
0.0
 11
73.892981469
 21
196.915280171
 31
0.0
  0
LINE
  5
3A0
330
1F
100
AcDbEntity
  8
0
  6
Continuous
 62
     7
370
    15
100
AcDbLine
 10
74.0399367207
 20
196.915280171
 30
0.0
 11
73.892981469
 21
196.915280171
 31
0.0
  0
LINE
  5
3A1
330
1F
100
AcDbEntity
  8
0
  6
Continuous
 62
     7
370
    15
100
AcDbLine
 10
74.0399367207
 20
191.6438528377
 30
0.0
 11
73.892981469
 21
191.6438528377
 31
0.0
  0
LINE
  5
3A2
330
1F
100
AcDbEntity
  8
0
  6
Continuous
 62
     7
370
    15
100
AcDbLine
 10
74.0399367207
 20
189.5867102819
 30
0.0
 11
73.892981469
 21
189.5867102819
 31
0.0
  0
LINE
  5
3A3
330
1F
100
AcDbEntity
  8
0
  6
Continuous
 62
     7
370
    15
100
AcDbLine
 10
73.892981469
 20
189.5867102819
 30
0.0
 11
73.892981469
 21
191.6438528377
 31
0.0
  0
LINE
  5
3A4
330
1F
100
AcDbEntity
  8
0
  6
Continuous
 62
     7
370
    15
100
AcDbLine
 10
74.0399367207
 20
188.7638532597
 30
0.0
 11
73.892981469
 21
188.7638532597
 31
0.0
  0
LINE
  5
3A5
330
1F
100
AcDbEntity
  8
0
  6
Continuous
 62
     7
370
    15
100
AcDbLine
 10
74.0399367207
 20
186.6295673924
 30
0.0
 11
73.892981469
 21
186.6295673924
 31
0.0
  0
LINE
  5
3A6
330
1F
100
AcDbEntity
  8
0
  6
Continuous
 62
     7
370
    15
100
AcDbLine
 10
73.892981469
 20
186.6295673924
 30
0.0
 11
73.892981469
 21
188.7638532597
 31
0.0
  0
SPLINE
  5
3A7
330
1F
100
AcDbEntity
  8
0
  6
Continuous
 62
     7
370
    15
100
AcDbSpline
210
0.0
220
0.0
230
1.0
 70
     8
 71
     3
 72
    10
 73
     6
 74
     0
 42
0.00000001
 43
0.00000001
 12
1.0
 22
0.0
 32
0.0
 13
1.0
 23
0.0
 33
0.0
 40
0.0
 40
0.0
 40
0.0
 40
0.0
 40
0.4475629607943962
 40
0.8954660748343604
 40
1.0
 40
1.0
 40
1.0
 40
1.0
 10
114.2750388974094
 20
218.5577713924391
 30
0.0
 10
114.0697559186286
 20
218.6385757218638
 30
0.0
 10
113.6590339435285
 20
218.8002457929775
 30
0.0
 10
113.1974960284868
 20
218.9674287438428
 30
0.0
 10
112.9395773785591
 20
219.0405968838458
 30
0.0
 10
112.8907731765651
 20
219.0544419961913
 30
0.0
  0
LINE
  5
3A8
330
1F
100
AcDbEntity
  8
0
  6
Continuous
 62
     7
370
    15
100
AcDbLine
 10
114.2750388974
 20
218.5577713924
 30
0.0
 11
114.2750388974
 21
205.6295686441
 31
0.0
  0
SPLINE
  5
3A9
330
1F
100
AcDbEntity
  8
0
  6
Continuous
 62
     7
370
    15
100
AcDbSpline
210
0.0
220
0.0
230
1.0
 70
     8
 71
     3
 72
     9
 73
     5
 74
     0
 42
0.00000001
 43
0.00000001
 12
1.0
 22
0.0
 32
0.0
 13
1.0
 23
0.0
 33
0.0
 40
0.0
 40
0.0
 40
0.0
 40
0.0
 40
0.4558048892851968
 40
1.0
 40
1.0
 40
1.0
 40
1.0
 10
113.22384393157
 20
-11.79688786688021
 30
0.0
 10
113.4195100902282
 20
-11.72922532848814
 30
0.0
 10
113.8487862196813
 20
-11.58077905249891
 30
0.0
 10
114.2724104644859
 20
-11.39806813047894
 30
0.0
 10
114.5029447072887
 20
-11.2986377400415
 30
0.0
  0
LINE
  5
3AA
330
1F
100
AcDbEntity
  8
0
  6
Continuous
 62
     7
370
    15
100
AcDbLine
 10
114.5029447073
 20
-11.29863774
 30
0.0
 11
114.5029447073
 21
1.6295650083
 31
0.0
  0
SPLINE
  5
3AB
330
1F
100
AcDbEntity
  8
0
  6
Continuous
 62
     7
370
    15
100
AcDbSpline
210
0.0
220
0.0
230
1.0
 70
     8
 71
     3
 72
    11
 73
     7
 74
     0
 42
0.00000001
 43
0.00000001
 12
1.0
 22
0.0
 32
0.0
 13
1.0
 23
0.0
 33
0.0
 40
0.0
 40
0.0
 40
0.0
 40
0.0
 40
0.2559781678375801
 40
0.5120292367139798
 40
0.7679459574455558
 40
1.0
 40
1.0
 40
1.0
 40
1.0
 10
87.27860516251559
 20
-11.2986377400415
 30
0.0
 10
87.40141583960987
 20
-11.40262906117637
 30
0.0
 10
87.64707216953873
 20
-11.61064131954728
 30
0.0
 10
88.01997582232046
 20
-11.86975258714157
 30
0.0
 10
88.3840395338183
 20
-12.0821866993874
 30
0.0
 10
88.62516729730491
 20
-12.17517492647818
 30
0.0
 10
88.73983538092608
 20
-12.21939539137057
 30
0.0
  0
LINE
  5
3AC
330
1F
100
AcDbEntity
  8
0
  6
Continuous
 62
     7
370
    15
100
AcDbLine
 10
87.2786051625
 20
-11.29863774
 30
0.0
 11
87.2786051625
 21
1.6295650083
 31
0.0
  0
SPLINE
  5
3AD
330
1F
100
AcDbEntity
  8
0
  6
Continuous
 62
     7
370
    15
100
AcDbSpline
210
0.0
220
0.0
230
1.0
 70
     8
 71
     3
 72
    12
 73
     8
 74
     0
 42
0.00000001
 43
0.00000001
 12
1.0
 22
0.0
 32
0.0
 13
1.0
 23
0.0
 33
0.0
 40
0.0
 40
0.0
 40
0.0
 40
0.0
 40
0.1966727856999204
 40
0.3947870811035522
 40
0.5964809564840757
 40
0.7982658437386749
 40
0.9999999999999999
 40
0.9999999999999999
 40
0.9999999999999999
 40
0.9999999999999999
 10
88.89077669323916
 20
219.5692920165999
 30
0.0
 10
88.79861240843701
 20
219.5373379221647
 30
0.0
 10
88.61360832233753
 20
219.4731955263243
 30
0.0
 10
88.33600305891406
 20
219.3113484640568
 30
0.0
 10
88.05811227648303
 20
219.1036545777733
 30
0.0
 10
87.78077140366509
 20
218.853546861108
 30
0.0
 10
87.59792842077796
 20
218.6563549515788
 30
0.0
 10
87.50651842297549
 20
218.5577713924391
 30
0.0
  0
LINE
  5
3AE
330
1F
100
AcDbEntity
  8
0
  6
Continuous
 62
     7
370
    15
100
AcDbLine
 10
87.506518423
 20
218.5577713924
 30
0.0
 11
87.506518423
 21
205.6295686441
 31
0.0
  0
SPLINE
  5
3AF
330
1F
100
AcDbEntity
  8
0
  6
Continuous
 62
     7
370
    15
100
AcDbSpline
210
0.0
220
0.0
230
1.0
 70
     8
 71
     3
 72
    11
 73
     7
 74
     0
 42
0.00000001
 43
0.00000001
 12
1.0
 22
0.0
 32
0.0
 13
1.0
 23
0.0
 33
0.0
 40
0.0
 40
0.0
 40
0.0
 40
0.0
 40
0.1328501880745579
 40
0.4218370247960991
 40
0.7109549558057121
 40
1.0
 40
1.0
 40
1.0
 40
1.0
 10
113.3140928143405
 20
219.3788700777037
 30
0.0
 10
113.3572849249598
 20
219.3552992776452
 30
0.0
 10
113.494432125896
 20
219.2804553025418
 30
0.0
 10
113.7233689291217
 20
219.1017555964023
 30
0.0
 10
114.0007937115169
 20
218.8540216163981
 30
0.0
 10
114.1836315186684
 20
218.6565131673782
 30
0.0
 10
114.2750388974094
 20
218.5577713924391
 30
0.0
  0
SPLINE
  5
3B0
330
1F
100
AcDbEntity
  8
0
  6
Continuous
 62
     7
370
    15
100
AcDbSpline
210
0.0
220
0.0
230
1.0
 70
     8
 71
     3
 72
    10
 73
     6
 74
     0
 42
0.00000001
 43
0.00000001
 12
1.0
 22
0.0
 32
0.0
 13
1.0
 23
0.0
 33
0.0
 40
0.0
 40
0.0
 40
0.0
 40
0.0
 40
0.4115838570509138
 40
0.8232840251755871
 40
0.9999999999999999
 40
0.9999999999999999
 40
0.9999999999999999
 40
0.9999999999999999
 10
114.5029447072887
 20
-11.2986377400415
 30
0.0
 10
114.38009606347
 20
-11.40198011755297
 30
0.0
 10
114.1343640595593
 20
-11.608694076498
 30
0.0
 10
113.8328228448956
 20
-11.82642472953785
 30
0.0
 10
113.653481940256
 20
-11.92505511081965
 30
0.0
 10
113.5996214145565
 20
-11.95467626276184
 30
0.0
  0
SPLINE
  5
3B1
330
1F
100
AcDbEntity
  8
0
  6
Continuous
 62
     7
370
    15
100
AcDbSpline
210
0.0
220
0.0
230
1.0
 70
     8
 71
     3
 72
     9
 73
     5
 74
     0
 42
0.00000001
 43
0.00000001
 12
1.0
 22
0.0
 32
0.0
 13
1.0
 23
0.0
 33
0.0
 40
0.0
 40
0.0
 40
0.0
 40
0.0
 40
0.6342084806754551
 40
1.0
 40
1.0
 40
1.0
 40
1.0
 10
135.7797018283748
 20
-11.2986377400415
 30
0.0
 10
136.0109004994869
 20
-11.41482374705072
 30
0.0
 10
136.3754472978296
 20
-11.59802219133116
 30
0.0
 10
136.7456460056044
 20
-11.74041927859248
 30
0.0
 10
136.8810615533733
 20
-11.79250692548919
 30
0.0
  0
LINE
  5
3B2
330
1F
100
AcDbEntity
  8
0
  6
Continuous
 62
     7
370
    15
100
AcDbLine
 10
135.7797018284
 20
-11.29863774
 30
0.0
 11
135.7797018284
 21
1.6295650083
 31
0.0
  0
SPLINE
  5
3B3
330
1F
100
AcDbEntity
  8
0
  6
Continuous
 62
     7
370
    15
100
AcDbSpline
210
0.0
220
0.0
230
1.0
 70
     8
 71
     3
 72
     9
 73
     5
 74
     0
 42
0.00000001
 43
0.00000001
 12
1.0
 22
0.0
 32
0.0
 13
1.0
 23
0.0
 33
0.0
 40
0.0
 40
0.0
 40
0.0
 40
0.0
 40
0.5749482928911274
 40
1.0
 40
1.0
 40
1.0
 40
1.0
 10
163.4548313015842
 20
218.5577713924392
 30
0.0
 10
163.2684871807844
 20
218.6628402264646
 30
0.0
 10
162.9443813036059
 20
218.8455850668695
 30
0.0
 10
162.6157125082169
 20
218.9919002854637
 30
0.0
 10
162.4760112756633
 20
219.0540918189032
 30
0.0
  0
LINE
  5
3B4
330
1F
100
AcDbEntity
  8
0
  6
Continuous
 62
     7
370
    15
100
AcDbLine
 10
163.4548313016
 20
218.5577713924
 30
0.0
 11
163.4548313016
 21
205.6295686441
 31
0.0
  0
SPLINE
  5
3B5
330
1F
100
AcDbEntity
  8
0
  6
Continuous
 62
     7
370
    15
100
AcDbSpline
210
0.0
220
0.0
230
1.0
 70
     8
 71
     3
 72
     9
 73
     5
 74
     0
 42
0.00000001
 43
0.00000001
 12
1.0
 22
0.0
 32
0.0
 13
1.0
 23
0.0
 33
0.0
 40
0.0
 40
0.0
 40
0.0
 40
0.0
 40
0.4577685801976199
 40
1.0
 40
1.0
 40
1.0
 40
1.0
 10
136.72487503232
 20
219.0576904493315
 30
0.0
 10
136.5738785354071
 20
218.9895007910551
 30
0.0
 10
136.2440251915021
 20
218.8405398067801
 30
0.0
 10
135.9185173634675
 20
218.6571896229424
 30
0.0
 10
135.7420167917156
 20
218.5577713924391
 30
0.0
  0
LINE
  5
3B6
330
1F
100
AcDbEntity
  8
0
  6
Continuous
 62
     7
370
    15
100
AcDbLine
 10
135.7420167917
 20
218.5577713924
 30
0.0
 11
135.7420167917
 21
205.6295686441
 31
0.0
  0
SPLINE
  5
3B7
330
1F
100
AcDbEntity
  8
0
  6
Continuous
 62
     7
370
    15
100
AcDbSpline
210
0.0
220
0.0
230
1.0
 70
     8
 71
     3
 72
    10
 73
     6
 74
     0
 42
0.00000001
 43
0.00000001
 12
1.0
 22
0.0
 32
0.0
 13
1.0
 23
0.0
 33
0.0
 40
0.0
 40
0.0
 40
0.0
 40
0.0
 40
0.2762528895585346
 40
0.6381722530577711
 40
1.0
 40
1.0
 40
1.0
 40
1.0
 10
162.1312133067989
 20
-11.99671243848968
 30
0.0
 10
162.2509066656526
 20
-11.94568133254034
 30
0.0
 10
162.5274104901656
 20
-11.82779429102648
 30
0.0
 10
162.956329300676
 20
-11.59358890167669
 30
0.0
 10
163.2635560572808
 20
-11.39694649650044
 30
0.0
 10
163.4171499902153
 20
-11.29863774004153
 30
0.0
  0
LINE
  5
3B8
330
1F
100
AcDbEntity
  8
0
  6
Continuous
 62
     7
370
    15
100
AcDbLine
 10
163.4171499902
 20
-11.29863774
 30
0.0
 11
163.4171499902
 21
1.6295650083
 31
0.0
  0
SPLINE
  5
3B9
330
1F
100
AcDbEntity
  8
0
  6
Continuous
 62
     7
370
    15
100
AcDbSpline
210
0.0
220
0.0
230
1.0
 70
     8
 71
     3
 72
     9
 73
     5
 74
     0
 42
0.00000001
 43
0.00000001
 12
1.0
 22
0.0
 32
0.0
 13
1.0
 23
0.0
 33
0.0
 40
0.0
 40
0.0
 40
0.0
 40
0.0
 40
0.0633426930814629
 40
1.0
 40
1.0
 40
1.0
 40
1.0
 10
136.2727738016986
 20
-11.60373901548553
 30
0.0
 10
136.2622729907933
 20
-11.59811320287388
 30
0.0
 10
136.0964952128921
 20
-11.5092977083322
 30
0.0
 10
135.9329178038247
 20
-11.40052267232655
 30
0.0
 10
135.7797018283748
 20
-11.29863774004153
 30
0.0
  0
LINE
  5
3BA
330
1F
100
AcDbEntity
  8
0
  6
Continuous
 62
     8
370
    15
100
AcDbLine
 10
108.8907725209
 20
127.9277001548
 30
0.0
 11
141.5984264606
 21
127.9277001548
 31
0.0
  0
LINE
  5
3BB
330
1F
100
AcDbEntity
  8
0
  6
Continuous
 62
     8
370
    15
100
AcDbLine
 10
157.598425358
 20
127.9277001548
 30
0.0
 11
210.4814422348
 21
127.9277001548
 31
0.0
  0
LINE
  5
3BC
330
1F
100
AcDbEntity
  8
0
  6
Continuous
 62
     8
370
    15
100
AcDbLine
 10
226.4814420635
 20
127.9277001548
 30
0.0
 11
259.1890922779
 21
127.9277001548
 31
0.0
  0
LINE
  5
3BD
330
1F
100
AcDbEntity
  8
0
  6
Continuous
 62
     8
370
    15
100
AcDbLine
 10
108.8907725209
 20
125.1100358593
 30
0.0
 11
141.5984264606
 21
125.1100358593
 31
0.0
  0
LINE
  5
3BE
330
1F
100
AcDbEntity
  8
0
  6
Continuous
 62
     8
370
    15
100
AcDbLine
 10
157.598425358
 20
125.1100358593
 30
0.0
 11
210.4814422348
 21
125.1100358593
 31
0.0
  0
LINE
  5
3BF
330
1F
100
AcDbEntity
  8
0
  6
Continuous
 62
     8
370
    15
100
AcDbLine
 10
226.4814420635
 20
125.1100358593
 30
0.0
 11
259.1890922779
 21
125.1100358593
 31
0.0
  0
LINE
  5
3C0
330
1F
100
AcDbEntity
  8
0
  6
Continuous
 62
     8
370
    15
100
AcDbLine
 10
108.8907725209
 20
124.3439913767
 30
0.0
 11
141.5984264606
 21
124.3439913767
 31
0.0
  0
LINE
  5
3C1
330
1F
100
AcDbEntity
  8
0
  6
Continuous
 62
     8
370
    15
100
AcDbLine
 10
157.598425358
 20
124.3439913767
 30
0.0
 11
210.4814422348
 21
124.3439913767
 31
0.0
  0
LINE
  5
3C2
330
1F
100
AcDbEntity
  8
0
  6
Continuous
 62
     8
370
    15
100
AcDbLine
 10
226.4814420635
 20
124.3439913767
 30
0.0
 11
259.1890922779
 21
124.3439913767
 31
0.0
  0
LINE
  5
3C3
330
1F
100
AcDbEntity
  8
FORMAT
  6
CENTERX2
370
     0
100
AcDbLine
 10
184.0399335492
 20
222.9241263996
 30
0.0
 11
184.0399335492
 21
-16.3315581966
 31
0.0
  0
ENDSEC
  0
SECTION
  2
OBJECTS
  0
DICTIONARY
  5
C
330
0
100
AcDbDictionary
281
     1
  3
ACAD_GROUP
350
D
  3
ACAD_LAYOUT
350
1A
  3
ACAD_MLINESTYLE
350
17
  3
ACAD_PLOTSETTINGS
350
19
  3
ACAD_PLOTSTYLENAME
350
E
  0
DICTIONARY
  5
D
102
{ACAD_REACTORS
330
C
102
}
330
C
100
AcDbDictionary
281
     1
  0
DICTIONARY
  5
1A
102
{ACAD_REACTORS
330
C
102
}
330
C
100
AcDbDictionary
281
     1
  3
Layout1
350
1E
  3
Layout2
350
26
  3
Model
350
22
  0
DICTIONARY
  5
17
102
{ACAD_REACTORS
330
C
102
}
330
C
100
AcDbDictionary
281
     1
  3
Standard
350
18
  0
DICTIONARY
  5
19
102
{ACAD_REACTORS
330
C
102
}
330
C
100
AcDbDictionary
281
     1
  0
ACDBDICTIONARYWDFLT
  5
E
102
{ACAD_REACTORS
330
C
102
}
330
C
100
AcDbDictionary
281
     1
  3
Normal
350
F
100
AcDbDictionaryWithDefault
340
F
  0
LAYOUT
  5
1E
102
{ACAD_REACTORS
330
1A
102
}
330
1A
100
AcDbPlotSettings
  1

  2
none_device
  4

  6

 40
0.0
 41
0.0
 42
0.0
 43
0.0
 44
0.0
 45
0.0
 46
0.0
 47
0.0
 48
0.0
 49
0.0
140
0.0
141
0.0
142
1.0
143
1.0
 70
   688
 72
     0
 73
     0
 74
     5
  7

 75
    16
147
1.0
148
0.0
149
0.0
100
AcDbLayout
  1
Layout1
 70
     1
 71
     1
 10
0.0
 20
0.0
 11
420.0
 21
297.0
 12
0.0
 22
0.0
 32
0.0
 14
1.0000000000E+20
 24
1.0000000000E+20
 34
1.0000000000E+20
 15
-1.0000000000E+20
 25
-1.0000000000E+20
 35
-1.0000000000E+20
146
0.0
 13
0.0
 23
0.0
 33
0.0
 16
1.0
 26
0.0
 36
0.0
 17
0.0
 27
1.0
 37
0.0
 76
     0
330
1B
  0
LAYOUT
  5
26
102
{ACAD_REACTORS
330
1A
102
}
330
1A
100
AcDbPlotSettings
  1

  2
none_device
  4

  6

 40
0.0
 41
0.0
 42
0.0
 43
0.0
 44
0.0
 45
0.0
 46
0.0
 47
0.0
 48
0.0
 49
0.0
140
0.0
141
0.0
142
1.0
143
1.0
 70
   688
 72
     0
 73
     0
 74
     5
  7

 75
    16
147
1.0
148
0.0
149
0.0
100
AcDbLayout
  1
Layout2
 70
     1
 71
     2
 10
0.0
 20
0.0
 11
0.0
 21
0.0
 12
0.0
 22
0.0
 32
0.0
 14
0.0
 24
0.0
 34
0.0
 15
0.0
 25
0.0
 35
0.0
146
0.0
 13
0.0
 23
0.0
 33
0.0
 16
1.0
 26
0.0
 36
0.0
 17
0.0
 27
1.0
 37
0.0
 76
     0
330
23
  0
LAYOUT
  5
22
102
{ACAD_REACTORS
330
1A
102
}
330
1A
100
AcDbPlotSettings
  1

  2
none_device
  4

  6

 40
0.0
 41
0.0
 42
0.0
 43
0.0
 44
0.0
 45
0.0
 46
0.0
 47
0.0
 48
0.0
 49
0.0
140
0.0
141
0.0
142
1.0
143
1.0
 70
  1712
 72
     0
 73
     0
 74
     0
  7

 75
     0
147
1.0
148
0.0
149
0.0
100
AcDbLayout
  1
Model
 70
     1
 71
     0
 10
0.0
 20
0.0
 11
841.0
 21
594.0
 12
0.0
 22
0.0
 32
0.0
 14
0.0
 24
0.0
 34
0.0
 15
841.0
 25
594.0
 35
0.0
146
0.0
 13
0.0
 23
0.0
 33
0.0
 16
1.0
 26
0.0
 36
0.0
 17
0.0
 27
1.0
 37
0.0
 76
     0
330
1F
331
29
  0
MLINESTYLE
  5
18
102
{ACAD_REACTORS
330
17
102
}
330
17
100
AcDbMlineStyle
  2
Standard
 70
     0
  3

 62
   256
 51
90.0
 52
90.0
 71
     2
 49
0.5
 62
   256
  6
BYLAYER
 49
-0.5
 62
   256
  6
BYLAYER
  0
ACDBPLACEHOLDER
  5
F
102
{ACAD_REACTORS
330
E
102
}
330
E
  0
ENDSEC
  0
EOF
