  0
SECTION
  2
HEADER
  9
$ACADVER
  1
AC1015
  9
$ACADMAINTVER
 70
     6
  9
$DWGCODEPAGE
  3
ANSI_1252
  9
$INSBASE
 10
0.0
 20
0.0
 30
0.0
  9
$EXTMIN
 10
0.0
 20
0.0
 30
0.0
  9
$EXTMAX
 10
841.0
 20
594.0
 30
0.0
  9
$LIMMIN
 10
0.0
 20
0.0
  9
$LIMMAX
 10
841.0
 20
594.0
  9
$ORTHOMODE
 70
     0
  9
$REGENMODE
 70
     1
  9
$FILLMODE
 70
     1
  9
$QTEXTMODE
 70
     0
  9
$MIRRTEXT
 70
     1
  9
$LTSCALE
 40
1.0
  9
$ATTMODE
 70
     1
  9
$TEXTSIZE
 40
2.5
  9
$TRACEWID
 40
1.0
  9
$TEXTSTYLE
  7
Standard
  9
$CLAYER
  8
0
  9
$CELTYPE
  6
ByLayer
  9
$CECOLOR
 62
   256
  9
$CELTSCALE
 40
1.0
  9
$DISPSILH
 70
     0
  9
$DIMSCALE
 40
1.0
  9
$DIMASZ
 40
2.5
  9
$DIMEXO
 40
1.0
  9
$DIMDLI
 40
3.75
  9
$DIMRND
 40
0.0
  9
$DIMDLE
 40
0.0
  9
$DIMEXE
 40
1.0
  9
$DIMTP
 40
0.0
  9
$DIMTM
 40
0.0
  9
$DIMTXT
 40
2.5
  9
$DIMCEN
 40
2.5
  9
$DIMTSZ
 40
0.0
  9
$DIMTOL
 70
     0
  9
$DIMLIM
 70
     0
  9
$DIMTIH
 70
     1
  9
$DIMTOH
 70
     1
  9
$DIMSE1
 70
     0
  9
$DIMSE2
 70
     0
  9
$DIMTAD
 70
     1
  9
$DIMZIN
 70
     0
  9
$DIMBLK
  1

  9
$DIMASO
 70
     1
  9
$DIMSHO
 70
     1
  9
$DIMPOST
  1

  9
$DIMAPOST
  1

  9
$DIMALT
 70
     0
  9
$DIMALTD
 70
     3
  9
$DIMALTF
 40
0.0393700787
  9
$DIMLFAC
 40
1.0
  9
$DIMTOFL
 70
     1
  9
$DIMTVP
 40
0.0
  9
$DIMTIX
 70
     0
  9
$DIMSOXD
 70
     0
  9
$DIMSAH
 70
     0
  9
$DIMBLK1
  1

  9
$DIMBLK2
  1

  9
$DIMSTYLE
  2
ISO-25
  9
$DIMCLRD
 70
     0
  9
$DIMCLRE
 70
     0
  9
$DIMCLRT
 70
     0
  9
$DIMTFAC
 40
1.0
  9
$DIMGAP
 40
1.524
  9
$DIMJUST
 70
     0
  9
$DIMSD1
 70
     0
  9
$DIMSD2
 70
     0
  9
$DIMTOLJ
 70
     0
  9
$DIMTZIN
 70
     0
  9
$DIMALTZ
 70
     0
  9
$DIMALTTZ
 70
     0
  9
$DIMUPT
 70
     0
  9
$DIMDEC
 70
     2
  9
$DIMTDEC
 70
     2
  9
$DIMALTU
 70
     2
  9
$DIMALTTD
 70
     3
  9
$DIMTXSTY
  7
Standard
  9
$DIMAUNIT
 70
     0
  9
$DIMADEC
 70
     2
  9
$DIMALTRND
 40
0.0
  9
$DIMAZIN
 70
     0
  9
$DIMDSEP
 70
    44
  9
$DIMATFIT
 70
     3
  9
$DIMFRAC
 70
     0
  9
$DIMLDRBLK
  1

  9
$DIMLUNIT
 70
     2
  9
$DIMLWD
 70
    -2
  9
$DIMLWE
 70
    -2
  9
$DIMTMOVE
 70
     0
  9
$LUNITS
 70
     2
  9
$LUPREC
 70
     2
  9
$SKETCHINC
 40
1.0
  9
$FILLETRAD
 40
10.0
  9
$AUNITS
 70
     0
  9
$AUPREC
 70
     2
  9
$MENU
  1
.
  9
$ELEVATION
 40
0.0
  9
$PELEVATION
 40
0.0
  9
$THICKNESS
 40
0.0
  9
$LIMCHECK
 70
     0
  9
$CHAMFERA
 40
10.0
  9
$CHAMFERB
 40
10.0
  9
$CHAMFERC
 40
20.0
  9
$CHAMFERD
 40
0.0
  9
$SKPOLY
 70
     0
  9
$TDCREATE
 40
2457179.3909425
  9
$TDUCREATE
 40
2457179.057609166
  9
$TDUPDATE
 40
2457179.390944838
  9
$TDUUPDATE
 40
2457179.057611505
  9
$TDINDWG
 40
0.0000000116
  9
$TDUSRTIMER
 40
0.0000000116
  9
$USRTIMER
 70
     1
  9
$ANGBASE
 50
0.0
  9
$ANGDIR
 70
     0
  9
$PDMODE
 70
     0
  9
$PDSIZE
 40
-1.0
  9
$PLINEWID
 40
0.0
  9
$SPLFRAME
 70
     0
  9
$SPLINETYPE
 70
     6
  9
$SPLINESEGS
 70
     8
  9
$HANDSEED
  5
465
  9
$SURFTAB1
 70
     6
  9
$SURFTAB2
 70
     6
  9
$SURFTYPE
 70
     6
  9
$SURFU
 70
     6
  9
$SURFV
 70
     6
  9
$UCSBASE
  2

  9
$UCSNAME
  2

  9
$UCSORG
 10
0.0
 20
0.0
 30
0.0
  9
$UCSXDIR
 10
1.0
 20
0.0
 30
0.0
  9
$UCSYDIR
 10
0.0
 20
1.0
 30
0.0
  9
$UCSORTHOREF
  2

  9
$UCSORTHOVIEW
 70
     0
  9
$UCSORGTOP
 10
0.0
 20
0.0
 30
0.0
  9
$UCSORGBOTTOM
 10
0.0
 20
0.0
 30
0.0
  9
$UCSORGLEFT
 10
0.0
 20
0.0
 30
0.0
  9
$UCSORGRIGHT
 10
0.0
 20
0.0
 30
0.0
  9
$UCSORGFRONT
 10
0.0
 20
0.0
 30
0.0
  9
$UCSORGBACK
 10
0.0
 20
0.0
 30
0.0
  9
$PUCSBASE
  2

  9
$PUCSNAME
  2

  9
$PUCSORG
 10
0.0
 20
0.0
 30
0.0
  9
$PUCSXDIR
 10
1.0
 20
0.0
 30
0.0
  9
$PUCSYDIR
 10
0.0
 20
1.0
 30
0.0
  9
$PUCSORTHOREF
  2

  9
$PUCSORTHOVIEW
 70
     0
  9
$PUCSORGTOP
 10
0.0
 20
0.0
 30
0.0
  9
$PUCSORGBOTTOM
 10
0.0
 20
0.0
 30
0.0
  9
$PUCSORGLEFT
 10
0.0
 20
0.0
 30
0.0
  9
$PUCSORGRIGHT
 10
0.0
 20
0.0
 30
0.0
  9
$PUCSORGFRONT
 10
0.0
 20
0.0
 30
0.0
  9
$PUCSORGBACK
 10
0.0
 20
0.0
 30
0.0
  9
$USERI1
 70
     0
  9
$USERI2
 70
     0
  9
$USERI3
 70
     0
  9
$USERI4
 70
     0
  9
$USERI5
 70
     0
  9
$USERR1
 40
0.0
  9
$USERR2
 40
0.0
  9
$USERR3
 40
0.0
  9
$USERR4
 40
0.0
  9
$USERR5
 40
0.0
  9
$WORLDVIEW
 70
     1
  9
$SHADEDGE
 70
     3
  9
$SHADEDIF
 70
    70
  9
$TILEMODE
 70
     1
  9
$MAXACTVP
 70
    64
  9
$PINSBASE
 10
0.0
 20
0.0
 30
0.0
  9
$PLIMCHECK
 70
     0
  9
$PEXTMIN
 10
1.0000000000E+20
 20
1.0000000000E+20
 30
1.0000000000E+20
  9
$PEXTMAX
 10
-1.0000000000E+20
 20
-1.0000000000E+20
 30
-1.0000000000E+20
  9
$PLIMMIN
 10
0.0
 20
0.0
  9
$PLIMMAX
 10
420.0
 20
297.0
  9
$UNITMODE
 70
     0
  9
$VISRETAIN
 70
     1
  9
$PLINEGEN
 70
     0
  9
$PSLTSCALE
 70
     1
  9
$TREEDEPTH
 70
  3020
  9
$CMLSTYLE
  2
Standard
  9
$CMLJUST
 70
     0
  9
$CMLSCALE
 40
20.0
  9
$PROXYGRAPHICS
 70
     1
  9
$MEASUREMENT
 70
     1
  9
$CELWEIGHT
370
    -1
  9
$ENDCAPS
280
     0
  9
$JOINSTYLE
280
     0
  9
$LWDISPLAY
290
     1
  9
$INSUNITS
 70
     4
  9
$HYPERLINKBASE
  1

  9
$STYLESHEET
  1

  9
$XEDIT
290
     1
  9
$CEPSNTYPE
380
     0
  9
$PSTYLEMODE
290
     1
  9
$FINGERPRINTGUID
  2
{BB2B9247-59DF-4861-880A-7D51366ED1F8}
  9
$VERSIONGUID
  2
{FAEB1C32-E019-11D5-929B-00C0DF256EC4}
  9
$EXTNAMES
290
     1
  9
$PSVPSCALE
 40
0.0
  9
$OLESTARTUP
290
     0
  0
ENDSEC
  0
SECTION
  2
CLASSES
  0
CLASS
  1
ACDBDICTIONARYWDFLT
  2
AcDbDictionaryWithDefault
  3
ObjectDBX Classes
 90
        0
280
     0
281
     0
  0
CLASS
  1
VISUALSTYLE
  2
AcDbVisualStyle
  3
ObjectDBX Classes
 90
     4095
280
     0
281
     0
  0
CLASS
  1
MATERIAL
  2
AcDbMaterial
  3
ObjectDBX Classes
 90
     1153
280
     0
281
     0
  0
CLASS
  1
ACDBPLACEHOLDER
  2
AcDbPlaceHolder
  3
ObjectDBX Classes
 90
        0
280
     0
281
     0
  0
CLASS
  1
LAYOUT
  2
AcDbLayout
  3
ObjectDBX Classes
 90
        0
280
     0
281
     0
  0
ENDSEC
  0
SECTION
  2
TABLES
  0
TABLE
  2
VPORT
  5
8
330
0
100
AcDbSymbolTable
 70
     1
  0
VPORT
  5
29
330
8
100
AcDbSymbolTableRecord
100
AcDbViewportTableRecord
  2
*Active
 70
     0
 10
0.0
 20
0.0
 11
1.0
 21
1.0
 12
420.5
 22
297.0
 13
0.0
 23
0.0
 14
10.0
 24
10.0
 15
10.0
 25
10.0
 16
0.0
 26
0.0
 36
1.0
 17
0.0
 27
0.0
 37
0.0
 40
594.0
 41
1.4158249158
 42
50.0
 43
0.0
 44
0.0
 50
0.0
 51
0.0
 71
     0
 72
  2000
 73
     1
 74
     3
 75
     0
 76
     0
 77
     0
 78
     0
281
     0
 65
     1
110
0.0
120
0.0
130
0.0
111
1.0
121
0.0
131
0.0
112
0.0
122
1.0
132
0.0
 79
     0
146
0.0
  0
ENDTAB
  0
TABLE
  2
LTYPE
  5
5
330
0
100
AcDbSymbolTable
 70
     6
  0
LTYPE
  5
14
330
5
100
AcDbSymbolTableRecord
100
AcDbLinetypeTableRecord
  2
ByBlock
 70
     0
  3

 72
    65
 73
     0
 40
0.0
  0
LTYPE
  5
15
330
5
100
AcDbSymbolTableRecord
100
AcDbLinetypeTableRecord
  2
ByLayer
 70
     0
  3

 72
    65
 73
     0
 40
0.0
  0
LTYPE
  5
16
330
5
100
AcDbSymbolTableRecord
100
AcDbLinetypeTableRecord
  2
Continuous
 70
     0
  3
Solid line
 72
    65
 73
     0
 40
0.0
  0
LTYPE
  5
3F
330
5
100
AcDbSymbolTableRecord
100
AcDbLinetypeTableRecord
  2
HIDDEN
 70
     0
  3
Hidden __ __ __ __ __ __ __ __ __ __ __ __ __ __
 72
    65
 73
     2
 40
1.905
 49
1.27
 74
     0
 49
-0.635
 74
     0
  0
LTYPE
  5
40
330
5
100
AcDbSymbolTableRecord
100
AcDbLinetypeTableRecord
  2
PHANTOM
 70
     0
  3
Phantom ______  __  __  ______  __  __  ______
 72
    65
 73
     6
 40
12.7
 49
6.35
 74
     0
 49
-1.27
 74
     0
 49
1.27
 74
     0
 49
-1.27
 74
     0
 49
1.27
 74
     0
 49
-1.27
 74
     0
  0
LTYPE
  5
41
330
5
100
AcDbSymbolTableRecord
100
AcDbLinetypeTableRecord
  2
CENTER
 70
     0
  3
Center ____ _ ____ _ ____ _ ____ _ ____ _ ____
 72
    65
 73
     4
 40
10.16
 49
6.35
 74
     0
 49
-1.27
 74
     0
 49
1.27
 74
     0
 49
-1.27
 74
     0
  0
LTYPE
  5
42
330
5
100
AcDbSymbolTableRecord
100
AcDbLinetypeTableRecord
  2
CENTERX2
 70
     0
  3
Center (2x) ________  __  ________  __  _____
 72
    65
 73
     4
 40
20.32
 49
12.7
 74
     0
 49
-2.54
 74
     0
 49
2.54
 74
     0
 49
-2.54
 74
     0
  0
LTYPE
  5
43
330
5
100
AcDbSymbolTableRecord
100
AcDbLinetypeTableRecord
  2
DOT2
 70
     0
  3
Dot (.5x) ........................................
 72
    65
 73
     2
 40
0.635
 49
0.0
 74
     0
 49
-0.635
 74
     0
  0
ENDTAB
  0
TABLE
  2
LAYER
  5
2
330
0
100
AcDbSymbolTable
 70
     3
  0
LAYER
  5
10
330
2
100
AcDbSymbolTableRecord
100
AcDbLayerTableRecord
  2
0
 70
     0
 62
     7
  6
Continuous
370
    -3
390
F
  0
LAYER
  5
44
330
2
100
AcDbSymbolTableRecord
100
AcDbLayerTableRecord
  2
FORMAT
 70
     0
 62
     7
  6
Continuous
370
    -3
390
F
  0
LAYER
  5
45
330
2
100
AcDbSymbolTableRecord
100
AcDbLayerTableRecord
  2
PROTOTYPE
 70
     0
 62
     7
  6
Continuous
370
    -3
390
F
  0
ENDTAB
  0
TABLE
  2
STYLE
  5
3
330
0
100
AcDbSymbolTable
 70
     1
  0
STYLE
  5
11
330
3
100
AcDbSymbolTableRecord
100
AcDbTextStyleTableRecord
  2
Standard
 70
     0
 40
0.0
 41
1.0
 50
0.0
 71
     0
 42
2.5
  3
txt
  4

  0
ENDTAB
  0
TABLE
  2
VIEW
  5
6
330
0
100
AcDbSymbolTable
 70
     0
  0
ENDTAB
  0
TABLE
  2
UCS
  5
7
330
0
100
AcDbSymbolTable
 70
     0
  0
ENDTAB
  0
TABLE
  2
APPID
  5
9
330
0
100
AcDbSymbolTable
 70
     1
  0
APPID
  5
12
330
9
100
AcDbSymbolTableRecord
100
AcDbRegAppTableRecord
  2
ACAD
 70
     0
  0
ENDTAB
  0
TABLE
  2
DIMSTYLE
  5
A
330
0
100
AcDbSymbolTable
 70
     1
100
AcDbDimStyleTable
  0
DIMSTYLE
105
27
330
A
100
AcDbSymbolTableRecord
100
AcDbDimStyleTableRecord
  2
ISO-25
 70
     0
 41
2.5
 42
0.625
 43
3.75
 44
1.25
 73
     0
 74
     0
 77
     1
 78
     8
140
2.5
141
2.5
143
0.0393700787
147
0.625
171
     3
172
     1
178
     0
271
     2
272
     2
274
     3
278
    44
283
     0
284
     8
340
11
  0
ENDTAB
  0
TABLE
  2
BLOCK_RECORD
  5
1
330
0
100
AcDbSymbolTable
 70
     2
  0
BLOCK_RECORD
  5
1F
330
1
100
AcDbSymbolTableRecord
100
AcDbBlockTableRecord
  2
*Model_Space
340
22
  0
BLOCK_RECORD
  5
1B
330
1
100
AcDbSymbolTableRecord
100
AcDbBlockTableRecord
  2
*Paper_Space
340
1E
  0
BLOCK_RECORD
  5
23
330
1
100
AcDbSymbolTableRecord
100
AcDbBlockTableRecord
  2
*Paper_Space0
340
26
  0
BLOCK_RECORD
  5
203
330
1
100
AcDbSymbolTableRecord
100
AcDbBlockTableRecord
  2
SW_CENTERMARKSYMBOL_0
340
0
102
{BLKREFS
331
29A
102
}
  0
ENDTAB
  0
ENDSEC
  0
SECTION
  2
BLOCKS
  0
BLOCK
  5
20
330
1F
100
AcDbEntity
  8
0
100
AcDbBlockBegin
  2
*Model_Space
 70
     0
 10
0.0
 20
0.0
 30
0.0
  3
*Model_Space
  1

  0
ENDBLK
  5
21
330
1F
100
AcDbEntity
  8
0
100
AcDbBlockEnd
  0
BLOCK
  5
1C
330
1B
100
AcDbEntity
 67
     1
  8
0
100
AcDbBlockBegin
  2
*Paper_Space
 70
     0
 10
0.0
 20
0.0
 30
0.0
  3
*Paper_Space
  1

  0
ENDBLK
  5
1D
330
1B
100
AcDbEntity
 67
     1
  8
0
100
AcDbBlockEnd
  0
BLOCK
  5
24
330
23
100
AcDbEntity
  8
0
100
AcDbBlockBegin
  2
*Paper_Space0
 70
     0
 10
0.0
 20
0.0
 30
0.0
  3
*Paper_Space0
  1

  0
ENDBLK
  5
25
330
23
100
AcDbEntity
  8
0
100
AcDbBlockEnd
  0
BLOCK
  5
204
330
203
100
AcDbEntity
  8
0
100
AcDbBlockBegin
  2
SW_CENTERMARKSYMBOL_0
 70
     0
 10
0.0
 20
0.0
 30
0.0
  3
SW_CENTERMARKSYMBOL_0
  1

  0
ARC
  5
206
330
203
100
AcDbEntity
  8
FORMAT
 62
     0
100
AcDbCircle
 10
50.8412011381
 20
-320.9987106935
 30
0.0
 40
325.0000000000348
100
AcDbArc
 50
99.0
 51
99.4407367655
  0
ARC
  5
207
330
203
100
AcDbEntity
  8
FORMAT
 62
     0
100
AcDbCircle
 10
50.8412011381
 20
-320.9987106935
 30
0.0
 40
325.0000000000348
100
AcDbArc
 50
98.5592632345
 51
99.0
  0
ARC
  5
208
330
203
100
AcDbEntity
  8
FORMAT
 62
     0
100
AcDbCircle
 10
50.8412011381
 20
-320.9987106935
 30
0.0
 40
325.0000000000349
100
AcDbArc
 50
117.0
 51
117.4407367655
  0
ARC
  5
209
330
203
100
AcDbEntity
  8
FORMAT
 62
     0
100
AcDbCircle
 10
50.8412011381
 20
-320.9987106935
 30
0.0
 40
325.000000000035
100
AcDbArc
 50
116.5592632345
 51
117.0
  0
ARC
  5
20A
330
203
100
AcDbEntity
  8
FORMAT
 62
     0
100
AcDbCircle
 10
50.8412011381
 20
-320.9987106935
 30
0.0
 40
325.0000000000349
100
AcDbArc
 50
135.0
 51
135.4407367655
  0
ARC
  5
20B
330
203
100
AcDbEntity
  8
FORMAT
 62
     0
100
AcDbCircle
 10
50.8412011381
 20
-320.9987106935
 30
0.0
 40
325.0000000000349
100
AcDbArc
 50
134.5592632345
 51
135.0
  0
ARC
  5
20C
330
203
100
AcDbEntity
  8
FORMAT
 62
     0
100
AcDbCircle
 10
50.8412011381
 20
-320.9987106935
 30
0.0
 40
325.0000000000252
100
AcDbArc
 50
153.0
 51
153.4407367655
  0
ARC
  5
20D
330
203
100
AcDbEntity
  8
FORMAT
 62
     0
100
AcDbCircle
 10
50.8412011381
 20
-320.9987106935
 30
0.0
 40
325.0000000000252
100
AcDbArc
 50
152.5592632345
 51
153.0
  0
ARC
  5
20E
330
203
100
AcDbEntity
  8
FORMAT
 62
     0
100
AcDbCircle
 10
50.8412011381
 20
-320.9987106935
 30
0.0
 40
325.0000000000168
100
AcDbArc
 50
171.0
 51
171.4407367655
  0
ARC
  5
20F
330
203
100
AcDbEntity
  8
FORMAT
 62
     0
100
AcDbCircle
 10
50.8412011381
 20
-320.9987106935
 30
0.0
 40
325.0000000000168
100
AcDbArc
 50
170.5592632345
 51
171.0
  0
ARC
  5
210
330
203
100
AcDbEntity
  8
FORMAT
 62
     0
100
AcDbCircle
 10
50.8412011381
 20
-320.9987106935
 30
0.0
 40
325.0000000000065
100
AcDbArc
 50
189.0
 51
189.4407367655
  0
ARC
  5
211
330
203
100
AcDbEntity
  8
FORMAT
 62
     0
100
AcDbCircle
 10
50.8412011381
 20
-320.9987106935
 30
0.0
 40
325.0000000000065
100
AcDbArc
 50
188.5592632345
 51
189.0
  0
ARC
  5
212
330
203
100
AcDbEntity
  8
FORMAT
 62
     0
100
AcDbCircle
 10
50.8412011381
 20
-320.9987106935
 30
0.0
 40
324.9999999999936
100
AcDbArc
 50
207.0
 51
207.4407367655
  0
ARC
  5
213
330
203
100
AcDbEntity
  8
FORMAT
 62
     0
100
AcDbCircle
 10
50.8412011381
 20
-320.9987106935
 30
0.0
 40
324.9999999999936
100
AcDbArc
 50
206.5592632345
 51
207.0
  0
ARC
  5
214
330
203
100
AcDbEntity
  8
FORMAT
 62
     0
100
AcDbCircle
 10
50.8412011381
 20
-320.9987106935
 30
0.0
 40
324.9999999999857
100
AcDbArc
 50
225.0
 51
225.4407367655
  0
ARC
  5
215
330
203
100
AcDbEntity
  8
FORMAT
 62
     0
100
AcDbCircle
 10
50.8412011381
 20
-320.9987106935
 30
0.0
 40
324.9999999999856
100
AcDbArc
 50
224.5592632345
 51
225.0
  0
ARC
  5
216
330
203
100
AcDbEntity
  8
FORMAT
 62
     0
100
AcDbCircle
 10
50.8412011381
 20
-320.9987106935
 30
0.0
 40
324.9999999999769
100
AcDbArc
 50
243.0
 51
243.4407367655
  0
ARC
  5
217
330
203
100
AcDbEntity
  8
FORMAT
 62
     0
100
AcDbCircle
 10
50.8412011381
 20
-320.9987106935
 30
0.0
 40
324.9999999999769
100
AcDbArc
 50
242.5592632345
 51
243.0
  0
ARC
  5
218
330
203
100
AcDbEntity
  8
FORMAT
 62
     0
100
AcDbCircle
 10
50.8412011381
 20
-320.9987106935
 30
0.0
 40
324.9999999999706
100
AcDbArc
 50
261.0
 51
261.4407367655
  0
ARC
  5
219
330
203
100
AcDbEntity
  8
FORMAT
 62
     0
100
AcDbCircle
 10
50.8412011381
 20
-320.9987106935
 30
0.0
 40
324.9999999999706
100
AcDbArc
 50
260.5592632345
 51
261.0
  0
ARC
  5
21A
330
203
100
AcDbEntity
  8
FORMAT
 62
     0
100
AcDbCircle
 10
50.8412011381
 20
-320.9987106935
 30
0.0
 40
324.9999999999538
100
AcDbArc
 50
279.0
 51
279.4407367655
  0
ARC
  5
21B
330
203
100
AcDbEntity
  8
FORMAT
 62
     0
100
AcDbCircle
 10
50.8412011381
 20
-320.9987106935
 30
0.0
 40
324.9999999999538
100
AcDbArc
 50
278.5592632345
 51
279.0
  0
ARC
  5
21C
330
203
100
AcDbEntity
  8
FORMAT
 62
     0
100
AcDbCircle
 10
50.8412011381
 20
-320.9987106935
 30
0.0
 40
324.9999999999673
100
AcDbArc
 50
297.0
 51
297.4407367655
  0
ARC
  5
21D
330
203
100
AcDbEntity
  8
FORMAT
 62
     0
100
AcDbCircle
 10
50.8412011381
 20
-320.9987106935
 30
0.0
 40
324.9999999999673
100
AcDbArc
 50
296.5592632345
 51
297.0
  0
ARC
  5
21E
330
203
100
AcDbEntity
  8
FORMAT
 62
     0
100
AcDbCircle
 10
50.8412011381
 20
-320.9987106935
 30
0.0
 40
324.9999999999705
100
AcDbArc
 50
315.0
 51
315.4407367655
  0
ARC
  5
21F
330
203
100
AcDbEntity
  8
FORMAT
 62
     0
100
AcDbCircle
 10
50.8412011381
 20
-320.9987106935
 30
0.0
 40
324.9999999999705
100
AcDbArc
 50
314.5592632345
 51
315.0
  0
ARC
  5
220
330
203
100
AcDbEntity
  8
FORMAT
 62
     0
100
AcDbCircle
 10
50.8412011381
 20
-320.9987106935
 30
0.0
 40
324.9999999999768
100
AcDbArc
 50
333.0
 51
333.4407367655
  0
ARC
  5
221
330
203
100
AcDbEntity
  8
FORMAT
 62
     0
100
AcDbCircle
 10
50.8412011381
 20
-320.9987106935
 30
0.0
 40
324.9999999999769
100
AcDbArc
 50
332.5592632345
 51
333.0
  0
ARC
  5
222
330
203
100
AcDbEntity
  8
FORMAT
 62
     0
100
AcDbCircle
 10
50.8412011381
 20
-320.9987106935
 30
0.0
 40
324.9999999999704
100
AcDbArc
 50
351.0
 51
351.4407367655
  0
ARC
  5
223
330
203
100
AcDbEntity
  8
FORMAT
 62
     0
100
AcDbCircle
 10
50.8412011381
 20
-320.9987106935
 30
0.0
 40
324.9999999999704
100
AcDbArc
 50
350.5592632345
 51
351.0
  0
ARC
  5
224
330
203
100
AcDbEntity
  8
FORMAT
 62
     0
100
AcDbCircle
 10
50.8412011381
 20
-320.9987106935
 30
0.0
 40
324.9999999999955
100
AcDbArc
 50
9.0
 51
9.4407367655
  0
ARC
  5
225
330
203
100
AcDbEntity
  8
FORMAT
 62
     0
100
AcDbCircle
 10
50.8412011381
 20
-320.9987106935
 30
0.0
 40
324.9999999999955
100
AcDbArc
 50
8.5592632345
 51
9.0
  0
ARC
  5
226
330
203
100
AcDbEntity
  8
FORMAT
 62
     0
100
AcDbCircle
 10
50.8412011381
 20
-320.9987106935
 30
0.0
 40
325.0000000000062
100
AcDbArc
 50
27.0
 51
27.4407367655
  0
ARC
  5
227
330
203
100
AcDbEntity
  8
FORMAT
 62
     0
100
AcDbCircle
 10
50.8412011381
 20
-320.9987106935
 30
0.0
 40
325.0000000000062
100
AcDbArc
 50
26.5592632345
 51
27.0
  0
ARC
  5
228
330
203
100
AcDbEntity
  8
FORMAT
 62
     0
100
AcDbCircle
 10
50.8412011381
 20
-320.9987106935
 30
0.0
 40
325.0000000000165
100
AcDbArc
 50
45.0
 51
45.4407367655
  0
ARC
  5
229
330
203
100
AcDbEntity
  8
FORMAT
 62
     0
100
AcDbCircle
 10
50.8412011381
 20
-320.9987106935
 30
0.0
 40
325.0000000000165
100
AcDbArc
 50
44.5592632345
 51
45.0
  0
ARC
  5
22A
330
203
100
AcDbEntity
  8
FORMAT
 62
     0
100
AcDbCircle
 10
50.8412011381
 20
-320.9987106935
 30
0.0
 40
325.0000000000204
100
AcDbArc
 50
63.0
 51
63.4407367655
  0
ARC
  5
22B
330
203
100
AcDbEntity
  8
FORMAT
 62
     0
100
AcDbCircle
 10
50.8412011381
 20
-320.9987106935
 30
0.0
 40
325.0000000000204
100
AcDbArc
 50
62.5592632345
 51
63.0
  0
ARC
  5
22C
330
203
100
AcDbEntity
  8
FORMAT
 62
     0
100
AcDbCircle
 10
50.8412011381
 20
-320.9987106935
 30
0.0
 40
325.0000000000315
100
AcDbArc
 50
81.0
 51
81.4407367655
  0
ARC
  5
22D
330
203
100
AcDbEntity
  8
FORMAT
 62
     0
100
AcDbCircle
 10
50.8412011381
 20
-320.9987106935
 30
0.0
 40
325.0000000000314
100
AcDbArc
 50
80.5592632345
 51
81.0
  0
ARC
  5
22E
330
203
100
AcDbEntity
  8
FORMAT
 62
     0
100
AcDbCircle
 10
50.8412011381
 20
-320.9987106935
 30
0.0
 40
325.0000000000348
100
AcDbArc
 50
99.881473531
 51
116.118526469
  0
ARC
  5
22F
330
203
100
AcDbEntity
  8
FORMAT
 62
     0
100
AcDbCircle
 10
50.8412011381
 20
-320.9987106935
 30
0.0
 40
325.0000000000349
100
AcDbArc
 50
117.881473531
 51
134.118526469
  0
ARC
  5
230
330
203
100
AcDbEntity
  8
FORMAT
 62
     0
100
AcDbCircle
 10
50.8412011381
 20
-320.9987106935
 30
0.0
 40
325.0000000000349
100
AcDbArc
 50
135.881473531
 51
152.118526469
  0
ARC
  5
231
330
203
100
AcDbEntity
  8
FORMAT
 62
     0
100
AcDbCircle
 10
50.8412011381
 20
-320.9987106935
 30
0.0
 40
325.0000000000252
100
AcDbArc
 50
153.881473531
 51
170.118526469
  0
ARC
  5
232
330
203
100
AcDbEntity
  8
FORMAT
 62
     0
100
AcDbCircle
 10
50.8412011381
 20
-320.9987106935
 30
0.0
 40
325.0000000000167
100
AcDbArc
 50
171.881473531
 51
188.118526469
  0
ARC
  5
233
330
203
100
AcDbEntity
  8
FORMAT
 62
     0
100
AcDbCircle
 10
50.8412011381
 20
-320.9987106935
 30
0.0
 40
325.0000000000064
100
AcDbArc
 50
189.881473531
 51
206.118526469
  0
ARC
  5
234
330
203
100
AcDbEntity
  8
FORMAT
 62
     0
100
AcDbCircle
 10
50.8412011381
 20
-320.9987106935
 30
0.0
 40
324.9999999999936
100
AcDbArc
 50
207.881473531
 51
224.118526469
  0
ARC
  5
235
330
203
100
AcDbEntity
  8
FORMAT
 62
     0
100
AcDbCircle
 10
50.8412011381
 20
-320.9987106935
 30
0.0
 40
324.9999999999857
100
AcDbArc
 50
225.881473531
 51
242.118526469
  0
ARC
  5
236
330
203
100
AcDbEntity
  8
FORMAT
 62
     0
100
AcDbCircle
 10
50.8412011381
 20
-320.9987106935
 30
0.0
 40
324.9999999999769
100
AcDbArc
 50
243.881473531
 51
260.118526469
  0
ARC
  5
237
330
203
100
AcDbEntity
  8
FORMAT
 62
     0
100
AcDbCircle
 10
50.8412011381
 20
-320.9987106935
 30
0.0
 40
324.9999999999706
100
AcDbArc
 50
261.881473531
 51
278.118526469
  0
ARC
  5
238
330
203
100
AcDbEntity
  8
FORMAT
 62
     0
100
AcDbCircle
 10
50.8412011381
 20
-320.9987106935
 30
0.0
 40
324.9999999999673
100
AcDbArc
 50
279.881473531
 51
296.118526469
  0
ARC
  5
239
330
203
100
AcDbEntity
  8
FORMAT
 62
     0
100
AcDbCircle
 10
50.8412011381
 20
-320.9987106935
 30
0.0
 40
324.9999999999706
100
AcDbArc
 50
297.881473531
 51
314.118526469
  0
ARC
  5
23A
330
203
100
AcDbEntity
  8
FORMAT
 62
     0
100
AcDbCircle
 10
50.8412011381
 20
-320.9987106935
 30
0.0
 40
324.9999999999768
100
AcDbArc
 50
315.881473531
 51
332.118526469
  0
ARC
  5
23B
330
203
100
AcDbEntity
  8
FORMAT
 62
     0
100
AcDbCircle
 10
50.8412011381
 20
-320.9987106935
 30
0.0
 40
324.9999999999768
100
AcDbArc
 50
333.881473531
 51
350.118526469
  0
ARC
  5
23C
330
203
100
AcDbEntity
  8
FORMAT
 62
     0
100
AcDbCircle
 10
50.8412011381
 20
-320.9987106935
 30
0.0
 40
324.9999999999954
100
AcDbArc
 50
351.881473531
 51
8.118526469
  0
ARC
  5
23D
330
203
100
AcDbEntity
  8
FORMAT
 62
     0
100
AcDbCircle
 10
50.8412011381
 20
-320.9987106935
 30
0.0
 40
325.0000000000064
100
AcDbArc
 50
9.881473531
 51
26.118526469
  0
ARC
  5
23E
330
203
100
AcDbEntity
  8
FORMAT
 62
     0
100
AcDbCircle
 10
50.8412011381
 20
-320.9987106935
 30
0.0
 40
325.0000000000164
100
AcDbArc
 50
27.881473531
 51
44.118526469
  0
ARC
  5
23F
330
203
100
AcDbEntity
  8
FORMAT
 62
     0
100
AcDbCircle
 10
50.8412011381
 20
-320.9987106935
 30
0.0
 40
325.0000000000204
100
AcDbArc
 50
45.881473531
 51
62.118526469
  0
ARC
  5
240
330
203
100
AcDbEntity
  8
FORMAT
 62
     0
100
AcDbCircle
 10
50.8412011381
 20
-320.9987106935
 30
0.0
 40
325.0000000000314
100
AcDbArc
 50
63.881473531
 51
80.118526469
  0
ARC
  5
241
330
203
100
AcDbEntity
  8
FORMAT
 62
     0
100
AcDbCircle
 10
50.8412011381
 20
-320.9987106935
 30
0.0
 40
325.0000000000349
100
AcDbArc
 50
81.881473531
 51
98.118526469
  0
LINE
  5
242
330
203
100
AcDbEntity
  8
FORMAT
 62
     0
100
AcDbLine
 10
0.0
 20
0.0
 30
0.0
 11
-0.3910861626
 21
2.4692208515
 31
0.0
  0
LINE
  5
243
330
203
100
AcDbEntity
  8
FORMAT
 62
     0
100
AcDbLine
 10
0.0
 20
0.0
 30
0.0
 11
0.3910861626
 21
-2.4692208515
 31
0.0
  0
LINE
  5
244
330
203
100
AcDbEntity
  8
FORMAT
 62
     0
100
AcDbLine
 10
-0.7821723252
 20
4.938441703
 30
0.0
 11
-3.0504720683
 21
19.2599226416
 31
0.0
  0
LINE
  5
245
330
203
100
AcDbEntity
  8
FORMAT
 62
     0
100
AcDbLine
 10
0.7821723252
 20
-4.938441703
 30
0.0
 11
3.0504720683
 21
-19.2599226416
 31
0.0
  0
LINE
  5
246
330
203
100
AcDbEntity
  8
FORMAT
 62
     0
100
AcDbLine
 10
-96.7057112773
 20
-31.4215903322
 30
0.0
 11
-97.8406875266
 21
-29.1940740217
 31
0.0
  0
LINE
  5
247
330
203
100
AcDbEntity
  8
FORMAT
 62
     0
100
AcDbLine
 10
-96.7057112773
 20
-31.4215903322
 30
0.0
 11
-95.5707350279
 21
-33.6491066427
 31
0.0
  0
LINE
  5
248
330
203
100
AcDbEntity
  8
FORMAT
 62
     0
100
AcDbLine
 10
-98.975663776
 20
-26.9665577113
 30
0.0
 11
-105.5585260222
 21
-14.0469631105
 31
0.0
  0
LINE
  5
249
330
203
100
AcDbEntity
  8
FORMAT
 62
     0
100
AcDbLine
 10
-94.4357587786
 20
-35.8766229531
 30
0.0
 11
-87.8528965324
 21
-48.7962175539
 31
0.0
  0
LINE
  5
24A
330
203
100
AcDbEntity
  8
FORMAT
 62
     0
100
AcDbLine
 10
-178.9685027476
 20
-91.1890068078
 30
0.0
 11
-180.7362697005
 21
-89.4212398548
 31
0.0
  0
LINE
  5
24B
330
203
100
AcDbEntity
  8
FORMAT
 62
     0
100
AcDbLine
 10
-178.9685027476
 20
-91.1890068078
 30
0.0
 11
-177.2007357946
 21
-92.9567737608
 31
0.0
  0
LINE
  5
24C
330
203
100
AcDbEntity
  8
FORMAT
 62
     0
100
AcDbLine
 10
-182.5040366535
 20
-87.6534729019
 30
0.0
 11
-191.3428714183
 21
-78.814638137
 31
0.0
  0
LINE
  5
24D
330
203
100
AcDbEntity
  8
FORMAT
 62
     0
100
AcDbLine
 10
-175.4329688416
 20
-94.7245407137
 30
0.0
 11
-166.5941340768
 21
-103.5633754786
 31
0.0
  0
LINE
  5
24E
330
203
100
AcDbEntity
  8
FORMAT
 62
     0
100
AcDbLine
 10
50.8412011381
 20
-320.9987106935
 30
0.0
 11
50.8412011381
 21
-318.4987106935
 31
0.0
  0
LINE
  5
24F
330
203
100
AcDbEntity
  8
FORMAT
 62
     0
100
AcDbLine
 10
50.8412011381
 20
-320.9987106935
 30
0.0
 11
48.3412011381
 21
-320.9987106935
 31
0.0
  0
LINE
  5
250
330
203
100
AcDbEntity
  8
FORMAT
 62
     0
100
AcDbLine
 10
50.8412011381
 20
-320.9987106935
 30
0.0
 11
50.8412011381
 21
-323.4987106935
 31
0.0
  0
LINE
  5
251
330
203
100
AcDbEntity
  8
FORMAT
 62
     0
100
AcDbLine
 10
50.8412011381
 20
-320.9987106935
 30
0.0
 11
53.3412011381
 21
-320.9987106935
 31
0.0
  0
LINE
  5
252
330
203
100
AcDbEntity
  8
FORMAT
 62
     0
100
AcDbLine
 10
50.8412011381
 20
-315.9987106935
 30
0.0
 11
50.8412011381
 21
43.4076506588
 31
0.0
  0
LINE
  5
253
330
203
100
AcDbEntity
  8
FORMAT
 62
     0
100
AcDbLine
 10
45.8412011381
 20
-320.9987106935
 30
0.0
 11
-313.1994705748
 21
-320.9987106935
 31
0.0
  0
LINE
  5
254
330
203
100
AcDbEntity
  8
FORMAT
 62
     0
100
AcDbLine
 10
50.8412011381
 20
-325.9987106935
 30
0.0
 11
50.8412011381
 21
-691.5915391891
 31
0.0
  0
LINE
  5
255
330
203
100
AcDbEntity
  8
FORMAT
 62
     0
100
AcDbLine
 10
55.8412011381
 20
-320.9987106935
 30
0.0
 11
411.4054546567
 21
-320.9987106935
 31
0.0
  0
LINE
  5
256
330
203
100
AcDbEntity
  8
FORMAT
 62
     0
100
AcDbLine
 10
-238.7359192231
 20
-173.4517982781
 30
0.0
 11
-240.9634355336
 21
-172.3168220287
 31
0.0
  0
LINE
  5
257
330
203
100
AcDbEntity
  8
FORMAT
 62
     0
100
AcDbLine
 10
-238.7359192231
 20
-173.4517982781
 30
0.0
 11
-236.5084029127
 21
-174.5867745274
 31
0.0
  0
LINE
  5
258
330
203
100
AcDbEntity
  8
FORMAT
 62
     0
100
AcDbLine
 10
-243.1909518441
 20
-171.1818457794
 30
0.0
 11
-256.1105464448
 21
-164.5989835331
 31
0.0
  0
LINE
  5
259
330
203
100
AcDbEntity
  8
FORMAT
 62
     0
100
AcDbLine
 10
-234.2808866022
 20
-175.7217507768
 30
0.0
 11
-221.3612920015
 21
-182.304613023
 31
0.0
  0
LINE
  5
25A
330
203
100
AcDbEntity
  8
FORMAT
 62
     0
100
AcDbLine
 10
-270.1575095553
 20
-270.1575095554
 30
0.0
 11
-272.6267304068
 21
-269.7664233927
 31
0.0
  0
LINE
  5
25B
330
203
100
AcDbEntity
  8
FORMAT
 62
     0
100
AcDbLine
 10
-270.1575095553
 20
-270.1575095554
 30
0.0
 11
-267.6882887039
 21
-270.548595718
 31
0.0
  0
LINE
  5
25C
330
203
100
AcDbEntity
  8
FORMAT
 62
     0
100
AcDbLine
 10
-275.0959512583
 20
-269.3753372301
 30
0.0
 11
-289.4174321969
 21
-267.1070374871
 31
0.0
  0
LINE
  5
25D
330
203
100
AcDbEntity
  8
FORMAT
 62
     0
100
AcDbLine
 10
-265.2190678524
 20
-270.9396818806
 30
0.0
 11
-250.8975869137
 21
-273.2079816236
 31
0.0
  0
LINE
  5
25E
330
203
100
AcDbEntity
  8
FORMAT
 62
     0
100
AcDbLine
 10
-270.1575095553
 20
-371.8399118315
 30
0.0
 11
-272.6267304068
 21
-372.2309979941
 31
0.0
  0
LINE
  5
25F
330
203
100
AcDbEntity
  8
FORMAT
 62
     0
100
AcDbLine
 10
-270.1575095553
 20
-371.8399118315
 30
0.0
 11
-267.6882887039
 21
-371.4488256689
 31
0.0
  0
LINE
  5
260
330
203
100
AcDbEntity
  8
FORMAT
 62
     0
100
AcDbLine
 10
-275.0959512583
 20
-372.6220841567
 30
0.0
 11
-289.4174321969
 21
-374.8903838998
 31
0.0
  0
LINE
  5
261
330
203
100
AcDbEntity
  8
FORMAT
 62
     0
100
AcDbLine
 10
-265.2190678524
 20
-371.0577395063
 30
0.0
 11
-250.8975869137
 21
-368.7894397632
 31
0.0
  0
LINE
  5
262
330
203
100
AcDbEntity
  8
FORMAT
 62
     0
100
AcDbLine
 10
-238.7359192231
 20
-468.5456231088
 30
0.0
 11
-240.9634355336
 21
-469.6805993581
 31
0.0
  0
LINE
  5
263
330
203
100
AcDbEntity
  8
FORMAT
 62
     0
100
AcDbLine
 10
-238.7359192231
 20
-468.5456231088
 30
0.0
 11
-236.5084029127
 21
-467.4106468594
 31
0.0
  0
LINE
  5
264
330
203
100
AcDbEntity
  8
FORMAT
 62
     0
100
AcDbLine
 10
-243.1909518441
 20
-470.8155756075
 30
0.0
 11
-254.3285333964
 21
-476.4904568542
 31
0.0
  0
LINE
  5
265
330
203
100
AcDbEntity
  8
FORMAT
 62
     0
100
AcDbLine
 10
-234.2808866022
 20
-466.2756706101
 30
0.0
 11
-223.1433050498
 21
-460.6007893633
 31
0.0
  0
LINE
  5
266
330
203
100
AcDbEntity
  8
FORMAT
 62
     0
100
AcDbLine
 10
-178.9685027475
 20
-550.8084145791
 30
0.0
 11
-180.7362697005
 21
-552.576181532
 31
0.0
  0
LINE
  5
267
330
203
100
AcDbEntity
  8
FORMAT
 62
     0
100
AcDbLine
 10
-178.9685027475
 20
-550.8084145791
 30
0.0
 11
-177.2007357946
 21
-549.0406476261
 31
0.0
  0
LINE
  5
268
330
203
100
AcDbEntity
  8
FORMAT
 62
     0
100
AcDbLine
 10
-182.5040366535
 20
-554.343948485
 30
0.0
 11
-192.7570849807
 21
-564.5969968122
 31
0.0
  0
LINE
  5
269
330
203
100
AcDbEntity
  8
FORMAT
 62
     0
100
AcDbLine
 10
-175.4329688416
 20
-547.2728806731
 30
0.0
 11
-165.1799205144
 21
-537.0198323459
 31
0.0
  0
LINE
  5
26A
330
203
100
AcDbEntity
  8
FORMAT
 62
     0
100
AcDbLine
 10
-96.7057112773
 20
-610.5758310546
 30
0.0
 11
-97.8406875266
 21
-612.8033473651
 31
0.0
  0
LINE
  5
26B
330
203
100
AcDbEntity
  8
FORMAT
 62
     0
100
AcDbLine
 10
-96.7057112773
 20
-610.5758310546
 30
0.0
 11
-95.5707350279
 21
-608.3483147442
 31
0.0
  0
LINE
  5
26C
330
203
100
AcDbEntity
  8
FORMAT
 62
     0
100
AcDbLine
 10
-98.975663776
 20
-615.0308636756
 30
0.0
 11
-105.5585260222
 21
-627.9504582763
 31
0.0
  0
LINE
  5
26D
330
203
100
AcDbEntity
  8
FORMAT
 62
     0
100
AcDbLine
 10
-94.4357587786
 20
-606.1207984337
 30
0.0
 11
-87.8528965323
 21
-593.201203833
 31
0.0
  0
LINE
  5
26E
330
203
100
AcDbEntity
  8
FORMAT
 62
     0
100
AcDbLine
 10
0.0
 20
-641.9974213868
 30
0.0
 11
-0.3910861626
 21
-644.4666422383
 31
0.0
  0
LINE
  5
26F
330
203
100
AcDbEntity
  8
FORMAT
 62
     0
100
AcDbLine
 10
0.0
 20
-641.9974213868
 30
0.0
 11
0.3910861626
 21
-639.5282005354
 31
0.0
  0
LINE
  5
270
330
203
100
AcDbEntity
  8
FORMAT
 62
     0
100
AcDbLine
 10
-0.7821723252
 20
-646.9358630898
 30
0.0
 11
-3.0504720683
 21
-661.2573440284
 31
0.0
  0
LINE
  5
271
330
203
100
AcDbEntity
  8
FORMAT
 62
     0
100
AcDbLine
 10
0.7821723252
 20
-637.0589796839
 30
0.0
 11
3.0504720683
 21
-622.7374987452
 31
0.0
  0
LINE
  5
272
330
203
100
AcDbEntity
  8
FORMAT
 62
     0
100
AcDbLine
 10
101.6824022762
 20
-641.9974213868
 30
0.0
 11
102.0734884388
 21
-644.4666422383
 31
0.0
  0
LINE
  5
273
330
203
100
AcDbEntity
  8
FORMAT
 62
     0
100
AcDbLine
 10
101.6824022762
 20
-641.9974213868
 30
0.0
 11
101.2913161136
 21
-639.5282005353
 31
0.0
  0
LINE
  5
274
330
203
100
AcDbEntity
  8
FORMAT
 62
     0
100
AcDbLine
 10
102.4645746014
 20
-646.9358630898
 30
0.0
 11
104.4200054144
 21
-659.2819673472
 31
0.0
  0
LINE
  5
275
330
203
100
AcDbEntity
  8
FORMAT
 62
     0
100
AcDbLine
 10
100.900229951
 20
-637.0589796839
 30
0.0
 11
98.944799138
 21
-624.7128754264
 31
0.0
  0
LINE
  5
276
330
203
100
AcDbEntity
  8
FORMAT
 62
     0
100
AcDbLine
 10
198.3881135534
 20
-610.5758310546
 30
0.0
 11
199.5230898028
 21
-612.8033473651
 31
0.0
  0
LINE
  5
277
330
203
100
AcDbEntity
  8
FORMAT
 62
     0
100
AcDbLine
 10
198.3881135534
 20
-610.5758310546
 30
0.0
 11
197.2531373041
 21
-608.3483147442
 31
0.0
  0
LINE
  5
278
330
203
100
AcDbEntity
  8
FORMAT
 62
     0
100
AcDbLine
 10
200.6580660521
 20
-615.0308636756
 30
0.0
 11
207.2409282984
 21
-627.9504582763
 31
0.0
  0
LINE
  5
279
330
203
100
AcDbEntity
  8
FORMAT
 62
     0
100
AcDbLine
 10
196.1181610547
 20
-606.1207984337
 30
0.0
 11
189.5352988085
 21
-593.201203833
 31
0.0
  0
LINE
  5
27A
330
203
100
AcDbEntity
  8
FORMAT
 62
     0
100
AcDbLine
 10
280.6509050237
 20
-550.808414579
 30
0.0
 11
282.4186719767
 21
-552.576181532
 31
0.0
  0
LINE
  5
27B
330
203
100
AcDbEntity
  8
FORMAT
 62
     0
100
AcDbLine
 10
280.6509050237
 20
-550.808414579
 30
0.0
 11
278.8831380707
 21
-549.0406476261
 31
0.0
  0
LINE
  5
27C
330
203
100
AcDbEntity
  8
FORMAT
 62
     0
100
AcDbLine
 10
284.1864389296
 20
-554.343948485
 30
0.0
 11
294.4394872569
 21
-564.5969968122
 31
0.0
  0
LINE
  5
27D
330
203
100
AcDbEntity
  8
FORMAT
 62
     0
100
AcDbLine
 10
277.1153711178
 20
-547.2728806731
 30
0.0
 11
266.8623227906
 21
-537.0198323459
 31
0.0
  0
LINE
  5
27E
330
203
100
AcDbEntity
  8
FORMAT
 62
     0
100
AcDbLine
 10
340.4183214993
 20
-468.5456231088
 30
0.0
 11
342.6458378098
 21
-469.6805993581
 31
0.0
  0
LINE
  5
27F
330
203
100
AcDbEntity
  8
FORMAT
 62
     0
100
AcDbLine
 10
340.4183214993
 20
-468.5456231088
 30
0.0
 11
338.1908051888
 21
-467.4106468594
 31
0.0
  0
LINE
  5
280
330
203
100
AcDbEntity
  8
FORMAT
 62
     0
100
AcDbLine
 10
344.8733541202
 20
-470.8155756075
 30
0.0
 11
357.792948721
 21
-477.3984378537
 31
0.0
  0
LINE
  5
281
330
203
100
AcDbEntity
  8
FORMAT
 62
     0
100
AcDbLine
 10
335.9632888784
 20
-466.2756706101
 30
0.0
 11
323.0436942776
 21
-459.6928083638
 31
0.0
  0
LINE
  5
282
330
203
100
AcDbEntity
  8
FORMAT
 62
     0
100
AcDbLine
 10
371.8399118315
 20
-371.8399118315
 30
0.0
 11
374.309132683
 21
-372.2309979941
 31
0.0
  0
LINE
  5
283
330
203
100
AcDbEntity
  8
FORMAT
 62
     0
100
AcDbLine
 10
371.8399118315
 20
-371.8399118315
 30
0.0
 11
369.37069098
 21
-371.4488256689
 31
0.0
  0
LINE
  5
284
330
203
100
AcDbEntity
  8
FORMAT
 62
     0
100
AcDbLine
 10
376.7783535345
 20
-372.6220841567
 30
0.0
 11
389.1244577919
 21
-374.5775149697
 31
0.0
  0
LINE
  5
285
330
203
100
AcDbEntity
  8
FORMAT
 62
     0
100
AcDbLine
 10
366.9014701285
 20
-371.0577395063
 30
0.0
 11
354.5553658711
 21
-369.1023086933
 31
0.0
  0
LINE
  5
286
330
203
100
AcDbEntity
  8
FORMAT
 62
     0
100
AcDbLine
 10
371.8399118315
 20
-270.1575095553
 30
0.0
 11
374.309132683
 21
-269.7664233927
 31
0.0
  0
LINE
  5
287
330
203
100
AcDbEntity
  8
FORMAT
 62
     0
100
AcDbLine
 10
371.8399118315
 20
-270.1575095553
 30
0.0
 11
369.37069098
 21
-270.5485957179
 31
0.0
  0
LINE
  5
288
330
203
100
AcDbEntity
  8
FORMAT
 62
     0
100
AcDbLine
 10
376.7783535345
 20
-269.3753372301
 30
0.0
 11
391.0998344731
 21
-267.1070374871
 31
0.0
  0
LINE
  5
289
330
203
100
AcDbEntity
  8
FORMAT
 62
     0
100
AcDbLine
 10
366.9014701285
 20
-270.9396818805
 30
0.0
 11
352.5799891899
 21
-273.2079816236
 31
0.0
  0
LINE
  5
28A
330
203
100
AcDbEntity
  8
FORMAT
 62
     0
100
AcDbLine
 10
340.4183214993
 20
-173.4517982781
 30
0.0
 11
342.6458378098
 21
-172.3168220287
 31
0.0
  0
LINE
  5
28B
330
203
100
AcDbEntity
  8
FORMAT
 62
     0
100
AcDbLine
 10
340.4183214993
 20
-173.4517982781
 30
0.0
 11
338.1908051888
 21
-174.5867745274
 31
0.0
  0
LINE
  5
28C
330
203
100
AcDbEntity
  8
FORMAT
 62
     0
100
AcDbLine
 10
344.8733541202
 20
-171.1818457794
 30
0.0
 11
357.792948721
 21
-164.5989835331
 31
0.0
  0
LINE
  5
28D
330
203
100
AcDbEntity
  8
FORMAT
 62
     0
100
AcDbLine
 10
335.9632888784
 20
-175.7217507768
 30
0.0
 11
323.0436942776
 21
-182.304613023
 31
0.0
  0
LINE
  5
28E
330
203
100
AcDbEntity
  8
FORMAT
 62
     0
100
AcDbLine
 10
280.6509050237
 20
-91.1890068078
 30
0.0
 11
282.4186719767
 21
-89.4212398548
 31
0.0
  0
LINE
  5
28F
330
203
100
AcDbEntity
  8
FORMAT
 62
     0
100
AcDbLine
 10
280.6509050237
 20
-91.1890068078
 30
0.0
 11
278.8831380707
 21
-92.9567737608
 31
0.0
  0
LINE
  5
290
330
203
100
AcDbEntity
  8
FORMAT
 62
     0
100
AcDbLine
 10
284.1864389296
 20
-87.6534729019
 30
0.0
 11
294.4394872568
 21
-77.4004245746
 31
0.0
  0
LINE
  5
291
330
203
100
AcDbEntity
  8
FORMAT
 62
     0
100
AcDbLine
 10
277.1153711178
 20
-94.7245407137
 30
0.0
 11
266.8623227906
 21
-104.9775890409
 31
0.0
  0
LINE
  5
292
330
203
100
AcDbEntity
  8
FORMAT
 62
     0
100
AcDbLine
 10
198.3881135534
 20
-31.4215903322
 30
0.0
 11
199.5230898028
 21
-29.1940740217
 31
0.0
  0
LINE
  5
293
330
203
100
AcDbEntity
  8
FORMAT
 62
     0
100
AcDbLine
 10
198.3881135534
 20
-31.4215903322
 30
0.0
 11
197.2531373041
 21
-33.6491066427
 31
0.0
  0
LINE
  5
294
330
203
100
AcDbEntity
  8
FORMAT
 62
     0
100
AcDbLine
 10
200.6580660521
 20
-26.9665577113
 30
0.0
 11
206.3329472989
 21
-15.8289761589
 31
0.0
  0
LINE
  5
295
330
203
100
AcDbEntity
  8
FORMAT
 62
     0
100
AcDbLine
 10
196.1181610547
 20
-35.8766229531
 30
0.0
 11
190.443279808
 21
-47.0142045055
 31
0.0
  0
LINE
  5
296
330
203
100
AcDbEntity
  8
FORMAT
 62
     0
100
AcDbLine
 10
101.6824022762
 20
0.0
 30
0.0
 11
102.0734884388
 21
2.4692208515
 31
0.0
  0
LINE
  5
297
330
203
100
AcDbEntity
  8
FORMAT
 62
     0
100
AcDbLine
 10
101.6824022762
 20
0.0
 30
0.0
 11
101.2913161136
 21
-2.4692208515
 31
0.0
  0
LINE
  5
298
330
203
100
AcDbEntity
  8
FORMAT
 62
     0
100
AcDbLine
 10
102.4645746014
 20
4.938441703
 30
0.0
 11
104.7328743444
 21
19.2599226416
 31
0.0
  0
LINE
  5
299
330
203
100
AcDbEntity
  8
FORMAT
 62
     0
100
AcDbLine
 10
100.9002299509
 20
-4.938441703
 30
0.0
 11
98.6319302079
 21
-19.2599226416
 31
0.0
  0
ENDBLK
  5
205
330
203
100
AcDbEntity
  8
0
100
AcDbBlockEnd
  0
ENDSEC
  0
SECTION
  2
ENTITIES
  0
LINE
  5
46
330
1F
100
AcDbEntity
  8
0
  6
Continuous
 62
     7
370
    15
100
AcDbLine
 10
-139.4495826342
 20
1031.0530434096
 30
0.0
 11
-164.4495885946
 21
1031.0530434096
 31
0.0
  0
LINE
  5
47
330
1F
100
AcDbEntity
  8
0
  6
Continuous
 62
     7
370
    15
100
AcDbLine
 10
-164.4495885946
 20
316.0530696357
 30
0.0
 11
-139.4495826342
 21
316.0530696357
 31
0.0
  0
LINE
  5
48
330
1F
100
AcDbEntity
  8
0
  6
Continuous
 62
     7
370
    15
100
AcDbLine
 10
195.5504257105
 20
1031.0530434096
 30
0.0
 11
170.5504253379
 21
1031.0530434096
 31
0.0
  0
LINE
  5
49
330
1F
100
AcDbEntity
  8
0
  6
Continuous
 62
     7
370
    15
100
AcDbLine
 10
170.5504253379
 20
316.0530696357
 30
0.0
 11
195.5504257105
 21
316.0530696357
 31
0.0
  0
LINE
  5
4A
330
1F
100
AcDbEntity
  8
0
  6
Continuous
 62
     7
370
    15
100
AcDbLine
 10
-139.4495826342
 20
594.7118545616
 30
0.0
 11
-135.449574528
 21
594.7118545616
 31
0.0
  0
LINE
  5
4B
330
1F
100
AcDbEntity
  8
0
  6
Continuous
 62
     7
370
    15
100
AcDbLine
 10
-135.449574528
 20
650.7118562902
 30
0.0
 11
-139.4495826342
 21
650.7118562902
 31
0.0
  0
LINE
  5
4C
330
1F
100
AcDbEntity
  8
0
  6
Continuous
 62
     7
370
    15
100
AcDbLine
 10
166.5504265449
 20
594.7118545616
 30
0.0
 11
170.5504253379
 21
594.7118545616
 31
0.0
  0
LINE
  5
4D
330
1F
100
AcDbEntity
  8
0
  6
Continuous
 62
     7
370
    15
100
AcDbLine
 10
170.5504253379
 20
650.7118562902
 30
0.0
 11
166.5504265449
 21
650.7118562902
 31
0.0
  0
LINE
  5
4E
330
1F
100
AcDbEntity
  8
0
  6
Continuous
 62
     7
370
    15
100
AcDbLine
 10
165.7504260413
 20
599.7118572438
 30
0.0
 11
166.5504265449
 21
599.7118572438
 31
0.0
  0
LINE
  5
4F
330
1F
100
AcDbEntity
  8
0
  6
Continuous
 62
     7
370
    15
100
AcDbLine
 10
166.5504265449
 20
645.7118554706
 30
0.0
 11
165.7504260413
 21
645.7118554706
 31
0.0
  0
LINE
  5
50
330
1F
100
AcDbEntity
  8
0
  6
Continuous
 62
     7
370
    15
100
AcDbLine
 10
-134.6495609858
 20
645.7118554706
 30
0.0
 11
-135.449574528
 21
645.7118554706
 31
0.0
  0
LINE
  5
51
330
1F
100
AcDbEntity
  8
0
  6
Continuous
 62
     7
370
    15
100
AcDbLine
 10
-135.449574528
 20
599.7118572438
 30
0.0
 11
-134.6495609858
 21
599.7118572438
 31
0.0
  0
LINE
  5
52
330
1F
100
AcDbEntity
  8
0
  6
Continuous
 62
     7
370
    15
100
AcDbLine
 10
140.950425329
 20
599.7118572438
 30
0.0
 11
141.0247485957
 21
599.5831186617
 31
0.0
  0
LINE
  5
53
330
1F
100
AcDbEntity
  8
0
  6
Continuous
 62
     7
370
    15
100
AcDbLine
 10
-109.8495882132
 20
645.7118554706
 30
0.0
 11
-110.421792803
 21
646.7029838557
 31
0.0
  0
LINE
  5
54
330
1F
100
AcDbEntity
  8
0
  6
Continuous
 62
     7
370
    15
100
AcDbLine
 10
318.0504280947
 20
637.7118560219
 30
0.0
 11
195.5504257105
 21
637.7118560219
 31
0.0
  0
LINE
  5
55
330
1F
100
AcDbEntity
  8
0
  6
Continuous
 62
     7
370
    15
100
AcDbLine
 10
195.5504257105
 20
607.7118585551
 30
0.0
 11
318.0504280947
 21
607.7118585551
 31
0.0
  0
LINE
  5
56
330
1F
100
AcDbEntity
  8
0
  6
Continuous
 62
     7
370
    15
100
AcDbLine
 10
140.950425329
 20
637.7118560219
 30
0.0
 11
-109.8495882132
 21
637.7118560219
 31
0.0
  0
LINE
  5
57
330
1F
100
AcDbEntity
  8
0
  6
Continuous
 62
     7
370
    15
100
AcDbLine
 10
-109.8495882132
 20
607.7118585551
 30
0.0
 11
140.950425329
 21
607.7118585551
 31
0.0
  0
LINE
  5
58
330
1F
100
AcDbEntity
  8
0
  6
Continuous
 62
     7
370
    15
100
AcDbLine
 10
-164.4495885946
 20
637.7118560219
 30
0.0
 11
-286.9495611765
 21
637.7118560219
 31
0.0
  0
LINE
  5
59
330
1F
100
AcDbEntity
  8
0
  6
Continuous
 62
     7
370
    15
100
AcDbLine
 10
-286.9495611765
 20
607.7118585551
 30
0.0
 11
-164.4495885946
 21
607.7118585551
 31
0.0
  0
LINE
  5
5A
330
1F
100
AcDbEntity
  8
0
  6
Continuous
 62
     7
370
    15
100
AcDbLine
 10
-110.421792803
 20
598.7207288588
 30
0.0
 11
-109.8495882132
 21
599.7118572438
 31
0.0
  0
LINE
  5
5B
330
1F
100
AcDbEntity
  8
0
  6
Continuous
 62
     7
370
    15
100
AcDbLine
 10
141.0247485957
 20
645.8405884648
 30
0.0
 11
140.950425329
 21
645.7118554706
 31
0.0
  0
ARC
  5
5C
330
1F
100
AcDbEntity
  8
0
  6
Continuous
 62
     7
370
    15
100
AcDbCircle
 10
32.2994192325
 20
981.5530565227
 30
0.0
 40
3.000000000000114
100
AcDbArc
 50
90.0
 51
175.0
  0
LINE
  5
5D
330
1F
100
AcDbEntity
  8
0
  6
Continuous
 62
     7
370
    15
100
AcDbLine
 10
35.5504292867
 20
661.5530564184
 30
0.0
 11
38.0504269026
 21
661.5530564184
 31
0.0
  0
LINE
  5
5E
330
1F
100
AcDbEntity
  8
0
  6
Continuous
 62
     7
370
    15
100
AcDbLine
 10
38.0504269026
 20
685.553056627
 30
0.0
 11
35.5504292867
 21
685.553056627
 31
0.0
  0
LINE
  5
5F
330
1F
100
AcDbEntity
  8
0
  6
Continuous
 62
     7
370
    15
100
AcDbLine
 10
29.3108362577
 20
981.814510628
 30
0.0
 11
28.9884943388
 21
978.1301687205
 31
0.0
  0
LINE
  5
60
330
1F
100
AcDbEntity
  8
0
  6
Continuous
 62
     7
370
    15
100
AcDbLine
 10
27.8885651253
 20
381.548232838
 30
0.0
 11
29.1128743313
 21
367.5543437446
 31
0.0
  0
LINE
  5
61
330
1F
100
AcDbEntity
  8
0
  6
Continuous
 62
     7
370
    15
100
AcDbLine
 10
47.2135681532
 20
663.1607520128
 30
0.0
 11
48.4504241369
 21
665.3030565674
 31
0.0
  0
LINE
  5
62
330
1F
100
AcDbEntity
  8
0
  6
Continuous
 62
     7
370
    15
100
AcDbLine
 10
48.4504241369
 20
681.803056478
 30
0.0
 11
47.2135681532
 21
683.9453610325
 31
0.0
  0
LINE
  5
63
330
1F
100
AcDbEntity
  8
0
  6
Continuous
 62
     7
370
    15
100
AcDbLine
 10
39.2872828863
 20
683.9453610325
 30
0.0
 11
38.0504269026
 21
681.803056478
 31
0.0
  0
LINE
  5
64
330
1F
100
AcDbEntity
  8
0
  6
Continuous
 62
     7
370
    15
100
AcDbLine
 10
38.0504269026
 20
665.3030565674
 30
0.0
 11
39.2872828863
 21
663.1607520128
 31
0.0
  0
LINE
  5
65
330
1F
100
AcDbEntity
  8
0
  6
Continuous
 62
     7
370
    15
100
AcDbLine
 10
88.5504249356
 20
679.5530565748
 30
0.0
 11
48.4504241369
 21
679.5530565748
 31
0.0
  0
LINE
  5
66
330
1F
100
AcDbEntity
  8
0
  6
Continuous
 62
     7
370
    15
100
AcDbLine
 10
48.4504241369
 20
667.5530564705
 30
0.0
 11
88.5504249356
 21
667.5530564705
 31
0.0
  0
LINE
  5
67
330
1F
100
AcDbEntity
  8
0
  6
Continuous
 62
     7
370
    15
100
AcDbLine
 10
28.3308464906
 20
679.5530565748
 30
0.0
 11
-139.4495826342
 21
679.5530565748
 31
0.0
  0
LINE
  5
68
330
1F
100
AcDbEntity
  8
0
  6
Continuous
 62
     7
370
    15
100
AcDbLine
 10
-139.4495826342
 20
667.5530564705
 30
0.0
 11
28.3309209965
 21
667.5530564705
 31
0.0
  0
ARC
  5
69
330
1F
100
AcDbEntity
  8
0
  6
Continuous
 62
     7
370
    15
100
AcDbCircle
 10
22.9075885356
 20
381.1124666415
 30
0.0
 40
4.999999999999968
100
AcDbArc
 50
5.0
 51
52.6893576406
  0
LINE
  5
6A
330
1F
100
AcDbEntity
  8
0
  6
Continuous
 62
     7
370
    15
100
AcDbLine
 10
-4.4495772698
 20
944.5530543769
 30
0.0
 11
-109.8495882132
 21
944.5530543769
 31
0.0
  0
LINE
  5
6B
330
1F
100
AcDbEntity
  8
0
  6
Continuous
 62
     7
370
    15
100
AcDbLine
 10
-139.4495826342
 20
402.5530586684
 30
0.0
 11
-4.4495772698
 21
402.5530586684
 31
0.0
  0
LINE
  5
6C
330
1F
100
AcDbEntity
  8
0
  6
Continuous
 62
     7
370
    15
100
AcDbLine
 10
170.5504253379
 20
929.553068682
 30
0.0
 11
35.5504292867
 21
929.553068682
 31
0.0
  0
LINE
  5
6D
330
1F
100
AcDbEntity
  8
0
  6
Continuous
 62
     7
370
    15
100
AcDbLine
 10
35.5504292867
 20
417.5530443633
 30
0.0
 11
170.5504253379
 21
417.5530443633
 31
0.0
  0
LINE
  5
6E
330
1F
100
AcDbEntity
  8
0
  6
Continuous
 62
     7
370
    15
100
AcDbLine
 10
35.5504292867
 20
836.1252764905
 30
0.0
 11
38.0504269026
 21
836.1252764905
 31
0.0
  0
LINE
  5
6F
330
1F
100
AcDbEntity
  8
0
  6
Continuous
 62
     7
370
    15
100
AcDbLine
 10
38.0504269026
 20
860.1252804244
 30
0.0
 11
35.5504292867
 21
860.1252804244
 31
0.0
  0
LINE
  5
70
330
1F
100
AcDbEntity
  8
0
  6
Continuous
 62
     7
370
    15
100
AcDbLine
 10
35.5504292867
 20
486.9808326209
 30
0.0
 11
38.0504269026
 21
486.9808326209
 31
0.0
  0
LINE
  5
71
330
1F
100
AcDbEntity
  8
0
  6
Continuous
 62
     7
370
    15
100
AcDbLine
 10
38.0504269026
 20
510.9808365548
 30
0.0
 11
35.5504292867
 21
510.9808365548
 31
0.0
  0
LINE
  5
72
330
1F
100
AcDbEntity
  8
0
  6
Continuous
 62
     7
370
    15
100
AcDbLine
 10
47.9858655355
 20
839.0706400121
 30
0.0
 11
48.4504241369
 21
839.8752729142
 31
0.0
  0
LINE
  5
73
330
1F
100
AcDbEntity
  8
0
  6
Continuous
 62
     7
370
    15
100
AcDbLine
 10
48.4504241369
 20
856.3752690995
 30
0.0
 11
47.9858655355
 21
857.1799020017
 31
0.0
  0
LINE
  5
74
330
1F
100
AcDbEntity
  8
0
  6
Continuous
 62
     7
370
    15
100
AcDbLine
 10
38.5133612774
 20
857.1771005834
 30
0.0
 11
38.0504269026
 21
856.3752690995
 31
0.0
  0
LINE
  5
75
330
1F
100
AcDbEntity
  8
0
  6
Continuous
 62
     7
370
    15
100
AcDbLine
 10
38.0504269026
 20
839.8752729142
 30
0.0
 11
38.5133612774
 21
839.0734563315
 31
0.0
  0
LINE
  5
76
330
1F
100
AcDbEntity
  8
0
  6
Continuous
 62
     7
370
    15
100
AcDbLine
 10
47.9874897621
 20
489.929012462
 30
0.0
 11
48.4504241369
 21
490.7308439458
 31
0.0
  0
LINE
  5
77
330
1F
100
AcDbEntity
  8
0
  6
Continuous
 62
     7
370
    15
100
AcDbLine
 10
48.4504241369
 20
507.2308401311
 30
0.0
 11
47.9874897621
 21
508.0326567138
 31
0.0
  0
LINE
  5
78
330
1F
100
AcDbEntity
  8
0
  6
Continuous
 62
     7
370
    15
100
AcDbLine
 10
38.5149855039
 20
508.0354730332
 30
0.0
 11
38.0504269026
 21
507.2308401311
 31
0.0
  0
LINE
  5
79
330
1F
100
AcDbEntity
  8
0
  6
Continuous
 62
     7
370
    15
100
AcDbLine
 10
38.0504269026
 20
490.7308439458
 30
0.0
 11
38.5149855039
 21
489.9262110436
 31
0.0
  0
LINE
  5
7A
330
1F
100
AcDbEntity
  8
0
  6
Continuous
 62
     7
370
    15
100
AcDbLine
 10
88.5504249356
 20
854.1252831662
 30
0.0
 11
48.4504241369
 21
854.1252831662
 31
0.0
  0
LINE
  5
7B
330
1F
100
AcDbEntity
  8
0
  6
Continuous
 62
     7
370
    15
100
AcDbLine
 10
48.4504241369
 20
842.1252737487
 30
0.0
 11
88.5504249356
 21
842.1252737487
 31
0.0
  0
LINE
  5
7C
330
1F
100
AcDbEntity
  8
0
  6
Continuous
 62
     7
370
    15
100
AcDbLine
 10
28.6375272892
 20
854.1252831662
 30
0.0
 11
-139.4495826342
 21
854.1252831662
 31
0.0
  0
LINE
  5
7D
330
1F
100
AcDbEntity
  8
0
  6
Continuous
 62
     7
370
    15
100
AcDbLine
 10
-139.4495826342
 20
842.1252737487
 30
0.0
 11
28.0215728901
 21
842.1252737487
 31
0.0
  0
LINE
  5
7E
330
1F
100
AcDbEntity
  8
0
  6
Continuous
 62
     7
370
    15
100
AcDbLine
 10
28.0215728901
 20
504.9808392966
 30
0.0
 11
-139.4495826342
 21
504.9808392966
 31
0.0
  0
LINE
  5
7F
330
1F
100
AcDbEntity
  8
0
  6
Continuous
 62
     7
370
    15
100
AcDbLine
 10
-139.4495826342
 20
492.9808298791
 30
0.0
 11
28.6375272892
 21
492.9808298791
 31
0.0
  0
LINE
  5
80
330
1F
100
AcDbEntity
  8
0
  6
Continuous
 62
     7
370
    15
100
AcDbLine
 10
88.5504249356
 20
504.9808392966
 30
0.0
 11
48.4504241369
 21
504.9808392966
 31
0.0
  0
LINE
  5
81
330
1F
100
AcDbEntity
  8
0
  6
Continuous
 62
     7
370
    15
100
AcDbLine
 10
48.4504241369
 20
492.9808298791
 30
0.0
 11
88.5504249356
 21
492.9808298791
 31
0.0
  0
LINE
  5
82
330
1F
100
AcDbEntity
  8
0
  6
Continuous
 62
     7
370
    15
100
AcDbLine
 10
-139.4495826342
 20
935.1301858867
 30
0.0
 11
-135.449574528
 21
935.1301858867
 31
0.0
  0
LINE
  5
83
330
1F
100
AcDbEntity
  8
0
  6
Continuous
 62
     7
370
    15
100
AcDbLine
 10
-135.449574528
 20
991.1301801646
 30
0.0
 11
-139.4495826342
 21
991.1301801646
 31
0.0
  0
LINE
  5
84
330
1F
100
AcDbEntity
  8
0
  6
Continuous
 62
     7
370
    15
100
AcDbLine
 10
166.5504265449
 20
935.1301858867
 30
0.0
 11
170.5504253379
 21
935.1301858867
 31
0.0
  0
LINE
  5
85
330
1F
100
AcDbEntity
  8
0
  6
Continuous
 62
     7
370
    15
100
AcDbLine
 10
170.5504253379
 20
991.1301801646
 30
0.0
 11
166.5504265449
 21
991.1301801646
 31
0.0
  0
LINE
  5
86
330
1F
100
AcDbEntity
  8
0
  6
Continuous
 62
     7
370
    15
100
AcDbLine
 10
-134.6495609858
 20
986.130184933
 30
0.0
 11
-135.449574528
 21
986.130184933
 31
0.0
  0
LINE
  5
87
330
1F
100
AcDbEntity
  8
0
  6
Continuous
 62
     7
370
    15
100
AcDbLine
 10
-135.449574528
 20
940.1301811183
 30
0.0
 11
-134.6495609858
 21
940.1301811183
 31
0.0
  0
LINE
  5
88
330
1F
100
AcDbEntity
  8
0
  6
Continuous
 62
     7
370
    15
100
AcDbLine
 10
165.7504260413
 20
940.1301811183
 30
0.0
 11
166.5504265449
 21
940.1301811183
 31
0.0
  0
LINE
  5
89
330
1F
100
AcDbEntity
  8
0
  6
Continuous
 62
     7
370
    15
100
AcDbLine
 10
166.5504265449
 20
986.130184933
 30
0.0
 11
165.7504260413
 21
986.130184933
 31
0.0
  0
LINE
  5
8A
330
1F
100
AcDbEntity
  8
0
  6
Continuous
 62
     7
370
    15
100
AcDbLine
 10
141.0263839982
 20
986.261732384
 30
0.0
 11
140.950425329
 21
986.130184933
 31
0.0
  0
LINE
  5
8B
330
1F
100
AcDbEntity
  8
0
  6
Continuous
 62
     7
370
    15
100
AcDbLine
 10
140.950425329
 20
978.1301687205
 30
0.0
 11
-109.8495882132
 21
978.1301687205
 31
0.0
  0
LINE
  5
8C
330
1F
100
AcDbEntity
  8
0
  6
Continuous
 62
     7
370
    15
100
AcDbLine
 10
-109.8495882132
 20
948.1301675284
 30
0.0
 11
140.950425329
 21
948.1301675284
 31
0.0
  0
LINE
  5
8D
330
1F
100
AcDbEntity
  8
0
  6
Continuous
 62
     7
370
    15
100
AcDbLine
 10
318.0504280947
 20
978.1301687205
 30
0.0
 11
195.5504257105
 21
978.1301687205
 31
0.0
  0
LINE
  5
8E
330
1F
100
AcDbEntity
  8
0
  6
Continuous
 62
     7
370
    15
100
AcDbLine
 10
195.5504257105
 20
948.1301675284
 30
0.0
 11
318.0504280947
 21
948.1301675284
 31
0.0
  0
LINE
  5
8F
330
1F
100
AcDbEntity
  8
0
  6
Continuous
 62
     7
370
    15
100
AcDbLine
 10
-164.4495885946
 20
978.1301687205
 30
0.0
 11
-286.9495611765
 21
978.1301687205
 31
0.0
  0
LINE
  5
90
330
1F
100
AcDbEntity
  8
0
  6
Continuous
 62
     7
370
    15
100
AcDbLine
 10
-286.9495611765
 20
948.1301675284
 30
0.0
 11
-164.4495885946
 21
948.1301675284
 31
0.0
  0
LINE
  5
91
330
1F
100
AcDbEntity
  8
0
  6
Continuous
 62
     7
370
    15
100
AcDbLine
 10
-109.8495882132
 20
986.130184933
 30
0.0
 11
-111.686215935
 21
989.3113444293
 31
0.0
  0
LINE
  5
92
330
1F
100
AcDbEntity
  8
0
  6
Continuous
 62
     7
370
    15
100
AcDbLine
 10
-111.686215935
 20
936.9489918197
 30
0.0
 11
-109.8495882132
 21
940.1301811183
 31
0.0
  0
LINE
  5
93
330
1F
100
AcDbEntity
  8
0
  6
Continuous
 62
     7
370
    15
100
AcDbLine
 10
140.950425329
 20
940.1301811183
 30
0.0
 11
141.0263839982
 21
939.998603865
 31
0.0
  0
LINE
  5
94
330
1F
100
AcDbEntity
  8
0
  6
Continuous
 62
     7
370
    15
100
AcDbLine
 10
35.5504292867
 20
984.5530460322
 30
0.0
 11
32.2994131468
 21
984.5530460322
 31
0.0
  0
LINE
  5
95
330
1F
100
AcDbEntity
  8
0
  6
Continuous
 62
     7
370
    15
100
AcDbLine
 10
35.5504292867
 20
944.0168509925
 30
0.0
 11
38.0504269026
 21
944.0168509925
 31
0.0
  0
LINE
  5
96
330
1F
100
AcDbEntity
  8
0
  6
Continuous
 62
     7
370
    15
100
AcDbLine
 10
35.5504292867
 20
379.0892730201
 30
0.0
 11
38.0504269026
 21
379.0892730201
 31
0.0
  0
LINE
  5
97
330
1F
100
AcDbEntity
  8
0
  6
Continuous
 62
     7
370
    15
100
AcDbLine
 10
38.0504269026
 20
403.0892620528
 30
0.0
 11
35.5504292867
 21
403.0892620528
 31
0.0
  0
LINE
  5
98
330
1F
100
AcDbEntity
  8
0
  6
Continuous
 62
     7
370
    15
100
AcDbLine
 10
47.7476406715
 20
946.5496013606
 30
0.0
 11
48.4504241369
 21
947.7668474162
 31
0.0
  0
LINE
  5
99
330
1F
100
AcDbEntity
  8
0
  6
Continuous
 62
     7
370
    15
100
AcDbLine
 10
38.0504269026
 20
947.7668474162
 30
0.0
 11
38.7534189842
 21
946.5492139304
 31
0.0
  0
LINE
  5
9A
330
1F
100
AcDbEntity
  8
0
  6
Continuous
 62
     7
370
    15
100
AcDbLine
 10
47.7474320553
 20
381.6216657603
 30
0.0
 11
48.4504241369
 21
382.8392694438
 31
0.0
  0
LINE
  5
9B
330
1F
100
AcDbEntity
  8
0
  6
Continuous
 62
     7
370
    15
100
AcDbLine
 10
48.4504241369
 20
399.3392656291
 30
0.0
 11
47.7456588171
 21
400.5599687541
 31
0.0
  0
LINE
  5
9C
330
1F
100
AcDbEntity
  8
0
  6
Continuous
 62
     7
370
    15
100
AcDbLine
 10
38.7523759029
 20
400.5550811732
 30
0.0
 11
38.0504269026
 21
399.3392656291
 31
0.0
  0
LINE
  5
9D
330
1F
100
AcDbEntity
  8
0
  6
Continuous
 62
     7
370
    15
100
AcDbLine
 10
38.0504269026
 20
382.8392694438
 30
0.0
 11
38.7532103679
 21
381.6220233882
 31
0.0
  0
LINE
  5
9E
330
1F
100
AcDbEntity
  8
0
  6
Continuous
 62
     7
370
    15
100
AcDbLine
 10
27.7773577593
 20
397.0892796958
 30
0.0
 11
-139.4495826342
 21
397.0892796958
 31
0.0
  0
LINE
  5
9F
330
1F
100
AcDbEntity
  8
0
  6
Continuous
 62
     7
370
    15
100
AcDbLine
 10
-139.4495826342
 20
385.0892851794
 30
0.0
 11
28.8238812111
 21
385.0892851794
 31
0.0
  0
LINE
  5
A0
330
1F
100
AcDbEntity
  8
0
  6
Continuous
 62
     7
370
    15
100
AcDbLine
 10
88.5504249356
 20
397.0892796958
 30
0.0
 11
48.4504241369
 21
397.0892796958
 31
0.0
  0
LINE
  5
A1
330
1F
100
AcDbEntity
  8
0
  6
Continuous
 62
     7
370
    15
100
AcDbLine
 10
48.4504241369
 20
385.0892851794
 30
0.0
 11
88.5504249356
 21
385.0892851794
 31
0.0
  0
LINE
  5
A2
330
1F
100
AcDbEntity
  8
0
  6
Continuous
 62
     7
370
    15
100
AcDbLine
 10
-139.4495826342
 20
324.5543311084
 30
0.0
 11
-135.449574528
 21
324.5543311084
 31
0.0
  0
LINE
  5
A3
330
1F
100
AcDbEntity
  8
0
  6
Continuous
 62
     7
370
    15
100
AcDbLine
 10
-135.449574528
 20
380.5543551887
 30
0.0
 11
-139.4495826342
 21
380.5543551887
 31
0.0
  0
LINE
  5
A4
330
1F
100
AcDbEntity
  8
0
  6
Continuous
 62
     7
370
    15
100
AcDbLine
 10
166.5504265449
 20
324.5543311084
 30
0.0
 11
170.5504253379
 21
324.5543311084
 31
0.0
  0
LINE
  5
A5
330
1F
100
AcDbEntity
  8
0
  6
Continuous
 62
     7
370
    15
100
AcDbLine
 10
170.5504253379
 20
380.5543551887
 30
0.0
 11
166.5504265449
 21
380.5543551887
 31
0.0
  0
LINE
  5
A6
330
1F
100
AcDbEntity
  8
0
  6
Continuous
 62
     7
370
    15
100
AcDbLine
 10
165.7504260413
 20
329.5543561423
 30
0.0
 11
166.5504265449
 21
329.5543561423
 31
0.0
  0
LINE
  5
A7
330
1F
100
AcDbEntity
  8
0
  6
Continuous
 62
     7
370
    15
100
AcDbLine
 10
166.5504265449
 20
375.554359957
 30
0.0
 11
165.7504260413
 21
375.554359957
 31
0.0
  0
LINE
  5
A8
330
1F
100
AcDbEntity
  8
0
  6
Continuous
 62
     7
370
    15
100
AcDbLine
 10
-134.6495609858
 20
375.554359957
 30
0.0
 11
-135.449574528
 21
375.554359957
 31
0.0
  0
LINE
  5
A9
330
1F
100
AcDbEntity
  8
0
  6
Continuous
 62
     7
370
    15
100
AcDbLine
 10
-135.449574528
 20
329.5543561423
 30
0.0
 11
-134.6495609858
 21
329.5543561423
 31
0.0
  0
LINE
  5
AA
330
1F
100
AcDbEntity
  8
0
  6
Continuous
 62
     7
370
    15
100
AcDbLine
 10
-109.8495882132
 20
375.554359957
 30
0.0
 11
-109.8911326506
 21
375.6263027633
 31
0.0
  0
LINE
  5
AB
330
1F
100
AcDbEntity
  8
0
  6
Continuous
 62
     7
370
    15
100
AcDbLine
 10
140.950425329
 20
329.5543561423
 30
0.0
 11
141.6339117906
 21
328.3705184901
 31
0.0
  0
LINE
  5
AC
330
1F
100
AcDbEntity
  8
0
  6
Continuous
 62
     7
370
    15
100
AcDbLine
 10
318.0504280947
 20
367.5543437446
 30
0.0
 11
195.5504257105
 21
367.5543437446
 31
0.0
  0
LINE
  5
AD
330
1F
100
AcDbEntity
  8
0
  6
Continuous
 62
     7
370
    15
100
AcDbLine
 10
195.5504257105
 20
337.5543425525
 30
0.0
 11
318.0504280947
 21
337.5543425525
 31
0.0
  0
LINE
  5
AE
330
1F
100
AcDbEntity
  8
0
  6
Continuous
 62
     7
370
    15
100
AcDbLine
 10
30.2590716503
 20
367.5543437446
 30
0.0
 11
-109.8495882132
 21
367.5543437446
 31
0.0
  0
LINE
  5
AF
330
1F
100
AcDbEntity
  8
0
  6
Continuous
 62
     7
370
    15
100
AcDbLine
 10
140.950425329
 20
367.5543437446
 30
0.0
 11
35.5504292867
 21
367.5543437446
 31
0.0
  0
LINE
  5
B0
330
1F
100
AcDbEntity
  8
0
  6
Continuous
 62
     7
370
    15
100
AcDbLine
 10
-109.8495882132
 20
337.5543425525
 30
0.0
 11
140.950425329
 21
337.5543425525
 31
0.0
  0
LINE
  5
B1
330
1F
100
AcDbEntity
  8
0
  6
Continuous
 62
     7
370
    15
100
AcDbLine
 10
-164.4495885946
 20
367.5543437446
 30
0.0
 11
-286.9495611765
 21
367.5543437446
 31
0.0
  0
LINE
  5
B2
330
1F
100
AcDbEntity
  8
0
  6
Continuous
 62
     7
370
    15
100
AcDbLine
 10
-286.9495611765
 20
337.5543425525
 30
0.0
 11
-164.4495885946
 21
337.5543425525
 31
0.0
  0
LINE
  5
B3
330
1F
100
AcDbEntity
  8
0
  6
Continuous
 62
     7
370
    15
100
AcDbLine
 10
141.637663158
 20
376.7446647132
 30
0.0
 11
140.950425329
 21
375.554359957
 31
0.0
  0
LINE
  5
B4
330
1F
100
AcDbEntity
  8
0
  6
Continuous
 62
     7
370
    15
100
AcDbLine
 10
-109.8950665571
 20
329.4755289996
 30
0.0
 11
-109.8495882132
 21
329.5543561423
 31
0.0
  0
LINE
  5
B5
330
1F
100
AcDbEntity
  8
0
  6
Continuous
 62
     7
370
    15
100
AcDbLine
 10
47.7456588171
 20
946.5461442912
 30
0.0
 11
47.7476406715
 21
946.5496013606
 31
0.0
  0
LINE
  5
B6
330
1F
100
AcDbEntity
  8
0
  6
Continuous
 62
     7
370
    15
100
AcDbLine
 10
38.7534189842
 20
400.5568991149
 30
0.0
 11
38.7523759029
 21
400.5550811732
 31
0.0
  0
LINE
  5
B7
330
1F
100
AcDbEntity
  8
0
  6
Continuous
 62
     7
370
    15
100
AcDbLine
 10
170.5504253379
 20
931.3627551044
 30
0.0
 11
166.5504265449
 21
931.3627551044
 31
0.0
  0
LINE
  5
B8
330
1F
100
AcDbEntity
  8
0
  6
Continuous
 62
     7
370
    15
100
AcDbLine
 10
318.0504280947
 20
918.3627585614
 30
0.0
 11
195.5504257105
 21
918.3627585614
 31
0.0
  0
LINE
  5
B9
330
1F
100
AcDbEntity
  8
0
  6
Continuous
 62
     7
370
    15
100
AcDbLine
 10
195.5504257105
 20
888.3627573693
 30
0.0
 11
318.0504280947
 21
888.3627573693
 31
0.0
  0
LINE
  5
BA
330
1F
100
AcDbEntity
  8
0
  6
Continuous
 62
     7
370
    15
100
AcDbLine
 10
-164.4495885946
 20
918.3627585614
 30
0.0
 11
-286.9495611765
 21
918.3627585614
 31
0.0
  0
LINE
  5
BB
330
1F
100
AcDbEntity
  8
0
  6
Continuous
 62
     7
370
    15
100
AcDbLine
 10
-286.9495611765
 20
888.3627573693
 30
0.0
 11
-164.4495885946
 21
888.3627573693
 31
0.0
  0
LINE
  5
BC
330
1F
100
AcDbEntity
  8
0
  6
Continuous
 62
     7
370
    15
100
AcDbLine
 10
318.0504280947
 20
541.0061399186
 30
0.0
 11
195.5504257105
 21
541.0061399186
 31
0.0
  0
LINE
  5
BD
330
1F
100
AcDbEntity
  8
0
  6
Continuous
 62
     7
370
    15
100
AcDbLine
 10
195.5504257105
 20
511.0061387265
 30
0.0
 11
318.0504280947
 21
511.0061387265
 31
0.0
  0
LINE
  5
BE
330
1F
100
AcDbEntity
  8
0
  6
Continuous
 62
     7
370
    15
100
AcDbLine
 10
-164.4495885946
 20
541.0061399186
 30
0.0
 11
-286.9495611765
 21
541.0061399186
 31
0.0
  0
LINE
  5
BF
330
1F
100
AcDbEntity
  8
0
  6
Continuous
 62
     7
370
    15
100
AcDbLine
 10
-286.9495611765
 20
511.0061387265
 30
0.0
 11
-164.4495885946
 21
511.0061387265
 31
0.0
  0
LINE
  5
C0
330
1F
100
AcDbEntity
  8
0
  6
Continuous
 62
     7
370
    15
100
AcDbLine
 10
-139.4495826342
 20
563.0794833148
 30
0.0
 11
-139.4495826342
 21
1031.0530434096
 31
0.0
  0
LINE
  5
C1
330
1F
100
AcDbEntity
  8
0
  6
Continuous
 62
     7
370
    15
100
AcDbLine
 10
-139.4495826342
 20
316.0530696357
 30
0.0
 11
-139.4495826342
 21
563.0794833148
 31
0.0
  0
LINE
  5
C2
330
1F
100
AcDbEntity
  8
0
  6
Continuous
 62
     7
370
    15
100
AcDbLine
 10
-164.4495885946
 20
563.0794833148
 30
0.0
 11
-164.4495885946
 21
1031.0530434096
 31
0.0
  0
LINE
  5
C3
330
1F
100
AcDbEntity
  8
0
  6
Continuous
 62
     7
370
    15
100
AcDbLine
 10
-164.4495885946
 20
316.0530696357
 30
0.0
 11
-164.4495885946
 21
563.0794833148
 31
0.0
  0
LINE
  5
C4
330
1F
100
AcDbEntity
  8
0
  6
Continuous
 62
     7
370
    15
100
AcDbLine
 10
170.5504253379
 20
673.5530565227
 30
0.0
 11
170.5504253379
 21
1031.0530434096
 31
0.0
  0
LINE
  5
C5
330
1F
100
AcDbEntity
  8
0
  6
Continuous
 62
     7
370
    15
100
AcDbLine
 10
170.5504253379
 20
316.0530696357
 30
0.0
 11
170.5504253379
 21
673.5530565227
 31
0.0
  0
LINE
  5
C6
330
1F
100
AcDbEntity
  8
0
  6
Continuous
 62
     7
370
    15
100
AcDbLine
 10
195.5504257105
 20
673.5530565227
 30
0.0
 11
195.5504257105
 21
1031.0530434096
 31
0.0
  0
LINE
  5
C7
330
1F
100
AcDbEntity
  8
0
  6
Continuous
 62
     7
370
    15
100
AcDbLine
 10
195.5504257105
 20
316.0530696357
 30
0.0
 11
195.5504257105
 21
673.5530565227
 31
0.0
  0
LINE
  5
C8
330
1F
100
AcDbEntity
  8
0
  6
Continuous
 62
     7
370
    15
100
AcDbLine
 10
-135.449574528
 20
594.7118545616
 30
0.0
 11
-135.449574528
 21
650.7118562902
 31
0.0
  0
LINE
  5
C9
330
1F
100
AcDbEntity
  8
0
  6
Continuous
 62
     7
370
    15
100
AcDbLine
 10
166.5504265449
 20
594.7118545616
 30
0.0
 11
166.5504265449
 21
650.7118562902
 31
0.0
  0
LINE
  5
CA
330
1F
100
AcDbEntity
  8
0
  6
Continuous
 62
     7
370
    15
100
AcDbLine
 10
-134.6495609858
 20
617.3514644349
 30
0.0
 11
-134.6495609858
 21
604.4380808914
 31
0.0
  0
LINE
  5
CB
330
1F
100
AcDbEntity
  8
0
  6
Continuous
 62
     7
370
    15
100
AcDbLine
 10
-134.6495609858
 20
630.2648442531
 30
0.0
 11
-134.6495609858
 21
617.3514644349
 31
0.0
  0
LINE
  5
CC
330
1F
100
AcDbEntity
  8
0
  6
Continuous
 62
     7
370
    15
100
AcDbLine
 10
-134.6495609858
 20
630.2648442531
 30
0.0
 11
-111.9038622954
 21
630.2648442531
 31
0.0
  0
SPLINE
  5
CD
330
1F
100
AcDbEntity
  8
0
  6
Continuous
 62
     7
370
    15
100
AcDbSpline
210
0.0
220
0.0
230
1.0
 70
     8
 71
     3
 72
    13
 73
     9
 74
     0
 42
0.00000001
 43
0.00000001
 12
1.0
 22
0.0
 32
0.0
 13
1.0
 23
0.0
 33
0.0
 40
0.0
 40
0.0
 40
0.0
 40
0.0
 40
0.1340637191143627
 40
0.2683983452801786
 40
0.4503875753483063
 40
0.6323942121503896
 40
0.8161888007937325
 40
1.0
 40
1.0
 40
1.0
 40
1.0
 10
-109.8495882131788
 20
617.3514644349146
 30
0.0
 10
-109.8574996936096
 20
617.9373741512392
 30
0.0
 10
-109.8733386414647
 20
619.1103775512935
 30
0.0
 10
-110.0152939201582
 20
621.0746637918193
 30
0.0
 10
-110.2790501214916
 20
623.2382871788163
 30
0.0
 10
-110.7040799574974
 20
625.5971488006904
 30
0.0
 10
-111.2411397755241
 20
627.9426188530239
 30
0.0
 10
-111.6829481342613
 20
629.490745801965
 30
0.0
 10
-111.9038622953627
 20
630.2648442531157
 30
0.0
  0
SPLINE
  5
CE
330
1F
100
AcDbEntity
  8
0
  6
Continuous
 62
     7
370
    15
100
AcDbSpline
210
0.0
220
0.0
230
1.0
 70
     8
 71
     3
 72
    12
 73
     8
 74
     0
 42
0.00000001
 43
0.00000001
 12
1.0
 22
0.0
 32
0.0
 13
1.0
 23
0.0
 33
0.0
 40
0.0
 40
0.0
 40
0.0
 40
0.0
 40
0.2571671834936088
 40
0.4417508551754585
 40
0.6263151619038108
 40
0.813162904062228
 40
0.9999999999999999
 40
0.9999999999999999
 40
0.9999999999999999
 40
0.9999999999999999
 10
-111.9038622953626
 20
604.4380808914233
 30
0.0
 10
-111.598989823759
 20
605.5223706599986
 30
0.0
 10
-111.0752928527038
 20
607.3849175293898
 30
0.0
 10
-110.5151316998736
 20
610.0687557087751
 30
0.0
 10
-110.139161118777
 20
612.4713503678274
 30
0.0
 10
-109.8963992784371
 20
614.9017404882562
 30
0.0
 10
-109.8651916052311
 20
616.5349052955623
 30
0.0
 10
-109.8495882131788
 20
617.3514644349146
 30
0.0
  0
LINE
  5
CF
330
1F
100
AcDbEntity
  8
0
  6
Continuous
 62
     7
370
    15
100
AcDbLine
 10
-134.6495609858
 20
604.4380808914
 30
0.0
 11
-111.9038622954
 21
604.4380808914
 31
0.0
  0
SPLINE
  5
D0
330
1F
100
AcDbEntity
  8
0
  6
Continuous
 62
     7
370
    15
100
AcDbSpline
210
0.0
220
0.0
230
1.0
 70
     8
 71
     3
 72
    13
 73
     9
 74
     0
 42
0.00000001
 43
0.00000001
 12
1.0
 22
0.0
 32
0.0
 13
1.0
 23
0.0
 33
0.0
 40
0.0
 40
0.0
 40
0.0
 40
0.0
 40
0.165114279837333
 40
0.3302736327008125
 40
0.4953483748736615
 40
0.663540593198109
 40
0.8318400282196652
 40
1.0
 40
1.0
 40
1.0
 40
1.0
 10
-111.9038622953626
 20
630.2648442531157
 30
0.0
 10
-111.7046733741427
 20
630.756686140896
 30
0.0
 10
-111.3062411569544
 20
631.7405041798426
 30
0.0
 10
-110.8075688083108
 20
633.2337424878156
 30
0.0
 10
-110.3925421703575
 20
634.7486897621991
 30
0.0
 10
-110.0870365098857
 20
636.2857366790491
 30
0.0
 10
-109.8879500876181
 20
637.8412545746772
 30
0.0
 10
-109.8623719705947
 20
638.8817150544927
 30
0.0
 10
-109.8495882131788
 20
639.4017296577025
 30
0.0
  0
LINE
  5
D1
330
1F
100
AcDbEntity
  8
0
  6
Continuous
 62
     7
370
    15
100
AcDbLine
 10
-109.8495882132
 20
639.4017296577
 30
0.0
 11
-109.8495882132
 21
617.3514644349
 31
0.0
  0
LINE
  5
D2
330
1F
100
AcDbEntity
  8
0
  6
Continuous
 62
     7
370
    15
100
AcDbLine
 10
165.7504260413
 20
609.1927955592
 30
0.0
 11
165.7504260413
 21
619.9357765461
 31
0.0
  0
LINE
  5
D3
330
1F
100
AcDbEntity
  8
0
  6
Continuous
 62
     7
370
    15
100
AcDbLine
 10
165.7504260413
 20
598.4498108471
 30
0.0
 11
165.7504260413
 21
609.1927955592
 31
0.0
  0
LINE
  5
D4
330
1F
100
AcDbEntity
  8
0
  6
Continuous
 62
     7
370
    15
100
AcDbLine
 10
165.7504260413
 20
598.4498108471
 30
0.0
 11
143.0047031365
 21
598.4498108471
 31
0.0
  0
SPLINE
  5
D5
330
1F
100
AcDbEntity
  8
0
  6
Continuous
 62
     7
370
    15
100
AcDbSpline
210
0.0
220
0.0
230
1.0
 70
     8
 71
     3
 72
    12
 73
     8
 74
     0
 42
0.00000001
 43
0.00000001
 12
1.0
 22
0.0
 32
0.0
 13
1.0
 23
0.0
 33
0.0
 40
0.0
 40
0.0
 40
0.0
 40
0.0
 40
0.2500000000000018
 40
0.2500000000000018
 40
0.5000000000000037
 40
0.5000000000000037
 40
1.0
 40
1.0
 40
1.0
 40
1.0
 10
140.9504257104695
 20
609.1927945818697
 30
0.0
 10
140.9504257104696
 20
608.2845616370302
 30
0.0
 10
140.9981342414347
 20
607.3734195071228
 30
0.0
 10
141.1877368963117
 20
605.5453919700559
 30
0.0
 10
141.328651220926
 20
604.6380626267999
 30
0.0
 10
141.8686809632201
 20
601.946758664304
 30
0.0
 10
142.3848742235128
 20
600.1868927711163
 30
0.0
 10
143.0047028524414
 20
598.4498124537996
 30
0.0
  0
SPLINE
  5
D6
330
1F
100
AcDbEntity
  8
0
  6
Continuous
 62
     7
370
    15
100
AcDbSpline
210
0.0
220
0.0
230
1.0
 70
     8
 71
     3
 72
    12
 73
     8
 74
     0
 42
0.00000001
 43
0.00000001
 12
1.0
 22
0.0
 32
0.0
 13
1.0
 23
0.0
 33
0.0
 40
0.0
 40
0.0
 40
0.0
 40
0.0
 40
0.2499999999999982
 40
0.2499999999999982
 40
0.4999999999999963
 40
0.4999999999999963
 40
1.0
 40
1.0
 40
1.0
 40
1.0
 10
143.0047028524413
 20
619.935776709942
 30
0.0
 10
142.6929725472345
 20
619.0621472062162
 30
0.0
 10
142.4067829149672
 20
618.1804935138125
 30
0.0
 10
141.8989624592315
 20
616.3969034973045
 30
0.0
 10
141.6795693628443
 20
615.5021882064043
 30
0.0
 10
141.1433057291891
 20
612.8118076945306
 30
0.0
 10
140.9504257104695
 20
611.0081818859303
 30
0.0
 10
140.9504257104695
 20
609.1927945818697
 30
0.0
  0
LINE
  5
D7
330
1F
100
AcDbEntity
  8
0
  6
Continuous
 62
     7
370
    15
100
AcDbLine
 10
165.7504260413
 20
619.9357765461
 30
0.0
 11
143.0047031365
 21
619.9357765461
 31
0.0
  0
SPLINE
  5
D8
330
1F
100
AcDbEntity
  8
0
  6
Continuous
 62
     7
370
    15
100
AcDbSpline
210
0.0
220
0.0
230
1.0
 70
     8
 71
     3
 72
    14
 73
    10
 74
     0
 42
0.00000001
 43
0.00000001
 12
1.0
 22
0.0
 32
0.0
 13
1.0
 23
0.0
 33
0.0
 40
0.0
 40
0.0
 40
0.0
 40
0.0
 40
0.1249999999999976
 40
0.1249999999999976
 40
0.2499999999999952
 40
0.2499999999999952
 40
0.4999999999999968
 40
0.4999999999999968
 40
1.0
 40
1.0
 40
1.0
 40
1.0
 10
140.9504257104665
 20
632.0667981753446
 30
0.0
 10
140.9504257104664
 20
631.5520391201001
 30
0.0
 10
140.9624740022677
 20
631.0347047817139
 30
0.0
 10
141.0102654096544
 20
630.0048492201178
 30
0.0
 10
141.0459570514928
 20
629.4917064223782
 30
0.0
 10
141.1868850488303
 20
627.957400738259
 30
0.0
 10
141.3260529960112
 20
626.9413724427488
 30
0.0
 10
141.8628091678812
 20
623.9113330382049
 30
0.0
 10
142.3791857115077
 20
621.9152971960999
 30
0.0
 10
143.0047028524391
 20
619.93577670994
 30
0.0
  0
LINE
  5
D9
330
1F
100
AcDbEntity
  8
0
  6
Continuous
 62
     7
370
    15
100
AcDbLine
 10
140.950425329
 20
609.1927955592
 30
0.0
 11
140.950425329
 21
632.0667969728
 31
0.0
  0
LINE
  5
DA
330
1F
100
AcDbEntity
  8
0
  6
Continuous
 62
     7
370
    15
100
AcDbLine
 10
165.7504260413
 20
632.0667969728
 30
0.0
 11
165.7504260413
 21
644.1978192622
 31
0.0
  0
LINE
  5
DB
330
1F
100
AcDbEntity
  8
0
  6
Continuous
 62
     7
370
    15
100
AcDbLine
 10
165.7504260413
 20
619.9357765461
 30
0.0
 11
165.7504260413
 21
632.0667969728
 31
0.0
  0
SPLINE
  5
DC
330
1F
100
AcDbEntity
  8
0
  6
Continuous
 62
     7
370
    15
100
AcDbSpline
210
0.0
220
0.0
230
1.0
 70
     8
 71
     3
 72
    10
 73
     6
 74
     0
 42
0.00000001
 43
0.00000001
 12
1.0
 22
0.0
 32
0.0
 13
1.0
 23
0.0
 33
0.0
 40
0.0
 40
0.0
 40
0.0
 40
0.0
 40
0.5
 40
0.5
 40
1.0
 40
1.0
 40
1.0
 40
1.0
 10
143.0047028524388
 20
644.1978196407406
 30
0.0
 10
142.3776194869222
 20
642.2133426578686
 30
0.0
 10
141.8609962129283
 20
640.2143706789251
 30
0.0
 10
141.1462090681858
 20
636.1746372590228
 30
0.0
 10
140.9504257104667
 20
634.1335634380312
 30
0.0
 10
140.9504257104665
 20
632.0667981753446
 30
0.0
  0
LINE
  5
DD
330
1F
100
AcDbEntity
  8
0
  6
Continuous
 62
     7
370
    15
100
AcDbLine
 10
165.7504260413
 20
644.1978192622
 30
0.0
 11
143.0047031365
 21
644.1978192622
 31
0.0
  0
LINE
  5
DE
330
1F
100
AcDbEntity
  8
0
  6
Continuous
 62
     7
370
    15
100
AcDbLine
 10
-134.6495609858
 20
639.4017296577
 30
0.0
 11
-134.6495609858
 21
630.2648442531
 31
0.0
  0
LINE
  5
DF
330
1F
100
AcDbEntity
  8
0
  6
Continuous
 62
     7
370
    15
100
AcDbLine
 10
-134.6495609858
 20
648.5386169249
 30
0.0
 11
-134.6495609858
 21
639.4017296577
 31
0.0
  0
LINE
  5
E0
330
1F
100
AcDbEntity
  8
0
  6
Continuous
 62
     7
370
    15
100
AcDbLine
 10
-134.6495609858
 20
648.5386169249
 30
0.0
 11
-111.9038622954
 21
648.5386169249
 31
0.0
  0
SPLINE
  5
E1
330
1F
100
AcDbEntity
  8
0
  6
Continuous
 62
     7
370
    15
100
AcDbSpline
210
0.0
220
0.0
230
1.0
 70
     8
 71
     3
 72
    13
 73
     9
 74
     0
 42
0.00000001
 43
0.00000001
 12
1.0
 22
0.0
 32
0.0
 13
1.0
 23
0.0
 33
0.0
 40
0.0
 40
0.0
 40
0.0
 40
0.0
 40
0.0700722859722275
 40
0.2236285628201388
 40
0.3772874141822978
 40
0.5308667808900489
 40
0.7654109377783976
 40
1.0
 40
1.0
 40
1.0
 40
1.0
 10
-109.8495882131788
 20
639.4017296577025
 30
0.0
 10
-109.8518368041663
 20
639.6183936906181
 30
0.0
 10
-109.8590129532522
 20
640.3098548813507
 30
0.0
 10
-109.9472437321324
 20
641.4754749722239
 30
0.0
 10
-110.1527000332547
 20
642.8937047498797
 30
0.0
 10
-110.5110985882911
 20
644.5510977569626
 30
0.0
 10
-111.0667333827339
 20
646.4399030290333
 30
0.0
 10
-111.6248015184315
 20
647.8390009858465
 30
0.0
 10
-111.9038622953626
 20
648.5386169249344
 30
0.0
  0
SPLINE
  5
E2
330
1F
100
AcDbEntity
  8
0
  6
Continuous
 62
     7
370
    15
100
AcDbSpline
210
0.0
220
0.0
230
1.0
 70
     8
 71
     3
 72
    13
 73
     9
 74
     0
 42
0.00000001
 43
0.00000001
 12
1.0
 22
0.0
 32
0.0
 13
1.0
 23
0.0
 33
0.0
 40
0.0
 40
0.0
 40
0.0
 40
0.0
 40
0.0700724157687502
 40
0.2236280478894484
 40
0.3772868470819268
 40
0.5308666992687326
 40
0.765409493956225
 40
0.9999999999999999
 40
0.9999999999999999
 40
0.9999999999999999
 40
0.9999999999999999
 10
-109.8495882131789
 20
600.6615902030993
 30
0.0
 10
-109.8518367839355
 20
600.7511411822528
 30
0.0
 10
-109.8590128386399
 20
601.0369328227295
 30
0.0
 10
-109.9472439391507
 20
601.5187145743934
 30
0.0
 10
-110.1527008893937
 20
602.104913501902
 30
0.0
 10
-110.511095601511
 20
602.7899352456313
 30
0.0
 10
-111.0667390951331
 20
603.5706468720558
 30
0.0
 10
-111.6248023100784
 20
604.1489166147512
 30
0.0
 10
-111.9038622953626
 20
604.4380808914233
 30
0.0
  0
LINE
  5
E3
330
1F
100
AcDbEntity
  8
0
  6
Continuous
 62
     7
370
    15
100
AcDbLine
 10
-109.8495882132
 20
617.3514644349
 30
0.0
 11
-109.8495882132
 21
600.6615902031
 31
0.0
  0
SPLINE
  5
E4
330
1F
100
AcDbEntity
  8
0
  6
Continuous
 62
     7
370
    15
100
AcDbSpline
210
0.0
220
0.0
230
1.0
 70
     8
 71
     3
 72
    13
 73
     9
 74
     0
 42
0.00000001
 43
0.00000001
 12
1.0
 22
0.0
 32
0.0
 13
1.0
 23
0.0
 33
0.0
 40
0.0
 40
0.0
 40
0.0
 40
0.0
 40
0.0700742286905179
 40
0.2236282103621244
 40
0.3772863408267154
 40
0.5308671613026575
 40
0.7654103216936397
 40
0.9999999999999999
 40
0.9999999999999999
 40
0.9999999999999999
 40
0.9999999999999999
 10
140.9504253289965
 20
645.5858587021161
 30
0.0
 10
140.9526806524462
 20
645.5529444844409
 30
0.0
 10
140.9598780766104
 20
645.4479051892291
 30
0.0
 10
141.0481131840184
 20
645.2708217774181
 30
0.0
 10
141.2535409833623
 20
645.0553702486471
 30
0.0
 10
141.6119404103669
 20
644.8035902382159
 30
0.0
 10
142.1675879277442
 20
644.5166474295889
 30
0.0
 10
142.7256462883871
 20
644.3041023431236
 30
0.0
 10
143.0047031364706
 20
644.1978192621995
 30
0.0
  0
LINE
  5
E5
330
1F
100
AcDbEntity
  8
0
  6
Continuous
 62
     7
370
    15
100
AcDbLine
 10
140.950425329
 20
632.0667969728
 30
0.0
 11
140.950425329
 21
645.5858587021
 31
0.0
  0
LINE
  5
E6
330
1F
100
AcDbEntity
  8
0
  6
Continuous
 62
     7
370
    15
100
AcDbLine
 10
-134.6495609858
 20
600.6615902031
 30
0.0
 11
-134.6495609858
 21
596.8850920642
 31
0.0
  0
SPLINE
  5
E7
330
1F
100
AcDbEntity
  8
0
  6
Continuous
 62
     7
370
    15
100
AcDbSpline
210
0.0
220
0.0
230
1.0
 70
     8
 71
     3
 72
    13
 73
     9
 74
     0
 42
0.00000001
 43
0.00000001
 12
1.0
 22
0.0
 32
0.0
 13
1.0
 23
0.0
 33
0.0
 40
0.0
 40
0.0
 40
0.0
 40
0.0
 40
0.165114934483289
 40
0.3302744275568837
 40
0.4953481502187762
 40
0.6635400777052851
 40
0.8318385438638158
 40
1.0
 40
1.0
 40
1.0
 40
1.0
 10
-111.9038622953626
 20
596.8850920641947
 30
0.0
 10
-111.7046734329773
 20
597.0883813242654
 30
0.0
 10
-111.3062419542871
 20
597.4950147048763
 30
0.0
 10
-110.8075707721678
 20
598.112215982576
 30
0.0
 10
-110.3925408702389
 20
598.738370593329
 30
0.0
 10
-110.0870373679059
 20
599.3736759262083
 30
0.0
 10
-109.8879489302581
 20
600.0166062615087
 30
0.0
 10
-109.8623716470922
 20
600.4466539292149
 30
0.0
 10
-109.8495882131788
 20
600.6615902030993
 30
0.0
  0
LINE
  5
E8
330
1F
100
AcDbEntity
  8
0
  6
Continuous
 62
     7
370
    15
100
AcDbLine
 10
-134.6495609858
 20
596.8850920642
 30
0.0
 11
-111.9038622954
 21
596.8850920642
 31
0.0
  0
LINE
  5
E9
330
1F
100
AcDbEntity
  8
0
  6
Continuous
 62
     7
370
    15
100
AcDbLine
 10
-134.6495609858
 20
604.4380808914
 30
0.0
 11
-134.6495609858
 21
600.6615902031
 31
0.0
  0
SPLINE
  5
EA
330
1F
100
AcDbEntity
  8
0
  6
Continuous
 62
     7
370
    15
100
AcDbSpline
210
0.0
220
0.0
230
1.0
 70
     8
 71
     3
 72
    12
 73
     8
 74
     0
 42
0.00000001
 43
0.00000001
 12
1.0
 22
0.0
 32
0.0
 13
1.0
 23
0.0
 33
0.0
 40
0.0
 40
0.0
 40
0.0
 40
0.0
 40
0.2012168388640404
 40
0.4024883641493023
 40
0.6036566430071527
 40
0.8086251626400048
 40
1.0
 40
1.0
 40
1.0
 40
1.0
 10
143.0047031364706
 20
598.4498108470965
 30
0.0
 10
142.8055680270998
 20
598.5245300756503
 30
0.0
 10
142.4072436877063
 20
598.6739888398419
 30
0.0
 10
141.9078762486621
 20
598.9008342946779
 30
0.0
 10
141.4955045685993
 20
599.1309980510466
 30
0.0
 10
141.1868656859126
 20
599.3591932799643
 30
0.0
 10
141.0799344099838
 20
599.5115900631405
 30
0.0
 10
141.0283025226858
 20
599.5851750219393
 30
0.0
  0
LINE
  5
EB
330
1F
100
AcDbEntity
  8
0
  6
Continuous
 62
     7
370
    15
100
AcDbLine
 10
140.950425329
 20
599.7118572438
 30
0.0
 11
140.950425329
 21
609.1927955592
 31
0.0
  0
SPLINE
  5
EC
330
1F
100
AcDbEntity
  8
0
  6
Continuous
 62
     7
370
    15
100
AcDbSpline
210
0.0
220
0.0
230
1.0
 70
     8
 71
     3
 72
    10
 73
     6
 74
     0
 42
0.00000001
 43
0.00000001
 12
1.0
 22
0.0
 32
0.0
 13
1.0
 23
0.0
 33
0.0
 40
0.0
 40
0.0
 40
0.0
 40
0.0
 40
0.3358646500015003
 40
0.6718197820477906
 40
0.9999999999999999
 40
0.9999999999999999
 40
0.9999999999999999
 40
0.9999999999999999
 10
-111.9038622953626
 20
648.5386169249344
 30
0.0
 10
-111.7050993069109
 20
648.3353072137346
 30
0.0
 10
-111.3075197831944
 20
647.9286330196331
 30
0.0
 10
-110.8062692770706
 20
647.3163920574718
 30
0.0
 10
-110.5495259230528
 20
646.9055196103694
 30
0.0
 10
-110.4226570703718
 20
646.7024883920479
 30
0.0
  0
LINE
  5
ED
330
1F
100
AcDbEntity
  8
0
  6
Continuous
 62
     7
370
    15
100
AcDbLine
 10
-109.8495882132
 20
645.7118554706
 30
0.0
 11
-109.8495882132
 21
639.4017296577
 31
0.0
  0
LINE
  5
EE
330
1F
100
AcDbEntity
  8
0
  6
Continuous
 62
     7
370
    15
100
AcDbLine
 10
165.7504260413
 20
645.5858587021
 30
0.0
 11
165.7504260413
 21
646.973898142
 31
0.0
  0
SPLINE
  5
EF
330
1F
100
AcDbEntity
  8
0
  6
Continuous
 62
     7
370
    15
100
AcDbSpline
210
0.0
220
0.0
230
1.0
 70
     8
 71
     3
 72
    10
 73
     6
 74
     0
 42
0.00000001
 43
0.00000001
 12
1.0
 22
0.0
 32
0.0
 13
1.0
 23
0.0
 33
0.0
 40
0.0
 40
0.0
 40
0.0
 40
0.0
 40
0.5
 40
0.5
 40
1.0
 40
1.0
 40
1.0
 40
1.0
 10
143.0047028524405
 20
646.9738983153969
 30
0.0
 10
142.3776201046151
 20
646.7468333966818
 30
0.0
 10
141.8609972305713
 20
646.5181099543925
 30
0.0
 10
141.1462101627915
 20
646.0558815033436
 30
0.0
 10
140.9504264698007
 20
645.8223407520428
 30
0.0
 10
140.9504257104707
 20
645.5858603757017
 30
0.0
  0
LINE
  5
F0
330
1F
100
AcDbEntity
  8
0
  6
Continuous
 62
     7
370
    15
100
AcDbLine
 10
165.7504260413
 20
646.973898142
 30
0.0
 11
143.0047031365
 21
646.973898142
 31
0.0
  0
LINE
  5
F1
330
1F
100
AcDbEntity
  8
0
  6
Continuous
 62
     7
370
    15
100
AcDbLine
 10
165.7504260413
 20
644.1978192622
 30
0.0
 11
165.7504260413
 21
645.5858587021
 31
0.0
  0
LINE
  5
F2
330
1F
100
AcDbEntity
  8
0
  6
Continuous
 62
     7
370
    15
100
AcDbLine
 10
318.0504280947
 20
607.7118585551
 30
0.0
 11
318.0504280947
 21
637.7118560219
 31
0.0
  0
LINE
  5
F3
330
1F
100
AcDbEntity
  8
0
  6
Continuous
 62
     7
370
    15
100
AcDbLine
 10
-286.9495611765
 20
607.7118585551
 30
0.0
 11
-286.9495611765
 21
637.7118560219
 31
0.0
  0
LINE
  5
F4
330
1F
100
AcDbEntity
  8
0
  6
Continuous
 62
     7
370
    15
100
AcDbLine
 10
-109.8495882132
 20
600.6615902031
 30
0.0
 11
-109.8495882132
 21
599.7118572438
 31
0.0
  0
LINE
  5
F5
330
1F
100
AcDbEntity
  8
0
  6
Continuous
 62
     7
370
    15
100
AcDbLine
 10
140.950425329
 20
645.5858587021
 30
0.0
 11
140.950425329
 21
645.7118554706
 31
0.0
  0
SPLINE
  5
F6
330
1F
100
AcDbEntity
  8
0
  6
Continuous
 62
     7
370
    15
100
AcDbSpline
210
0.0
220
0.0
230
1.0
 70
     8
 71
     3
 72
    15
 73
    11
 74
     0
 42
0.00000001
 43
0.00000001
 12
1.0
 22
0.0
 32
0.0
 13
1.0
 23
0.0
 33
0.0
 40
0.0
 40
0.0
 40
0.0
 40
0.0
 40
0.1021862431211457
 40
0.2038918105708065
 40
0.2893439141469314
 40
0.3749793793082991
 40
0.5257936326265321
 40
0.6769881332879947
 40
0.8792522228252272
 40
1.0
 40
1.0
 40
1.0
 40
1.0
 10
32.29941314676078
 20
367.2500918353129
 30
0.0
 10
32.16534140189915
 20
367.2530574332652
 30
0.0
 10
31.8978285746214
 20
367.258974679241
 30
0.0
 10
31.56401540290519
 20
367.2969172828988
 30
0.0
 10
31.2977720041828
 20
367.3389090279323
 30
0.0
 10
31.03113757698065
 20
367.3917726139117
 30
0.0
 10
30.77550282829781
 20
367.4517609957218
 30
0.0
 10
30.53066468167518
 20
367.5130516702545
 30
0.0
 10
30.35578475942555
 20
367.5507612520427
 30
0.0
 10
30.28538745686158
 20
367.5494424985347
 30
0.0
 10
30.25907165029319
 20
367.5489495242167
 30
0.0
  0
LINE
  5
F7
330
1F
100
AcDbEntity
  8
0
  6
Continuous
 62
     7
370
    15
100
AcDbLine
 10
35.5504292867
 20
948.1301675284
 30
0.0
 11
35.5504292867
 21
637.7118560219
 31
0.0
  0
LINE
  5
F8
330
1F
100
AcDbEntity
  8
0
  6
Continuous
 62
     7
370
    15
100
AcDbLine
 10
38.0504269026
 20
661.5530564184
 30
0.0
 11
38.0504269026
 21
685.553056627
 31
0.0
  0
SPLINE
  5
F9
330
1F
100
AcDbEntity
  8
0
  6
Continuous
 62
     7
370
    15
100
AcDbSpline
210
0.0
220
0.0
230
1.0
 70
     8
 71
     3
 72
    25
 73
    21
 74
     0
 42
0.00000001
 43
0.00000001
 12
1.0
 22
0.0
 32
0.0
 13
1.0
 23
0.0
 33
0.0
 40
0.0
 40
0.0
 40
0.0
 40
0.0
 40
0.0168237660803424
 40
0.0753922455481582
 40
0.1337980374140803
 40
0.1922035076397433
 40
0.2505650540303199
 40
0.3089269404415038
 40
0.3673780609301883
 40
0.425830394735731
 40
0.4844703726387565
 40
0.5431124834738456
 40
0.6019621255522767
 40
0.6608121729113744
 40
0.7198041427838665
 40
0.7787941746075393
 40
0.837791829622102
 40
0.8967894247309147
 40
0.9483954138739825
 40
1.0
 40
1.0
 40
1.0
 40
1.0
 10
28.82388121106894
 20
385.1071665728617
 30
0.0
 10
28.82685210304715
 20
385.1021627828309
 30
0.0
 10
28.84016554407141
 20
385.079739327531
 30
0.0
 10
28.849921545626
 20
385.2095655698334
 30
0.0
 10
28.85171837936266
 20
385.5019658441964
 30
0.0
 10
28.83821762030143
 20
385.9611185095625
 30
0.0
 10
28.810528328411
 20
386.5642012619705
 30
0.0
 10
28.76960108888444
 20
387.2928666698569
 30
0.0
 10
28.71613815820959
 20
388.1303808243592
 30
0.0
 10
28.65189359343546
 20
389.050486613632
 30
0.0
 10
28.57827141946315
 20
390.0297717849291
 30
0.0
 10
28.49745882834074
 20
391.0401268795868
 30
0.0
 10
28.41147255352742
 20
392.0527342549912
 30
0.0
 10
28.3228338112824
 20
393.040238247809
 30
0.0
 10
28.23402995317074
 20
393.9718453961223
 30
0.0
 10
28.14759396605283
 20
394.8234764708852
 30
0.0
 10
28.06612869645032
 20
395.5672884254628
 30
0.0
 10
27.99516560611524
 20
396.1571343900738
 30
0.0
 10
27.93495435301619
 20
396.603452878758
 30
0.0
 10
27.90402806103982
 20
396.7852209057298
 30
0.0
 10
27.88856512525351
 20
396.8761036837626
 30
0.0
  0
SPLINE
  5
FA
330
1F
100
AcDbEntity
  8
0
  6
Continuous
 62
     7
370
    15
100
AcDbSpline
210
0.0
220
0.0
230
1.0
 70
     8
 71
     3
 72
    27
 73
    23
 74
     0
 42
0.00000001
 43
0.00000001
 12
1.0
 22
0.0
 32
0.0
 13
1.0
 23
0.0
 33
0.0
 40
0.0
 40
0.0
 40
0.0
 40
0.0
 40
0.0005453714191831
 40
0.0544228383265022
 40
0.1082988250023589
 40
0.1619878203585579
 40
0.2156757973890222
 40
0.269182120065185
 40
0.322688687739135
 40
0.3760947917626287
 40
0.4295014646349206
 40
0.4829306322811713
 40
0.5363603551032592
 40
0.5899245596534693
 40
0.643489853871168
 40
0.6972473802212148
 40
0.7510048005092831
 40
0.8049318792490523
 40
0.8588581407358
 40
0.9128571503254099
 40
0.9668555972946589
 40
1.0
 40
1.0
 40
1.0
 40
1.0
 10
28.63752728917868
 20
492.9817090476084
 30
0.0
 10
28.63778074216131
 20
492.9814182713732
 30
0.0
 10
28.66307291958981
 20
492.9524015912206
 30
0.0
 10
28.70548206571056
 20
493.0544051725921
 30
0.0
 10
28.7620573512851
 20
493.2932949112239
 30
0.0
 10
28.80498971148927
 20
493.7187430807326
 30
0.0
 10
28.83503251750061
 20
494.2842542525012
 30
0.0
 10
28.85046945051842
 20
494.9867864781585
 30
0.0
 10
28.85164517110459
 20
495.7984000860449
 30
0.0
 10
28.83798809770439
 20
496.7012149025858
 30
0.0
 10
28.81041479074418
 20
497.6662242774738
 30
0.0
 10
28.76919220981725
 20
498.6687303277639
 30
0.0
 10
28.71585848522632
 20
499.6802480020526
 30
0.0
 10
28.65138567565413
 20
500.6718711691493
 30
0.0
 10
28.57782516134126
 20
501.6181118599592
 30
0.0
 10
28.49687199887899
 20
502.4887876845863
 30
0.0
 10
28.41092369157786
 20
503.2636585698415
 30
0.0
 10
28.32228756746683
 20
503.9143097113841
 30
0.0
 10
28.23337669658897
 20
504.4300091276052
 30
0.0
 10
28.14732843064644
 20
504.7798382025972
 30
0.0
 10
28.07533916505859
 20
504.9670575367019
 30
0.0
 10
28.03638785204566
 20
504.9620148457532
 30
0.0
 10
28.0215728900698
 20
504.96009688025
 30
0.0
  0
SPLINE
  5
FB
330
1F
100
AcDbEntity
  8
0
  6
Continuous
 62
     7
370
    15
100
AcDbSpline
210
0.0
220
0.0
230
1.0
 70
     8
 71
     3
 72
    27
 73
    23
 74
     0
 42
0.00000001
 43
0.00000001
 12
1.0
 22
0.0
 32
0.0
 13
1.0
 23
0.0
 33
0.0
 40
0.0
 40
0.0
 40
0.0
 40
0.0
 40
0.0072355526746393
 40
0.0612249451513356
 40
0.1152134747627608
 40
0.1691899157460943
 40
0.2231659736094458
 40
0.2770095684082192
 40
0.3308515706631616
 40
0.3845005416185585
 40
0.4381491574894977
 40
0.4916277683313474
 40
0.5451062136774147
 40
0.5985082061636487
 40
0.6519108148698007
 40
0.7053613266449597
 40
0.7588127871198911
 40
0.8124158031635237
 40
0.8660209652043223
 40
0.9198189912727227
 40
0.9736183211968221
 40
1.0
 40
1.0
 40
1.0
 40
1.0
 10
28.33092099645408
 20
667.5630728447962
 30
0.0
 10
28.33488520906347
 20
667.5598401865283
 30
0.0
 10
28.3684291151741
 20
667.5324864605518
 30
0.0
 10
28.43134862745151
 20
667.6467916333537
 30
0.0
 10
28.51669931068546
 20
667.9102173730164
 30
0.0
 10
28.59642976412361
 20
668.3553450763425
 30
0.0
 10
28.66849515085224
 20
668.9415000578415
 30
0.0
 10
28.73058915570179
 20
669.6633270855839
 30
0.0
 10
28.78136707230103
 20
670.492548396958
 30
0.0
 10
28.81908463497441
 20
671.4102753068289
 30
0.0
 10
28.84322097708576
 20
672.3858742020786
 30
0.0
 10
28.85267126661898
 20
673.394401878336
 30
0.0
 10
28.84780266995999
 20
674.40580969565
 30
0.0
 10
28.82819215272354
 20
675.3919780292176
 30
0.0
 10
28.79496345028868
 20
676.3268925679881
 30
0.0
 10
28.74847577969228
 20
677.1818344559218
 30
0.0
 10
28.69041706756612
 20
677.9373332321062
 30
0.0
 10
28.62189207178177
 20
678.56624848929
 30
0.0
 10
28.54509101205258
 20
679.0596811297238
 30
0.0
 10
28.4617426544939
 20
679.3852201087395
 30
0.0
 10
28.38932759243857
 20
679.5492335643562
 30
0.0
 10
28.34532463191162
 20
679.5357565839448
 30
0.0
 10
28.33084649064811
 20
679.5313222998906
 30
0.0
  0
SPLINE
  5
FC
330
1F
100
AcDbEntity
  8
0
  6
Continuous
 62
     7
370
    15
100
AcDbSpline
210
0.0
220
0.0
230
1.0
 70
     8
 71
     3
 72
    27
 73
    23
 74
     0
 42
0.00000001
 43
0.00000001
 12
1.0
 22
0.0
 32
0.0
 13
1.0
 23
0.0
 33
0.0
 40
0.0
 40
0.0
 40
0.0
 40
0.0
 40
0.0005453714191831
 40
0.0544228383265022
 40
0.1082988250023589
 40
0.1619878203585579
 40
0.2156757973890222
 40
0.269182120065185
 40
0.322688687739135
 40
0.3760947917626287
 40
0.4295014646349206
 40
0.4829306322811713
 40
0.5363603551032592
 40
0.5899245596534693
 40
0.643489853871168
 40
0.6972473802212148
 40
0.7510048005092831
 40
0.8049318792490523
 40
0.8588581407358
 40
0.9128571503254099
 40
0.9668555972946589
 40
1.0
 40
1.0
 40
1.0
 40
1.0
 10
28.63752728917868
 20
854.1244039977122
 30
0.0
 10
28.63778074216131
 20
854.1246947739473
 30
0.0
 10
28.66307291958981
 20
854.1537114541001
 30
0.0
 10
28.70548206571056
 20
854.0517078727285
 30
0.0
 10
28.7620573512851
 20
853.8128181340967
 30
0.0
 10
28.80498971148927
 20
853.387369964588
 30
0.0
 10
28.83503251750061
 20
852.8218587928194
 30
0.0
 10
28.85046945051842
 20
852.119326567162
 30
0.0
 10
28.85164517110459
 20
851.3077129592757
 30
0.0
 10
28.83798809770439
 20
850.4048981427347
 30
0.0
 10
28.81041479074418
 20
849.4398887678467
 30
0.0
 10
28.76919220981725
 20
848.4373827175566
 30
0.0
 10
28.71585848522632
 20
847.425865043268
 30
0.0
 10
28.65138567565413
 20
846.4342418761713
 30
0.0
 10
28.57782516134126
 20
845.4880011853613
 30
0.0
 10
28.49687199887899
 20
844.6173253607343
 30
0.0
 10
28.41092369157786
 20
843.842454475479
 30
0.0
 10
28.32228756746683
 20
843.1918033339365
 30
0.0
 10
28.23337669658897
 20
842.6761039177154
 30
0.0
 10
28.14732843064644
 20
842.3262748427234
 30
0.0
 10
28.07533916505859
 20
842.1390555086186
 30
0.0
 10
28.03638785204566
 20
842.1440981995673
 30
0.0
 10
28.0215728900698
 20
842.1460161650706
 30
0.0
  0
LINE
  5
FD
330
1F
100
AcDbEntity
  8
0
  6
Continuous
 62
     7
370
    15
100
AcDbLine
 10
35.5504292867
 20
367.2500918353
 30
0.0
 11
32.2994131468
 21
367.2500918353
 31
0.0
  0
LINE
  5
FE
330
1F
100
AcDbEntity
  8
0
  6
Continuous
 62
     7
370
    15
100
AcDbLine
 10
35.5504292867
 20
607.7118585551
 30
0.0
 11
35.5504292867
 21
367.2500918353
 31
0.0
  0
SPLINE
  5
FF
330
1F
100
AcDbEntity
  8
0
  6
Continuous
 62
     7
370
    15
100
AcDbSpline
210
0.0
220
0.0
230
1.0
 70
     8
 71
     3
 72
    16
 73
    12
 74
     0
 42
0.00000001
 43
0.00000001
 12
1.0
 22
0.0
 32
0.0
 13
1.0
 23
0.0
 33
0.0
 40
0.0
 40
0.0
 40
0.0
 40
0.0
 40
0.2500000000000069
 40
0.2500000000000069
 40
0.5000000000000138
 40
0.5000000000000138
 40
0.6250000000000103
 40
0.6250000000000103
 40
0.7500000000000069
 40
0.7500000000000069
 40
1.0
 40
1.0
 40
1.0
 40
1.0
 10
47.21356543128106
 20
668.3569040999537
 30
0.0
 10
47.45848694586347
 20
667.9326875928302
 30
0.0
 10
47.66034666589994
 20
667.5053781870195
 30
0.0
 10
47.93998793749702
 20
666.6418475033211
 30
0.0
 10
48.01684707222537
 20
666.2055599731596
 30
0.0
 10
48.01769123339451
 20
665.5429087378491
 30
0.0
 10
47.99890214672448
 20
665.3209856800681
 30
0.0
 10
47.92563465464359
 20
664.8819984610731
 30
0.0
 10
47.87123060298024
 20
664.663976612625
 30
0.0
 10
47.66115154462817
 20
664.0137926484052
 30
0.0
 10
47.45879225146078
 20
663.5854969891774
 30
0.0
 10
47.21356543128086
 20
663.1607516772469
 30
0.0
  0
SPLINE
  5
100
330
1F
100
AcDbEntity
  8
0
  6
Continuous
 62
     7
370
    15
100
AcDbSpline
210
0.0
220
0.0
230
1.0
 70
     8
 71
     3
 72
    16
 73
    12
 74
     0
 42
0.00000001
 43
0.00000001
 12
1.0
 22
0.0
 32
0.0
 13
1.0
 23
0.0
 33
0.0
 40
0.0
 40
0.0
 40
0.0
 40
0.0
 40
0.25
 40
0.25
 40
0.5
 40
0.5
 40
0.625
 40
0.625
 40
0.75
 40
0.75
 40
1.0
 40
1.0
 40
1.0
 40
1.0
 10
47.2135654312807
 20
668.3569040999537
 30
0.0
 10
47.45754072781111
 20
669.2020593187185
 30
0.0
 10
47.66223468330215
 20
670.0678872155286
 30
0.0
 10
47.94208845562768
 20
671.8037725567085
 30
0.0
 10
48.01749702991874
 20
672.6764126924784
 30
0.0
 10
48.01737089068601
 20
673.9936176292515
 30
0.0
 10
47.99867942449244
 20
674.4340437730691
 30
0.0
 10
47.92450456743539
 20
675.3175748162394
 30
0.0
 10
47.86932831911467
 20
675.7566817947364
 30
0.0
 10
47.65799127903906
 20
677.0582849188515
 30
0.0
 10
47.45602821466961
 20
677.9092932258185
 30
0.0
 10
47.21356543128067
 20
678.749208945367
 30
0.0
  0
SPLINE
  5
101
330
1F
100
AcDbEntity
  8
0
  6
Continuous
 62
     7
370
    15
100
AcDbSpline
210
0.0
220
0.0
230
1.0
 70
     8
 71
     3
 72
    16
 73
    12
 74
     0
 42
0.00000001
 43
0.00000001
 12
1.0
 22
0.0
 32
0.0
 13
1.0
 23
0.0
 33
0.0
 40
0.0
 40
0.0
 40
0.0
 40
0.0
 40
0.2500000000000068
 40
0.2500000000000068
 40
0.5000000000000135
 40
0.5000000000000135
 40
0.6250000000000101
 40
0.6250000000000101
 40
0.7500000000000068
 40
0.7500000000000068
 40
1.0
 40
1.0
 40
1.0
 40
1.0
 10
47.21356543128108
 20
683.9453613680736
 30
0.0
 10
47.45848694586347
 20
683.5211448609501
 30
0.0
 10
47.66034666589992
 20
683.0938354551395
 30
0.0
 10
47.93998793749708
 20
682.2303047714411
 30
0.0
 10
48.01684707222537
 20
681.7940172412794
 30
0.0
 10
48.01769123339451
 20
681.131366005969
 30
0.0
 10
47.9989021467244
 20
680.9094429481881
 30
0.0
 10
47.92563465464357
 20
680.4704557291931
 30
0.0
 10
47.87123060298024
 20
680.252433880745
 30
0.0
 10
47.66115154462823
 20
679.6022499165251
 30
0.0
 10
47.45879225146091
 20
679.1739542572972
 30
0.0
 10
47.21356543128086
 20
678.749208945367
 30
0.0
  0
LINE
  5
102
330
1F
100
AcDbEntity
  8
0
  6
Continuous
 62
     7
370
    15
100
AcDbLine
 10
48.4504241369
 20
673.5530565227
 30
0.0
 11
48.4504241369
 21
681.803056478
 31
0.0
  0
LINE
  5
103
330
1F
100
AcDbEntity
  8
0
  6
Continuous
 62
     7
370
    15
100
AcDbLine
 10
48.4504241369
 20
665.3030565674
 30
0.0
 11
48.4504241369
 21
673.5530565227
 31
0.0
  0
SPLINE
  5
104
330
1F
100
AcDbEntity
  8
0
  6
Continuous
 62
     7
370
    15
100
AcDbSpline
210
0.0
220
0.0
230
1.0
 70
     8
 71
     3
 72
    16
 73
    12
 74
     0
 42
0.00000001
 43
0.00000001
 12
1.0
 22
0.0
 32
0.0
 13
1.0
 23
0.0
 33
0.0
 40
0.0
 40
0.0
 40
0.0
 40
0.0
 40
0.25
 40
0.25
 40
0.5
 40
0.5
 40
0.625
 40
0.625
 40
0.75
 40
0.75
 40
1.0
 40
1.0
 40
1.0
 40
1.0
 10
39.28728598965176
 20
668.3569040999537
 30
0.0
 10
39.04331069312134
 20
669.2020593187185
 30
0.0
 10
38.83861673763037
 20
670.0678872155286
 30
0.0
 10
38.55876296530484
 20
671.8037725567086
 30
0.0
 10
38.48335439101378
 20
672.6764126924784
 30
0.0
 10
38.4834805302464
 20
673.9936176292515
 30
0.0
 10
38.50217199644002
 20
674.4340437730691
 30
0.0
 10
38.57634685349713
 20
675.3175748162394
 30
0.0
 10
38.63152310181784
 20
675.7566817947364
 30
0.0
 10
38.84286014189335
 20
677.0582849188515
 30
0.0
 10
39.04482320626288
 20
677.9092932258185
 30
0.0
 10
39.28728598965181
 20
678.749208945367
 30
0.0
  0
SPLINE
  5
105
330
1F
100
AcDbEntity
  8
0
  6
Continuous
 62
     7
370
    15
100
AcDbSpline
210
0.0
220
0.0
230
1.0
 70
     8
 71
     3
 72
    16
 73
    12
 74
     0
 42
0.00000001
 43
0.00000001
 12
1.0
 22
0.0
 32
0.0
 13
1.0
 23
0.0
 33
0.0
 40
0.0
 40
0.0
 40
0.0
 40
0.0
 40
0.2500000000000067
 40
0.2500000000000067
 40
0.5000000000000134
 40
0.5000000000000134
 40
0.62500000000001
 40
0.62500000000001
 40
0.7500000000000066
 40
0.7500000000000066
 40
1.0
 40
1.0
 40
1.0
 40
1.0
 10
39.28728598965146
 20
663.1607516772469
 30
0.0
 10
39.04236447506904
 20
663.5849681843704
 30
0.0
 10
38.84050475503254
 20
664.0122775901812
 30
0.0
 10
38.56086348343552
 20
664.8758082738794
 30
0.0
 10
38.48400434870714
 20
665.3120958040412
 30
0.0
 10
38.48316018753795
 20
665.9747470393515
 30
0.0
 10
38.50194927420803
 20
666.1966700971325
 30
0.0
 10
38.57521676628884
 20
666.6356573161275
 30
0.0
 10
38.62962081795219
 20
666.8536791645756
 30
0.0
 10
38.83969987630432
 20
667.5038631287954
 30
0.0
 10
39.0420591694716
 20
667.9321587880233
 30
0.0
 10
39.28728598965159
 20
668.3569040999537
 30
0.0
  0
SPLINE
  5
106
330
1F
100
AcDbEntity
  8
0
  6
Continuous
 62
     7
370
    15
100
AcDbSpline
210
0.0
220
0.0
230
1.0
 70
     8
 71
     3
 72
    16
 73
    12
 74
     0
 42
0.00000001
 43
0.00000001
 12
1.0
 22
0.0
 32
0.0
 13
1.0
 23
0.0
 33
0.0
 40
0.0
 40
0.0
 40
0.0
 40
0.0
 40
0.2500000000000068
 40
0.2500000000000068
 40
0.5000000000000135
 40
0.5000000000000135
 40
0.6250000000000101
 40
0.6250000000000101
 40
0.7500000000000068
 40
0.7500000000000068
 40
1.0
 40
1.0
 40
1.0
 40
1.0
 10
39.28728598965143
 20
678.749208945367
 30
0.0
 10
39.04236447506899
 20
679.1734254524904
 30
0.0
 10
38.84050475503251
 20
679.600734858301
 30
0.0
 10
38.5608634834355
 20
680.4642655419995
 30
0.0
 10
38.48400434870714
 20
680.9005530721611
 30
0.0
 10
38.48316018753795
 20
681.5632043074716
 30
0.0
 10
38.50194927420803
 20
681.7851273652524
 30
0.0
 10
38.57521676628892
 20
682.2241145842474
 30
0.0
 10
38.62962081795224
 20
682.4421364326956
 30
0.0
 10
38.83969987630429
 20
683.0923203969154
 30
0.0
 10
39.04205916947168
 20
683.5206160561434
 30
0.0
 10
39.28728598965165
 20
683.9453613680736
 30
0.0
  0
LINE
  5
107
330
1F
100
AcDbEntity
  8
0
  6
Continuous
 62
     7
370
    15
100
AcDbLine
 10
39.2872828863
 20
678.7492087776
 30
0.0
 11
47.2135681532
 21
678.7492087776
 31
0.0
  0
LINE
  5
108
330
1F
100
AcDbEntity
  8
0
  6
Continuous
 62
     7
370
    15
100
AcDbLine
 10
39.2872828863
 20
668.3569042677
 30
0.0
 11
47.2135681532
 21
668.3569042677
 31
0.0
  0
LINE
  5
109
330
1F
100
AcDbEntity
  8
0
  6
Continuous
 62
     7
370
    15
100
AcDbLine
 10
39.2872828863
 20
683.9453610325
 30
0.0
 11
47.2135681532
 21
683.9453610325
 31
0.0
  0
LINE
  5
10A
330
1F
100
AcDbEntity
  8
0
  6
Continuous
 62
     7
370
    15
100
AcDbLine
 10
39.2872828863
 20
663.1607520128
 30
0.0
 11
47.2135681532
 21
663.1607520128
 31
0.0
  0
LINE
  5
10B
330
1F
100
AcDbEntity
  8
0
  6
Continuous
 62
     7
370
    15
100
AcDbLine
 10
88.5504249356
 20
673.5530565227
 30
0.0
 11
88.5504249356
 21
679.5530565748
 31
0.0
  0
LINE
  5
10C
330
1F
100
AcDbEntity
  8
0
  6
Continuous
 62
     7
370
    15
100
AcDbLine
 10
88.5504249356
 20
667.5530564705
 30
0.0
 11
88.5504249356
 21
673.5530565227
 31
0.0
  0
SPLINE
  5
10D
330
1F
100
AcDbEntity
  8
0
  6
Continuous
 62
     7
370
    15
100
AcDbSpline
210
0.0
220
0.0
230
1.0
 70
     8
 71
     3
 72
     9
 73
     5
 74
     0
 42
0.00000001
 43
0.00000001
 12
1.0
 22
0.0
 32
0.0
 13
1.0
 23
0.0
 33
0.0
 40
0.0
 40
0.0
 40
0.0
 40
0.0
 40
0.6187588925035353
 40
1.0
 40
1.0
 40
1.0
 40
1.0
 10
27.88856512525351
 20
396.8761036837626
 30
0.0
 10
27.86726406361926
 20
396.9538506661642
 30
0.0
 10
27.83283860017569
 20
397.0795005490887
 30
0.0
 10
27.79267121693555
 20
397.0714769832549
 30
0.0
 10
27.77735775926383
 20
397.0684180701304
 30
0.0
  0
LINE
  5
10E
330
1F
100
AcDbEntity
  8
0
  6
Continuous
 62
     7
370
    15
100
AcDbLine
 10
-4.4495772698
 20
948.1301675284
 30
0.0
 11
-4.4495772698
 21
854.1252831662
 31
0.0
  0
LINE
  5
10F
330
1F
100
AcDbEntity
  8
0
  6
Continuous
 62
     7
370
    15
100
AcDbLine
 10
-4.4495772698
 20
842.1252737487
 30
0.0
 11
-4.4495772698
 21
679.5530565748
 31
0.0
  0
LINE
  5
110
330
1F
100
AcDbEntity
  8
0
  6
Continuous
 62
     7
370
    15
100
AcDbLine
 10
-4.4495772698
 20
667.5530564705
 30
0.0
 11
-4.4495772698
 21
637.7118560219
 31
0.0
  0
LINE
  5
111
330
1F
100
AcDbEntity
  8
0
  6
Continuous
 62
     7
370
    15
100
AcDbLine
 10
-4.4495772698
 20
607.7118585551
 30
0.0
 11
-4.4495772698
 21
504.9808392966
 31
0.0
  0
LINE
  5
112
330
1F
100
AcDbEntity
  8
0
  6
Continuous
 62
     7
370
    15
100
AcDbLine
 10
-4.4495772698
 20
492.9808298791
 30
0.0
 11
-4.4495772698
 21
397.0892796958
 31
0.0
  0
LINE
  5
113
330
1F
100
AcDbEntity
  8
0
  6
Continuous
 62
     7
370
    15
100
AcDbLine
 10
38.0504269026
 20
838.4170750821
 30
0.0
 11
38.0504269026
 21
860.1252804244
 31
0.0
  0
LINE
  5
114
330
1F
100
AcDbEntity
  8
0
  6
Continuous
 62
     7
370
    15
100
AcDbLine
 10
38.0504269026
 20
836.1252764905
 30
0.0
 11
38.0504269026
 21
838.4170750821
 31
0.0
  0
LINE
  5
115
330
1F
100
AcDbEntity
  8
0
  6
Continuous
 62
     7
370
    15
100
AcDbLine
 10
38.0504269026
 20
486.9808326209
 30
0.0
 11
38.0504269026
 21
510.9808365548
 31
0.0
  0
LINE
  5
116
330
1F
100
AcDbEntity
  8
0
  6
Continuous
 62
     7
370
    15
100
AcDbLine
 10
39.2872828863
 20
849.2115656579
 30
0.0
 11
47.2135681532
 21
849.2115656579
 31
0.0
  0
SPLINE
  5
117
330
1F
100
AcDbEntity
  8
0
  6
Continuous
 62
     7
370
    15
100
AcDbSpline
210
0.0
220
0.0
230
1.0
 70
     8
 71
     3
 72
    16
 73
    12
 74
     0
 42
0.00000001
 43
0.00000001
 12
1.0
 22
0.0
 32
0.0
 13
1.0
 23
0.0
 33
0.0
 40
0.0
 40
0.0
 40
0.0
 40
0.0
 40
0.2500000000000046
 40
0.2500000000000046
 40
0.5000000000000091
 40
0.5000000000000091
 40
0.6250000000000078
 40
0.6250000000000078
 40
0.7500000000000066
 40
0.7500000000000066
 40
1.0
 40
1.0
 40
1.0
 40
1.0
 10
47.21356543128106
 20
849.2115681088214
 30
0.0
 10
47.45848694586344
 20
848.4364859825424
 30
0.0
 10
47.66034666589994
 20
847.6557528491696
 30
0.0
 10
47.93998793749702
 20
846.0780037819143
 30
0.0
 10
48.01684707222537
 20
845.2808667991037
 30
0.0
 10
48.01769123339445
 20
844.0701427470656
 30
0.0
 10
47.99890214672443
 20
843.6646691443018
 30
0.0
 10
47.92563465464362
 20
842.8625995845496
 30
0.0
 10
47.8712306029803
 20
842.4642538459163
 30
0.0
 10
47.66115154462817
 20
841.2763086316263
 30
0.0
 10
47.45879225146083
 20
840.4937735235949
 30
0.0
 10
47.21356543128086
 20
839.7177252228569
 30
0.0
  0
LINE
  5
118
330
1F
100
AcDbEntity
  8
0
  6
Continuous
 62
     7
370
    15
100
AcDbLine
 10
39.2872828863
 20
839.7177229369
 30
0.0
 11
47.2135681532
 21
839.7177229369
 31
0.0
  0
SPLINE
  5
119
330
1F
100
AcDbEntity
  8
0
  6
Continuous
 62
     7
370
    15
100
AcDbSpline
210
0.0
220
0.0
230
1.0
 70
     8
 71
     3
 72
    16
 73
    12
 74
     0
 42
0.00000001
 43
0.00000001
 12
1.0
 22
0.0
 32
0.0
 13
1.0
 23
0.0
 33
0.0
 40
0.0
 40
0.0
 40
0.0
 40
0.0
 40
0.2500000000000027
 40
0.2500000000000027
 40
0.5000000000000053
 40
0.5000000000000053
 40
0.6250000000000014
 40
0.6250000000000014
 40
0.7499999999999976
 40
0.7499999999999976
 40
1.0
 40
1.0
 40
1.0
 40
1.0
 10
39.28728598965146
 20
839.7177252228569
 30
0.0
 10
39.04236447506904
 20
840.4928073491362
 30
0.0
 10
38.84050475503254
 20
841.2735404825089
 30
0.0
 10
38.56086348343547
 20
842.8512895497641
 30
0.0
 10
38.48400434870717
 20
843.6484265325746
 30
0.0
 10
38.48316018753793
 20
844.859150584613
 30
0.0
 10
38.50194927420809
 20
845.2646241873767
 30
0.0
 10
38.5752167662889
 20
846.0666937471289
 30
0.0
 10
38.62962081795224
 20
846.465039485762
 30
0.0
 10
38.83969987630434
 20
847.6529847000522
 30
0.0
 10
39.0420591694716
 20
848.4355198080837
 30
0.0
 10
39.28728598965159
 20
849.2115681088214
 30
0.0
  0
SPLINE
  5
11A
330
1F
100
AcDbEntity
  8
0
  6
Continuous
 62
     7
370
    15
100
AcDbSpline
210
0.0
220
0.0
230
1.0
 70
     8
 71
     3
 72
    16
 73
    12
 74
     0
 42
0.00000001
 43
0.00000001
 12
1.0
 22
0.0
 32
0.0
 13
1.0
 23
0.0
 33
0.0
 40
0.0
 40
0.0
 40
0.0
 40
0.0
 40
0.2499999999999993
 40
0.2499999999999993
 40
0.4999999999999987
 40
0.4999999999999987
 40
0.6249999999999988
 40
0.6249999999999988
 40
0.7499999999999989
 40
0.7499999999999989
 40
1.0
 40
1.0
 40
1.0
 40
1.0
 10
47.21356543128111
 20
839.7177252228571
 30
0.0
 10
47.45848694586353
 20
839.6290398236923
 30
0.0
 10
47.6603466659
 20
839.5397078326339
 30
0.0
 10
47.93998793749708
 20
839.359180761931
 30
0.0
 10
48.0168470722254
 20
839.2679718317899
 30
0.0
 10
48.01769123339457
 20
839.1294400011709
 30
0.0
 10
47.99890214672454
 20
839.083045448784
 30
0.0
 10
47.92563465464364
 20
838.9912721299926
 30
0.0
 10
47.87123060298033
 20
838.9456931524385
 30
0.0
 10
47.6611515446282
 20
838.8097676911962
 30
0.0
 10
47.45879225146091
 20
838.7202295170297
 30
0.0
 10
47.21356543128092
 20
838.6314335675572
 30
0.0
  0
SPLINE
  5
11B
330
1F
100
AcDbEntity
  8
0
  6
Continuous
 62
     7
370
    15
100
AcDbSpline
210
0.0
220
0.0
230
1.0
 70
     8
 71
     3
 72
    16
 73
    12
 74
     0
 42
0.00000001
 43
0.00000001
 12
1.0
 22
0.0
 32
0.0
 13
1.0
 23
0.0
 33
0.0
 40
0.0
 40
0.0
 40
0.0
 40
0.0
 40
0.249999999999998
 40
0.249999999999998
 40
0.499999999999996
 40
0.499999999999996
 40
0.6249999999999959
 40
0.6249999999999959
 40
0.7499999999999958
 40
0.7499999999999958
 40
1.0
 40
1.0
 40
1.0
 40
1.0
 10
47.2135654312807
 20
849.2115681088214
 30
0.0
 10
47.45754072781114
 20
849.8953130436869
 30
0.0
 10
47.66223468330212
 20
850.5957825264102
 30
0.0
 10
47.94208845562765
 20
852.0001432677112
 30
0.0
 10
48.01749702991874
 20
852.7061239675226
 30
0.0
 10
48.01737089068601
 20
853.7717651464467
 30
0.0
 10
47.99867942449244
 20
854.1280773815622
 30
0.0
 10
47.92450456743539
 20
854.8428690105447
 30
0.0
 10
47.86932831911467
 20
855.1981140184976
 30
0.0
 10
47.65799127903914
 20
856.2511330658382
 30
0.0
 10
47.45602821466966
 20
856.9396132485286
 30
0.0
 10
47.21356543128067
 20
857.6191193394861
 30
0.0
  0
SPLINE
  5
11C
330
1F
100
AcDbEntity
  8
0
  6
Continuous
 62
     7
370
    15
100
AcDbSpline
210
0.0
220
0.0
230
1.0
 70
     8
 71
     3
 72
    11
 73
     7
 74
     0
 42
0.00000001
 43
0.00000001
 12
1.0
 22
0.0
 32
0.0
 13
1.0
 23
0.0
 33
0.0
 40
0.0
 40
0.0
 40
0.0
 40
0.0
 40
0.1473346827805616
 40
0.4281580565338008
 40
0.7140540118521274
 40
1.0
 40
1.0
 40
1.0
 40
1.0
 10
47.97711855390342
 20
857.1748505080271
 30
0.0
 10
47.96624709075449
 20
857.1970444317977
 30
0.0
 10
47.93465436292105
 20
857.2615404967379
 30
0.0
 10
47.78263883074816
 20
857.3682156991111
 30
0.0
 10
47.54184208406876
 20
857.4943511006067
 30
0.0
 10
47.32299917929448
 20
857.5775237597353
 30
0.0
 10
47.21356815316947
 20
857.6191137278605
 30
0.0
  0
LINE
  5
11D
330
1F
100
AcDbEntity
  8
0
  6
Continuous
 62
     7
370
    15
100
AcDbLine
 10
48.4504241369
 20
852.9745111907
 30
0.0
 11
48.4504241369
 21
856.3752690995
 31
0.0
  0
LINE
  5
11E
330
1F
100
AcDbEntity
  8
0
  6
Continuous
 62
     7
370
    15
100
AcDbLine
 10
48.4504241369
 20
839.8752729142
 30
0.0
 11
48.4504241369
 21
852.9745111907
 31
0.0
  0
SPLINE
  5
11F
330
1F
100
AcDbEntity
  8
0
  6
Continuous
 62
     7
370
    15
100
AcDbSpline
210
0.0
220
0.0
230
1.0
 70
     8
 71
     3
 72
    16
 73
    12
 74
     0
 42
0.00000001
 43
0.00000001
 12
1.0
 22
0.0
 32
0.0
 13
1.0
 23
0.0
 33
0.0
 40
0.0
 40
0.0
 40
0.0
 40
0.0
 40
0.2499999999999979
 40
0.2499999999999979
 40
0.4999999999999959
 40
0.4999999999999959
 40
0.6249999999999981
 40
0.6249999999999981
 40
0.7500000000000002
 40
0.7500000000000002
 40
1.0
 40
1.0
 40
1.0
 40
1.0
 10
39.28728598965176
 20
849.2115681088214
 30
0.0
 10
39.04331069312126
 20
849.895313043687
 30
0.0
 10
38.83861673763037
 20
850.5957825264103
 30
0.0
 10
38.55876296530484
 20
852.0001432677111
 30
0.0
 10
38.48335439101375
 20
852.7061239675227
 30
0.0
 10
38.48348053024642
 20
853.7717651464467
 30
0.0
 10
38.50217199644002
 20
854.1280773815622
 30
0.0
 10
38.57634685349713
 20
854.8428690105447
 30
0.0
 10
38.63152310181784
 20
855.1981140184974
 30
0.0
 10
38.84286014189332
 20
856.2511330658382
 30
0.0
 10
39.04482320626283
 20
856.9396132485286
 30
0.0
 10
39.28728598965179
 20
857.619119339486
 30
0.0
  0
SPLINE
  5
120
330
1F
100
AcDbEntity
  8
0
  6
Continuous
 62
     7
370
    15
100
AcDbSpline
210
0.0
220
0.0
230
1.0
 70
     8
 71
     3
 72
    16
 73
    12
 74
     0
 42
0.00000001
 43
0.00000001
 12
1.0
 22
0.0
 32
0.0
 13
1.0
 23
0.0
 33
0.0
 40
0.0
 40
0.0
 40
0.0
 40
0.0
 40
0.2500000000000046
 40
0.2500000000000046
 40
0.5000000000000091
 40
0.5000000000000091
 40
0.625000000000007
 40
0.625000000000007
 40
0.750000000000005
 40
0.750000000000005
 40
1.0
 40
1.0
 40
1.0
 40
1.0
 10
39.28728598965146
 20
838.6314335675571
 30
0.0
 10
39.04236447506901
 20
838.7201189667219
 30
0.0
 10
38.84050475503254
 20
838.8094509577803
 30
0.0
 10
38.56086348343552
 20
838.9899780284832
 30
0.0
 10
38.48400434870714
 20
839.0811869586246
 30
0.0
 10
38.4831601875379
 20
839.2197187892433
 30
0.0
 10
38.50194927420795
 20
839.2661133416302
 30
0.0
 10
38.57521676628887
 20
839.3578866604216
 30
0.0
 10
38.62962081795224
 20
839.4034656379757
 30
0.0
 10
38.83969987630427
 20
839.539391099218
 30
0.0
 10
39.0420591694716
 20
839.6289292733848
 30
0.0
 10
39.28728598965159
 20
839.7177252228571
 30
0.0
  0
SPLINE
  5
121
330
1F
100
AcDbEntity
  8
0
  6
Continuous
 62
     7
370
    15
100
AcDbSpline
210
0.0
220
0.0
230
1.0
 70
     8
 71
     3
 72
    11
 73
     7
 74
     0
 42
0.00000001
 43
0.00000001
 12
1.0
 22
0.0
 32
0.0
 13
1.0
 23
0.0
 33
0.0
 40
0.0
 40
0.0
 40
0.0
 40
0.0
 40
0.3224912621838251
 40
0.6448916104937302
 40
0.9745027426841053
 40
1.0
 40
1.0
 40
1.0
 40
1.0
 10
39.28728288629325
 20
857.6191137278605
 30
0.0
 10
39.16422307874279
 20
857.5721902810362
 30
0.0
 10
38.91813815557045
 20
857.4783566156297
 30
0.0
 10
38.66533355963082
 20
857.3337665662622
 30
0.0
 10
38.52793788515122
 20
857.2322624450164
 30
0.0
 10
38.51793863747447
 20
857.1787105097641
 30
0.0
 10
38.51722067811759
 20
857.1748654091883
 30
0.0
  0
SPLINE
  5
122
330
1F
100
AcDbEntity
  8
0
  6
Continuous
 62
     7
370
    15
100
AcDbSpline
210
0.0
220
0.0
230
1.0
 70
     8
 71
     3
 72
    16
 73
    12
 74
     0
 42
0.00000001
 43
0.00000001
 12
1.0
 22
0.0
 32
0.0
 13
1.0
 23
0.0
 33
0.0
 40
0.0
 40
0.0
 40
0.0
 40
0.0
 40
0.25
 40
0.25
 40
0.5
 40
0.5
 40
0.625
 40
0.625
 40
0.75
 40
0.75
 40
1.0
 40
1.0
 40
1.0
 40
1.0
 10
47.21356543128111
 20
508.4746794777599
 30
0.0
 10
47.45848694586353
 20
508.3859940785952
 30
0.0
 10
47.66034666589997
 20
508.2966620875368
 30
0.0
 10
47.93998793749708
 20
508.1161350168338
 30
0.0
 10
48.01684707222543
 20
508.0249260866926
 30
0.0
 10
48.01769123339451
 20
507.8863942560737
 30
0.0
 10
47.99890214672451
 20
507.8399997036868
 30
0.0
 10
47.92563465464362
 20
507.7482263848954
 30
0.0
 10
47.87123060298035
 20
507.7026474073413
 30
0.0
 10
47.66115154462817
 20
507.5667219460989
 30
0.0
 10
47.45879225146091
 20
507.4771837719323
 30
0.0
 10
47.21356543128092
 20
507.3883878224599
 30
0.0
  0
SPLINE
  5
123
330
1F
100
AcDbEntity
  8
0
  6
Continuous
 62
     7
370
    15
100
AcDbSpline
210
0.0
220
0.0
230
1.0
 70
     8
 71
     3
 72
    11
 73
     7
 74
     0
 42
0.00000001
 43
0.00000001
 12
1.0
 22
0.0
 32
0.0
 13
1.0
 23
0.0
 33
0.0
 40
0.0
 40
0.0
 40
0.0
 40
0.0
 40
0.3224912621838251
 40
0.6448916104937302
 40
0.9745027426841053
 40
1.0
 40
1.0
 40
1.0
 40
1.0
 10
47.21356815316947
 20
489.4869993174601
 30
0.0
 10
47.33662796071994
 20
489.5339227642843
 30
0.0
 10
47.58271288389238
 20
489.627756429691
 30
0.0
 10
47.83551747983173
 20
489.7723464790584
 30
0.0
 10
47.97291315431194
 20
489.8738506003041
 30
0.0
 10
47.98291240198819
 20
489.9274025355566
 30
0.0
 10
47.98363036134513
 20
489.9312476361323
 30
0.0
  0
SPLINE
  5
124
330
1F
100
AcDbEntity
  8
0
  6
Continuous
 62
     7
370
    15
100
AcDbSpline
210
0.0
220
0.0
230
1.0
 70
     8
 71
     3
 72
    16
 73
    12
 74
     0
 42
0.00000001
 43
0.00000001
 12
1.0
 22
0.0
 32
0.0
 13
1.0
 23
0.0
 33
0.0
 40
0.0
 40
0.0
 40
0.0
 40
0.0
 40
0.2500000000000032
 40
0.2500000000000032
 40
0.5000000000000064
 40
0.5000000000000064
 40
0.6250000000000048
 40
0.6250000000000048
 40
0.7500000000000032
 40
0.7500000000000032
 40
1.0
 40
1.0
 40
1.0
 40
1.0
 10
47.2135654312807
 20
489.4869937058309
 30
0.0
 10
47.45754072781111
 20
490.1707386406962
 30
0.0
 10
47.66223468330217
 20
490.8712081234196
 30
0.0
 10
47.94208845562768
 20
492.2755688647207
 30
0.0
 10
48.01749702991876
 20
492.981549564532
 30
0.0
 10
48.01737089068609
 20
494.0471907434562
 30
0.0
 10
47.99867942449247
 20
494.4035029785716
 30
0.0
 10
47.92450456743542
 20
495.1182946075542
 30
0.0
 10
47.8693283191147
 20
495.473539615507
 30
0.0
 10
47.65799127903912
 20
496.5265586628476
 30
0.0
 10
47.45602821466955
 20
497.215038845538
 30
0.0
 10
47.21356543128067
 20
497.8945449364954
 30
0.0
  0
SPLINE
  5
125
330
1F
100
AcDbEntity
  8
0
  6
Continuous
 62
     7
370
    15
100
AcDbSpline
210
0.0
220
0.0
230
1.0
 70
     8
 71
     3
 72
    16
 73
    12
 74
     0
 42
0.00000001
 43
0.00000001
 12
1.0
 22
0.0
 32
0.0
 13
1.0
 23
0.0
 33
0.0
 40
0.0
 40
0.0
 40
0.0
 40
0.0
 40
0.2500000000000026
 40
0.2500000000000026
 40
0.5000000000000052
 40
0.5000000000000052
 40
0.625000000000003
 40
0.625000000000003
 40
0.7500000000000007
 40
0.7500000000000007
 40
1.0
 40
1.0
 40
1.0
 40
1.0
 10
47.21356543128106
 20
507.38838782246
 30
0.0
 10
47.45848694586347
 20
506.6133056961807
 30
0.0
 10
47.66034666589994
 20
505.8325725628081
 30
0.0
 10
47.93998793749705
 20
504.2548234955527
 30
0.0
 10
48.01684707222537
 20
503.4576865127422
 30
0.0
 10
48.01769123339457
 20
502.246962460704
 30
0.0
 10
47.99890214672448
 20
501.8414888579402
 30
0.0
 10
47.92563465464362
 20
501.039419298188
 30
0.0
 10
47.87123060298027
 20
500.6410735595548
 30
0.0
 10
47.66115154462814
 20
499.4531283452647
 30
0.0
 10
47.45879225146081
 20
498.6705932372332
 30
0.0
 10
47.21356543128086
 20
497.8945449364954
 30
0.0
  0
LINE
  5
126
330
1F
100
AcDbEntity
  8
0
  6
Continuous
 62
     7
370
    15
100
AcDbLine
 10
48.4504241369
 20
494.1316018546
 30
0.0
 11
48.4504241369
 21
507.2308401311
 31
0.0
  0
LINE
  5
127
330
1F
100
AcDbEntity
  8
0
  6
Continuous
 62
     7
370
    15
100
AcDbLine
 10
48.4504241369
 20
490.7308439458
 30
0.0
 11
48.4504241369
 21
494.1316018546
 31
0.0
  0
LINE
  5
128
330
1F
100
AcDbEntity
  8
0
  6
Continuous
 62
     7
370
    15
100
AcDbLine
 10
39.2872828863
 20
507.3883901084
 30
0.0
 11
47.2135681532
 21
507.3883901084
 31
0.0
  0
LINE
  5
129
330
1F
100
AcDbEntity
  8
0
  6
Continuous
 62
     7
370
    15
100
AcDbLine
 10
39.2872828863
 20
497.8945473874
 30
0.0
 11
47.2135681532
 21
497.8945473874
 31
0.0
  0
SPLINE
  5
12A
330
1F
100
AcDbEntity
  8
0
  6
Continuous
 62
     7
370
    15
100
AcDbSpline
210
0.0
220
0.0
230
1.0
 70
     8
 71
     3
 72
    16
 73
    12
 74
     0
 42
0.00000001
 43
0.00000001
 12
1.0
 22
0.0
 32
0.0
 13
1.0
 23
0.0
 33
0.0
 40
0.0
 40
0.0
 40
0.0
 40
0.0
 40
0.2500000000000042
 40
0.2500000000000042
 40
0.5000000000000084
 40
0.5000000000000084
 40
0.6250000000000053
 40
0.6250000000000053
 40
0.7500000000000022
 40
0.7500000000000022
 40
1.0
 40
1.0
 40
1.0
 40
1.0
 10
39.2872859896514
 20
497.8945449364954
 30
0.0
 10
39.04236447506896
 20
498.6696270627746
 30
0.0
 10
38.84050475503248
 20
499.4503601961473
 30
0.0
 10
38.56086348343544
 20
501.0281092634026
 30
0.0
 10
38.48400434870712
 20
501.8252462462132
 30
0.0
 10
38.48316018753793
 20
503.0359702982513
 30
0.0
 10
38.50194927420797
 20
503.4414439010152
 30
0.0
 10
38.57521676628887
 20
504.2435134607675
 30
0.0
 10
38.62962081795222
 20
504.6418591994006
 30
0.0
 10
38.83969987630429
 20
505.8298044136907
 30
0.0
 10
39.0420591694716
 20
506.6123395217221
 30
0.0
 10
39.28728598965162
 20
507.38838782246
 30
0.0
  0
SPLINE
  5
12B
330
1F
100
AcDbEntity
  8
0
  6
Continuous
 62
     7
370
    15
100
AcDbSpline
210
0.0
220
0.0
230
1.0
 70
     8
 71
     3
 72
    16
 73
    12
 74
     0
 42
0.00000001
 43
0.00000001
 12
1.0
 22
0.0
 32
0.0
 13
1.0
 23
0.0
 33
0.0
 40
0.0
 40
0.0
 40
0.0
 40
0.0
 40
0.25
 40
0.25
 40
0.5
 40
0.5
 40
0.625
 40
0.625
 40
0.75
 40
0.75
 40
1.0
 40
1.0
 40
1.0
 40
1.0
 10
39.28728598965176
 20
489.486993705831
 30
0.0
 10
39.04331069312137
 20
490.1707386406964
 30
0.0
 10
38.83861673763032
 20
490.8712081234196
 30
0.0
 10
38.55876296530484
 20
492.2755688647207
 30
0.0
 10
38.48335439101375
 20
492.9815495645321
 30
0.0
 10
38.48348053024645
 20
494.0471907434562
 30
0.0
 10
38.50217199644
 20
494.4035029785716
 30
0.0
 10
38.57634685349701
 20
495.1182946075542
 30
0.0
 10
38.63152310181781
 20
495.4735396155069
 30
0.0
 10
38.84286014189329
 20
496.5265586628475
 30
0.0
 10
39.04482320626285
 20
497.2150388455381
 30
0.0
 10
39.28728598965179
 20
497.8945449364954
 30
0.0
  0
SPLINE
  5
12C
330
1F
100
AcDbEntity
  8
0
  6
Continuous
 62
     7
370
    15
100
AcDbSpline
210
0.0
220
0.0
230
1.0
 70
     8
 71
     3
 72
    11
 73
     7
 74
     0
 42
0.00000001
 43
0.00000001
 12
1.0
 22
0.0
 32
0.0
 13
1.0
 23
0.0
 33
0.0
 40
0.0
 40
0.0
 40
0.0
 40
0.0
 40
0.1473346827805616
 40
0.4281580565338008
 40
0.7140540118521274
 40
1.0
 40
1.0
 40
1.0
 40
1.0
 10
38.5237324855593
 20
489.9312625372935
 30
0.0
 10
38.53460394870817
 20
489.9090686135227
 30
0.0
 10
38.56619667654158
 20
489.8445725485827
 30
0.0
 10
38.71821220871453
 20
489.7378973462094
 30
0.0
 10
38.95900895539395
 20
489.6117619447139
 30
0.0
 10
39.17785186016826
 20
489.5285892855853
 30
0.0
 10
39.28728288629325
 20
489.4869993174601
 30
0.0
  0
SPLINE
  5
12D
330
1F
100
AcDbEntity
  8
0
  6
Continuous
 62
     7
370
    15
100
AcDbSpline
210
0.0
220
0.0
230
1.0
 70
     8
 71
     3
 72
    16
 73
    12
 74
     0
 42
0.00000001
 43
0.00000001
 12
1.0
 22
0.0
 32
0.0
 13
1.0
 23
0.0
 33
0.0
 40
0.0
 40
0.0
 40
0.0
 40
0.0
 40
0.2500000000000043
 40
0.2500000000000043
 40
0.5000000000000087
 40
0.5000000000000087
 40
0.6250000000000064
 40
0.6250000000000064
 40
0.7500000000000043
 40
0.7500000000000043
 40
1.0
 40
1.0
 40
1.0
 40
1.0
 10
39.2872859896514
 20
507.3883878224599
 30
0.0
 10
39.04236447506896
 20
507.4770732216247
 30
0.0
 10
38.84050475503251
 20
507.5664052126832
 30
0.0
 10
38.56086348343544
 20
507.7469322833859
 30
0.0
 10
38.48400434870706
 20
507.8381412135273
 30
0.0
 10
38.48316018753798
 20
507.9766730441461
 30
0.0
 10
38.50194927420803
 20
508.0230675965332
 30
0.0
 10
38.5752167662889
 20
508.1148409153245
 30
0.0
 10
38.62962081795219
 20
508.1604198928785
 30
0.0
 10
38.83969987630427
 20
508.2963453541209
 30
0.0
 10
39.04205916947166
 20
508.3858835282875
 30
0.0
 10
39.28728598965165
 20
508.4746794777599
 30
0.0
  0
LINE
  5
12E
330
1F
100
AcDbEntity
  8
0
  6
Continuous
 62
     7
370
    15
100
AcDbLine
 10
39.2872828863
 20
857.6191137279
 30
0.0
 11
47.2135681532
 21
857.6191137279
 31
0.0
  0
LINE
  5
12F
330
1F
100
AcDbEntity
  8
0
  6
Continuous
 62
     7
370
    15
100
AcDbLine
 10
39.2872828863
 20
489.4869993175
 30
0.0
 11
47.2135681532
 21
489.4869993175
 31
0.0
  0
LINE
  5
130
330
1F
100
AcDbEntity
  8
0
  6
Continuous
 62
     7
370
    15
100
AcDbLine
 10
39.2872828863
 20
838.6314282859
 30
0.0
 11
47.2135681532
 21
838.6314282859
 31
0.0
  0
LINE
  5
131
330
1F
100
AcDbEntity
  8
0
  6
Continuous
 62
     7
370
    15
100
AcDbLine
 10
39.2872828863
 20
508.4746847594
 30
0.0
 11
47.2135681532
 21
508.4746847594
 31
0.0
  0
LINE
  5
132
330
1F
100
AcDbEntity
  8
0
  6
Continuous
 62
     7
370
    15
100
AcDbLine
 10
88.5504249356
 20
851.6519884313
 30
0.0
 11
88.5504249356
 21
854.1252831662
 31
0.0
  0
LINE
  5
133
330
1F
100
AcDbEntity
  8
0
  6
Continuous
 62
     7
370
    15
100
AcDbLine
 10
88.5504249356
 20
842.1252737487
 30
0.0
 11
88.5504249356
 21
851.6519884313
 31
0.0
  0
LINE
  5
134
330
1F
100
AcDbEntity
  8
0
  6
Continuous
 62
     7
370
    15
100
AcDbLine
 10
88.5504249356
 20
495.4541246141
 30
0.0
 11
88.5504249356
 21
504.9808392966
 31
0.0
  0
LINE
  5
135
330
1F
100
AcDbEntity
  8
0
  6
Continuous
 62
     7
370
    15
100
AcDbLine
 10
88.5504249356
 20
492.9808298791
 30
0.0
 11
88.5504249356
 21
495.4541246141
 31
0.0
  0
LINE
  5
136
330
1F
100
AcDbEntity
  8
0
  6
Continuous
 62
     7
370
    15
100
AcDbLine
 10
-135.449574528
 20
935.1301858867
 30
0.0
 11
-135.449574528
 21
991.1301801646
 31
0.0
  0
LINE
  5
137
330
1F
100
AcDbEntity
  8
0
  6
Continuous
 62
     7
370
    15
100
AcDbLine
 10
166.5504265449
 20
935.1301858867
 30
0.0
 11
166.5504265449
 21
991.1301801646
 31
0.0
  0
LINE
  5
138
330
1F
100
AcDbEntity
  8
0
  6
Continuous
 62
     7
370
    15
100
AcDbLine
 10
165.7504260413
 20
976.6492317164
 30
0.0
 11
165.7504260413
 21
987.3922238792
 31
0.0
  0
LINE
  5
139
330
1F
100
AcDbEntity
  8
0
  6
Continuous
 62
     7
370
    15
100
AcDbLine
 10
165.7504260413
 20
965.9062693561
 30
0.0
 11
165.7504260413
 21
976.6492317164
 31
0.0
  0
LINE
  5
13A
330
1F
100
AcDbEntity
  8
0
  6
Continuous
 62
     7
370
    15
100
AcDbLine
 10
165.7504260413
 20
965.9062693561
 30
0.0
 11
143.0047031365
 21
965.9062693561
 31
0.0
  0
SPLINE
  5
13B
330
1F
100
AcDbEntity
  8
0
  6
Continuous
 62
     7
370
    15
100
AcDbSpline
210
0.0
220
0.0
230
1.0
 70
     8
 71
     3
 72
    12
 73
     8
 74
     0
 42
0.00000001
 43
0.00000001
 12
1.0
 22
0.0
 32
0.0
 13
1.0
 23
0.0
 33
0.0
 40
0.0
 40
0.0
 40
0.0
 40
0.0
 40
0.2500000000000024
 40
0.2500000000000024
 40
0.5000000000000049
 40
0.5000000000000049
 40
1.0
 40
1.0
 40
1.0
 40
1.0
 10
140.9504257104695
 20
976.6492376866133
 30
0.0
 10
140.9504257104696
 20
975.741005402603
 30
0.0
 10
140.9981341716452
 20
974.8298639377801
 30
0.0
 10
141.1877365522374
 20
973.0018377390968
 30
0.0
 10
141.3286506801082
 20
972.094509020269
 30
0.0
 10
141.8686796873069
 20
969.4032069407315
 30
0.0
 10
142.3848722728588
 20
967.6433422622457
 30
0.0
 10
143.0047001465232
 20
965.906263141927
 30
0.0
  0
SPLINE
  5
13C
330
1F
100
AcDbEntity
  8
0
  6
Continuous
 62
     7
370
    15
100
AcDbSpline
210
0.0
220
0.0
230
1.0
 70
     8
 71
     3
 72
    12
 73
     8
 74
     0
 42
0.00000001
 43
0.00000001
 12
1.0
 22
0.0
 32
0.0
 13
1.0
 23
0.0
 33
0.0
 40
0.0
 40
0.0
 40
0.0
 40
0.0
 40
0.25
 40
0.25
 40
0.5
 40
0.5
 40
1.0
 40
1.0
 40
1.0
 40
1.0
 10
143.0047028524413
 20
987.3922198146859
 30
0.0
 10
142.6929725472345
 20
986.5185903109599
 30
0.0
 10
142.4067829149671
 20
985.6369366185562
 30
0.0
 10
141.8989624592315
 20
983.8533466020483
 30
0.0
 10
141.6795693628443
 20
982.9586313111481
 30
0.0
 10
141.1433057291891
 20
980.2682507992744
 30
0.0
 10
140.9504257104695
 20
978.4646249906739
 30
0.0
 10
140.9504257104695
 20
976.6492376866133
 30
0.0
  0
LINE
  5
13D
330
1F
100
AcDbEntity
  8
0
  6
Continuous
 62
     7
370
    15
100
AcDbLine
 10
165.7504260413
 20
987.3922238792
 30
0.0
 11
143.0047031365
 21
987.3922238792
 31
0.0
  0
LINE
  5
13E
330
1F
100
AcDbEntity
  8
0
  6
Continuous
 62
     7
370
    15
100
AcDbLine
 10
165.7504260413
 20
953.7752340282
 30
0.0
 11
165.7504260413
 21
965.9062693561
 31
0.0
  0
LINE
  5
13F
330
1F
100
AcDbEntity
  8
0
  6
Continuous
 62
     7
370
    15
100
AcDbLine
 10
165.7504260413
 20
941.6441987002
 30
0.0
 11
165.7504260413
 21
953.7752340282
 31
0.0
  0
LINE
  5
140
330
1F
100
AcDbEntity
  8
0
  6
Continuous
 62
     7
370
    15
100
AcDbLine
 10
165.7504260413
 20
941.6441987002
 30
0.0
 11
143.0047031365
 21
941.6441987002
 31
0.0
  0
SPLINE
  5
141
330
1F
100
AcDbEntity
  8
0
  6
Continuous
 62
     7
370
    15
100
AcDbSpline
210
0.0
220
0.0
230
1.0
 70
     8
 71
     3
 72
    13
 73
     9
 74
     0
 42
0.00000001
 43
0.00000001
 12
1.0
 22
0.0
 32
0.0
 13
1.0
 23
0.0
 33
0.0
 40
0.0
 40
0.0
 40
0.0
 40
0.0
 40
0.0700732129297096
 40
0.223629038418021
 40
0.3772862601748833
 40
0.5308657555074423
 40
0.7654108812684303
 40
1.0
 40
1.0
 40
1.0
 40
1.0
 10
140.9504253289965
 20
953.7752340281535
 30
0.0
 10
140.9526807560259
 20
953.4875678666112
 30
0.0
 10
140.9598786417333
 20
952.5695208069509
 30
0.0
 10
141.0481116124108
 20
951.0219178818784
 30
0.0
 10
141.253540170371
 20
949.1389352629236
 30
0.0
 10
141.611945470369
 20
946.9384510028383
 30
0.0
 10
142.167582452123
 20
944.4306576209344
 30
0.0
 10
142.725645464272
 20
942.5730764052427
 30
0.0
 10
143.0047031364706
 20
941.6441987002421
 30
0.0
  0
SPLINE
  5
142
330
1F
100
AcDbEntity
  8
0
  6
Continuous
 62
     7
370
    15
100
AcDbSpline
210
0.0
220
0.0
230
1.0
 70
     8
 71
     3
 72
    13
 73
     9
 74
     0
 42
0.00000001
 43
0.00000001
 12
1.0
 22
0.0
 32
0.0
 13
1.0
 23
0.0
 33
0.0
 40
0.0
 40
0.0
 40
0.0
 40
0.0
 40
0.1651149169971019
 40
0.3302755515611969
 40
0.4953500901099293
 40
0.663539763631057
 40
0.8318388528517184
 40
1.0
 40
1.0
 40
1.0
 40
1.0
 10
143.0047031364706
 20
965.9062693560649
 30
0.0
 10
142.8055207929151
 20
965.253242460056
 30
0.0
 10
142.4071009555348
 20
963.9470078557808
 30
0.0
 10
141.9084420903936
 20
961.9644492677821
 30
0.0
 10
141.4933790429227
 20
959.9530575336648
 30
0.0
 10
141.187894461814
 20
957.9123326341299
 30
0.0
 10
140.9888090962095
 20
955.8470750281043
 30
0.0
 10
140.9632164205698
 20
954.4656589103338
 30
0.0
 10
140.9504253289965
 20
953.7752340281535
 30
0.0
  0
LINE
  5
143
330
1F
100
AcDbEntity
  8
0
  6
Continuous
 62
     7
370
    15
100
AcDbLine
 10
140.950425329
 20
953.7752340282
 30
0.0
 11
140.950425329
 21
976.6492317164
 31
0.0
  0
LINE
  5
144
330
1F
100
AcDbEntity
  8
0
  6
Continuous
 62
     7
370
    15
100
AcDbLine
 10
-134.6495609858
 20
962.5372062171
 30
0.0
 11
-134.6495609858
 21
949.2625663722
 31
0.0
  0
LINE
  5
145
330
1F
100
AcDbEntity
  8
0
  6
Continuous
 62
     7
370
    15
100
AcDbLine
 10
-134.6495609858
 20
975.811846062
 30
0.0
 11
-134.6495609858
 21
962.5372062171
 31
0.0
  0
LINE
  5
146
330
1F
100
AcDbEntity
  8
0
  6
Continuous
 62
     7
370
    15
100
AcDbLine
 10
-134.6495609858
 20
975.811846062
 30
0.0
 11
-111.9038622954
 21
975.811846062
 31
0.0
  0
SPLINE
  5
147
330
1F
100
AcDbEntity
  8
0
  6
Continuous
 62
     7
370
    15
100
AcDbSpline
210
0.0
220
0.0
230
1.0
 70
     8
 71
     3
 72
    13
 73
     9
 74
     0
 42
0.00000001
 43
0.00000001
 12
1.0
 22
0.0
 32
0.0
 13
1.0
 23
0.0
 33
0.0
 40
0.0
 40
0.0
 40
0.0
 40
0.0
 40
0.0700719367206198
 40
0.2236283592538241
 40
0.3772870874517362
 40
0.530866730816138
 40
0.7654102242174016
 40
1.0
 40
1.0
 40
1.0
 40
1.0
 10
-109.8495882131788
 20
962.5372062171031
 30
0.0
 10
-109.8518368277229
 20
962.8519846324535
 30
0.0
 10
-109.859013081222
 20
963.8565719729465
 30
0.0
 10
-109.9472434460614
 20
965.5500795432968
 30
0.0
 10
-110.1527006294541
 20
967.610578758228
 30
0.0
 10
-110.5110970259882
 20
970.0185140480046
 30
0.0
 10
-111.0667362051204
 20
972.7627071306182
 30
0.0
 10
-111.6248019132757
 20
974.7953995730576
 30
0.0
 10
-111.9038622953627
 20
975.8118460619976
 30
0.0
  0
SPLINE
  5
148
330
1F
100
AcDbEntity
  8
0
  6
Continuous
 62
     7
370
    15
100
AcDbSpline
210
0.0
220
0.0
230
1.0
 70
     8
 71
     3
 72
    13
 73
     9
 74
     0
 42
0.00000001
 43
0.00000001
 12
1.0
 22
0.0
 32
0.0
 13
1.0
 23
0.0
 33
0.0
 40
0.0
 40
0.0
 40
0.0
 40
0.0
 40
0.1651147677437624
 40
0.3302750307173457
 40
0.4953478181524843
 40
0.6635412463092697
 40
0.8318393917484842
 40
1.0
 40
1.0
 40
1.0
 40
1.0
 10
-111.9038622953626
 20
949.2625663722087
 30
0.0
 10
-111.7046730535235
 20
949.97715095016
 30
0.0
 10
-111.3062396858365
 20
951.4065170005624
 30
0.0
 10
-110.8075743077092
 20
953.5759603924803
 30
0.0
 10
-110.3925369637987
 20
955.7769885674587
 30
0.0
 10
-110.0870396812615
 20
958.0100937417203
 30
0.0
 10
-109.8879487489786
 20
960.2700654619903
 30
0.0
 10
-109.8623715733101
 20
961.7816986065664
 30
0.0
 10
-109.8495882131789
 20
962.5372062171032
 30
0.0
  0
LINE
  5
149
330
1F
100
AcDbEntity
  8
0
  6
Continuous
 62
     7
370
    15
100
AcDbLine
 10
-134.6495609858
 20
949.2625663722
 30
0.0
 11
-111.9038622954
 21
949.2625663722
 31
0.0
  0
SPLINE
  5
14A
330
1F
100
AcDbEntity
  8
0
  6
Continuous
 62
     7
370
    15
100
AcDbSpline
210
0.0
220
0.0
230
1.0
 70
     8
 71
     3
 72
    12
 73
     8
 74
     0
 42
0.00000001
 43
0.00000001
 12
1.0
 22
0.0
 32
0.0
 13
1.0
 23
0.0
 33
0.0
 40
0.0
 40
0.0
 40
0.0
 40
0.0
 40
0.2571680039963352
 40
0.4417503640584693
 40
0.6263153058687027
 40
0.8131629464404597
 40
1.0
 40
1.0
 40
1.0
 40
1.0
 10
-111.9038622953626
 20
975.8118460619975
 30
0.0
 10
-111.5989906954737
 20
976.3940608085129
 30
0.0
 10
-111.0752974748974
 20
977.3941602463774
 30
0.0
 10
-110.5151283786963
 20
978.8352131461305
 30
0.0
 10
-110.1391624080341
 20
980.1252939090732
 30
0.0
 10
-109.8963990079971
 20
981.4302986147314
 30
0.0
 10
-109.8651915167341
 20
982.3072107454402
 30
0.0
 10
-109.8495882131788
 20
982.7456543887187
 30
0.0
  0
LINE
  5
14B
330
1F
100
AcDbEntity
  8
0
  6
Continuous
 62
     7
370
    15
100
AcDbLine
 10
-109.8495882132
 20
982.7456543887
 30
0.0
 11
-109.8495882132
 21
962.5372062171
 31
0.0
  0
SPLINE
  5
14C
330
1F
100
AcDbEntity
  8
0
  6
Continuous
 62
     7
370
    15
100
AcDbSpline
210
0.0
220
0.0
230
1.0
 70
     8
 71
     3
 72
    13
 73
     9
 74
     0
 42
0.00000001
 43
0.00000001
 12
1.0
 22
0.0
 32
0.0
 13
1.0
 23
0.0
 33
0.0
 40
0.0
 40
0.0
 40
0.0
 40
0.0
 40
0.0700720942654864
 40
0.2236277010497509
 40
0.3772865366206407
 40
0.5308669486185754
 40
0.7654105253593021
 40
0.9999999999999999
 40
0.9999999999999999
 40
0.9999999999999999
 40
0.9999999999999999
 10
-109.8495882131788
 20
942.9217348540354
 30
0.0
 10
-109.8518367985876
 20
943.0720893742983
 30
0.0
 10
-109.859012921848
 20
943.5519299736305
 30
0.0
 10
-109.9472439093519
 20
944.3608730622344
 30
0.0
 10
-110.1527013660127
 20
945.3451027314492
 30
0.0
 10
-110.5110957423109
 20
946.4953100569115
 30
0.0
 10
-111.0667356816133
 20
947.8061025010129
 30
0.0
 10
-111.6248018912041
 20
948.7770467508483
 30
0.0
 10
-111.9038622953626
 20
949.2625663722087
 30
0.0
  0
LINE
  5
14D
330
1F
100
AcDbEntity
  8
0
  6
Continuous
 62
     7
370
    15
100
AcDbLine
 10
-109.8495882132
 20
962.5372062171
 30
0.0
 11
-109.8495882132
 21
942.921734854
 31
0.0
  0
LINE
  5
14E
330
1F
100
AcDbEntity
  8
0
  6
Continuous
 62
     7
370
    15
100
AcDbLine
 10
-134.6495609858
 20
982.7456543887
 30
0.0
 11
-134.6495609858
 21
975.811846062
 31
0.0
  0
LINE
  5
14F
330
1F
100
AcDbEntity
  8
0
  6
Continuous
 62
     7
370
    15
100
AcDbLine
 10
-134.6495609858
 20
989.6794627154
 30
0.0
 11
-134.6495609858
 21
982.7456543887
 31
0.0
  0
LINE
  5
150
330
1F
100
AcDbEntity
  8
0
  6
Continuous
 62
     7
370
    15
100
AcDbLine
 10
-134.6495609858
 20
989.6794627154
 30
0.0
 11
-111.9038622954
 21
989.6794627154
 31
0.0
  0
SPLINE
  5
151
330
1F
100
AcDbEntity
  8
0
  6
Continuous
 62
     7
370
    15
100
AcDbSpline
210
0.0
220
0.0
230
1.0
 70
     8
 71
     3
 72
    13
 73
     9
 74
     0
 42
0.00000001
 43
0.00000001
 12
1.0
 22
0.0
 32
0.0
 13
1.0
 23
0.0
 33
0.0
 40
0.0
 40
0.0
 40
0.0
 40
0.0
 40
0.1340635659878906
 40
0.2683980392511345
 40
0.4503869793515896
 40
0.6323947859981637
 40
0.8161883102608634
 40
1.0
 40
1.0
 40
1.0
 40
1.0
 10
-109.8495882131788
 20
982.7456543887187
 30
0.0
 10
-109.8574997182332
 20
983.0602569437283
 30
0.0
 10
-109.8733387154169
 20
983.6900977829287
 30
0.0
 10
-110.0152935545127
 20
984.7448151943223
 30
0.0
 10
-110.2790525395227
 20
985.9065708592789
 30
0.0
 10
-110.7040757212002
 20
987.173173231428
 30
0.0
 10
-111.2411432593501
 20
988.4325345002527
 30
0.0
 10
-111.6829486726476
 20
989.2638062844128
 30
0.0
 10
-111.9038622953626
 20
989.6794627154399
 30
0.0
  0
LINE
  5
152
330
1F
100
AcDbEntity
  8
0
  6
Continuous
 62
     7
370
    15
100
AcDbLine
 10
-134.6495609858
 20
942.921734854
 30
0.0
 11
-134.6495609858
 21
936.5809033359
 31
0.0
  0
SPLINE
  5
153
330
1F
100
AcDbEntity
  8
0
  6
Continuous
 62
     7
370
    15
100
AcDbSpline
210
0.0
220
0.0
230
1.0
 70
     8
 71
     3
 72
    13
 73
     9
 74
     0
 42
0.00000001
 43
0.00000001
 12
1.0
 22
0.0
 32
0.0
 13
1.0
 23
0.0
 33
0.0
 40
0.0
 40
0.0
 40
0.0
 40
0.0
 40
0.1651134809804892
 40
0.3302736676338908
 40
0.495347392231778
 40
0.6635402426930586
 40
0.831839445389818
 40
1.0
 40
1.0
 40
1.0
 40
1.0
 10
-111.9038622953627
 20
936.5809033358623
 30
0.0
 10
-111.7046728117094
 20
936.9222338451475
 30
0.0
 10
-111.3062374996464
 20
937.6049914159256
 30
0.0
 10
-110.8075726545719
 20
938.6412561790811
 30
0.0
 10
-110.3925393047149
 20
939.6925878670264
 30
0.0
 10
-110.0870378036761
 20
940.7593073249667
 30
0.0
 10
-109.8879495140256
 20
941.8387846692777
 30
0.0
 10
-109.8623718001127
 20
942.5608506419192
 30
0.0
 10
-109.8495882131789
 20
942.9217348540355
 30
0.0
  0
LINE
  5
154
330
1F
100
AcDbEntity
  8
0
  6
Continuous
 62
     7
370
    15
100
AcDbLine
 10
-134.6495609858
 20
936.5809033359
 30
0.0
 11
-111.9038622954
 21
936.5809033359
 31
0.0
  0
LINE
  5
155
330
1F
100
AcDbEntity
  8
0
  6
Continuous
 62
     7
370
    15
100
AcDbLine
 10
-134.6495609858
 20
949.2625663722
 30
0.0
 11
-134.6495609858
 21
942.921734854
 31
0.0
  0
SPLINE
  5
156
330
1F
100
AcDbEntity
  8
0
  6
Continuous
 62
     7
370
    15
100
AcDbSpline
210
0.0
220
0.0
230
1.0
 70
     8
 71
     3
 72
    13
 73
     9
 74
     0
 42
0.00000001
 43
0.00000001
 12
1.0
 22
0.0
 32
0.0
 13
1.0
 23
0.0
 33
0.0
 40
0.0
 40
0.0
 40
0.0
 40
0.0
 40
0.1651134102664504
 40
0.3302738826438297
 40
0.495348675008673
 40
0.6635407816265628
 40
0.8318397014353255
 40
1.0
 40
1.0
 40
1.0
 40
1.0
 10
143.0047031364706
 20
941.6441987002421
 30
0.0
 10
142.8055204313797
 20
941.5694847744214
 30
0.0
 10
142.4070982483496
 20
941.4200356271442
 30
0.0
 10
141.9084420840794
 20
941.1931984549514
 30
0.0
 10
141.4933759225043
 20
940.9630404914509
 30
0.0
 10
141.1878973197501
 20
940.7295276366077
 30
0.0
 10
140.9888089184341
 20
940.4932543198521
 30
0.0
 10
140.9632163440943
 20
940.3351866235515
 30
0.0
 10
140.9504253289965
 20
940.2561853373576
 30
0.0
  0
LINE
  5
157
330
1F
100
AcDbEntity
  8
0
  6
Continuous
 62
     7
370
    15
100
AcDbLine
 10
140.950425329
 20
940.2561853374
 30
0.0
 11
140.950425329
 21
953.7752340282
 31
0.0
  0
SPLINE
  5
158
330
1F
100
AcDbEntity
  8
0
  6
Continuous
 62
     7
370
    15
100
AcDbSpline
210
0.0
220
0.0
230
1.0
 70
     8
 71
     3
 72
    12
 73
     8
 74
     0
 42
0.00000001
 43
0.00000001
 12
1.0
 22
0.0
 32
0.0
 13
1.0
 23
0.0
 33
0.0
 40
0.0
 40
0.0
 40
0.0
 40
0.0
 40
0.0538209623752095
 40
0.2410871730485968
 40
0.4282593219580676
 40
0.7141020571766541
 40
1.0
 40
1.0
 40
1.0
 40
1.0
 10
141.0348068795469
 20
986.2568746054698
 30
0.0
 10
141.0436782027059
 20
986.2776044935908
 30
0.0
 10
141.0834166638409
 20
986.3704625530563
 30
0.0
 10
141.2586210519111
 20
986.5346276939215
 30
0.0
 10
141.6097702271435
 20
986.7864613944059
 30
0.0
 10
142.1682195138968
 20
987.0734038020524
 30
0.0
 10
142.7258573136718
 20
987.285943679128
 30
0.0
 10
143.0047031364706
 20
987.3922238791514
 30
0.0
  0
LINE
  5
159
330
1F
100
AcDbEntity
  8
0
  6
Continuous
 62
     7
370
    15
100
AcDbLine
 10
140.950425329
 20
976.6492317164
 30
0.0
 11
140.950425329
 21
986.130184933
 31
0.0
  0
LINE
  5
15A
330
1F
100
AcDbEntity
  8
0
  6
Continuous
 62
     7
370
    15
100
AcDbLine
 10
165.7504260413
 20
938.8681421722
 30
0.0
 11
165.7504260413
 21
940.2561853374
 31
0.0
  0
LINE
  5
15B
330
1F
100
AcDbEntity
  8
0
  6
Continuous
 62
     7
370
    15
100
AcDbLine
 10
165.7504260413
 20
938.8681421722
 30
0.0
 11
143.0047031365
 21
938.8681421722
 31
0.0
  0
SPLINE
  5
15C
330
1F
100
AcDbEntity
  8
0
  6
Continuous
 62
     7
370
    15
100
AcDbSpline
210
0.0
220
0.0
230
1.0
 70
     8
 71
     3
 72
    13
 73
     9
 74
     0
 42
0.00000001
 43
0.00000001
 12
1.0
 22
0.0
 32
0.0
 13
1.0
 23
0.0
 33
0.0
 40
0.0
 40
0.0
 40
0.0
 40
0.0
 40
0.0700732026643635
 40
0.2236285292056028
 40
0.3772869351325911
 40
0.5308666141984285
 40
0.7654111958834319
 40
1.0
 40
1.0
 40
1.0
 40
1.0
 10
140.9504253289965
 20
940.2561853373576
 30
0.0
 10
140.9526807269063
 20
940.2232711533088
 30
0.0
 10
140.959878504347
 20
940.1182302776397
 30
0.0
 10
141.0481128279751
 20
939.9411424437329
 30
0.0
 10
141.25353915275
 20
939.7256573666202
 30
0.0
 10
141.6119446685671
 20
939.4739373706606
 30
0.0
 10
142.1675829708728
 20
939.1869532964594
 30
0.0
 10
142.7256455461845
 20
938.9744192250305
 30
0.0
 10
143.0047031364706
 20
938.8681421721507
 30
0.0
  0
LINE
  5
15D
330
1F
100
AcDbEntity
  8
0
  6
Continuous
 62
     7
370
    15
100
AcDbLine
 10
165.7504260413
 20
940.2561853374
 30
0.0
 11
165.7504260413
 21
941.6441987002
 31
0.0
  0
LINE
  5
15E
330
1F
100
AcDbEntity
  8
0
  6
Continuous
 62
     7
370
    15
100
AcDbLine
 10
318.0504280947
 20
948.1301675284
 30
0.0
 11
318.0504280947
 21
978.1301687205
 31
0.0
  0
LINE
  5
15F
330
1F
100
AcDbEntity
  8
0
  6
Continuous
 62
     7
370
    15
100
AcDbLine
 10
-286.9495611765
 20
948.1301675284
 30
0.0
 11
-286.9495611765
 21
978.1301687205
 31
0.0
  0
LINE
  5
160
330
1F
100
AcDbEntity
  8
0
  6
Continuous
 62
     7
370
    15
100
AcDbLine
 10
-111.9038622954
 20
989.6794627154
 30
0.0
 11
-111.6931300738
 21
989.3073807204
 31
0.0
  0
LINE
  5
161
330
1F
100
AcDbEntity
  8
0
  6
Continuous
 62
     7
370
    15
100
AcDbLine
 10
-109.8495882132
 20
986.130184933
 30
0.0
 11
-109.8495882132
 21
982.7456543887
 31
0.0
  0
LINE
  5
162
330
1F
100
AcDbEntity
  8
0
  6
Continuous
 62
     7
370
    15
100
AcDbLine
 10
-109.8495882132
 20
942.921734854
 30
0.0
 11
-109.8495882132
 21
940.1301811183
 31
0.0
  0
LINE
  5
163
330
1F
100
AcDbEntity
  8
0
  6
Continuous
 62
     7
370
    15
100
AcDbLine
 10
140.950425329
 20
940.1301811183
 30
0.0
 11
140.950425329
 21
940.2561853374
 31
0.0
  0
LINE
  5
164
330
1F
100
AcDbEntity
  8
0
  6
Continuous
 62
     7
370
    15
100
AcDbLine
 10
35.5504292867
 20
984.5530460322
 30
0.0
 11
35.5504292867
 21
978.1301687205
 31
0.0
  0
LINE
  5
165
330
1F
100
AcDbEntity
  8
0
  6
Continuous
 62
     7
370
    15
100
AcDbLine
 10
38.0504269026
 20
944.0168509925
 30
0.0
 11
38.0504269026
 21
948.1301675284
 31
0.0
  0
LINE
  5
166
330
1F
100
AcDbEntity
  8
0
  6
Continuous
 62
     7
370
    15
100
AcDbLine
 10
38.0504269026
 20
379.0892730201
 30
0.0
 11
38.0504269026
 21
403.0892620528
 31
0.0
  0
SPLINE
  5
167
330
1F
100
AcDbEntity
  8
0
  6
Continuous
 62
     7
370
    15
100
AcDbSpline
210
0.0
220
0.0
230
1.0
 70
     8
 71
     3
 72
     9
 73
     5
 74
     0
 42
0.00000001
 43
0.00000001
 12
1.0
 22
0.0
 32
0.0
 13
1.0
 23
0.0
 33
0.0
 40
0.0
 40
0.0
 40
0.0
 40
0.0
 40
0.6021068259825993
 40
0.9999999999999999
 40
0.9999999999999999
 40
0.9999999999999999
 40
0.9999999999999999
 10
47.21356815316947
 20
945.8516309702921
 30
0.0
 10
47.3394132378539
 20
945.9911370638185
 30
0.0
 10
47.54842114019603
 20
946.222833645731
 30
0.0
 10
47.68582926170379
 20
946.4595330169852
 30
0.0
 10
47.74050301530628
 20
946.5537140811016
 30
0.0
  0
SPLINE
  5
168
330
1F
100
AcDbEntity
  8
0
  6
Continuous
 62
     7
370
    15
100
AcDbSpline
210
0.0
220
0.0
230
1.0
 70
     8
 71
     3
 72
    10
 73
     6
 74
     0
 42
0.00000001
 43
0.00000001
 12
1.0
 22
0.0
 32
0.0
 13
1.0
 23
0.0
 33
0.0
 40
0.0
 40
0.0
 40
0.0
 40
0.0
 40
0.2887749946829455
 40
0.6443549939599983
 40
1.0
 40
1.0
 40
1.0
 40
1.0
 10
47.90915435769828
 20
948.1301675284434
 30
0.0
 10
47.86824358593484
 20
947.9076595509308
 30
0.0
 10
47.77695777318123
 20
947.4111687565545
 30
0.0
 10
47.53965546715228
 20
946.6504057950209
 30
0.0
 10
47.32227054757219
 20
946.1179054689106
 30
0.0
 10
47.21356815316947
 20
945.8516309702921
 30
0.0
  0
LINE
  5
169
330
1F
100
AcDbEntity
  8
0
  6
Continuous
 62
     7
370
    15
100
AcDbLine
 10
48.4504241369
 20
947.7668474162
 30
0.0
 11
48.4504241369
 21
948.1301675284
 31
0.0
  0
SPLINE
  5
16A
330
1F
100
AcDbEntity
  8
0
  6
Continuous
 62
     7
370
    15
100
AcDbSpline
210
0.0
220
0.0
230
1.0
 70
     8
 71
     3
 72
    10
 73
     6
 74
     0
 42
0.00000001
 43
0.00000001
 12
1.0
 22
0.0
 32
0.0
 13
1.0
 23
0.0
 33
0.0
 40
0.0
 40
0.0
 40
0.0
 40
0.0
 40
0.401232890948507
 40
0.8023468380265703
 40
1.0
 40
1.0
 40
1.0
 40
1.0
 10
39.28728288629325
 20
945.8516309702921
 30
0.0
 10
39.16610770593738
 20
946.1521565176125
 30
0.0
 10
38.9237932671186
 20
946.7531185226684
 30
0.0
 10
38.69180298932185
 20
947.5150620685646
 30
0.0
 10
38.62337461302499
 20
947.977512525155
 30
0.0
 10
38.60078639009269
 20
948.1301675284434
 30
0.0
  0
SPLINE
  5
16B
330
1F
100
AcDbEntity
  8
0
  6
Continuous
 62
     7
370
    15
100
AcDbSpline
210
0.0
220
0.0
230
1.0
 70
     8
 71
     3
 72
     9
 73
     5
 74
     0
 42
0.00000001
 43
0.00000001
 12
1.0
 22
0.0
 32
0.0
 13
1.0
 23
0.0
 33
0.0
 40
0.0
 40
0.0
 40
0.0
 40
0.0
 40
0.3978518729424332
 40
1.0
 40
1.0
 40
1.0
 40
1.0
 10
38.76119739034446
 20
946.5537140811015
 30
0.0
 10
38.81553474945594
 20
946.4595298693654
 30
0.0
 10
38.95211160834975
 20
946.2227980147699
 30
0.0
 10
39.16131278786803
 20
945.9911296451544
 30
0.0
 10
39.28728288629322
 20
945.8516309702923
 30
0.0
  0
LINE
  5
16C
330
1F
100
AcDbEntity
  8
0
  6
Continuous
 62
     7
370
    15
100
AcDbLine
 10
39.2872828863
 20
394.30067639
 30
0.0
 11
47.2135681532
 21
394.30067639
 31
0.0
  0
SPLINE
  5
16D
330
1F
100
AcDbEntity
  8
0
  6
Continuous
 62
     7
370
    15
100
AcDbSpline
210
0.0
220
0.0
230
1.0
 70
     8
 71
     3
 72
    16
 73
    12
 74
     0
 42
0.00000001
 43
0.00000001
 12
1.0
 22
0.0
 32
0.0
 13
1.0
 23
0.0
 33
0.0
 40
0.0
 40
0.0
 40
0.0
 40
0.0
 40
0.2499999999999962
 40
0.2499999999999962
 40
0.4999999999999923
 40
0.4999999999999923
 40
0.6249999999999905
 40
0.6249999999999905
 40
0.7499999999999885
 40
0.7499999999999885
 40
1.0
 40
1.0
 40
1.0
 40
1.0
 10
47.21356543128108
 20
394.3006699909573
 30
0.0
 10
47.45848694586347
 20
393.4707772736884
 30
0.0
 10
47.66034666589997
 20
392.634833933559
 30
0.0
 10
47.93998793749705
 20
390.9455130007197
 30
0.0
 10
48.01684707222537
 20
390.0920057990043
 30
0.0
 10
48.01769123339459
 20
388.7956643671199
 30
0.0
 10
47.99890214672448
 20
388.3615173540882
 30
0.0
 10
47.92563465464359
 20
387.5027287640625
 30
0.0
 10
47.8712306029803
 20
387.0762136681284
 30
0.0
 10
47.66115154462817
 20
385.8042618988539
 30
0.0
 10
47.45879225146088
 20
384.9663891558972
 30
0.0
 10
47.21356543128086
 20
384.1354619403219
 30
0.0
  0
LINE
  5
16E
330
1F
100
AcDbEntity
  8
0
  6
Continuous
 62
     7
370
    15
100
AcDbLine
 10
39.2872828863
 20
384.1354618514
 30
0.0
 11
47.2135681532
 21
384.1354618514
 31
0.0
  0
SPLINE
  5
16F
330
1F
100
AcDbEntity
  8
0
  6
Continuous
 62
     7
370
    15
100
AcDbSpline
210
0.0
220
0.0
230
1.0
 70
     8
 71
     3
 72
    16
 73
    12
 74
     0
 42
0.00000001
 43
0.00000001
 12
1.0
 22
0.0
 32
0.0
 13
1.0
 23
0.0
 33
0.0
 40
0.0
 40
0.0
 40
0.0
 40
0.0
 40
0.2499999999999964
 40
0.2499999999999964
 40
0.4999999999999928
 40
0.4999999999999928
 40
0.624999999999991
 40
0.624999999999991
 40
0.7499999999999891
 40
0.7499999999999891
 40
1.0
 40
1.0
 40
1.0
 40
1.0
 10
39.28728598965143
 20
384.1354619403219
 30
0.0
 10
39.04236447506904
 20
384.9653546575909
 30
0.0
 10
38.84050475503248
 20
385.8012979977203
 30
0.0
 10
38.5608634834355
 20
387.4906189305595
 30
0.0
 10
38.48400434870717
 20
388.3441261322748
 30
0.0
 10
38.48316018753793
 20
389.6404675641592
 30
0.0
 10
38.50194927420806
 20
390.0746145771911
 30
0.0
 10
38.5752167662889
 20
390.9334031672167
 30
0.0
 10
38.62962081795222
 20
391.3599182631508
 30
0.0
 10
38.83969987630432
 20
392.6318700324252
 30
0.0
 10
39.04205916947163
 20
393.4697427753821
 30
0.0
 10
39.28728598965162
 20
394.3006699909573
 30
0.0
  0
SPLINE
  5
170
330
1F
100
AcDbEntity
  8
0
  6
Continuous
 62
     7
370
    15
100
AcDbSpline
210
0.0
220
0.0
230
1.0
 70
     8
 71
     3
 72
    16
 73
    12
 74
     0
 42
0.00000001
 43
0.00000001
 12
1.0
 22
0.0
 32
0.0
 13
1.0
 23
0.0
 33
0.0
 40
0.0
 40
0.0
 40
0.0
 40
0.0
 40
0.2500000000000022
 40
0.2500000000000022
 40
0.5000000000000043
 40
0.5000000000000043
 40
0.625000000000004
 40
0.625000000000004
 40
0.7500000000000036
 40
0.7500000000000036
 40
1.0
 40
1.0
 40
1.0
 40
1.0
 10
47.21356543128111
 20
401.2544792336347
 30
0.0
 10
47.4584869458635
 20
400.6867667363568
 30
0.0
 10
47.66034666590003
 20
400.114915132731
 30
0.0
 10
47.9399879374971
 20
398.9592855127459
 30
0.0
 10
48.01684707222546
 20
398.3754188335381
 30
0.0
 10
48.01769123339457
 20
397.4886183877626
 30
0.0
 10
47.99890214672451
 20
397.1916273673267
 30
0.0
 10
47.92563465464367
 20
396.6041477992669
 30
0.0
 10
47.87123060298027
 20
396.3123776159637
 30
0.0
 10
47.6611515446282
 20
395.4422616355172
 30
0.0
 10
47.45879225146091
 20
394.8690901671973
 30
0.0
 10
47.21356543128092
 20
394.3006699909573
 30
0.0
  0
SPLINE
  5
171
330
1F
100
AcDbEntity
  8
0
  6
Continuous
 62
     7
370
    15
100
AcDbSpline
210
0.0
220
0.0
230
1.0
 70
     8
 71
     3
 72
     9
 73
     5
 74
     0
 42
0.00000001
 43
0.00000001
 12
1.0
 22
0.0
 32
0.0
 13
1.0
 23
0.0
 33
0.0
 40
0.0
 40
0.0
 40
0.0
 40
0.0
 40
0.1768635101273338
 40
1.0
 40
1.0
 40
1.0
 40
1.0
 10
47.73282891729145
 20
400.5525777781534
 30
0.0
 10
47.71388948985523
 20
400.5946679015222
 30
0.0
 10
47.60680449859512
 20
400.8326487226562
 30
0.0
 10
47.39111228486887
 20
401.0640265458282
 30
0.0
 10
47.21356815316944
 20
401.2544820750284
 30
0.0
  0
SPLINE
  5
172
330
1F
100
AcDbEntity
  8
0
  6
Continuous
 62
     7
370
    15
100
AcDbSpline
210
0.0
220
0.0
230
1.0
 70
     8
 71
     3
 72
    16
 73
    12
 74
     0
 42
0.00000001
 43
0.00000001
 12
1.0
 22
0.0
 32
0.0
 13
1.0
 23
0.0
 33
0.0
 40
0.0
 40
0.0
 40
0.0
 40
0.0
 40
0.2500000000000006
 40
0.2500000000000006
 40
0.5000000000000011
 40
0.5000000000000011
 40
0.6250000000000008
 40
0.6250000000000008
 40
0.7500000000000006
 40
0.7500000000000006
 40
1.0
 40
1.0
 40
1.0
 40
1.0
 10
47.21356450908882
 20
380.9240621451891
 30
0.0
 10
47.45753998365982
 20
381.1852295408353
 30
0.0
 10
47.66223412266436
 20
381.4527851500362
 30
0.0
 10
47.94208822290972
 20
381.9892033843179
 30
0.0
 10
48.01749693661312
 20
382.2588640985821
 30
0.0
 10
48.01737093757714
 20
382.6659029341766
 30
0.0
 10
47.99867950673068
 20
382.8020021393252
 30
0.0
 10
47.92450469547477
 20
383.0750283311665
 30
0.0
 10
47.86932845513129
 20
383.2107198973957
 30
0.0
 10
47.65799140641778
 20
383.6129375142756
 30
0.0
 10
47.45602829104246
 20
383.8759136273841
 30
0.0
 10
47.2135654312807
 20
384.1354619403219
 30
0.0
  0
LINE
  5
173
330
1F
100
AcDbEntity
  8
0
  6
Continuous
 62
     7
370
    15
100
AcDbLine
 10
48.4504241369
 20
383.2430611098
 30
0.0
 11
48.4504241369
 21
399.3392656291
 31
0.0
  0
LINE
  5
174
330
1F
100
AcDbEntity
  8
0
  6
Continuous
 62
     7
370
    15
100
AcDbLine
 10
48.4504241369
 20
382.8392694438
 30
0.0
 11
48.4504241369
 21
383.2430611098
 31
0.0
  0
SPLINE
  5
175
330
1F
100
AcDbEntity
  8
0
  6
Continuous
 62
     7
370
    15
100
AcDbSpline
210
0.0
220
0.0
230
1.0
 70
     8
 71
     3
 72
    14
 73
    10
 74
     0
 42
0.00000001
 43
0.00000001
 12
1.0
 22
0.0
 32
0.0
 13
1.0
 23
0.0
 33
0.0
 40
0.0
 40
0.0
 40
0.0
 40
0.0
 40
0.1331919449466792
 40
0.2578383211298763
 40
0.3824531630796709
 40
0.5101673975392462
 40
0.6378835146307078
 40
0.818058482239179
 40
1.0
 40
1.0
 40
1.0
 40
1.0
 10
39.28728288629325
 20
380.92405299788
 30
0.0
 10
39.16402873737191
 20
381.06372208649
 30
0.0
 10
38.92542840127118
 20
381.334099122694
 30
0.0
 10
38.6725921594395
 20
381.742680190794
 30
0.0
 10
38.51283140371248
 20
382.1496088350846
 30
0.0
 10
38.46499235502139
 20
382.5628752296159
 30
0.0
 10
38.54209788709773
 20
383.0360135388159
 30
0.0
 10
38.79394951952903
 20
383.5639889685073
 30
0.0
 10
39.12230448142693
 20
383.9443523684579
 30
0.0
 10
39.28728288629325
 20
384.1354618514109
 30
0.0
  0
SPLINE
  5
176
330
1F
100
AcDbEntity
  8
0
  6
Continuous
 62
     7
370
    15
100
AcDbSpline
210
0.0
220
0.0
230
1.0
 70
     8
 71
     3
 72
     9
 73
     5
 74
     0
 42
0.00000001
 43
0.00000001
 12
1.0
 22
0.0
 32
0.0
 13
1.0
 23
0.0
 33
0.0
 40
0.0
 40
0.0
 40
0.0
 40
0.0
 40
0.8149992501583886
 40
1.0
 40
1.0
 40
1.0
 40
1.0
 10
39.28728288629325
 20
401.2544820750285
 30
0.0
 10
39.11817255738465
 20
401.0654102006224
 30
0.0
 10
38.91067503039218
 20
400.8334199572334
 30
0.0
 10
38.78098754494125
 20
400.5962967396072
 30
0.0
 10
38.75699526288776
 20
400.5524287665415
 30
0.0
  0
SPLINE
  5
177
330
1F
100
AcDbEntity
  8
0
  6
Continuous
 62
     7
370
    15
100
AcDbSpline
210
0.0
220
0.0
230
1.0
 70
     8
 71
     3
 72
    16
 73
    12
 74
     0
 42
0.00000001
 43
0.00000001
 12
1.0
 22
0.0
 32
0.0
 13
1.0
 23
0.0
 33
0.0
 40
0.0
 40
0.0
 40
0.0
 40
0.0
 40
0.2500000000000014
 40
0.2500000000000014
 40
0.5000000000000029
 40
0.5000000000000029
 40
0.6250000000000021
 40
0.6250000000000021
 40
0.7500000000000014
 40
0.7500000000000014
 40
1.0
 40
1.0
 40
1.0
 40
1.0
 10
39.28728598965143
 20
394.3006699909571
 30
0.0
 10
39.04236447506901
 20
394.8683824882349
 30
0.0
 10
38.84050475503251
 20
395.440234091861
 30
0.0
 10
38.56086348343547
 20
396.5958637118461
 30
0.0
 10
38.48400434870712
 20
397.1797303910538
 30
0.0
 10
38.48316018753795
 20
398.0665308368294
 30
0.0
 10
38.50194927420803
 20
398.3635218572651
 30
0.0
 10
38.5752167662889
 20
398.951001425325
 30
0.0
 10
38.62962081795227
 20
399.2427716086282
 30
0.0
 10
38.83969987630429
 20
400.1128875890746
 30
0.0
 10
39.04205916947174
 20
400.6860590573949
 30
0.0
 10
39.28728598965165
 20
401.2544792336348
 30
0.0
  0
LINE
  5
178
330
1F
100
AcDbEntity
  8
0
  6
Continuous
 62
     7
370
    15
100
AcDbLine
 10
39.2872828863
 20
945.8516309703
 30
0.0
 11
47.2135681532
 21
945.8516309703
 31
0.0
  0
LINE
  5
179
330
1F
100
AcDbEntity
  8
0
  6
Continuous
 62
     7
370
    15
100
AcDbLine
 10
39.2872828863
 20
401.254482075
 30
0.0
 11
47.2135681532
 21
401.254482075
 31
0.0
  0
LINE
  5
17A
330
1F
100
AcDbEntity
  8
0
  6
Continuous
 62
     7
370
    15
100
AcDbLine
 10
39.2872828863
 20
380.9240529979
 30
0.0
 11
47.2135681532
 21
380.9240529979
 31
0.0
  0
LINE
  5
17B
330
1F
100
AcDbEntity
  8
0
  6
Continuous
 62
     7
370
    15
100
AcDbLine
 10
88.5504249356
 20
385.3829274619
 30
0.0
 11
88.5504249356
 21
397.0892796958
 31
0.0
  0
LINE
  5
17C
330
1F
100
AcDbEntity
  8
0
  6
Continuous
 62
     7
370
    15
100
AcDbLine
 10
88.5504249356
 20
385.0892851794
 30
0.0
 11
88.5504249356
 21
385.3829274619
 31
0.0
  0
LINE
  5
17D
330
1F
100
AcDbEntity
  8
0
  6
Continuous
 62
     7
370
    15
100
AcDbLine
 10
-135.449574528
 20
379.183925196
 30
0.0
 11
-135.449574528
 21
380.5543551887
 31
0.0
  0
LINE
  5
17E
330
1F
100
AcDbEntity
  8
0
  6
Continuous
 62
     7
370
    15
100
AcDbLine
 10
-135.449574528
 20
324.5543311084
 30
0.0
 11
-135.449574528
 21
379.183925196
 31
0.0
  0
LINE
  5
17F
330
1F
100
AcDbEntity
  8
0
  6
Continuous
 62
     7
370
    15
100
AcDbLine
 10
166.5504265449
 20
379.183925196
 30
0.0
 11
166.5504265449
 21
380.5543551887
 31
0.0
  0
LINE
  5
180
330
1F
100
AcDbEntity
  8
0
  6
Continuous
 62
     7
370
    15
100
AcDbLine
 10
166.5504265449
 20
324.5543311084
 30
0.0
 11
166.5504265449
 21
379.183925196
 31
0.0
  0
SPLINE
  5
181
330
1F
100
AcDbEntity
  8
0
  6
Continuous
 62
     7
370
    15
100
AcDbSpline
210
0.0
220
0.0
230
1.0
 70
     8
 71
     3
 72
    13
 73
     9
 74
     0
 42
0.00000001
 43
0.00000001
 12
1.0
 22
0.0
 32
0.0
 13
1.0
 23
0.0
 33
0.0
 40
0.0
 40
0.0
 40
0.0
 40
0.0
 40
0.0700720222294733
 40
0.2236281064387974
 40
0.3772873146271047
 40
0.5308668131047207
 40
0.7654108247416482
 40
1.0
 40
1.0
 40
1.0
 40
1.0
 10
140.9504253289965
 20
357.3363194907236
 30
0.0
 10
140.9526807904114
 20
357.0283167070249
 30
0.0
 10
140.9598788781693
 20
356.0453555036097
 30
0.0
 10
141.0481129831666
 20
354.388301465571
 30
0.0
 10
141.2535382099695
 20
352.3721517212296
 30
0.0
 10
141.611944321663
 20
350.0160483692728
 30
0.0
 10
142.1675847658615
 20
347.3309255293907
 30
0.0
 10
142.725645771356
 20
345.3419885436127
 30
0.0
 10
143.0047031364706
 20
344.3474243128825
 30
0.0
  0
SPLINE
  5
182
330
1F
100
AcDbEntity
  8
0
  6
Continuous
 62
     7
370
    15
100
AcDbSpline
210
0.0
220
0.0
230
1.0
 70
     8
 71
     3
 72
    13
 73
     9
 74
     0
 42
0.00000001
 43
0.00000001
 12
1.0
 22
0.0
 32
0.0
 13
1.0
 23
0.0
 33
0.0
 40
0.0
 40
0.0
 40
0.0
 40
0.0
 40
0.1651137208534652
 40
0.3302734561088555
 40
0.4953474789825745
 40
0.6635397183599754
 40
0.8318395081390425
 40
0.9999999999999999
 40
0.9999999999999999
 40
0.9999999999999999
 40
0.9999999999999999
 10
143.0047031364706
 20
344.3474243128825
 30
0.0
 10
142.8055206988848
 20
343.8691167489855
 30
0.0
 10
142.4071003149359
 20
342.9123683249618
 30
0.0
 10
141.9084419656073
 20
341.4602614276857
 30
0.0
 10
141.4933748313173
 20
339.9869988156211
 30
0.0
 10
141.1878967914691
 20
338.4922668852889
 30
0.0
 10
140.9888092561561
 20
336.9795220516153
 30
0.0
 10
140.9632164394891
 20
335.9677083199426
 30
0.0
 10
140.9504253289965
 20
335.4620109046031
 30
0.0
  0
LINE
  5
183
330
1F
100
AcDbEntity
  8
0
  6
Continuous
 62
     7
370
    15
100
AcDbLine
 10
140.950425329
 20
335.4620109046
 30
0.0
 11
140.950425329
 21
357.3363194907
 31
0.0
  0
LINE
  5
184
330
1F
100
AcDbEntity
  8
0
  6
Continuous
 62
     7
370
    15
100
AcDbLine
 10
165.7504260413
 20
357.3363194907
 30
0.0
 11
165.7504260413
 21
370.3251848662
 31
0.0
  0
LINE
  5
185
330
1F
100
AcDbEntity
  8
0
  6
Continuous
 62
     7
370
    15
100
AcDbLine
 10
165.7504260413
 20
344.3474243129
 30
0.0
 11
165.7504260413
 21
357.3363194907
 31
0.0
  0
LINE
  5
186
330
1F
100
AcDbEntity
  8
0
  6
Continuous
 62
     7
370
    15
100
AcDbLine
 10
165.7504260413
 20
344.3474243129
 30
0.0
 11
143.0047031365
 21
344.3474243129
 31
0.0
  0
SPLINE
  5
187
330
1F
100
AcDbEntity
  8
0
  6
Continuous
 62
     7
370
    15
100
AcDbSpline
210
0.0
220
0.0
230
1.0
 70
     8
 71
     3
 72
    10
 73
     6
 74
     0
 42
0.00000001
 43
0.00000001
 12
1.0
 22
0.0
 32
0.0
 13
1.0
 23
0.0
 33
0.0
 40
0.0
 40
0.0
 40
0.0
 40
0.0
 40
0.5
 40
0.5
 40
1.0
 40
1.0
 40
1.0
 40
1.0
 10
143.0047028524405
 20
370.3251916716412
 30
0.0
 10
142.3776194869239
 20
368.2003807131184
 30
0.0
 10
141.8609962129301
 20
366.0600497325634
 30
0.0
 10
141.1462090681877
 20
361.7346431321321
 30
0.0
 10
140.9504257104687
 20
359.5492330420031
 30
0.0
 10
140.9504257104685
 20
357.3363147180552
 30
0.0
  0
LINE
  5
188
330
1F
100
AcDbEntity
  8
0
  6
Continuous
 62
     7
370
    15
100
AcDbLine
 10
165.7504260413
 20
370.3251848662
 30
0.0
 11
143.0047031365
 21
370.3251848662
 31
0.0
  0
LINE
  5
189
330
1F
100
AcDbEntity
  8
0
  6
Continuous
 62
     7
370
    15
100
AcDbLine
 10
-134.6495609858
 20
376.5298197711
 30
0.0
 11
-134.6495609858
 21
365.5891786063
 31
0.0
  0
LINE
  5
18A
330
1F
100
AcDbEntity
  8
0
  6
Continuous
 62
     7
370
    15
100
AcDbLine
 10
-134.6495609858
 20
376.5298197711
 30
0.0
 11
-111.9038622954
 21
376.5298197711
 31
0.0
  0
SPLINE
  5
18B
330
1F
100
AcDbEntity
  8
0
  6
Continuous
 62
     7
370
    15
100
AcDbSpline
210
0.0
220
0.0
230
1.0
 70
     8
 71
     3
 72
    13
 73
     9
 74
     0
 42
0.00000001
 43
0.00000001
 12
1.0
 22
0.0
 32
0.0
 13
1.0
 23
0.0
 33
0.0
 40
0.0
 40
0.0
 40
0.0
 40
0.0
 40
0.0700736101746789
 40
0.223629140753097
 40
0.3772870292594842
 40
0.5308681497948858
 40
0.7654117471214884
 40
0.9999999999999999
 40
0.9999999999999999
 40
0.9999999999999999
 40
0.9999999999999999
 10
-109.8495882131788
 20
365.5891786063243
 30
0.0
 10
-109.8518367455021
 20
365.848619607008
 30
0.0
 10
-109.8590125903053
 20
366.6765856260902
 30
0.0
 10
-109.9472430782363
 20
368.0723360919774
 30
0.0
 10
-110.1527031813275
 20
369.7705345915277
 30
0.0
 10
-110.511094442402
 20
371.75511908465
 30
0.0
 10
-111.0667335784963
 20
374.0168059031346
 30
0.0
 10
-111.6248016826793
 20
375.6920953261674
 30
0.0
 10
-111.9038622953626
 20
376.5298197711039
 30
0.0
  0
SPLINE
  5
18C
330
1F
100
AcDbEntity
  8
0
  6
Continuous
 62
     7
370
    15
100
AcDbSpline
210
0.0
220
0.0
230
1.0
 70
     8
 71
     3
 72
    13
 73
     9
 74
     0
 42
0.00000001
 43
0.00000001
 12
1.0
 22
0.0
 32
0.0
 13
1.0
 23
0.0
 33
0.0
 40
0.0
 40
0.0
 40
0.0
 40
0.0
 40
0.1651140226425164
 40
0.3302759208364124
 40
0.4953482438774305
 40
0.6635403823903991
 40
0.8318401950300286
 40
1.0
 40
1.0
 40
1.0
 40
1.0
 10
-111.9038622953626
 20
354.6485374415446
 30
0.0
 10
-111.7046723128027
 20
355.2374765574484
 30
0.0
 10
-111.306234591654
 20
356.4155255547937
 30
0.0
 10
-110.8075783604285
 20
358.2035483205211
 30
0.0
 10
-110.3925376300232
 20
360.0175679590051
 30
0.0
 10
-110.0870369284805
 20
361.8580403562416
 30
0.0
 10
-109.8879501620196
 20
363.7206623085555
 30
0.0
 10
-109.8623719815925
 20
364.9665126482646
 30
0.0
 10
-109.8495882131789
 20
365.5891786063242
 30
0.0
  0
LINE
  5
18D
330
1F
100
AcDbEntity
  8
0
  6
Continuous
 62
     7
370
    15
100
AcDbLine
 10
-134.6495609858
 20
354.6485374415
 30
0.0
 11
-111.9038622954
 21
354.6485374415
 31
0.0
  0
LINE
  5
18E
330
1F
100
AcDbEntity
  8
0
  6
Continuous
 62
     7
370
    15
100
AcDbLine
 10
-134.6495609858
 20
365.5891786063
 30
0.0
 11
-134.6495609858
 21
354.6485374415
 31
0.0
  0
LINE
  5
18F
330
1F
100
AcDbEntity
  8
0
  6
Continuous
 62
     7
370
    15
100
AcDbLine
 10
-134.6495609858
 20
342.6607916797
 30
0.0
 11
-134.6495609858
 21
330.6730757201
 31
0.0
  0
SPLINE
  5
190
330
1F
100
AcDbEntity
  8
0
  6
Continuous
 62
     7
370
    15
100
AcDbSpline
210
0.0
220
0.0
230
1.0
 70
     8
 71
     3
 72
    13
 73
     9
 74
     0
 42
0.00000001
 43
0.00000001
 12
1.0
 22
0.0
 32
0.0
 13
1.0
 23
0.0
 33
0.0
 40
0.0
 40
0.0
 40
0.0
 40
0.0
 40
0.0700732505381223
 40
0.2236299580193377
 40
0.3772880860039322
 40
0.5308684320222337
 40
0.7654114100183154
 40
1.0
 40
1.0
 40
1.0
 40
1.0
 10
-109.8495882131788
 20
342.6607916796733
 30
0.0
 10
-109.8518367901174
 20
342.9450598129293
 30
0.0
 10
-109.859012840358
 20
343.8522657755198
 30
0.0
 10
-109.9472426374821
 20
345.3816087556708
 30
0.0
 10
-110.1527021625445
 20
347.2423499416179
 30
0.0
 10
-110.511095072301
 20
349.4168597072638
 30
0.0
 10
-111.0667352628393
 20
351.8950075053075
 30
0.0
 10
-111.6248018649145
 20
353.7306346389771
 30
0.0
 10
-111.9038622953626
 20
354.6485374415446
 30
0.0
  0
SPLINE
  5
191
330
1F
100
AcDbEntity
  8
0
  6
Continuous
 62
     7
370
    15
100
AcDbSpline
210
0.0
220
0.0
230
1.0
 70
     8
 71
     3
 72
    13
 73
     9
 74
     0
 42
0.00000001
 43
0.00000001
 12
1.0
 22
0.0
 32
0.0
 13
1.0
 23
0.0
 33
0.0
 40
0.0
 40
0.0
 40
0.0
 40
0.0
 40
0.165113703674147
 40
0.3302737695434515
 40
0.4953480784662351
 40
0.6635411746960187
 40
0.8318395196651686
 40
1.0
 40
1.0
 40
1.0
 40
1.0
 10
-111.9038622953627
 20
330.6730757201242
 30
0.0
 10
-111.7046729461373
 20
331.3183790253771
 30
0.0
 10
-111.3062383174078
 20
332.6091668302784
 30
0.0
 10
-110.8075713343959
 20
334.5682894200552
 30
0.0
 10
-110.3925398708092
 20
336.5559442462248
 30
0.0
 10
-110.0870387163131
 20
338.5725698481193
 30
0.0
 10
-109.8879490724383
 20
340.6134397501432
 30
0.0
 10
-109.8623716728029
 20
341.9785274855826
 30
0.0
 10
-109.8495882131788
 20
342.6607916796733
 30
0.0
  0
LINE
  5
192
330
1F
100
AcDbEntity
  8
0
  6
Continuous
 62
     7
370
    15
100
AcDbLine
 10
-134.6495609858
 20
330.6730757201
 30
0.0
 11
-111.9038622954
 21
330.6730757201
 31
0.0
  0
LINE
  5
193
330
1F
100
AcDbEntity
  8
0
  6
Continuous
 62
     7
370
    15
100
AcDbLine
 10
-134.6495609858
 20
354.6485374415
 30
0.0
 11
-134.6495609858
 21
342.6607916797
 31
0.0
  0
LINE
  5
194
330
1F
100
AcDbEntity
  8
0
  6
Continuous
 62
     7
370
    15
100
AcDbLine
 10
-109.8495882132
 20
365.5891786063
 30
0.0
 11
-109.8495882132
 21
342.6607916797
 31
0.0
  0
LINE
  5
195
330
1F
100
AcDbEntity
  8
0
  6
Continuous
 62
     7
370
    15
100
AcDbLine
 10
165.7504260413
 20
335.4620109046
 30
0.0
 11
165.7504260413
 21
344.3474243129
 31
0.0
  0
LINE
  5
196
330
1F
100
AcDbEntity
  8
0
  6
Continuous
 62
     7
370
    15
100
AcDbLine
 10
165.7504260413
 20
326.5765974963
 30
0.0
 11
165.7504260413
 21
335.4620109046
 31
0.0
  0
LINE
  5
197
330
1F
100
AcDbEntity
  8
0
  6
Continuous
 62
     7
370
    15
100
AcDbLine
 10
165.7504260413
 20
326.5765974963
 30
0.0
 11
143.0047031365
 21
326.5765974963
 31
0.0
  0
SPLINE
  5
198
330
1F
100
AcDbEntity
  8
0
  6
Continuous
 62
     7
370
    15
100
AcDbSpline
210
0.0
220
0.0
230
1.0
 70
     8
 71
     3
 72
    14
 73
    10
 74
     0
 42
0.00000001
 43
0.00000001
 12
1.0
 22
0.0
 32
0.0
 13
1.0
 23
0.0
 33
0.0
 40
0.0
 40
0.0
 40
0.0
 40
0.0
 40
0.1250000000000042
 40
0.1250000000000042
 40
0.2500000000000085
 40
0.2500000000000085
 40
0.5000000000000088
 40
0.5000000000000088
 40
1.0
 40
1.0
 40
1.0
 40
1.0
 10
140.9504257104665
 20
335.4620148432677
 30
0.0
 10
140.9504257104664
 20
335.0849771864299
 30
0.0
 10
140.9624740022677
 20
334.7060532515137
 30
0.0
 10
141.0102654096544
 20
333.9517307702099
 30
0.0
 10
141.0459570514928
 20
333.5758769486756
 30
0.0
 10
141.1868850488303
 20
332.4520676361059
 30
0.0
 10
141.3260529960112
 20
331.7078729999608
 30
0.0
 10
141.8628091678813
 20
329.488506588479
 30
0.0
 10
142.3791857115077
 20
328.0265008807518
 30
0.0
 10
143.0047028524391
 20
326.5765919220648
 30
0.0
  0
LINE
  5
199
330
1F
100
AcDbEntity
  8
0
  6
Continuous
 62
     7
370
    15
100
AcDbLine
 10
140.950425329
 20
357.3363194907
 30
0.0
 11
140.950425329
 21
374.4286368335
 31
0.0
  0
SPLINE
  5
19A
330
1F
100
AcDbEntity
  8
0
  6
Continuous
 62
     7
370
    15
100
AcDbSpline
210
0.0
220
0.0
230
1.0
 70
     8
 71
     3
 72
    12
 73
     8
 74
     0
 42
0.00000001
 43
0.00000001
 12
1.0
 22
0.0
 32
0.0
 13
1.0
 23
0.0
 33
0.0
 40
0.0
 40
0.0
 40
0.0
 40
0.0
 40
0.25
 40
0.25
 40
0.5
 40
0.5
 40
1.0
 40
1.0
 40
1.0
 40
1.0
 10
143.0047028524416
 20
370.3251916716417
 30
0.0
 10
142.6929725472347
 20
370.6588884484902
 30
0.0
 10
142.4067829149674
 20
370.9956501926816
 30
0.0
 10
141.8989624592317
 20
371.6769209569928
 30
0.0
 10
141.6795693628446
 20
372.0186717878623
 30
0.0
 10
141.1433057291893
 20
373.0463057007278
 30
0.0
 10
140.9504257104696
 20
373.7352294566267
 30
0.0
 10
140.9504257104697
 20
374.4286457040329
 30
0.0
  0
SPLINE
  5
19B
330
1F
100
AcDbEntity
  8
0
  6
Continuous
 62
     7
370
    15
100
AcDbSpline
210
0.0
220
0.0
230
1.0
 70
     8
 71
     3
 72
    13
 73
     9
 74
     0
 42
0.00000001
 43
0.00000001
 12
1.0
 22
0.0
 32
0.0
 13
1.0
 23
0.0
 33
0.0
 40
0.0
 40
0.0
 40
0.0
 40
0.0
 40
0.1340640128243695
 40
0.2683987581604008
 40
0.4503878939416822
 40
0.632394549790218
 40
0.8161890744452811
 40
1.0
 40
1.0
 40
1.0
 40
1.0
 10
-109.8495882131789
 20
329.6259711230326
 30
0.0
 10
-109.8574996853801
 20
329.6734860617199
 30
0.0
 10
-109.8733386064246
 20
329.7686118920532
 30
0.0
 10
-110.0152937376524
 20
329.9278353129479
 30
0.0
 10
-110.2790502844993
 20
330.103333627997
 30
0.0
 10
-110.7040798586219
 20
330.2945600631718
 30
0.0
 10
-111.2411393802499
 20
330.4847620201481
 30
0.0
 10
-111.6829480864868
 20
330.6103026197802
 30
0.0
 10
-111.9038622953626
 20
330.6730757201243
 30
0.0
  0
LINE
  5
19C
330
1F
100
AcDbEntity
  8
0
  6
Continuous
 62
     7
370
    15
100
AcDbLine
 10
-109.8495882132
 20
342.6607916797
 30
0.0
 11
-109.8495882132
 21
329.625971123
 31
0.0
  0
SPLINE
  5
19D
330
1F
100
AcDbEntity
  8
0
  6
Continuous
 62
     7
370
    15
100
AcDbSpline
210
0.0
220
0.0
230
1.0
 70
     8
 71
     3
 72
    13
 73
     9
 74
     0
 42
0.00000001
 43
0.00000001
 12
1.0
 22
0.0
 32
0.0
 13
1.0
 23
0.0
 33
0.0
 40
0.0
 40
0.0
 40
0.0
 40
0.0
 40
0.1340644447988025
 40
0.2683989955395738
 40
0.4503878766740377
 40
0.6323949294334952
 40
0.8161895298420667
 40
1.0
 40
1.0
 40
1.0
 40
1.0
 10
140.9504253289965
 20
374.4286368334818
 30
0.0
 10
140.9583495147709
 20
374.6148288227791
 30
0.0
 10
140.9742138515495
 20
374.9875879311309
 30
0.0
 10
141.1161298240378
 20
375.6117548287158
 30
0.0
 10
141.3799134428594
 20
376.2992725601806
 30
0.0
 10
141.8049308410428
 20
377.0488772805832
 30
0.0
 10
142.3419821758997
 20
377.7941734414226
 30
0.0
 10
142.7837897919065
 20
378.2861099352157
 30
0.0
 10
143.0047031364706
 20
378.5320888007212
 30
0.0
  0
LINE
  5
19E
330
1F
100
AcDbEntity
  8
0
  6
Continuous
 62
     7
370
    15
100
AcDbLine
 10
165.7504260413
 20
378.5320888007
 30
0.0
 11
143.0047031365
 21
378.5320888007
 31
0.0
  0
LINE
  5
19F
330
1F
100
AcDbEntity
  8
0
  6
Continuous
 62
     7
370
    15
100
AcDbLine
 10
165.7504260413
 20
378.5320888007
 30
0.0
 11
165.7504260413
 21
374.4286368335
 31
0.0
  0
LINE
  5
1A0
330
1F
100
AcDbEntity
  8
0
  6
Continuous
 62
     7
370
    15
100
AcDbLine
 10
165.7504260413
 20
374.4286368335
 30
0.0
 11
165.7504260413
 21
370.3251848662
 31
0.0
  0
SPLINE
  5
1A1
330
1F
100
AcDbEntity
  8
0
  6
Continuous
 62
     7
370
    15
100
AcDbSpline
210
0.0
220
0.0
230
1.0
 70
     8
 71
     3
 72
    12
 73
     8
 74
     0
 42
0.00000001
 43
0.00000001
 12
1.0
 22
0.0
 32
0.0
 13
1.0
 23
0.0
 33
0.0
 40
0.0
 40
0.0
 40
0.0
 40
0.0
 40
0.1542311206953171
 40
0.3646197476317726
 40
0.5750290273452547
 40
0.7875049770563908
 40
1.0
 40
1.0
 40
1.0
 40
1.0
 10
-109.8913114645216
 20
375.6261835539866
 30
0.0
 10
-109.9263686482078
 20
375.6733852463043
 30
0.0
 10
-110.0092477805819
 20
375.7849753654909
 30
0.0
 10
-110.2810230929045
 20
375.9600466317762
 30
0.0
 10
-110.7035477599138
 20
376.1513482749089
 30
0.0
 10
-111.2412731044319
 20
376.3415397685964
 30
0.0
 10
-111.6829926234097
 20
376.4670578924642
 30
0.0
 10
-111.9038622953627
 20
376.5298197711039
 30
0.0
  0
LINE
  5
1A2
330
1F
100
AcDbEntity
  8
0
  6
Continuous
 62
     7
370
    15
100
AcDbLine
 10
-109.8495882132
 20
375.554359957
 30
0.0
 11
-109.8495882132
 21
365.5891786063
 31
0.0
  0
SPLINE
  5
1A3
330
1F
100
AcDbEntity
  8
0
  6
Continuous
 62
     7
370
    15
100
AcDbSpline
210
0.0
220
0.0
230
1.0
 70
     8
 71
     3
 72
    10
 73
     6
 74
     0
 42
0.00000001
 43
0.00000001
 12
1.0
 22
0.0
 32
0.0
 13
1.0
 23
0.0
 33
0.0
 40
0.0
 40
0.0
 40
0.0
 40
0.0
 40
0.580944426737186
 40
0.9979222992806738
 40
0.9999999999999999
 40
0.9999999999999999
 40
0.9999999999999999
 40
0.9999999999999999
 10
143.0047031364706
 20
326.5765974963236
 30
0.0
 10
142.7045129134758
 20
326.9213195243313
 30
0.0
 10
142.1888585689887
 20
327.5134687609358
 30
0.0
 10
141.7595033173489
 20
328.114970696746
 30
0.0
 10
141.6348687371977
 20
328.3694356527311
 30
0.0
 10
141.6342507920531
 20
328.3706973040629
 30
0.0
  0
LINE
  5
1A4
330
1F
100
AcDbEntity
  8
0
  6
Continuous
 62
     7
370
    15
100
AcDbLine
 10
140.950425329
 20
329.5543561423
 30
0.0
 11
140.950425329
 21
335.4620109046
 31
0.0
  0
LINE
  5
1A5
330
1F
100
AcDbEntity
  8
0
  6
Continuous
 62
     7
370
    15
100
AcDbLine
 10
-134.6495609858
 20
329.625971123
 30
0.0
 11
-134.6495609858
 21
328.5788665259
 31
0.0
  0
SPLINE
  5
1A6
330
1F
100
AcDbEntity
  8
0
  6
Continuous
 62
     7
370
    15
100
AcDbSpline
210
0.0
220
0.0
230
1.0
 70
     8
 71
     3
 72
    12
 73
     8
 74
     0
 42
0.00000001
 43
0.00000001
 12
1.0
 22
0.0
 32
0.0
 13
1.0
 23
0.0
 33
0.0
 40
0.0
 40
0.0
 40
0.0
 40
0.0
 40
0.257167317368707
 40
0.441750973304161
 40
0.6263153983068691
 40
0.8131631759375665
 40
1.0
 40
1.0
 40
1.0
 40
1.0
 10
-111.9038622953626
 20
328.578866525941
 30
0.0
 10
-111.5989898769775
 20
328.666780502853
 30
0.0
 10
-111.0752931299211
 20
328.8177953567827
 30
0.0
 10
-110.5151314727948
 20
329.0354315639325
 30
0.0
 10
-110.1391612386956
 20
329.230247586409
 30
0.0
 10
-109.896399396813
 20
329.4273268464605
 30
0.0
 10
-109.8651916361327
 20
329.5597576581275
 30
0.0
 10
-109.8495882131788
 20
329.6259711230326
 30
0.0
  0
LINE
  5
1A7
330
1F
100
AcDbEntity
  8
0
  6
Continuous
 62
     7
370
    15
100
AcDbLine
 10
-134.6495609858
 20
328.5788665259
 30
0.0
 11
-111.9038622954
 21
328.5788665259
 31
0.0
  0
LINE
  5
1A8
330
1F
100
AcDbEntity
  8
0
  6
Continuous
 62
     7
370
    15
100
AcDbLine
 10
-134.6495609858
 20
330.6730757201
 30
0.0
 11
-134.6495609858
 21
329.625971123
 31
0.0
  0
LINE
  5
1A9
330
1F
100
AcDbEntity
  8
0
  6
Continuous
 62
     7
370
    15
100
AcDbLine
 10
318.0504280947
 20
367.4471149886
 30
0.0
 11
318.0504280947
 21
367.5543437446
 31
0.0
  0
LINE
  5
1AA
330
1F
100
AcDbEntity
  8
0
  6
Continuous
 62
     7
370
    15
100
AcDbLine
 10
318.0504280947
 20
337.5543425525
 30
0.0
 11
318.0504280947
 21
367.4471149886
 31
0.0
  0
LINE
  5
1AB
330
1F
100
AcDbEntity
  8
0
  6
Continuous
 62
     7
370
    15
100
AcDbLine
 10
-286.9495611765
 20
367.4471149886
 30
0.0
 11
-286.9495611765
 21
367.5543437446
 31
0.0
  0
LINE
  5
1AC
330
1F
100
AcDbEntity
  8
0
  6
Continuous
 62
     7
370
    15
100
AcDbLine
 10
-286.9495611765
 20
337.5543425525
 30
0.0
 11
-286.9495611765
 21
367.4471149886
 31
0.0
  0
LINE
  5
1AD
330
1F
100
AcDbEntity
  8
0
  6
Continuous
 62
     7
370
    15
100
AcDbLine
 10
140.950425329
 20
374.4286368335
 30
0.0
 11
140.950425329
 21
375.554359957
 31
0.0
  0
LINE
  5
1AE
330
1F
100
AcDbEntity
  8
0
  6
Continuous
 62
     7
370
    15
100
AcDbLine
 10
-109.8495882132
 20
329.625971123
 30
0.0
 11
-109.8495882132
 21
329.5543561423
 31
0.0
  0
LINE
  5
1AF
330
1F
100
AcDbEntity
  8
0
  6
Continuous
 62
     7
370
    15
100
AcDbLine
 10
166.5504265449
 20
929.553068682
 30
0.0
 11
166.5504265449
 21
931.3627551044
 31
0.0
  0
LINE
  5
1B0
330
1F
100
AcDbEntity
  8
0
  6
Continuous
 62
     7
370
    15
100
AcDbLine
 10
318.0504280947
 20
890.2618954623
 30
0.0
 11
318.0504280947
 21
918.3627585614
 31
0.0
  0
LINE
  5
1B1
330
1F
100
AcDbEntity
  8
0
  6
Continuous
 62
     7
370
    15
100
AcDbLine
 10
318.0504280947
 20
888.3627573693
 30
0.0
 11
318.0504280947
 21
890.2618954623
 31
0.0
  0
LINE
  5
1B2
330
1F
100
AcDbEntity
  8
0
  6
Continuous
 62
     7
370
    15
100
AcDbLine
 10
-286.9495611765
 20
890.2618954623
 30
0.0
 11
-286.9495611765
 21
918.3627585614
 31
0.0
  0
LINE
  5
1B3
330
1F
100
AcDbEntity
  8
0
  6
Continuous
 62
     7
370
    15
100
AcDbLine
 10
-286.9495611765
 20
888.3627573693
 30
0.0
 11
-286.9495611765
 21
890.2618954623
 31
0.0
  0
LINE
  5
1B4
330
1F
100
AcDbEntity
  8
0
  6
Continuous
 62
     7
370
    15
100
AcDbLine
 10
318.0504280947
 20
528.9054880584
 30
0.0
 11
318.0504280947
 21
541.0061399186
 31
0.0
  0
LINE
  5
1B5
330
1F
100
AcDbEntity
  8
0
  6
Continuous
 62
     7
370
    15
100
AcDbLine
 10
318.0504280947
 20
511.0061387265
 30
0.0
 11
318.0504280947
 21
528.9054880584
 31
0.0
  0
LINE
  5
1B6
330
1F
100
AcDbEntity
  8
0
  6
Continuous
 62
     7
370
    15
100
AcDbLine
 10
-286.9495611765
 20
528.9054880584
 30
0.0
 11
-286.9495611765
 21
541.0061399186
 31
0.0
  0
LINE
  5
1B7
330
1F
100
AcDbEntity
  8
0
  6
Continuous
 62
     7
370
    15
100
AcDbLine
 10
-286.9495611765
 20
511.0061387265
 30
0.0
 11
-286.9495611765
 21
528.9054880584
 31
0.0
  0
LINE
  5
1B8
330
1F
100
AcDbEntity
  8
0
  6
Continuous
 62
     8
370
     0
100
AcDbLine
 10
32.2994131468
 20
948.1301675284
 30
0.0
 11
32.2994131468
 21
637.7118560219
 31
0.0
  0
LINE
  5
1B9
330
1F
100
AcDbEntity
  8
0
  6
Continuous
 62
     8
370
     0
100
AcDbLine
 10
32.2994131468
 20
607.7118585551
 30
0.0
 11
32.2994131468
 21
367.2500918353
 31
0.0
  0
LINE
  5
1BA
330
1F
100
AcDbEntity
  8
0
  6
Continuous
 62
     8
370
     0
100
AcDbLine
 10
32.2994131468
 20
984.5530460322
 30
0.0
 11
32.2994131468
 21
978.1301687205
 31
0.0
  0
LINE
  5
1BB
330
1F
100
AcDbEntity
  8
0
  6
Continuous
 62
     8
370
     0
100
AcDbLine
 10
29.3108362577
 20
981.814510628
 30
0.0
 11
29.3108362577
 21
978.1301687205
 31
0.0
  0
LINE
  5
1BC
330
1F
100
AcDbEntity
  8
0
  6
Continuous
 62
     8
370
     0
100
AcDbLine
 10
29.3108362577
 20
948.1301675284
 30
0.0
 11
29.3108362577
 21
637.7118560219
 31
0.0
  0
LINE
  5
1BD
330
1F
100
AcDbEntity
  8
0
  6
Continuous
 62
     8
370
     0
100
AcDbLine
 10
29.3108362577
 20
607.7118585551
 30
0.0
 11
29.3108362577
 21
367.5543437446
 31
0.0
  0
LINE
  5
1BE
330
1F
100
AcDbEntity
  8
0
  6
Continuous
 62
     8
370
     0
100
AcDbLine
 10
27.8885651253
 20
385.0892851794
 30
0.0
 11
27.8885651253
 21
381.548232838
 31
0.0
  0
LINE
  5
1BF
330
1F
100
AcDbEntity
  8
0
  6
Continuous
 62
     8
370
     0
100
AcDbLine
 10
27.8885651253
 20
492.9808298791
 30
0.0
 11
27.8885651253
 21
396.8761036838
 31
0.0
  0
LINE
  5
1C0
330
1F
100
AcDbEntity
  8
0
  6
Continuous
 62
     8
370
     0
100
AcDbLine
 10
27.8885651253
 20
667.5530564705
 30
0.0
 11
27.8885651253
 21
637.7118560219
 31
0.0
  0
LINE
  5
1C1
330
1F
100
AcDbEntity
  8
0
  6
Continuous
 62
     8
370
     0
100
AcDbLine
 10
27.8885651253
 20
607.7118585551
 30
0.0
 11
27.8885651253
 21
504.9808392966
 31
0.0
  0
LINE
  5
1C2
330
1F
100
AcDbEntity
  8
0
  6
Continuous
 62
     8
370
     0
100
AcDbLine
 10
27.8885651253
 20
842.1252737487
 30
0.0
 11
27.8885651253
 21
679.5530565748
 31
0.0
  0
LINE
  5
1C3
330
1F
100
AcDbEntity
  8
0
  6
Continuous
 62
     8
370
     0
100
AcDbLine
 10
27.8885651253
 20
948.1301675284
 30
0.0
 11
27.8885651253
 21
854.1252831662
 31
0.0
  0
LINE
  5
1C4
330
1F
100
AcDbEntity
  8
0
  6
Continuous
 62
     8
370
     0
100
AcDbLine
 10
23.169263067
 20
948.1301675284
 30
0.0
 11
23.169263067
 21
854.1252831662
 31
0.0
  0
LINE
  5
1C5
330
1F
100
AcDbEntity
  8
0
  6
Continuous
 62
     8
370
     0
100
AcDbLine
 10
23.169263067
 20
842.1252737487
 30
0.0
 11
23.169263067
 21
679.5530565748
 31
0.0
  0
LINE
  5
1C6
330
1F
100
AcDbEntity
  8
0
  6
Continuous
 62
     8
370
     0
100
AcDbLine
 10
23.169263067
 20
667.5530564705
 30
0.0
 11
23.169263067
 21
637.7118560219
 31
0.0
  0
LINE
  5
1C7
330
1F
100
AcDbEntity
  8
0
  6
Continuous
 62
     8
370
     0
100
AcDbLine
 10
23.169263067
 20
607.7118585551
 30
0.0
 11
23.169263067
 21
504.9808392966
 31
0.0
  0
LINE
  5
1C8
330
1F
100
AcDbEntity
  8
0
  6
Continuous
 62
     8
370
     0
100
AcDbLine
 10
23.169263067
 20
492.9808298791
 30
0.0
 11
23.169263067
 21
397.0892796958
 31
0.0
  0
LINE
  5
1C9
330
1F
100
AcDbEntity
  8
0
  6
Continuous
 62
     8
370
     0
100
AcDbLine
 10
-2.0804118492
 20
948.1301675284
 30
0.0
 11
-2.0804118492
 21
854.1252831662
 31
0.0
  0
LINE
  5
1CA
330
1F
100
AcDbEntity
  8
0
  6
Continuous
 62
     8
370
     0
100
AcDbLine
 10
-2.0804118492
 20
842.1252737487
 30
0.0
 11
-2.0804118492
 21
679.5530565748
 31
0.0
  0
LINE
  5
1CB
330
1F
100
AcDbEntity
  8
0
  6
Continuous
 62
     8
370
     0
100
AcDbLine
 10
-2.0804118492
 20
667.5530564705
 30
0.0
 11
-2.0804118492
 21
637.7118560219
 31
0.0
  0
LINE
  5
1CC
330
1F
100
AcDbEntity
  8
0
  6
Continuous
 62
     8
370
     0
100
AcDbLine
 10
-2.0804118492
 20
607.7118585551
 30
0.0
 11
-2.0804118492
 21
504.9808392966
 31
0.0
  0
LINE
  5
1CD
330
1F
100
AcDbEntity
  8
0
  6
Continuous
 62
     8
370
     0
100
AcDbLine
 10
-2.0804118492
 20
492.9808298791
 30
0.0
 11
-2.0804118492
 21
397.0892796958
 31
0.0
  0
LINE
  5
1CE
330
1F
100
AcDbEntity
  8
FORMAT
  6
CENTERX2
370
     0
100
AcDbLine
 10
-299.0744959083
 20
673.5530565227
 30
0.0
 11
329.8070172626
 21
673.5530565227
 31
0.0
  0
CIRCLE
  5
1CF
330
1F
100
AcDbEntity
  8
0
  6
Continuous
 62
     7
370
    15
100
AcDbCircle
 10
601.9165931572
 20
903.3627604083
 30
0.0
 40
14.99999999999991
  0
CIRCLE
  5
1D0
330
1F
100
AcDbEntity
  8
0
  6
Continuous
 62
     7
370
    15
100
AcDbCircle
 10
979.2732094582
 20
963.1301768839
 30
0.0
 40
14.99999999999985
  0
CIRCLE
  5
1D1
330
1F
100
AcDbEntity
  8
0
  6
Continuous
 62
     7
370
    15
100
AcDbCircle
 10
542.1491766816
 20
526.0061441073
 30
0.0
 40
15.00000000000006
  0
CIRCLE
  5
1D2
330
1F
100
AcDbEntity
  8
0
  6
Continuous
 62
     7
370
    15
100
AcDbCircle
 10
1152.7250077363
 20
622.7118553846
 30
0.0
 40
15.00000000000012
  0
CIRCLE
  5
1D3
330
1F
100
AcDbEntity
  8
0
  6
Continuous
 62
     7
370
    15
100
AcDbCircle
 10
882.5674981809
 20
352.5543458292
 30
0.0
 40
14.99999999999999
  0
CIRCLE
  5
1D4
330
1F
100
AcDbEntity
  8
0
  6
Continuous
 62
     7
370
    15
100
AcDbCircle
 10
882.5674981809
 20
994.5517672161
 30
0.0
 40
16.99999999999998
  0
CIRCLE
  5
1D5
330
1F
100
AcDbEntity
  8
0
  6
Continuous
 62
     7
370
    15
100
AcDbCircle
 10
684.1793846275
 20
963.1301768839
 30
0.0
 40
17.00000000000016
  0
CIRCLE
  5
1D6
330
1F
100
AcDbEntity
  8
0
  6
Continuous
 62
     7
370
    15
100
AcDbCircle
 10
510.7275863494
 20
724.3942576607
 30
0.0
 40
17.00000000000007
  0
CIRCLE
  5
1D7
330
1F
100
AcDbEntity
  8
0
  6
Continuous
 62
     7
370
    15
100
AcDbCircle
 10
542.1491766816
 20
821.099968938
 30
0.0
 40
17.00000000000009
  0
CIRCLE
  5
1D8
330
1F
100
AcDbEntity
  8
0
  6
Continuous
 62
     7
370
    15
100
AcDbCircle
 10
780.8850959048
 20
994.5517672161
 30
0.0
 40
17.00000000000002
  0
CIRCLE
  5
1D9
330
1F
100
AcDbEntity
  8
0
  6
Continuous
 62
     7
370
    15
100
AcDbCircle
 10
1061.5360009285
 20
903.3627604083
 30
0.0
 40
17.00000000000012
  0
CIRCLE
  5
1DA
330
1F
100
AcDbEntity
  8
0
  6
Continuous
 62
     7
370
    15
100
AcDbCircle
 10
831.7262970429
 20
673.5530565227
 30
0.0
 40
250.0000000000001
  0
CIRCLE
  5
1DB
330
1F
100
AcDbEntity
  8
0
  6
Continuous
 62
     7
370
    15
100
AcDbCircle
 10
510.7275863494
 20
622.7118553846
 30
0.0
 40
17.00000000000012
  0
CIRCLE
  5
1DC
330
1F
100
AcDbEntity
  8
0
  6
Continuous
 62
     7
370
    15
100
AcDbCircle
 10
601.9165931572
 20
443.743352637
 30
0.0
 40
17.00000000000012
  0
CIRCLE
  5
1DD
330
1F
100
AcDbEntity
  8
0
  6
Continuous
 62
     7
370
    15
100
AcDbCircle
 10
1121.3034174041
 20
526.0061441073
 30
0.0
 40
17.00000000000016
  0
CIRCLE
  5
1DE
330
1F
100
AcDbEntity
  8
0
  6
Continuous
 62
     7
370
    15
100
AcDbCircle
 10
1152.7250077363
 20
724.3942576607
 30
0.0
 40
16.99999999999991
  0
CIRCLE
  5
1DF
330
1F
100
AcDbEntity
  8
0
  6
Continuous
 62
     7
370
    15
100
AcDbCircle
 10
1121.3034174041
 20
821.099968938
 30
0.0
 40
16.99999999999987
  0
CIRCLE
  5
1E0
330
1F
100
AcDbEntity
  8
0
  6
Continuous
 62
     7
370
    15
100
AcDbCircle
 10
684.1793846275
 20
383.9759361614
 30
0.0
 40
17.00000000000002
  0
CIRCLE
  5
1E1
330
1F
100
AcDbEntity
  8
0
  6
Continuous
 62
     7
370
    15
100
AcDbCircle
 10
780.8850959048
 20
352.5543458292
 30
0.0
 40
17.00000000000012
  0
CIRCLE
  5
1E2
330
1F
100
AcDbEntity
  8
0
  6
Continuous
 62
     7
370
    15
100
AcDbCircle
 10
979.2732094582
 20
383.9759361614
 30
0.0
 40
16.99999999999991
  0
CIRCLE
  5
1E3
330
1F
100
AcDbEntity
  8
0
  6
Continuous
 62
     7
370
    15
100
AcDbCircle
 10
1061.5360009285
 20
443.743352637
 30
0.0
 40
17.00000000000012
  0
CIRCLE
  5
1E4
330
1F
100
AcDbEntity
  8
0
  6
Continuous
 62
     7
370
    15
100
AcDbCircle
 10
831.7262970429
 20
673.5530565227
 30
0.0
 40
357.5000000000001
  0
ARC
  5
1E5
330
1F
100
AcDbEntity
  8
0
  6
Continuous
 62
     7
370
    15
100
AcDbCircle
 10
831.7262970429
 20
673.5530565227
 30
0.0
 40
310.9999999999999
100
AcDbArc
 50
43.2619635388
 51
46.7380364612
  0
ARC
  5
1E6
330
1F
100
AcDbEntity
  8
0
  6
Continuous
 62
     7
370
    15
100
AcDbCircle
 10
831.7262970429
 20
673.5530565227
 30
0.0
 40
311.0
100
AcDbArc
 50
25.2619635388
 51
28.7380364612
  0
ARC
  5
1E7
330
1F
100
AcDbEntity
  8
0
  6
Continuous
 62
     7
370
    15
100
AcDbCircle
 10
831.7262970429
 20
673.5530565227
 30
0.0
 40
310.9999999999999
100
AcDbArc
 50
7.2619635388
 51
10.7380364612
  0
ARC
  5
1E8
330
1F
100
AcDbEntity
  8
0
  6
Continuous
 62
     7
370
    15
100
AcDbCircle
 10
831.7262970429
 20
673.5530565227
 30
0.0
 40
311.0000000000001
100
AcDbArc
 50
331.2619635388
 51
334.7380364612
  0
ARC
  5
1E9
330
1F
100
AcDbEntity
  8
0
  6
Continuous
 62
     7
370
    15
100
AcDbCircle
 10
831.7262970429
 20
673.5530565227
 30
0.0
 40
311.0000000000001
100
AcDbArc
 50
313.2619635388
 51
316.7380364612
  0
ARC
  5
1EA
330
1F
100
AcDbEntity
  8
0
  6
Continuous
 62
     7
370
    15
100
AcDbCircle
 10
831.7262970429
 20
673.5530565227
 30
0.0
 40
311.0
100
AcDbArc
 50
295.2619635388
 51
298.7380364612
  0
ARC
  5
1EB
330
1F
100
AcDbEntity
  8
0
  6
Continuous
 62
     7
370
    15
100
AcDbCircle
 10
831.7262970429
 20
673.5530565227
 30
0.0
 40
311.0000000000001
100
AcDbArc
 50
259.2619635388
 51
262.7380364612
  0
ARC
  5
1EC
330
1F
100
AcDbEntity
  8
0
  6
Continuous
 62
     7
370
    15
100
AcDbCircle
 10
831.7262970429
 20
673.5530565227
 30
0.0
 40
311.0000000000001
100
AcDbArc
 50
241.2619635388
 51
244.7380364612
  0
ARC
  5
1ED
330
1F
100
AcDbEntity
  8
0
  6
Continuous
 62
     7
370
    15
100
AcDbCircle
 10
831.7262970429
 20
673.5530565227
 30
0.0
 40
311.0
100
AcDbArc
 50
223.2619635388
 51
226.7380364612
  0
ARC
  5
1EE
330
1F
100
AcDbEntity
  8
0
  6
Continuous
 62
     7
370
    15
100
AcDbCircle
 10
831.7262970429
 20
673.5530565227
 30
0.0
 40
311.0000000000001
100
AcDbArc
 50
187.2619635388
 51
190.7380364612
  0
ARC
  5
1EF
330
1F
100
AcDbEntity
  8
0
  6
Continuous
 62
     7
370
    15
100
AcDbCircle
 10
831.7262970429
 20
673.5530565227
 30
0.0
 40
311.0000000000001
100
AcDbArc
 50
169.2619635388
 51
172.7380364612
  0
ARC
  5
1F0
330
1F
100
AcDbEntity
  8
0
  6
Continuous
 62
     7
370
    15
100
AcDbCircle
 10
831.7262970429
 20
673.5530565227
 30
0.0
 40
311.0000000000001
100
AcDbArc
 50
151.2619635388
 51
154.7380364612
  0
ARC
  5
1F1
330
1F
100
AcDbEntity
  8
0
  6
Continuous
 62
     7
370
    15
100
AcDbCircle
 10
831.7262970429
 20
673.5530565227
 30
0.0
 40
311.0000000000001
100
AcDbArc
 50
115.2619635388
 51
118.7380364612
  0
ARC
  5
1F2
330
1F
100
AcDbEntity
  8
0
  6
Continuous
 62
     7
370
    15
100
AcDbCircle
 10
831.7262970429
 20
673.5530565227
 30
0.0
 40
311.0000000000001
100
AcDbArc
 50
97.2619635388
 51
100.7380364612
  0
ARC
  5
1F3
330
1F
100
AcDbEntity
  8
0
  6
Continuous
 62
     7
370
    15
100
AcDbCircle
 10
831.7262970429
 20
673.5530565227
 30
0.0
 40
310.9999999999999
100
AcDbArc
 50
79.2619635388
 51
82.7380364612
  0
LINE
  5
1F4
330
1F
100
AcDbEntity
  8
0
  6
Continuous
 62
     8
370
     0
100
AcDbLine
 10
527.7259491901
 20
622.4754969323
 30
0.0
 11
526.8209420662
 21
628.1894254232
 31
0.0
  0
LINE
  5
1F5
330
1F
100
AcDbEntity
  8
0
  6
Continuous
 62
     8
370
     0
100
AcDbLine
 10
526.8209420662
 20
718.9166876221
 30
0.0
 11
527.7259491901
 21
724.630616113
 31
0.0
  0
LINE
  5
1F6
330
1F
100
AcDbEntity
  8
0
  6
Continuous
 62
     8
370
     0
100
AcDbLine
 10
555.7622157555
 20
810.9173695291
 30
0.0
 11
558.3886050205
 21
816.0719792092
 31
0.0
  0
LINE
  5
1F7
330
1F
100
AcDbEntity
  8
0
  6
Continuous
 62
     8
370
     0
100
AcDbLine
 10
689.2073743563
 20
946.890748545
 30
0.0
 11
694.3619840365
 21
949.51713781
 31
0.0
  0
LINE
  5
1F8
330
1F
100
AcDbEntity
  8
0
  6
Continuous
 62
     8
370
     0
100
AcDbLine
 10
780.6487374525
 20
977.5534043754
 30
0.0
 11
786.3626659434
 21
978.4584114993
 31
0.0
  0
LINE
  5
1F9
330
1F
100
AcDbEntity
  8
0
  6
Continuous
 62
     8
370
     0
100
AcDbLine
 10
877.0899281423
 20
978.4584114993
 30
0.0
 11
882.8038566332
 21
977.5534043754
 31
0.0
  0
LINE
  5
1FA
330
1F
100
AcDbEntity
  8
0
  6
Continuous
 62
     8
370
     0
100
AcDbLine
 10
1047.6451211195
 20
893.5625920737
 30
0.0
 11
1051.7358325939
 21
889.4718805993
 31
0.0
  0
LINE
  5
1FB
330
1F
100
AcDbEntity
  8
0
  6
Continuous
 62
     8
370
     0
100
AcDbLine
 10
1105.0639890652
 20
816.0719792092
 30
0.0
 11
1107.6903783302
 21
810.9173695291
 31
0.0
  0
LINE
  5
1FC
330
1F
100
AcDbEntity
  8
0
  6
Continuous
 62
     8
370
     0
100
AcDbLine
 10
1135.7266448956
 20
724.630616113
 30
0.0
 11
1136.6316520195
 21
718.9166876221
 31
0.0
  0
LINE
  5
1FD
330
1F
100
AcDbEntity
  8
0
  6
Continuous
 62
     8
370
     0
100
AcDbLine
 10
1107.6903783302
 20
536.1887435163
 30
0.0
 11
1105.0639890652
 21
531.0341338361
 31
0.0
  0
LINE
  5
1FE
330
1F
100
AcDbEntity
  8
0
  6
Continuous
 62
     8
370
     0
100
AcDbLine
 10
1051.7358325939
 20
457.634232446
 30
0.0
 11
1047.6451211195
 21
453.5435209716
 31
0.0
  0
LINE
  5
1FF
330
1F
100
AcDbEntity
  8
0
  6
Continuous
 62
     8
370
     0
100
AcDbLine
 10
974.2452197294
 20
400.2153645003
 30
0.0
 11
969.0906100493
 21
397.5889752353
 31
0.0
  0
LINE
  5
200
330
1F
100
AcDbEntity
  8
0
  6
Continuous
 62
     8
370
     0
100
AcDbLine
 10
786.3626659434
 20
368.647701546
 30
0.0
 11
780.6487374525
 21
369.55270867
 31
0.0
  0
LINE
  5
201
330
1F
100
AcDbEntity
  8
0
  6
Continuous
 62
     8
370
     0
100
AcDbLine
 10
694.3619840365
 20
397.5889752353
 30
0.0
 11
689.2073743563
 21
400.2153645003
 31
0.0
  0
LINE
  5
202
330
1F
100
AcDbEntity
  8
0
  6
Continuous
 62
     8
370
     0
100
AcDbLine
 10
615.8074729662
 20
453.5435209716
 30
0.0
 11
611.7167614918
 21
457.634232446
 31
0.0
  0
INSERT
  5
29A
330
1F
100
AcDbEntity
  8
FORMAT
100
AcDbBlockReference
  2
SW_CENTERMARKSYMBOL_0
 10
780.8850959048
 20
994.5517672161
 30
0.0
  0
LINE
  5
29B
330
1F
100
AcDbEntity
  8
0
  6
Continuous
 62
     7
370
    15
100
AcDbLine
 10
195.5504257105
 20
180.5414542182
 30
0.0
 11
170.5504253379
 21
180.5414542182
 31
0.0
  0
LINE
  5
29C
330
1F
100
AcDbEntity
  8
0
  6
Continuous
 62
     7
370
    15
100
AcDbLine
 10
170.5504253379
 20
-534.4585195558
 30
0.0
 11
195.5504257105
 21
-534.4585195558
 31
0.0
  0
LINE
  5
29D
330
1F
100
AcDbEntity
  8
0
  6
Continuous
 62
     7
370
    15
100
AcDbLine
 10
-139.4495826342
 20
180.5414542182
 30
0.0
 11
-164.4495885946
 21
180.5414542182
 31
0.0
  0
LINE
  5
29E
330
1F
100
AcDbEntity
  8
0
  6
Continuous
 62
     7
370
    15
100
AcDbLine
 10
-164.4495885946
 20
-534.4585195558
 30
0.0
 11
-139.4495826342
 21
-534.4585195558
 31
0.0
  0
LINE
  5
29F
330
1F
100
AcDbEntity
  8
0
  6
Continuous
 62
     7
370
    15
100
AcDbLine
 10
166.5504265449
 20
-352.5054470079
 30
0.0
 11
170.5504253379
 21
-352.5054470079
 31
0.0
  0
LINE
  5
2A0
330
1F
100
AcDbEntity
  8
0
  6
Continuous
 62
     7
370
    15
100
AcDbLine
 10
170.5504253379
 20
-296.5054452793
 30
0.0
 11
166.5504265449
 21
-296.5054452793
 31
0.0
  0
LINE
  5
2A1
330
1F
100
AcDbEntity
  8
0
  6
Continuous
 62
     7
370
    15
100
AcDbLine
 10
-139.4495826342
 20
-352.5054470079
 30
0.0
 11
-135.449574528
 21
-352.5054470079
 31
0.0
  0
LINE
  5
2A2
330
1F
100
AcDbEntity
  8
0
  6
Continuous
 62
     7
370
    15
100
AcDbLine
 10
-135.449574528
 20
-296.5054452793
 30
0.0
 11
-139.4495826342
 21
-296.5054452793
 31
0.0
  0
LINE
  5
2A3
330
1F
100
AcDbEntity
  8
0
  6
Continuous
 62
     7
370
    15
100
AcDbLine
 10
165.7504260413
 20
-347.5054517762
 30
0.0
 11
166.5504265449
 21
-347.5054517762
 31
0.0
  0
LINE
  5
2A4
330
1F
100
AcDbEntity
  8
0
  6
Continuous
 62
     7
370
    15
100
AcDbLine
 10
166.5504265449
 20
-301.5054479615
 30
0.0
 11
165.7504260413
 21
-301.5054479615
 31
0.0
  0
LINE
  5
2A5
330
1F
100
AcDbEntity
  8
0
  6
Continuous
 62
     7
370
    15
100
AcDbLine
 10
-134.6495609858
 20
-301.5054479615
 30
0.0
 11
-135.449574528
 21
-301.5054479615
 31
0.0
  0
LINE
  5
2A6
330
1F
100
AcDbEntity
  8
0
  6
Continuous
 62
     7
370
    15
100
AcDbLine
 10
-135.449574528
 20
-347.5054517762
 30
0.0
 11
-134.6495609858
 21
-347.5054517762
 31
0.0
  0
ARC
  5
2A7
330
1F
100
AcDbEntity
  8
0
  6
Continuous
 62
     7
370
    15
100
AcDbCircle
 10
32.2994192325
 20
131.0414673312
 30
0.0
 40
3.000000000000057
100
AcDbArc
 50
90.0
 51
175.0
  0
ARC
  5
2A8
330
1F
100
AcDbEntity
  8
0
  6
Continuous
 62
     7
370
    15
100
AcDbCircle
 10
32.2994192325
 20
-484.9585326688
 30
0.0
 40
3.000000000000057
100
AcDbArc
 50
185.0
 51
270.0
  0
LINE
  5
2A9
330
1F
100
AcDbEntity
  8
0
  6
Continuous
 62
     7
370
    15
100
AcDbLine
 10
29.3108362577
 20
131.3029214366
 30
0.0
 11
28.8494516037
 21
126.0292216761
 31
0.0
  0
LINE
  5
2AA
330
1F
100
AcDbEntity
  8
0
  6
Continuous
 62
     7
370
    15
100
AcDbLine
 10
28.8494516037
 20
-479.9462870137
 30
0.0
 11
29.3108362577
 21
-485.2199867742
 31
0.0
  0
LINE
  5
2AB
330
1F
100
AcDbEntity
  8
0
  6
Continuous
 62
     7
370
    15
100
AcDbLine
 10
-164.4495885946
 20
-309.5054492728
 30
0.0
 11
-286.9495611765
 21
-309.5054492728
 31
0.0
  0
LINE
  5
2AC
330
1F
100
AcDbEntity
  8
0
  6
Continuous
 62
     7
370
    15
100
AcDbLine
 10
-286.9495611765
 20
-339.5054504649
 30
0.0
 11
-164.4495885946
 21
-339.5054504649
 31
0.0
  0
LINE
  5
2AD
330
1F
100
AcDbEntity
  8
0
  6
Continuous
 62
     7
370
    15
100
AcDbLine
 10
140.950425329
 20
-309.5054492728
 30
0.0
 11
-109.8495882132
 21
-309.5054492728
 31
0.0
  0
LINE
  5
2AE
330
1F
100
AcDbEntity
  8
0
  6
Continuous
 62
     7
370
    15
100
AcDbLine
 10
-109.8495882132
 20
-339.5054504649
 30
0.0
 11
140.950425329
 21
-339.5054504649
 31
0.0
  0
LINE
  5
2AF
330
1F
100
AcDbEntity
  8
0
  6
Continuous
 62
     7
370
    15
100
AcDbLine
 10
318.0504280947
 20
-309.5054492728
 30
0.0
 11
195.5504257105
 21
-309.5054492728
 31
0.0
  0
LINE
  5
2B0
330
1F
100
AcDbEntity
  8
0
  6
Continuous
 62
     7
370
    15
100
AcDbLine
 10
195.5504257105
 20
-339.5054504649
 30
0.0
 11
318.0504280947
 21
-339.5054504649
 31
0.0
  0
LINE
  5
2B1
330
1F
100
AcDbEntity
  8
0
  6
Continuous
 62
     7
370
    15
100
AcDbLine
 10
140.950425329
 20
-347.5054517762
 30
0.0
 11
142.2098714731
 21
-349.6868625657
 31
0.0
  0
LINE
  5
2B2
330
1F
100
AcDbEntity
  8
0
  6
Continuous
 62
     7
370
    15
100
AcDbLine
 10
142.2098714731
 20
-299.3240222709
 30
0.0
 11
140.950425329
 21
-301.5054479615
 31
0.0
  0
LINE
  5
2B3
330
1F
100
AcDbEntity
  8
0
  6
Continuous
 62
     7
370
    15
100
AcDbLine
 10
35.5504292867
 20
-97.1804872529
 30
0.0
 11
38.0504269026
 21
-97.1804872529
 31
0.0
  0
LINE
  5
2B4
330
1F
100
AcDbEntity
  8
0
  6
Continuous
 62
     7
370
    15
100
AcDbLine
 10
38.0504269026
 20
-73.180483319
 30
0.0
 11
35.5504292867
 21
-73.180483319
 31
0.0
  0
LINE
  5
2B5
330
1F
100
AcDbEntity
  8
0
  6
Continuous
 62
     7
370
    15
100
AcDbLine
 10
35.5504292867
 20
-280.7365820186
 30
0.0
 11
38.0504269026
 21
-280.7365820186
 31
0.0
  0
LINE
  5
2B6
330
1F
100
AcDbEntity
  8
0
  6
Continuous
 62
     7
370
    15
100
AcDbLine
 10
38.0504269026
 20
-256.7365780847
 30
0.0
 11
35.5504292867
 21
-256.7365780847
 31
0.0
  0
LINE
  5
2B7
330
1F
100
AcDbEntity
  8
0
  6
Continuous
 62
     7
370
    15
100
AcDbLine
 10
38.6016953609
 20
-75.9756580369
 30
0.0
 11
38.0504269026
 21
-76.9304871933
 31
0.0
  0
LINE
  5
2B8
330
1F
100
AcDbEntity
  8
0
  6
Continuous
 62
     7
370
    15
100
AcDbLine
 10
38.0504269026
 20
-93.4304833786
 30
0.0
 11
38.6016953609
 21
-94.385312535
 31
0.0
  0
LINE
  5
2B9
330
1F
100
AcDbEntity
  8
0
  6
Continuous
 62
     7
370
    15
100
AcDbLine
 10
47.8976357601
 20
-94.3879574911
 30
0.0
 11
48.4504241369
 21
-93.4304833786
 31
0.0
  0
LINE
  5
2BA
330
1F
100
AcDbEntity
  8
0
  6
Continuous
 62
     7
370
    15
100
AcDbLine
 10
48.4504241369
 20
-76.9304871933
 30
0.0
 11
47.8976357601
 21
-75.9730130808
 31
0.0
  0
LINE
  5
2BB
330
1F
100
AcDbEntity
  8
0
  6
Continuous
 62
     7
370
    15
100
AcDbLine
 10
38.6032152794
 20
-259.5291078465
 30
0.0
 11
38.0504269026
 21
-260.486581959
 31
0.0
  0
LINE
  5
2BC
330
1F
100
AcDbEntity
  8
0
  6
Continuous
 62
     7
370
    15
100
AcDbLine
 10
38.0504269026
 20
-276.9865781443
 30
0.0
 11
38.6032152794
 21
-277.9440522568
 31
0.0
  0
LINE
  5
2BD
330
1F
100
AcDbEntity
  8
0
  6
Continuous
 62
     7
370
    15
100
AcDbLine
 10
47.8991556785
 20
-277.9414073007
 30
0.0
 11
48.4504241369
 21
-276.9865781443
 31
0.0
  0
LINE
  5
2BE
330
1F
100
AcDbEntity
  8
0
  6
Continuous
 62
     7
370
    15
100
AcDbLine
 10
48.4504241369
 20
-260.486581959
 30
0.0
 11
47.8991556785
 21
-259.5317528026
 31
0.0
  0
ARC
  5
2BF
330
1F
100
AcDbEntity
  8
0
  6
Continuous
 62
     7
370
    15
100
AcDbCircle
 10
22.9075885356
 20
115.4820572123
 30
0.0
 40
4.99999999999996
100
AcDbArc
 50
273.0
 51
343.5200574141
  0
ARC
  5
2C0
330
1F
100
AcDbEntity
  8
0
  6
Continuous
 62
     7
370
    15
100
AcDbCircle
 10
22.9075885356
 20
-469.3991225499
 30
0.0
 40
4.999999999999969
100
AcDbArc
 50
16.4833758697
 51
87.0
  0
LINE
  5
2C1
330
1F
100
AcDbEntity
  8
0
  6
Continuous
 62
     7
370
    15
100
AcDbLine
 10
88.5504249356
 20
-79.1804880278
 30
0.0
 11
48.4504241369
 21
-79.1804880278
 31
0.0
  0
LINE
  5
2C2
330
1F
100
AcDbEntity
  8
0
  6
Continuous
 62
     7
370
    15
100
AcDbLine
 10
48.4504241369
 20
-91.1804825442
 30
0.0
 11
88.5504249356
 21
-91.1804825442
 31
0.0
  0
LINE
  5
2C3
330
1F
100
AcDbEntity
  8
0
  6
Continuous
 62
     7
370
    15
100
AcDbLine
 10
28.4924793861
 20
-79.1804880278
 30
0.0
 11
-139.4495826342
 21
-79.1804880278
 31
0.0
  0
LINE
  5
2C4
330
1F
100
AcDbEntity
  8
0
  6
Continuous
 62
     7
370
    15
100
AcDbLine
 10
-139.4495826342
 20
-91.1804825442
 30
0.0
 11
28.1687218569
 21
-91.1804825442
 31
0.0
  0
LINE
  5
2C5
330
1F
100
AcDbEntity
  8
0
  6
Continuous
 62
     7
370
    15
100
AcDbLine
 10
28.1684089325
 20
-262.7365827934
 30
0.0
 11
-139.4495826342
 21
-262.7365827934
 31
0.0
  0
LINE
  5
2C6
330
1F
100
AcDbEntity
  8
0
  6
Continuous
 62
     7
370
    15
100
AcDbLine
 10
-139.4495826342
 20
-274.7365773098
 30
0.0
 11
28.4920472524
 21
-274.7365773098
 31
0.0
  0
LINE
  5
2C7
330
1F
100
AcDbEntity
  8
0
  6
Continuous
 62
     7
370
    15
100
AcDbLine
 10
88.5504249356
 20
-262.7365827934
 30
0.0
 11
48.4504241369
 21
-262.7365827934
 31
0.0
  0
LINE
  5
2C8
330
1F
100
AcDbEntity
  8
0
  6
Continuous
 62
     7
370
    15
100
AcDbLine
 10
48.4504241369
 20
-274.7365773098
 30
0.0
 11
88.5504249356
 21
-274.7365773098
 31
0.0
  0
LINE
  5
2C9
330
1F
100
AcDbEntity
  8
0
  6
Continuous
 62
     7
370
    15
100
AcDbLine
 10
23.169263067
 20
110.4889198764
 30
0.0
 11
-2.0804118492
 21
109.1656371577
 31
0.0
  0
LINE
  5
2CA
330
1F
100
AcDbEntity
  8
0
  6
Continuous
 62
     7
370
    15
100
AcDbLine
 10
-2.0804118492
 20
-463.0827024953
 30
0.0
 11
23.169263067
 21
-464.405985214
 31
0.0
  0
ARC
  5
2CB
330
1F
100
AcDbEntity
  8
0
  6
Continuous
 62
     7
370
    15
100
AcDbCircle
 10
-1.9495742895
 20
106.6690559144
 30
0.0
 40
2.500000000000075
100
AcDbArc
 50
93.0
 51
180.0
  0
ARC
  5
2CC
330
1F
100
AcDbEntity
  8
0
  6
Continuous
 62
     7
370
    15
100
AcDbCircle
 10
-1.9495742895
 20
-460.586121252
 30
0.0
 40
2.500000000000075
100
AcDbArc
 50
180.0
 51
267.0
  0
LINE
  5
2CD
330
1F
100
AcDbEntity
  8
0
  6
Continuous
 62
     7
370
    15
100
AcDbLine
 10
32.2994131468
 20
-487.9585221784
 30
0.0
 11
35.5504292867
 21
-487.9585221784
 31
0.0
  0
LINE
  5
2CE
330
1F
100
AcDbEntity
  8
0
  6
Continuous
 62
     7
370
    15
100
AcDbLine
 10
-4.4495772698
 20
94.0414651854
 30
0.0
 11
-139.4495826342
 21
94.0414651854
 31
0.0
  0
LINE
  5
2CF
330
1F
100
AcDbEntity
  8
0
  6
Continuous
 62
     7
370
    15
100
AcDbLine
 10
-139.4495826342
 20
-447.958530523
 30
0.0
 11
-4.4495772698
 21
-447.958530523
 31
0.0
  0
LINE
  5
2D0
330
1F
100
AcDbEntity
  8
0
  6
Continuous
 62
     7
370
    15
100
AcDbLine
 10
-139.4495826342
 20
24.8511716349
 30
0.0
 11
-135.449574528
 21
24.8511716349
 31
0.0
  0
LINE
  5
2D1
330
1F
100
AcDbEntity
  8
0
  6
Continuous
 62
     7
370
    15
100
AcDbLine
 10
-135.449574528
 20
80.8511659129
 30
0.0
 11
-139.4495826342
 21
80.8511659129
 31
0.0
  0
LINE
  5
2D2
330
1F
100
AcDbEntity
  8
0
  6
Continuous
 62
     7
370
    15
100
AcDbLine
 10
166.5504265449
 20
24.8511716349
 30
0.0
 11
170.5504253379
 21
24.8511716349
 31
0.0
  0
LINE
  5
2D3
330
1F
100
AcDbEntity
  8
0
  6
Continuous
 62
     7
370
    15
100
AcDbLine
 10
170.5504253379
 20
80.8511659129
 30
0.0
 11
166.5504265449
 21
80.8511659129
 31
0.0
  0
LINE
  5
2D4
330
1F
100
AcDbEntity
  8
0
  6
Continuous
 62
     7
370
    15
100
AcDbLine
 10
166.5504265449
 20
79.0414794905
 30
0.0
 11
35.5504292867
 21
79.0414794905
 31
0.0
  0
LINE
  5
2D5
330
1F
100
AcDbEntity
  8
0
  6
Continuous
 62
     7
370
    15
100
AcDbLine
 10
35.5504292867
 20
-432.9585448281
 30
0.0
 11
170.5504253379
 21
-432.9585448281
 31
0.0
  0
LINE
  5
2D6
330
1F
100
AcDbEntity
  8
0
  6
Continuous
 62
     7
370
    15
100
AcDbLine
 10
-134.6495609858
 20
75.8511706813
 30
0.0
 11
-135.449574528
 21
75.8511706813
 31
0.0
  0
LINE
  5
2D7
330
1F
100
AcDbEntity
  8
0
  6
Continuous
 62
     7
370
    15
100
AcDbLine
 10
-135.449574528
 20
29.8511668666
 30
0.0
 11
-134.6495609858
 21
29.8511668666
 31
0.0
  0
LINE
  5
2D8
330
1F
100
AcDbEntity
  8
0
  6
Continuous
 62
     7
370
    15
100
AcDbLine
 10
165.7504260413
 20
29.8511668666
 30
0.0
 11
166.5504265449
 21
29.8511668666
 31
0.0
  0
LINE
  5
2D9
330
1F
100
AcDbEntity
  8
0
  6
Continuous
 62
     7
370
    15
100
AcDbLine
 10
166.5504265449
 20
75.8511706813
 30
0.0
 11
165.7504260413
 21
75.8511706813
 31
0.0
  0
LINE
  5
2DA
330
1F
100
AcDbEntity
  8
0
  6
Continuous
 62
     7
370
    15
100
AcDbLine
 10
-109.8495882132
 20
75.8511706813
 30
0.0
 11
-110.0784700491
 21
76.247630976
 31
0.0
  0
LINE
  5
2DB
330
1F
100
AcDbEntity
  8
0
  6
Continuous
 62
     7
370
    15
100
AcDbLine
 10
140.950425329
 20
29.8511668666
 30
0.0
 11
141.2492159627
 21
29.3336495383
 31
0.0
  0
LINE
  5
2DC
330
1F
100
AcDbEntity
  8
0
  6
Continuous
 62
     7
370
    15
100
AcDbLine
 10
318.0504280947
 20
67.85116937
 30
0.0
 11
195.5504257105
 21
67.85116937
 31
0.0
  0
LINE
  5
2DD
330
1F
100
AcDbEntity
  8
0
  6
Continuous
 62
     7
370
    15
100
AcDbLine
 10
195.5504257105
 20
37.8511681779
 30
0.0
 11
318.0504280947
 21
37.8511681779
 31
0.0
  0
LINE
  5
2DE
330
1F
100
AcDbEntity
  8
0
  6
Continuous
 62
     7
370
    15
100
AcDbLine
 10
140.950425329
 20
67.85116937
 30
0.0
 11
-109.8495882132
 21
67.85116937
 31
0.0
  0
LINE
  5
2DF
330
1F
100
AcDbEntity
  8
0
  6
Continuous
 62
     7
370
    15
100
AcDbLine
 10
-109.8495882132
 20
37.8511681779
 30
0.0
 11
140.950425329
 21
37.8511681779
 31
0.0
  0
LINE
  5
2E0
330
1F
100
AcDbEntity
  8
0
  6
Continuous
 62
     7
370
    15
100
AcDbLine
 10
-164.4495885946
 20
67.85116937
 30
0.0
 11
-286.9495611765
 21
67.85116937
 31
0.0
  0
LINE
  5
2E1
330
1F
100
AcDbEntity
  8
0
  6
Continuous
 62
     7
370
    15
100
AcDbLine
 10
-286.9495611765
 20
37.8511681779
 30
0.0
 11
-164.4495885946
 21
37.8511681779
 31
0.0
  0
LINE
  5
2E2
330
1F
100
AcDbEntity
  8
0
  6
Continuous
 62
     7
370
    15
100
AcDbLine
 10
141.2492159627
 20
76.3686880095
 30
0.0
 11
140.950425329
 21
75.8511706813
 31
0.0
  0
LINE
  5
2E3
330
1F
100
AcDbEntity
  8
0
  6
Continuous
 62
     7
370
    15
100
AcDbLine
 10
-110.0784700491
 20
29.454721473
 30
0.0
 11
-109.8495882132
 21
29.8511668666
 31
0.0
  0
LINE
  5
2E4
330
1F
100
AcDbEntity
  8
0
  6
Continuous
 62
     7
370
    15
100
AcDbLine
 10
35.5504292867
 20
134.0414568408
 30
0.0
 11
32.2994131468
 21
134.0414568408
 31
0.0
  0
LINE
  5
2E5
330
1F
100
AcDbEntity
  8
0
  6
Continuous
 62
     7
370
    15
100
AcDbLine
 10
38.0504269026
 20
75.3195270522
 30
0.0
 11
35.5504292867
 21
75.3195270522
 31
0.0
  0
LINE
  5
2E6
330
1F
100
AcDbEntity
  8
0
  6
Continuous
 62
     7
370
    15
100
AcDbLine
 10
35.5504292867
 20
-429.2365923898
 30
0.0
 11
38.0504269026
 21
-429.2365923898
 31
0.0
  0
LINE
  5
2E7
330
1F
100
AcDbEntity
  8
0
  6
Continuous
 62
     7
370
    15
100
AcDbLine
 10
38.0504269026
 20
-405.2365735547
 30
0.0
 11
35.5504292867
 21
-405.2365735547
 31
0.0
  0
LINE
  5
2E8
330
1F
100
AcDbEntity
  8
0
  6
Continuous
 62
     7
370
    15
100
AcDbLine
 10
48.4504241369
 20
71.5695157273
 30
0.0
 11
47.5256133697
 21
73.1713458522
 31
0.0
  0
LINE
  5
2E9
330
1F
100
AcDbEntity
  8
0
  6
Continuous
 62
     7
370
    15
100
AcDbLine
 10
38.9762956522
 20
73.1731637938
 30
0.0
 11
38.0504269026
 21
71.5695157273
 31
0.0
  0
LINE
  5
2EA
330
1F
100
AcDbEntity
  8
0
  6
Continuous
 62
     7
370
    15
100
AcDbLine
 10
47.5245553873
 20
-427.0902291314
 30
0.0
 11
48.4504241369
 21
-425.4865810649
 31
0.0
  0
LINE
  5
2EB
330
1F
100
AcDbEntity
  8
0
  6
Continuous
 62
     7
370
    15
100
AcDbLine
 10
48.4504241369
 20
-408.9865848796
 30
0.0
 11
47.5245553873
 21
-407.3829219119
 31
0.0
  0
LINE
  5
2EC
330
1F
100
AcDbEntity
  8
0
  6
Continuous
 62
     7
370
    15
100
AcDbLine
 10
38.9752376697
 20
-407.3847547548
 30
0.0
 11
38.0504269026
 21
-408.9865848796
 31
0.0
  0
LINE
  5
2ED
330
1F
100
AcDbEntity
  8
0
  6
Continuous
 62
     7
370
    15
100
AcDbLine
 10
38.0504269026
 20
-425.4865810649
 30
0.0
 11
38.9752376697
 21
-427.0884111898
 31
0.0
  0
LINE
  5
2EE
330
1F
100
AcDbEntity
  8
0
  6
Continuous
 62
     7
370
    15
100
AcDbLine
 10
28.7508059166
 20
69.3195148928
 30
0.0
 11
-109.8495882132
 21
69.3195148928
 31
0.0
  0
LINE
  5
2EF
330
1F
100
AcDbEntity
  8
0
  6
Continuous
 62
     7
370
    15
100
AcDbLine
 10
88.5504249356
 20
69.3195148928
 30
0.0
 11
48.4504241369
 21
69.3195148928
 31
0.0
  0
LINE
  5
2F0
330
1F
100
AcDbEntity
  8
0
  6
Continuous
 62
     7
370
    15
100
AcDbLine
 10
27.9036301992
 20
-411.2365857141
 30
0.0
 11
-139.4495826342
 21
-411.2365857141
 31
0.0
  0
LINE
  5
2F1
330
1F
100
AcDbEntity
  8
0
  6
Continuous
 62
     7
370
    15
100
AcDbLine
 10
-139.4495826342
 20
-423.2365802304
 30
0.0
 11
28.7508059166
 21
-423.2365802304
 31
0.0
  0
LINE
  5
2F2
330
1F
100
AcDbEntity
  8
0
  6
Continuous
 62
     7
370
    15
100
AcDbLine
 10
88.5504249356
 20
-411.2365857141
 30
0.0
 11
48.4504241369
 21
-411.2365857141
 31
0.0
  0
LINE
  5
2F3
330
1F
100
AcDbEntity
  8
0
  6
Continuous
 62
     7
370
    15
100
AcDbLine
 10
48.4504241369
 20
-423.2365802304
 30
0.0
 11
88.5504249356
 21
-423.2365802304
 31
0.0
  0
LINE
  5
2F4
330
1F
100
AcDbEntity
  8
0
  6
Continuous
 62
     7
370
    15
100
AcDbLine
 10
35.5504292867
 20
108.0414637549
 30
0.0
 11
38.0504269026
 21
108.0414637549
 31
0.0
  0
LINE
  5
2F5
330
1F
100
AcDbEntity
  8
0
  6
Continuous
 62
     7
370
    15
100
AcDbLine
 10
38.0504269026
 20
132.0414527877
 30
0.0
 11
35.5504292867
 21
132.0414527877
 31
0.0
  0
LINE
  5
2F6
330
1F
100
AcDbEntity
  8
0
  6
Continuous
 62
     7
370
    15
100
AcDbLine
 10
35.5504292867
 20
-485.9585181253
 30
0.0
 11
38.0504269026
 21
-485.9585181253
 31
0.0
  0
LINE
  5
2F7
330
1F
100
AcDbEntity
  8
0
  6
Continuous
 62
     7
370
    15
100
AcDbLine
 10
38.0504269026
 20
-461.9585290925
 30
0.0
 11
35.5504292867
 21
-461.9585290925
 31
0.0
  0
LINE
  5
2F8
330
1F
100
AcDbEntity
  8
0
  6
Continuous
 62
     7
370
    15
100
AcDbLine
 10
38.4834397457
 20
129.0414616092
 30
0.0
 11
38.0504269026
 21
128.2914563639
 31
0.0
  0
LINE
  5
2F9
330
1F
100
AcDbEntity
  8
0
  6
Continuous
 62
     7
370
    15
100
AcDbLine
 10
38.0504269026
 20
111.7914601786
 30
0.0
 11
38.4834397457
 21
111.0414549334
 31
0.0
  0
LINE
  5
2FA
330
1F
100
AcDbEntity
  8
0
  6
Continuous
 62
     7
370
    15
100
AcDbLine
 10
48.0174112938
 20
111.0414549334
 30
0.0
 11
48.4504241369
 21
111.7914601786
 31
0.0
  0
LINE
  5
2FB
330
1F
100
AcDbEntity
  8
0
  6
Continuous
 62
     7
370
    15
100
AcDbLine
 10
48.4504241369
 20
128.2914563639
 30
0.0
 11
48.0174112938
 21
129.0414616092
 31
0.0
  0
LINE
  5
2FC
330
1F
100
AcDbEntity
  8
0
  6
Continuous
 62
     7
370
    15
100
AcDbLine
 10
48.0174112938
 20
-482.9585269468
 30
0.0
 11
48.4504241369
 21
-482.2085217015
 31
0.0
  0
LINE
  5
2FD
330
1F
100
AcDbEntity
  8
0
  6
Continuous
 62
     7
370
    15
100
AcDbLine
 10
48.4504241369
 20
-465.7085255162
 30
0.0
 11
48.0174112938
 21
-464.958520271
 31
0.0
  0
LINE
  5
2FE
330
1F
100
AcDbEntity
  8
0
  6
Continuous
 62
     7
370
    15
100
AcDbLine
 10
38.4834397457
 20
-464.958520271
 30
0.0
 11
38.0504269026
 21
-465.7085255162
 31
0.0
  0
LINE
  5
2FF
330
1F
100
AcDbEntity
  8
0
  6
Continuous
 62
     7
370
    15
100
AcDbLine
 10
38.0504269026
 20
-482.2085217015
 30
0.0
 11
38.4834397457
 21
-482.9585269468
 31
0.0
  0
LINE
  5
300
330
1F
100
AcDbEntity
  8
0
  6
Continuous
 62
     7
370
    15
100
AcDbLine
 10
28.8505095861
 20
126.0414704306
 30
0.0
 11
-139.4495826342
 21
126.0414704306
 31
0.0
  0
LINE
  5
301
330
1F
100
AcDbEntity
  8
0
  6
Continuous
 62
     7
370
    15
100
AcDbLine
 10
-139.4495826342
 20
114.0414759143
 30
0.0
 11
27.6955652855
 21
114.0414759143
 31
0.0
  0
LINE
  5
302
330
1F
100
AcDbEntity
  8
0
  6
Continuous
 62
     7
370
    15
100
AcDbLine
 10
88.5504249356
 20
126.0414704306
 30
0.0
 11
48.4504241369
 21
126.0414704306
 31
0.0
  0
LINE
  5
303
330
1F
100
AcDbEntity
  8
0
  6
Continuous
 62
     7
370
    15
100
AcDbLine
 10
48.4504241369
 20
114.0414759143
 30
0.0
 11
88.5504249356
 21
114.0414759143
 31
0.0
  0
LINE
  5
304
330
1F
100
AcDbEntity
  8
0
  6
Continuous
 62
     7
370
    15
100
AcDbLine
 10
27.6955652855
 20
-467.9585412519
 30
0.0
 11
-139.4495826342
 21
-467.9585412519
 31
0.0
  0
LINE
  5
305
330
1F
100
AcDbEntity
  8
0
  6
Continuous
 62
     7
370
    15
100
AcDbLine
 10
-139.4495826342
 20
-479.9585357682
 30
0.0
 11
28.8505095861
 21
-479.9585357682
 31
0.0
  0
LINE
  5
306
330
1F
100
AcDbEntity
  8
0
  6
Continuous
 62
     7
370
    15
100
AcDbLine
 10
88.5504249356
 20
-467.9585412519
 30
0.0
 11
48.4504241369
 21
-467.9585412519
 31
0.0
  0
LINE
  5
307
330
1F
100
AcDbEntity
  8
0
  6
Continuous
 62
     7
370
    15
100
AcDbLine
 10
48.4504241369
 20
-479.9585357682
 30
0.0
 11
88.5504249356
 21
-479.9585357682
 31
0.0
  0
LINE
  5
308
330
1F
100
AcDbEntity
  8
0
  6
Continuous
 62
     7
370
    15
100
AcDbLine
 10
166.5504265449
 20
-525.9572580831
 30
0.0
 11
170.5504253379
 21
-525.9572580831
 31
0.0
  0
LINE
  5
309
330
1F
100
AcDbEntity
  8
0
  6
Continuous
 62
     7
370
    15
100
AcDbLine
 10
170.5504253379
 20
-469.9572340028
 30
0.0
 11
166.5504265449
 21
-469.9572340028
 31
0.0
  0
LINE
  5
30A
330
1F
100
AcDbEntity
  8
0
  6
Continuous
 62
     7
370
    15
100
AcDbLine
 10
-139.4495826342
 20
-525.9572580831
 30
0.0
 11
-135.449574528
 21
-525.9572580831
 31
0.0
  0
LINE
  5
30B
330
1F
100
AcDbEntity
  8
0
  6
Continuous
 62
     7
370
    15
100
AcDbLine
 10
165.7504260413
 20
-520.9572330491
 30
0.0
 11
166.5504265449
 21
-520.9572330491
 31
0.0
  0
LINE
  5
30C
330
1F
100
AcDbEntity
  8
0
  6
Continuous
 62
     7
370
    15
100
AcDbLine
 10
166.5504265449
 20
-474.9572292344
 30
0.0
 11
165.7504260413
 21
-474.9572292344
 31
0.0
  0
LINE
  5
30D
330
1F
100
AcDbEntity
  8
0
  6
Continuous
 62
     7
370
    15
100
AcDbLine
 10
-135.449574528
 20
-520.9572330491
 30
0.0
 11
-134.6495609858
 21
-520.9572330491
 31
0.0
  0
LINE
  5
30E
330
1F
100
AcDbEntity
  8
0
  6
Continuous
 62
     7
370
    15
100
AcDbLine
 10
-110.2286439516
 20
-521.6138080136
 30
0.0
 11
-109.8495882132
 21
-520.9572330491
 31
0.0
  0
LINE
  5
30F
330
1F
100
AcDbEntity
  8
0
  6
Continuous
 62
     7
370
    15
100
AcDbLine
 10
318.0504280947
 20
-482.9572454469
 30
0.0
 11
195.5504257105
 21
-482.9572454469
 31
0.0
  0
LINE
  5
310
330
1F
100
AcDbEntity
  8
0
  6
Continuous
 62
     7
370
    15
100
AcDbLine
 10
195.5504257105
 20
-512.957246639
 30
0.0
 11
318.0504280947
 21
-512.957246639
 31
0.0
  0
LINE
  5
311
330
1F
100
AcDbEntity
  8
0
  6
Continuous
 62
     7
370
    15
100
AcDbLine
 10
-164.4495885946
 20
-482.9572454469
 30
0.0
 11
-286.9495611765
 21
-482.9572454469
 31
0.0
  0
LINE
  5
312
330
1F
100
AcDbEntity
  8
0
  6
Continuous
 62
     7
370
    15
100
AcDbLine
 10
-286.9495611765
 20
-512.957246639
 30
0.0
 11
-164.4495885946
 21
-512.957246639
 31
0.0
  0
LINE
  5
313
330
1F
100
AcDbEntity
  8
0
  6
Continuous
 62
     7
370
    15
100
AcDbLine
 10
29.1128743313
 20
-482.9572454469
 30
0.0
 11
-109.8495882132
 21
-482.9572454469
 31
0.0
  0
LINE
  5
314
330
1F
100
AcDbEntity
  8
0
  6
Continuous
 62
     7
370
    15
100
AcDbLine
 10
140.950425329
 20
-482.9572454469
 30
0.0
 11
48.0442631862
 21
-482.9572454469
 31
0.0
  0
LINE
  5
315
330
1F
100
AcDbEntity
  8
0
  6
Continuous
 62
     7
370
    15
100
AcDbLine
 10
38.4563643358
 20
-482.9572454469
 30
0.0
 11
38.0504269026
 21
-482.9572454469
 31
0.0
  0
LINE
  5
316
330
1F
100
AcDbEntity
  8
0
  6
Continuous
 62
     7
370
    15
100
AcDbLine
 10
-109.8495882132
 20
-512.957246639
 30
0.0
 11
140.950425329
 21
-512.957246639
 31
0.0
  0
LINE
  5
317
330
1F
100
AcDbEntity
  8
0
  6
Continuous
 62
     7
370
    15
100
AcDbLine
 10
142.207252594
 20
-472.7803483979
 30
0.0
 11
140.950425329
 21
-474.9572292344
 31
0.0
  0
LINE
  5
318
330
1F
100
AcDbEntity
  8
0
  6
Continuous
 62
     7
370
    15
100
AcDbLine
 10
140.950425329
 20
-520.9572330491
 30
0.0
 11
142.207252594
 21
-523.1341436879
 31
0.0
  0
LINE
  5
319
330
1F
100
AcDbEntity
  8
0
  6
Continuous
 62
     7
370
    15
100
AcDbLine
 10
166.5504265449
 20
84.6185966952
 30
0.0
 11
170.5504253379
 21
84.6185966952
 31
0.0
  0
LINE
  5
31A
330
1F
100
AcDbEntity
  8
0
  6
Continuous
 62
     7
370
    15
100
AcDbLine
 10
170.5504253379
 20
140.6185909732
 30
0.0
 11
166.5504265449
 21
140.6185909732
 31
0.0
  0
LINE
  5
31B
330
1F
100
AcDbEntity
  8
0
  6
Continuous
 62
     7
370
    15
100
AcDbLine
 10
-135.449574528
 20
140.6185909732
 30
0.0
 11
-139.4495826342
 21
140.6185909732
 31
0.0
  0
LINE
  5
31C
330
1F
100
AcDbEntity
  8
0
  6
Continuous
 62
     7
370
    15
100
AcDbLine
 10
-134.6495609858
 20
135.6185957415
 30
0.0
 11
-135.449574528
 21
135.6185957415
 31
0.0
  0
LINE
  5
31D
330
1F
100
AcDbEntity
  8
0
  6
Continuous
 62
     7
370
    15
100
AcDbLine
 10
165.7504260413
 20
89.6185919268
 30
0.0
 11
166.5504265449
 21
89.6185919268
 31
0.0
  0
LINE
  5
31E
330
1F
100
AcDbEntity
  8
0
  6
Continuous
 62
     7
370
    15
100
AcDbLine
 10
166.5504265449
 20
135.6185957415
 30
0.0
 11
165.7504260413
 21
135.6185957415
 31
0.0
  0
LINE
  5
31F
330
1F
100
AcDbEntity
  8
0
  6
Continuous
 62
     7
370
    15
100
AcDbLine
 10
318.0504280947
 20
127.6185795291
 30
0.0
 11
195.5504257105
 21
127.6185795291
 31
0.0
  0
LINE
  5
320
330
1F
100
AcDbEntity
  8
0
  6
Continuous
 62
     7
370
    15
100
AcDbLine
 10
195.5504257105
 20
97.618578337
 30
0.0
 11
318.0504280947
 21
97.618578337
 31
0.0
  0
LINE
  5
321
330
1F
100
AcDbEntity
  8
0
  6
Continuous
 62
     7
370
    15
100
AcDbLine
 10
140.950425329
 20
127.6185795291
 30
0.0
 11
48.4504241369
 21
127.6185795291
 31
0.0
  0
LINE
  5
322
330
1F
100
AcDbEntity
  8
0
  6
Continuous
 62
     7
370
    15
100
AcDbLine
 10
28.9884943388
 20
127.6185795291
 30
0.0
 11
-109.8495882132
 21
127.6185795291
 31
0.0
  0
LINE
  5
323
330
1F
100
AcDbEntity
  8
0
  6
Continuous
 62
     7
370
    15
100
AcDbLine
 10
-109.8495882132
 20
97.618578337
 30
0.0
 11
-4.4495772698
 21
97.618578337
 31
0.0
  0
LINE
  5
324
330
1F
100
AcDbEntity
  8
0
  6
Continuous
 62
     7
370
    15
100
AcDbLine
 10
35.5504292867
 20
97.618578337
 30
0.0
 11
140.950425329
 21
97.618578337
 31
0.0
  0
LINE
  5
325
330
1F
100
AcDbEntity
  8
0
  6
Continuous
 62
     7
370
    15
100
AcDbLine
 10
-164.4495885946
 20
127.6185795291
 30
0.0
 11
-286.9495611765
 21
127.6185795291
 31
0.0
  0
LINE
  5
326
330
1F
100
AcDbEntity
  8
0
  6
Continuous
 62
     7
370
    15
100
AcDbLine
 10
-286.9495611765
 20
97.618578337
 30
0.0
 11
-164.4495885946
 21
97.618578337
 31
0.0
  0
LINE
  5
327
330
1F
100
AcDbEntity
  8
0
  6
Continuous
 62
     7
370
    15
100
AcDbLine
 10
-109.8495882132
 20
135.6185957415
 30
0.0
 11
-110.9480720141
 21
137.5212356074
 31
0.0
  0
LINE
  5
328
330
1F
100
AcDbEntity
  8
0
  6
Continuous
 62
     7
370
    15
100
AcDbLine
 10
318.0504280947
 20
-212.7997331695
 30
0.0
 11
195.5504257105
 21
-212.7997331695
 31
0.0
  0
LINE
  5
329
330
1F
100
AcDbEntity
  8
0
  6
Continuous
 62
     7
370
    15
100
AcDbLine
 10
195.5504257105
 20
-242.7997306363
 30
0.0
 11
318.0504280947
 21
-242.7997306363
 31
0.0
  0
LINE
  5
32A
330
1F
100
AcDbEntity
  8
0
  6
Continuous
 62
     7
370
    15
100
AcDbLine
 10
-164.4495885946
 20
-212.7997331695
 30
0.0
 11
-286.9495611765
 21
-212.7997331695
 31
0.0
  0
LINE
  5
32B
330
1F
100
AcDbEntity
  8
0
  6
Continuous
 62
     7
370
    15
100
AcDbLine
 10
-286.9495611765
 20
-242.7997306363
 30
0.0
 11
-164.4495885946
 21
-242.7997306363
 31
0.0
  0
LINE
  5
32C
330
1F
100
AcDbEntity
  8
0
  6
Continuous
 62
     7
370
    15
100
AcDbLine
 10
195.5504257105
 20
-534.4585195558
 30
0.0
 11
195.5504257105
 21
180.5414542182
 31
0.0
  0
LINE
  5
32D
330
1F
100
AcDbEntity
  8
0
  6
Continuous
 62
     7
370
    15
100
AcDbLine
 10
170.5504253379
 20
-534.4585195558
 30
0.0
 11
170.5504253379
 21
180.5414542182
 31
0.0
  0
LINE
  5
32E
330
1F
100
AcDbEntity
  8
0
  6
Continuous
 62
     7
370
    15
100
AcDbLine
 10
-164.4495885946
 20
-534.4585195558
 30
0.0
 11
-164.4495885946
 21
180.5414542182
 31
0.0
  0
LINE
  5
32F
330
1F
100
AcDbEntity
  8
0
  6
Continuous
 62
     7
370
    15
100
AcDbLine
 10
-139.4495826342
 20
-534.4585195558
 30
0.0
 11
-139.4495826342
 21
180.5414542182
 31
0.0
  0
LINE
  5
330
330
1F
100
AcDbEntity
  8
0
  6
Continuous
 62
     7
370
    15
100
AcDbLine
 10
166.5504265449
 20
-352.5054470079
 30
0.0
 11
166.5504265449
 21
-296.5054452793
 31
0.0
  0
LINE
  5
331
330
1F
100
AcDbEntity
  8
0
  6
Continuous
 62
     7
370
    15
100
AcDbLine
 10
-135.449574528
 20
-352.5054470079
 30
0.0
 11
-135.449574528
 21
-296.5054452793
 31
0.0
  0
LINE
  5
332
330
1F
100
AcDbEntity
  8
0
  6
Continuous
 62
     7
370
    15
100
AcDbLine
 10
-134.6495609858
 20
-313.5228023307
 30
0.0
 11
-134.6495609858
 21
-325.1901433246
 31
0.0
  0
LINE
  5
333
330
1F
100
AcDbEntity
  8
0
  6
Continuous
 62
     7
370
    15
100
AcDbLine
 10
-134.6495609858
 20
-301.8554389851
 30
0.0
 11
-134.6495609858
 21
-313.5228023307
 31
0.0
  0
LINE
  5
334
330
1F
100
AcDbEntity
  8
0
  6
Continuous
 62
     7
370
    15
100
AcDbLine
 10
-134.6495609858
 20
-301.8554389851
 30
0.0
 11
-111.9038622954
 21
-301.8554389851
 31
0.0
  0
SPLINE
  5
335
330
1F
100
AcDbEntity
  8
0
  6
Continuous
 62
     7
370
    15
100
AcDbSpline
210
0.0
220
0.0
230
1.0
 70
     8
 71
     3
 72
    13
 73
     9
 74
     0
 42
0.00000001
 43
0.00000001
 12
1.0
 22
0.0
 32
0.0
 13
1.0
 23
0.0
 33
0.0
 40
0.0
 40
0.0
 40
0.0
 40
0.0
 40
0.070073115041029
 40
0.2236286456264077
 40
0.3772863545552377
 40
0.530867651124996
 40
0.7654111114781833
 40
1.0
 40
1.0
 40
1.0
 40
1.0
 10
-109.8495882131788
 20
-313.5228023307047
 30
0.0
 10
-109.8518367708869
 20
-313.2461345038035
 30
0.0
 10
-109.8590127315188
 20
-312.3631874365571
 30
0.0
 10
-109.9472428825694
 20
-310.8747331268832
 30
0.0
 10
-110.1527036305212
 20
-309.0637021975511
 30
0.0
 10
-110.5110937806691
 20
-306.9473226487233
 30
0.0
 10
-111.06673513395
 20
-304.5353827879356
 30
0.0
 10
-111.6248018948643
 20
-302.7488112532514
 30
0.0
 10
-111.9038622953627
 20
-301.8554389850817
 30
0.0
  0
SPLINE
  5
336
330
1F
100
AcDbEntity
  8
0
  6
Continuous
 62
     7
370
    15
100
AcDbSpline
210
0.0
220
0.0
230
1.0
 70
     8
 71
     3
 72
    13
 73
     9
 74
     0
 42
0.00000001
 43
0.00000001
 12
1.0
 22
0.0
 32
0.0
 13
1.0
 23
0.0
 33
0.0
 40
0.0
 40
0.0
 40
0.0
 40
0.0
 40
0.165113642113008
 40
0.330273989944508
 40
0.4953489133164982
 40
0.6635408821012161
 40
0.831839281283692
 40
1.0
 40
1.0
 40
1.0
 40
1.0
 10
-111.9038622953626
 20
-325.1901433245859
 30
0.0
 10
-111.7046728961019
 20
-324.562086744126
 30
0.0
 10
-111.3062377528477
 20
-323.3057959247553
 30
0.0
 10
-110.8075705970218
 20
-321.3990161751379
 30
0.0
 10
-110.3925423658804
 20
-319.464499109051
 30
0.0
 10
-110.0870372512406
 20
-317.5017693561923
 30
0.0
 10
-109.887949246145
 20
-315.5154337141955
 30
0.0
 10
-109.8623717353597
 20
-314.1868315686993
 30
0.0
 10
-109.8495882131788
 20
-313.5228023307047
 30
0.0
  0
LINE
  5
337
330
1F
100
AcDbEntity
  8
0
  6
Continuous
 62
     7
370
    15
100
AcDbLine
 10
-134.6495609858
 20
-325.1901433246
 30
0.0
 11
-111.9038622954
 21
-325.1901433246
 31
0.0
  0
LINE
  5
338
330
1F
100
AcDbEntity
  8
0
  6
Continuous
 62
     7
370
    15
100
AcDbLine
 10
-134.6495609858
 20
-336.5151450412
 30
0.0
 11
-134.6495609858
 21
-347.8401467578
 31
0.0
  0
LINE
  5
339
330
1F
100
AcDbEntity
  8
0
  6
Continuous
 62
     7
370
    15
100
AcDbLine
 10
-134.6495609858
 20
-325.1901433246
 30
0.0
 11
-134.6495609858
 21
-336.5151450412
 31
0.0
  0
SPLINE
  5
33A
330
1F
100
AcDbEntity
  8
0
  6
Continuous
 62
     7
370
    15
100
AcDbSpline
210
0.0
220
0.0
230
1.0
 70
     8
 71
     3
 72
    13
 73
     9
 74
     0
 42
0.00000001
 43
0.00000001
 12
1.0
 22
0.0
 32
0.0
 13
1.0
 23
0.0
 33
0.0
 40
0.0
 40
0.0
 40
0.0
 40
0.0
 40
0.1340635659878906
 40
0.2683980392511345
 40
0.4503869793515896
 40
0.6323947859981637
 40
0.8161883102608634
 40
1.0
 40
1.0
 40
1.0
 40
1.0
 10
-109.8495882131788
 20
-336.5151450411997
 30
0.0
 10
-109.8574997182332
 20
-336.0013047948535
 30
0.0
 10
-109.8733387154169
 20
-334.9725859659055
 30
0.0
 10
-110.0152935545127
 20
-333.2499165076137
 30
0.0
 10
-110.2790525395227
 20
-331.3524208327394
 30
0.0
 10
-110.7040757212002
 20
-329.2837108915756
 30
0.0
 10
-111.2411432593501
 20
-327.2267263729057
 30
0.0
 10
-111.6829486726476
 20
-325.8690267045949
 30
0.0
 10
-111.9038622953626
 20
-325.1901433245859
 30
0.0
  0
SPLINE
  5
33B
330
1F
100
AcDbEntity
  8
0
  6
Continuous
 62
     7
370
    15
100
AcDbSpline
210
0.0
220
0.0
230
1.0
 70
     8
 71
     3
 72
    12
 73
     8
 74
     0
 42
0.00000001
 43
0.00000001
 12
1.0
 22
0.0
 32
0.0
 13
1.0
 23
0.0
 33
0.0
 40
0.0
 40
0.0
 40
0.0
 40
0.0
 40
0.2571680039963352
 40
0.4417503640584693
 40
0.6263153058687027
 40
0.8131629464404597
 40
1.0
 40
1.0
 40
1.0
 40
1.0
 10
-111.9038622953626
 20
-347.8401467578134
 30
0.0
 10
-111.5989906954737
 20
-346.8892289438215
 30
0.0
 10
-111.0752974748974
 20
-345.255789775679
 30
0.0
 10
-110.5151283786963
 20
-342.9020568704476
 30
0.0
 10
-110.1391624080341
 20
-340.7949979096197
 30
0.0
 10
-109.8963990079971
 20
-338.6635574802241
 30
0.0
 10
-109.8651915167341
 20
-337.2312689946264
 30
0.0
 10
-109.8495882131788
 20
-336.5151450411997
 30
0.0
  0
LINE
  5
33C
330
1F
100
AcDbEntity
  8
0
  6
Continuous
 62
     7
370
    15
100
AcDbLine
 10
-134.6495609858
 20
-347.8401467578
 30
0.0
 11
-111.9038622954
 21
-347.8401467578
 31
0.0
  0
LINE
  5
33D
330
1F
100
AcDbEntity
  8
0
  6
Continuous
 62
     7
370
    15
100
AcDbLine
 10
-109.8495882132
 20
-313.5228023307
 30
0.0
 11
-109.8495882132
 21
-336.5151450412
 31
0.0
  0
LINE
  5
33E
330
1F
100
AcDbEntity
  8
0
  6
Continuous
 62
     7
370
    15
100
AcDbLine
 10
165.7504260413
 20
-322.1012965219
 30
0.0
 11
165.7504260413
 21
-308.8949785011
 31
0.0
  0
LINE
  5
33F
330
1F
100
AcDbEntity
  8
0
  6
Continuous
 62
     7
370
    15
100
AcDbLine
 10
165.7504260413
 20
-335.3075996415
 30
0.0
 11
165.7504260413
 21
-322.1012965219
 31
0.0
  0
LINE
  5
340
330
1F
100
AcDbEntity
  8
0
  6
Continuous
 62
     7
370
    15
100
AcDbLine
 10
165.7504260413
 20
-335.3075996415
 30
0.0
 11
143.0047031365
 21
-335.3075996415
 31
0.0
  0
SPLINE
  5
341
330
1F
100
AcDbEntity
  8
0
  6
Continuous
 62
     7
370
    15
100
AcDbSpline
210
0.0
220
0.0
230
1.0
 70
     8
 71
     3
 72
    14
 73
    10
 74
     0
 42
0.00000001
 43
0.00000001
 12
1.0
 22
0.0
 32
0.0
 13
1.0
 23
0.0
 33
0.0
 40
0.0
 40
0.0
 40
0.0
 40
0.0
 40
0.1249999999999971
 40
0.1249999999999971
 40
0.2499999999999943
 40
0.2499999999999943
 40
0.4999999999999947
 40
0.4999999999999947
 40
1.0
 40
1.0
 40
1.0
 40
1.0
 10
140.9504257104665
 20
-322.101290428981
 30
0.0
 10
140.9504257104664
 20
-322.6616775963594
 30
0.0
 10
140.9624740022677
 20
-323.2248683193242
 30
0.0
 10
141.0102654096544
 20
-324.3460100167687
 30
0.0
 10
141.0459570514928
 20
-324.9046376619868
 30
0.0
 10
141.1868850488304
 20
-326.5749438129058
 30
0.0
 10
141.3260529960112
 20
-327.6810325989044
 30
0.0
 10
141.8628091678812
 20
-330.9796539279665
 30
0.0
 10
142.3791857115077
 20
-333.1526178809982
 30
0.0
 10
143.0047028524391
 20
-335.3076025611215
 30
0.0
  0
SPLINE
  5
342
330
1F
100
AcDbEntity
  8
0
  6
Continuous
 62
     7
370
    15
100
AcDbSpline
210
0.0
220
0.0
230
1.0
 70
     8
 71
     3
 72
    10
 73
     6
 74
     0
 42
0.00000001
 43
0.00000001
 12
1.0
 22
0.0
 32
0.0
 13
1.0
 23
0.0
 33
0.0
 40
0.0
 40
0.0
 40
0.0
 40
0.0
 40
0.5
 40
0.5
 40
1.0
 40
1.0
 40
1.0
 40
1.0
 10
143.0047028524388
 20
-308.8949782968498
 30
0.0
 10
142.3776194869222
 20
-311.0553588162972
 30
0.0
 10
141.8609962129283
 20
-313.2315191645922
 30
0.0
 10
141.1462090681858
 20
-317.6293335305146
 30
0.0
 10
140.9504257104667
 20
-319.8513276174616
 30
0.0
 10
140.9504257104665
 20
-322.101290428981
 30
0.0
  0
LINE
  5
343
330
1F
100
AcDbEntity
  8
0
  6
Continuous
 62
     7
370
    15
100
AcDbLine
 10
165.7504260413
 20
-308.8949785011
 30
0.0
 11
143.0047031365
 21
-308.8949785011
 31
0.0
  0
SPLINE
  5
344
330
1F
100
AcDbEntity
  8
0
  6
Continuous
 62
     7
370
    15
100
AcDbSpline
210
0.0
220
0.0
230
1.0
 70
     8
 71
     3
 72
    12
 73
     8
 74
     0
 42
0.00000001
 43
0.00000001
 12
1.0
 22
0.0
 32
0.0
 13
1.0
 23
0.0
 33
0.0
 40
0.0
 40
0.0
 40
0.0
 40
0.0
 40
0.25
 40
0.25
 40
0.5
 40
0.5
 40
1.0
 40
1.0
 40
1.0
 40
1.0
 10
143.0047028524413
 20
-335.3076025611208
 30
0.0
 10
142.6929725472345
 20
-335.9423315492979
 30
0.0
 10
142.4067829149671
 20
-336.5828904518021
 30
0.0
 10
141.8989624592315
 20
-337.8787444513209
 30
0.0
 10
141.6795693628443
 20
-338.5287931606165
 30
0.0
 10
141.1433057291891
 20
-340.4834690190096
 30
0.0
 10
140.9504257104695
 20
-341.7938798735659
 30
0.0
 10
140.9504257104695
 20
-343.1128359547669
 30
0.0
  0
LINE
  5
345
330
1F
100
AcDbEntity
  8
0
  6
Continuous
 62
     7
370
    15
100
AcDbLine
 10
140.950425329
 20
-343.112842776
 30
0.0
 11
140.950425329
 21
-322.1012965219
 31
0.0
  0
SPLINE
  5
346
330
1F
100
AcDbEntity
  8
0
  6
Continuous
 62
     7
370
    15
100
AcDbSpline
210
0.0
220
0.0
230
1.0
 70
     8
 71
     3
 72
    14
 73
    10
 74
     0
 42
0.00000001
 43
0.00000001
 12
1.0
 22
0.0
 32
0.0
 13
1.0
 23
0.0
 33
0.0
 40
0.0
 40
0.0
 40
0.0
 40
0.0
 40
0.1249999999999999
 40
0.1249999999999999
 40
0.2499999999999999
 40
0.2499999999999999
 40
0.4999999999999999
 40
0.4999999999999999
 40
1.0
 40
1.0
 40
1.0
 40
1.0
 10
140.9504257104706
 20
-303.4939048400819
 30
0.0
 10
140.9504258941443
 20
-303.7230901281584
 30
0.0
 10
140.9624743486629
 20
-303.9534219969589
 30
0.0
 10
141.010266026976
 20
-304.4119427730732
 30
0.0
 10
141.045957778656
 20
-304.6404084371962
 30
0.0
 10
141.1868860303428
 20
-305.3235246575923
 30
0.0
 10
141.3260540463613
 20
-305.7758891518212
 30
0.0
 10
141.8628101596571
 20
-307.1249482861467
 30
0.0
 10
142.3791863121519
 20
-308.0136398395481
 30
0.0
 10
143.0047028524401
 20
-308.8949782968501
 30
0.0
  0
LINE
  5
347
330
1F
100
AcDbEntity
  8
0
  6
Continuous
 62
     7
370
    15
100
AcDbLine
 10
140.950425329
 20
-322.1012965219
 30
0.0
 11
140.950425329
 21
-303.4939036147
 31
0.0
  0
LINE
  5
348
330
1F
100
AcDbEntity
  8
0
  6
Continuous
 62
     7
370
    15
100
AcDbLine
 10
165.7504260413
 20
-343.112842776
 30
0.0
 11
165.7504260413
 21
-335.3075996415
 31
0.0
  0
LINE
  5
349
330
1F
100
AcDbEntity
  8
0
  6
Continuous
 62
     7
370
    15
100
AcDbLine
 10
165.7504260413
 20
-350.9180710094
 30
0.0
 11
165.7504260413
 21
-343.112842776
 31
0.0
  0
LINE
  5
34A
330
1F
100
AcDbEntity
  8
0
  6
Continuous
 62
     7
370
    15
100
AcDbLine
 10
165.7504260413
 20
-350.9180710094
 30
0.0
 11
143.0047031365
 21
-350.9180710094
 31
0.0
  0
SPLINE
  5
34B
330
1F
100
AcDbEntity
  8
0
  6
Continuous
 62
     7
370
    15
100
AcDbSpline
210
0.0
220
0.0
230
1.0
 70
     8
 71
     3
 72
    12
 73
     8
 74
     0
 42
0.00000001
 43
0.00000001
 12
1.0
 22
0.0
 32
0.0
 13
1.0
 23
0.0
 33
0.0
 40
0.0
 40
0.0
 40
0.0
 40
0.0
 40
0.2500000000000024
 40
0.2500000000000024
 40
0.5000000000000049
 40
0.5000000000000049
 40
1.0
 40
1.0
 40
1.0
 40
1.0
 10
140.9504257104695
 20
-343.1128359547669
 30
0.0
 10
140.9504257104696
 20
-343.7727053344079
 30
0.0
 10
140.9981341716452
 20
-344.4346883576308
 30
0.0
 10
141.1877365522374
 20
-345.7628271332822
 30
0.0
 10
141.3286506801082
 20
-346.4220400343912
 30
0.0
 10
141.8686796873069
 20
-348.3773854508843
 30
0.0
 10
142.3848722728588
 20
-349.6560019833387
 30
0.0
 10
143.0047001465232
 20
-350.9180638387604
 30
0.0
  0
LINE
  5
34C
330
1F
100
AcDbEntity
  8
0
  6
Continuous
 62
     7
370
    15
100
AcDbLine
 10
165.7504260413
 20
-303.4939036147
 30
0.0
 11
165.7504260413
 21
-298.0928212778
 31
0.0
  0
SPLINE
  5
34D
330
1F
100
AcDbEntity
  8
0
  6
Continuous
 62
     7
370
    15
100
AcDbSpline
210
0.0
220
0.0
230
1.0
 70
     8
 71
     3
 72
    13
 73
     9
 74
     0
 42
0.00000001
 43
0.00000001
 12
1.0
 22
0.0
 32
0.0
 13
1.0
 23
0.0
 33
0.0
 40
0.0
 40
0.0
 40
0.0
 40
0.0
 40
0.1651129217193259
 40
0.3302735105168785
 40
0.4953477823506771
 40
0.6635398554672853
 40
0.8318384500572636
 40
1.0
 40
1.0
 40
1.0
 40
1.0
 10
143.0047031364706
 20
-298.0928212778292
 30
0.0
 10
142.8055202272025
 20
-298.3835641636093
 30
0.0
 10
142.4070969057935
 20
-298.9651338708408
 30
0.0
 10
141.908443409134
 20
-299.8478161897747
 30
0.0
 10
141.493375035402
 20
-300.7433550796566
 30
0.0
 10
141.1878977513702
 20
-301.6519471811231
 30
0.0
 10
140.9888081902278
 20
-302.5714589148232
 30
0.0
 10
140.9632161414141
 20
-303.1865055536271
 30
0.0
 10
140.9504253289965
 20
-303.4939036147318
 30
0.0
  0
LINE
  5
34E
330
1F
100
AcDbEntity
  8
0
  6
Continuous
 62
     7
370
    15
100
AcDbLine
 10
165.7504260413
 20
-298.0928212778
 30
0.0
 11
143.0047031365
 21
-298.0928212778
 31
0.0
  0
LINE
  5
34F
330
1F
100
AcDbEntity
  8
0
  6
Continuous
 62
     7
370
    15
100
AcDbLine
 10
165.7504260413
 20
-308.8949785011
 30
0.0
 11
165.7504260413
 21
-303.4939036147
 31
0.0
  0
LINE
  5
350
330
1F
100
AcDbEntity
  8
0
  6
Continuous
 62
     7
370
    15
100
AcDbLine
 10
35.5504292867
 20
37.8511681779
 30
0.0
 11
35.5504292867
 21
-309.5054492728
 31
0.0
  0
SPLINE
  5
351
330
1F
100
AcDbEntity
  8
0
  6
Continuous
 62
     7
370
    15
100
AcDbSpline
210
0.0
220
0.0
230
1.0
 70
     8
 71
     3
 72
    13
 73
     9
 74
     0
 42
0.00000001
 43
0.00000001
 12
1.0
 22
0.0
 32
0.0
 13
1.0
 23
0.0
 33
0.0
 40
0.0
 40
0.0
 40
0.0
 40
0.0
 40
0.1651147819910811
 40
0.3302750315750992
 40
0.495349991900485
 40
0.6635412452592931
 40
0.831839377003701
 40
1.0
 40
1.0
 40
1.0
 40
1.0
 10
-111.9038622953626
 20
-301.8554389850817
 30
0.0
 10
-111.7046732420074
 20
-301.8370108818691
 30
0.0
 10
-111.3062402846855
 20
-301.8001496009044
 30
0.0
 10
-110.8075699252433
 20
-301.7442000194614
 30
0.0
 10
-110.3925435314975
 20
-301.6874324342198
 30
0.0
 10
-110.0870366512128
 20
-301.6298422161411
 30
0.0
 10
-109.8879492812648
 20
-301.5715595220422
 30
0.0
 10
-109.8623717514113
 20
-301.5325760347278
 30
0.0
 10
-109.8495882131789
 20
-301.5130922572336
 30
0.0
  0
LINE
  5
352
330
1F
100
AcDbEntity
  8
0
  6
Continuous
 62
     7
370
    15
100
AcDbLine
 10
-109.8495882132
 20
-301.5130922572
 30
0.0
 11
-109.8495882132
 21
-313.5228023307
 31
0.0
  0
SPLINE
  5
353
330
1F
100
AcDbEntity
  8
0
  6
Continuous
 62
     7
370
    15
100
AcDbSpline
210
0.0
220
0.0
230
1.0
 70
     8
 71
     3
 72
    13
 73
     9
 74
     0
 42
0.00000001
 43
0.00000001
 12
1.0
 22
0.0
 32
0.0
 13
1.0
 23
0.0
 33
0.0
 40
0.0
 40
0.0
 40
0.0
 40
0.0
 40
0.0700719367206198
 40
0.2236283592538241
 40
0.3772870874517362
 40
0.530866730816138
 40
0.7654102242174016
 40
1.0
 40
1.0
 40
1.0
 40
1.0
 10
-109.8495882131788
 20
-347.4977925793848
 30
0.0
 10
-109.8518368277229
 20
-347.505915068646
 30
0.0
 10
-109.859013081222
 20
-347.5318372713362
 30
0.0
 10
-109.9472434460614
 20
-347.5755011228852
 30
0.0
 10
-110.1527006294541
 20
-347.6286381893866
 30
0.0
 10
-110.5110970259882
 20
-347.6907453991362
 30
0.0
 10
-111.0667362051204
 20
-347.7615213429758
 30
0.0
 10
-111.6248019132757
 20
-347.813936562525
 30
0.0
 10
-111.9038622953627
 20
-347.8401467578135
 30
0.0
  0
LINE
  5
354
330
1F
100
AcDbEntity
  8
0
  6
Continuous
 62
     7
370
    15
100
AcDbLine
 10
-109.8495882132
 20
-336.5151450412
 30
0.0
 11
-109.8495882132
 21
-347.498776056
 31
0.0
  0
SPLINE
  5
355
330
1F
100
AcDbEntity
  8
0
  6
Continuous
 62
     7
370
    15
100
AcDbSpline
210
0.0
220
0.0
230
1.0
 70
     8
 71
     3
 72
    26
 73
    22
 74
     0
 42
0.00000001
 43
0.00000001
 12
1.0
 22
0.0
 32
0.0
 13
1.0
 23
0.0
 33
0.0
 40
0.0
 40
0.0
 40
0.0
 40
0.0
 40
0.0413978190020567
 40
0.0953497199436229
 40
0.1493004340000427
 40
0.2030967152077778
 40
0.2568919937688626
 40
0.3104927725712661
 40
0.3640915657117254
 40
0.4175386090689109
 40
0.4709857483408612
 40
0.5243858596223171
 40
0.5777866719725696
 40
0.6312642647986481
 40
0.6847424341999153
 40
0.7383912949484166
 40
0.7920396781819928
 40
0.8458796884098474
 40
0.8997210408912825
 40
0.9536962198205019
 40
1.0
 40
1.0
 40
1.0
 40
1.0
 10
28.49204725244315
 20
-274.7207299248896
 30
0.0
 10
28.51344209416466
 20
-274.7173923268301
 30
0.0
 10
28.56271986327336
 20
-274.7097049885132
 30
0.0
 10
28.63253361393276
 20
-274.4929935058278
 30
0.0
 10
28.70020291420739
 20
-274.1172723672827
 30
0.0
 10
28.75680831405601
 20
-273.5792868843008
 30
0.0
 10
28.80151835132756
 20
-272.9084021041787
 30
0.0
 10
28.83256334463306
 20
-272.1165106208596
 30
0.0
 10
28.84972591797148
 20
-271.2322664001145
 30
0.0
 10
28.85203521591648
 20
-270.27667635687
 30
0.0
 10
28.84009583713846
 20
-269.2797550811747
 30
0.0
 10
28.81360949161583
 20
-268.2677830692111
 30
0.0
 10
28.77390757190513
 20
-267.2690038445082
 30
0.0
 10
28.72150480342193
 20
-266.312480618205
 30
0.0
 10
28.65822257110155
 20
-265.4220373581013
 30
0.0
 10
28.58532916718513
 20
-264.6266406620214
 30
0.0
 10
28.50510813238722
 20
-263.9441660783181
 30
0.0
 10
28.41950291500756
 20
-263.3986438901906
 30
0.0
 10
28.3310684426863
 20
-263.0055730521831
 30
0.0
 10
28.24608975905477
 20
-262.7732587040565
 30
0.0
 10
28.1929474008886
 20
-262.7553805824425
 30
0.0
 10
28.16840893247397
 20
-262.7471253649912
 30
0.0
  0
SPLINE
  5
356
330
1F
100
AcDbEntity
  8
0
  6
Continuous
 62
     7
370
    15
100
AcDbSpline
210
0.0
220
0.0
230
1.0
 70
     8
 71
     3
 72
    27
 73
    23
 74
     0
 42
0.00000001
 43
0.00000001
 12
1.0
 22
0.0
 32
0.0
 13
1.0
 23
0.0
 33
0.0
 40
0.0
 40
0.0
 40
0.0
 40
0.0
 40
0.0308708481811697
 40
0.0847870879142821
 40
0.1387015865815461
 40
0.1927009053800934
 40
0.2466993303004794
 40
0.3006468569486213
 40
0.354594370708565
 40
0.4083829316950766
 40
0.4621712536549966
 40
0.5157643120957329
 40
0.5693567894085102
 40
0.6228004011251038
 40
0.6762437185281271
 40
0.7296468438831966
 40
0.7830502803705823
 40
0.8365353695714658
 40
0.890021569005307
 40
0.9436794702167702
 40
0.9973393231455094
 40
0.9999999999999999
 40
0.9999999999999999
 40
0.9999999999999999
 40
0.9999999999999999
 10
28.16872185685904
 20
-91.1593303458414
 30
0.0
 10
28.1848646639529
 20
-91.16219562086577
 30
0.0
 10
28.22920104228044
 20
-91.17006512687887
 30
0.0
 10
28.3055959092824
 20
-90.9912704287524
 30
0.0
 10
28.39441416068875
 20
-90.64955590868747
 30
0.0
 10
28.48132218700798
 20
-90.14033769506331
 30
0.0
 10
28.56375358990416
 20
-89.4939224891293
 30
0.0
 10
28.63920420423866
 20
-88.72078532498207
 30
0.0
 10
28.70584515652373
 20
-87.84919266523256
 30
0.0
 10
28.76144953565641
 20
-86.90001330331135
 30
0.0
 10
28.8049403176641
 20
-85.9043852229908
 30
0.0
 10
28.83471819196593
 20
-84.88849899579691
 30
0.0
 10
28.85056358327138
 20
-83.88256951276325
 30
0.0
 10
28.85154644416425
 20
-82.91498173471638
 30
0.0
 10
28.83826402758891
 20
-82.01119279621979
 30
0.0
 10
28.81051449524234
 20
-81.19922152170432
 30
0.0
 10
28.76961004073281
 20
-80.49684077886683
 30
0.0
 10
28.71611616933384
 20
-79.93051135207523
 30
0.0
 10
28.65197269108761
 20
-79.50349473201899
 30
0.0
 10
28.57797599362733
 20
-79.25920230842895
 30
0.0
 10
28.52378550116284
 20
-79.15488053162703
 30
0.0
 10
28.49389162334471
 20
-79.18318890704832
 30
0.0
 10
28.49247938611774
 20
-79.1845262424669
 30
0.0
  0
SPLINE
  5
357
330
1F
100
AcDbEntity
  8
0
  6
Continuous
 62
     7
370
    15
100
AcDbSpline
210
0.0
220
0.0
230
1.0
 70
     8
 71
     3
 72
    12
 73
     8
 74
     0
 42
0.00000001
 43
0.00000001
 12
1.0
 22
0.0
 32
0.0
 13
1.0
 23
0.0
 33
0.0
 40
0.0
 40
0.0
 40
0.0
 40
0.0
 40
0.2208026601683133
 40
0.4562836721743371
 40
0.6917671923784987
 40
0.9273498977270087
 40
1.0
 40
1.0
 40
1.0
 40
1.0
 10
28.84815520265372
 20
67.85116936996366
 30
0.0
 10
28.84942477336384
 20
68.0483819298755
 30
0.0
 10
28.85204831234329
 20
68.45591719673725
 30
0.0
 10
28.83792763328139
 20
68.89914824219656
 30
0.0
 10
28.8099452554744
 20
69.19620689014275
 30
0.0
 10
28.78008115613052
 20
69.32747548639071
 30
0.0
 10
28.75638991389363
 20
69.30610439567967
 30
0.0
 10
28.75080591657431
 20
69.30106725528623
 30
0.0
  0
SPLINE
  5
358
330
1F
100
AcDbEntity
  8
0
  6
Continuous
 62
     7
370
    15
100
AcDbSpline
210
0.0
220
0.0
230
1.0
 70
     8
 71
     3
 72
    23
 73
    19
 74
     0
 42
0.00000001
 43
0.00000001
 12
1.0
 22
0.0
 32
0.0
 13
1.0
 23
0.0
 33
0.0
 40
0.0
 40
0.0
 40
0.0
 40
0.0
 40
0.0648424185281029
 40
0.1315636507377211
 40
0.1965307476127943
 40
0.2633728848461419
 40
0.3285125471745359
 40
0.3955324800931946
 40
0.4608108595656819
 40
0.5279826798926677
 40
0.5932405292223901
 40
0.6604017139106483
 40
0.7254962771528837
 40
0.7924932572900365
 40
0.8573550906520164
 40
0.9241092608747085
 40
0.9887681263991986
 40
1.0
 40
1.0
 40
1.0
 40
1.0
 10
27.88856512525351
 20
115.0276645643988
 30
0.0
 10
27.90599016642365
 20
115.2235620498592
 30
0.0
 10
27.94134514056915
 20
115.6210331643328
 30
0.0
 10
28.00835092898647
 20
116.3766657999837
 30
0.0
 10
28.08410496113201
 20
117.2332265267066
 30
0.0
 10
28.16627203919775
 20
118.1649119084144
 30
0.0
 10
28.25356495282042
 20
119.1583778598498
 30
0.0
 10
28.34215367795909
 20
120.1695535794021
 30
0.0
 10
28.43093170989312
 20
121.1870312083874
 30
0.0
 10
28.5158988946509
 20
122.1636590294361
 30
0.0
 10
28.59610106403249
 20
123.0885737459356
 30
0.0
 10
28.66781708417241
 20
123.9179692713129
 30
0.0
 10
28.73040806166414
 20
124.643702783755
 30
0.0
 10
28.78083891086997
 20
125.230012948965
 30
0.0
 10
28.81924735693395
 20
125.6770659624579
 30
0.0
 10
28.84215494016996
 20
125.9439668089871
 30
0.0
 10
28.85204965388267
 20
126.0594684964145
 30
0.0
 10
28.84979952519529
 20
126.0331211053633
 30
0.0
 10
28.84946650483878
 20
126.0292216761389
 30
0.0
  0
SPLINE
  5
359
330
1F
100
AcDbEntity
  8
0
  6
Continuous
 62
     7
370
    15
100
AcDbSpline
210
0.0
220
0.0
230
1.0
 70
     8
 71
     3
 72
    23
 73
    19
 74
     0
 42
0.00000001
 43
0.00000001
 12
1.0
 22
0.0
 32
0.0
 13
1.0
 23
0.0
 33
0.0
 40
0.0
 40
0.0
 40
0.0
 40
0.0
 40
0.0553094542813012
 40
0.1198827159166505
 40
0.1863253705634036
 40
0.2509614245368002
 40
0.317460597120358
 40
0.3822825614492401
 40
0.4489714523920005
 40
0.5140278105054731
 40
0.5809597404392027
 40
0.646198030720236
 40
0.7133265426455657
 40
0.7786158566348729
 40
0.8458043907781179
 40
0.910983726363665
 40
0.9780663574316049
 40
1.0
 40
1.0
 40
1.0
 40
1.0
 10
28.84946650483878
 20
-479.9462870137415
 30
0.0
 10
28.84889109553219
 20
-479.9395845437134
 30
0.0
 10
28.84764390133485
 20
-479.9250570036974
 30
0.0
 10
28.82817098193417
 20
-479.697857083465
 30
0.0
 10
28.79535721741895
 20
-479.316093419717
 30
0.0
 10
28.74880597190902
 20
-478.7744572507502
 30
0.0
 10
28.69097410433345
 20
-478.1035780250398
 30
0.0
 10
28.62232526724113
 20
-477.3085607122099
 30
0.0
 10
28.54581172436264
 20
-476.4252584090838
 30
0.0
 10
28.46221273525638
 20
-475.46306432358
 30
0.0
 10
28.37520961651139
 20
-474.4652228545708
 30
0.0
 10
28.28580109765031
 20
-473.4429688354224
 30
0.0
 10
28.19804897987253
 20
-472.4432144687453
 30
0.0
 10
28.11298719131781
 20
-471.4773822056911
 30
0.0
 10
28.03461211237691
 20
-470.5903536459268
 30
0.0
 10
27.96401548657252
 20
-469.7935047576734
 30
0.0
 10
27.91704834660103
 20
-469.2649715234984
 30
0.0
 10
27.89419596137852
 20
-469.0080383343257
 30
0.0
 10
27.88856512525351
 20
-468.9447299020014
 30
0.0
  0
SPLINE
  5
35A
330
1F
100
AcDbEntity
  8
0
  6
Continuous
 62
     7
370
    15
100
AcDbSpline
210
0.0
220
0.0
230
1.0
 70
     8
 71
     3
 72
    27
 73
    23
 74
     0
 42
0.00000001
 43
0.00000001
 12
1.0
 22
0.0
 32
0.0
 13
1.0
 23
0.0
 33
0.0
 40
0.0
 40
0.0
 40
0.0
 40
0.0
 40
0.0277148859359465
 40
0.0703245963643938
 40
0.1239512277656856
 40
0.1775793397975351
 40
0.2314092837719774
 40
0.2852405365158207
 40
0.3392110649573987
 40
0.3931820775272697
 40
0.4471691390797241
 40
0.5011548770573331
 40
0.5550305213617522
 40
0.6089046854847833
 40
0.6625918646138237
 40
0.7162780254515781
 40
0.7697825380801556
 40
0.8232872956982323
 40
0.8766915930644043
 40
0.9300964592601308
 40
0.983523819468848
 40
1.0
 40
1.0
 40
1.0
 40
1.0
 10
27.90363019922049
 20
-411.248879172059
 30
0.0
 10
27.91271413888012
 20
-411.2485501630052
 30
0.0
 10
27.9357640042644
 20
-411.2477153254032
 30
0.0
 10
27.98538050879255
 20
-411.3785229238578
 30
0.0
 10
28.05232732459962
 20
-411.6591879734251
 30
0.0
 10
28.1322672137486
 20
-412.1214533379762
 30
0.0
 10
28.21762048334548
 20
-412.7304482864421
 30
0.0
 10
28.30606463301431
 20
-413.4666358656811
 30
0.0
 10
28.39496232797118
 20
-414.3130013326419
 30
0.0
 10
28.48191381239763
 20
-415.2422140316701
 30
0.0
 10
28.56418891815463
 20
-416.2300967029769
 30
0.0
 10
28.63976926712537
 20
-417.2461312700324
 30
0.0
 10
28.70611827313749
 20
-418.2617999047852
 30
0.0
 10
28.76188735652572
 20
-419.2475739998492
 30
0.0
 10
28.80503587697259
 20
-420.1742276862084
 30
0.0
 10
28.83501766513369
 20
-421.0173659479831
 30
0.0
 10
28.85048282413819
 20
-421.7505509866473
 30
0.0
 10
28.85160652953357
 20
-422.3566260800089
 30
0.0
 10
28.83812901092237
 20
-422.8180028636497
 30
0.0
 10
28.80988956736672
 20
-423.1127774268752
 30
0.0
 10
28.78008469366673
 20
-423.2445722557682
 30
0.0
 10
28.75639058864794
 20
-423.2231757286198
 30
0.0
 10
28.75080591657431
 20
-423.2181325928888
 30
0.0
  0
LINE
  5
35B
330
1F
100
AcDbEntity
  8
0
  6
Continuous
 62
     7
370
    15
100
AcDbLine
 10
-286.9495611765
 20
-339.5054504649
 30
0.0
 11
-286.9495611765
 21
-309.5054492728
 31
0.0
  0
LINE
  5
35C
330
1F
100
AcDbEntity
  8
0
  6
Continuous
 62
     7
370
    15
100
AcDbLine
 10
318.0504280947
 20
-339.5054504649
 30
0.0
 11
318.0504280947
 21
-309.5054492728
 31
0.0
  0
LINE
  5
35D
330
1F
100
AcDbEntity
  8
0
  6
Continuous
 62
     7
370
    15
100
AcDbLine
 10
-134.6495609858
 20
-301.1707380788
 30
0.0
 11
-134.6495609858
 21
-301.5130922572
 31
0.0
  0
LINE
  5
35E
330
1F
100
AcDbEntity
  8
0
  6
Continuous
 62
     7
370
    15
100
AcDbLine
 10
-134.6495609858
 20
-301.1707380788
 30
0.0
 11
-111.9038622954
 21
-301.1707380788
 31
0.0
  0
SPLINE
  5
35F
330
1F
100
AcDbEntity
  8
0
  6
Continuous
 62
     7
370
    15
100
AcDbSpline
210
0.0
220
0.0
230
1.0
 70
     8
 71
     3
 72
    13
 73
     9
 74
     0
 42
0.00000001
 43
0.00000001
 12
1.0
 22
0.0
 32
0.0
 13
1.0
 23
0.0
 33
0.0
 40
0.0
 40
0.0
 40
0.0
 40
0.0
 40
0.0700741287158053
 40
0.2236283362085506
 40
0.3772870707782048
 40
0.5308688785295269
 40
0.7654123600149821
 40
1.0
 40
1.0
 40
1.0
 40
1.0
 10
-109.8495882131788
 20
-301.5130922572336
 30
0.0
 10
-109.851836675042
 20
-301.5049726652847
 30
0.0
 10
-109.8590122160684
 20
-301.4790605223655
 30
0.0
 10
-109.9472444762933
 20
-301.4353923064018
 30
0.0
 10
-110.152703012616
 20
-301.3822415087942
 30
0.0
 10
-110.51109324757
 20
-301.3201523914716
 30
0.0
 10
-111.0667328077773
 20
-301.2493717585896
 30
0.0
 10
-111.6248016228173
 20
-301.1969509501598
 30
0.0
 10
-111.9038622953626
 20
-301.170738078805
 30
0.0
  0
LINE
  5
360
330
1F
100
AcDbEntity
  8
0
  6
Continuous
 62
     7
370
    15
100
AcDbLine
 10
-134.6495609858
 20
-301.5130922572
 30
0.0
 11
-134.6495609858
 21
-301.8554389851
 31
0.0
  0
SPLINE
  5
361
330
1F
100
AcDbEntity
  8
0
  6
Continuous
 62
     7
370
    15
100
AcDbSpline
210
0.0
220
0.0
230
1.0
 70
     8
 71
     3
 72
     9
 73
     5
 74
     0
 42
0.00000001
 43
0.00000001
 12
1.0
 22
0.0
 32
0.0
 13
1.0
 23
0.0
 33
0.0
 40
0.0
 40
0.0
 40
0.0
 40
0.0
 40
0.7090392846040566
 40
1.0
 40
1.0
 40
1.0
 40
1.0
 10
143.0047031364706
 20
-350.9180710093698
 30
0.0
 10
142.8015269977864
 20
-350.6277182685889
 30
0.0
 10
142.5149756837817
 20
-350.2182166414075
 30
0.0
 10
142.285037225346
 20
-349.8029271280493
 30
0.0
 10
142.2181341669825
 20
-349.6820941941461
 30
0.0
  0
LINE
  5
362
330
1F
100
AcDbEntity
  8
0
  6
Continuous
 62
     7
370
    15
100
AcDbLine
 10
140.950425329
 20
-347.5054517762
 30
0.0
 11
140.950425329
 21
-343.112842776
 31
0.0
  0
LINE
  5
363
330
1F
100
AcDbEntity
  8
0
  6
Continuous
 62
     7
370
    15
100
AcDbLine
 10
140.950425329
 20
-303.4939036147
 30
0.0
 11
140.950425329
 21
-301.5054479615
 31
0.0
  0
LINE
  5
364
330
1F
100
AcDbEntity
  8
0
  6
Continuous
 62
     7
370
    15
100
AcDbLine
 10
38.0504269026
 20
-96.593165435
 30
0.0
 11
38.0504269026
 21
-73.180483319
 31
0.0
  0
LINE
  5
365
330
1F
100
AcDbEntity
  8
0
  6
Continuous
 62
     7
370
    15
100
AcDbLine
 10
38.0504269026
 20
-97.1804872529
 30
0.0
 11
38.0504269026
 21
-96.593165435
 31
0.0
  0
LINE
  5
366
330
1F
100
AcDbEntity
  8
0
  6
Continuous
 62
     7
370
    15
100
AcDbLine
 10
38.0504269026
 20
-280.7365820186
 30
0.0
 11
38.0504269026
 21
-256.7365780847
 31
0.0
  0
SPLINE
  5
367
330
1F
100
AcDbEntity
  8
0
  6
Continuous
 62
     7
370
    15
100
AcDbSpline
210
0.0
220
0.0
230
1.0
 70
     8
 71
     3
 72
    14
 73
    10
 74
     0
 42
0.00000001
 43
0.00000001
 12
1.0
 22
0.0
 32
0.0
 13
1.0
 23
0.0
 33
0.0
 40
0.0
 40
0.0
 40
0.0
 40
0.0
 40
0.1331919449466792
 40
0.2578383211298763
 40
0.3824531630796709
 40
0.5101673975392462
 40
0.6378835146307078
 40
0.818058482239179
 40
1.0
 40
1.0
 40
1.0
 40
1.0
 10
39.28728288629325
 20
-87.34116856023883
 30
0.0
 10
39.16402873737191
 20
-86.91133138775534
 30
0.0
 10
38.92542840127118
 20
-86.07923531049835
 30
0.0
 10
38.6725921594395
 20
-84.82180225281711
 30
0.0
 10
38.51283140371248
 20
-83.56924532856883
 30
0.0
 10
38.46499235502139
 20
-82.2974139991103
 30
0.0
 10
38.54209788709773
 20
-80.84119594871623
 30
0.0
 10
38.79394951952903
 20
-79.21637083940136
 30
0.0
 10
39.12230448142693
 20
-78.04569166890441
 30
0.0
 10
39.28728288629325
 20
-77.45749656126117
 30
0.0
  0
SPLINE
  5
368
330
1F
100
AcDbEntity
  8
0
  6
Continuous
 62
     7
370
    15
100
AcDbSpline
210
0.0
220
0.0
230
1.0
 70
     8
 71
     3
 72
    15
 73
    11
 74
     0
 42
0.00000001
 43
0.00000001
 12
1.0
 22
0.0
 32
0.0
 13
1.0
 23
0.0
 33
0.0
 40
0.0
 40
0.0
 40
0.0
 40
0.0
 40
0.1323042933410297
 40
0.2645730520313239
 40
0.3997994212592426
 40
0.5350015172506328
 40
0.6501934443656253
 40
0.765402288249291
 40
0.8826885823990119
 40
1.0
 40
1.0
 40
1.0
 40
1.0
 10
39.28728288629325
 20
-95.06415728494738
 30
0.0
 10
39.16491782918289
 20
-94.7304906096843
 30
0.0
 10
38.92022058010551
 20
-94.06324687627074
 30
0.0
 10
38.65691961401708
 20
-93.03578520672141
 30
0.0
 10
38.49862008304889
 20
-91.98891771376877
 30
0.0
 10
38.46727012557525
 20
-90.97999129485633
 30
0.0
 10
38.54861225664869
 20
-90.02557697798328
 30
0.0
 10
38.71526238809729
 20
-89.12485348714239
 30
0.0
 10
38.95975799349411
 20
-88.22815851491885
 30
0.0
 10
39.17810012782186
 20
-87.63685298642304
 30
0.0
 10
39.28728288629325
 20
-87.34116856023883
 30
0.0
  0
SPLINE
  5
369
330
1F
100
AcDbEntity
  8
0
  6
Continuous
 62
     7
370
    15
100
AcDbSpline
210
0.0
220
0.0
230
1.0
 70
     8
 71
     3
 72
    10
 73
     6
 74
     0
 42
0.00000001
 43
0.00000001
 12
1.0
 22
0.0
 32
0.0
 13
1.0
 23
0.0
 33
0.0
 40
0.0
 40
0.0
 40
0.0
 40
0.0
 40
0.2626906249212645
 40
0.6313067170355549
 40
1.0
 40
1.0
 40
1.0
 40
1.0
 10
38.6082518718508
 20
-94.38152764007663
 30
0.0
 10
38.64439355649702
 20
-94.44218789586279
 30
0.0
 10
38.73125043724402
 20
-94.58796861013981
 30
0.0
 10
38.96149478209383
 20
-94.81595357166442
 30
0.0
 10
39.17867927235567
 20
-94.98141693958854
 30
0.0
 10
39.28728288629322
 20
-95.06415728494737
 30
0.0
  0
SPLINE
  5
36A
330
1F
100
AcDbEntity
  8
0
  6
Continuous
 62
     7
370
    15
100
AcDbSpline
210
0.0
220
0.0
230
1.0
 70
     8
 71
     3
 72
    16
 73
    12
 74
     0
 42
0.00000001
 43
0.00000001
 12
1.0
 22
0.0
 32
0.0
 13
1.0
 23
0.0
 33
0.0
 40
0.0
 40
0.0
 40
0.0
 40
0.0
 40
0.2500000000000038
 40
0.2500000000000038
 40
0.5000000000000077
 40
0.5000000000000077
 40
0.6250000000000095
 40
0.6250000000000095
 40
0.7500000000000115
 40
0.7500000000000115
 40
1.0
 40
1.0
 40
1.0
 40
1.0
 10
39.28728598965143
 20
-77.4574977687922
 30
0.0
 10
39.04236447506901
 20
-77.28109862625453
 30
0.0
 10
38.84050475503251
 20
-77.10341338412563
 30
0.0
 10
38.56086348343547
 20
-76.74433713508412
 30
0.0
 10
38.4840043487072
 20
-76.56291857892688
 30
0.0
 10
38.48316018753795
 20
-76.28737270141512
 30
0.0
 10
38.50194927420803
 20
-76.19509190506577
 30
0.0
 10
38.5752167662889
 20
-76.01255075516846
 30
0.0
 10
38.62962081795224
 20
-75.92189217287638
 30
0.0
 10
38.83969987630429
 20
-75.65153047818927
 30
0.0
 10
39.0420591694716
 20
-75.47343512882931
 30
0.0
 10
39.28728598965165
 20
-75.2968160968886
 30
0.0
  0
LINE
  5
36B
330
1F
100
AcDbEntity
  8
0
  6
Continuous
 62
     7
370
    15
100
AcDbLine
 10
39.2872828863
 20
-77.4574965613
 30
0.0
 11
47.2135681532
 21
-77.4574965613
 31
0.0
  0
SPLINE
  5
36C
330
1F
100
AcDbEntity
  8
0
  6
Continuous
 62
     7
370
    15
100
AcDbSpline
210
0.0
220
0.0
230
1.0
 70
     8
 71
     3
 72
    16
 73
    12
 74
     0
 42
0.00000001
 43
0.00000001
 12
1.0
 22
0.0
 32
0.0
 13
1.0
 23
0.0
 33
0.0
 40
0.0
 40
0.0
 40
0.0
 40
0.0
 40
0.2500000000000006
 40
0.2500000000000006
 40
0.5000000000000012
 40
0.5000000000000012
 40
0.6250000000000016
 40
0.6250000000000016
 40
0.7500000000000018
 40
0.7500000000000018
 40
1.0
 40
1.0
 40
1.0
 40
1.0
 10
47.21356450908934
 20
-87.341170049559
 30
0.0
 10
47.45753998366026
 20
-86.53737945553158
 30
0.0
 10
47.66223412266471
 20
-85.7139279618153
 30
0.0
 10
47.94208822290989
 20
-84.06300239312621
 30
0.0
 10
48.01749693661315
 20
-83.23307205221248
 30
0.0
 10
48.01737093757708
 20
-81.98033532891213
 30
0.0
 10
47.99867950673068
 20
-81.56146504580389
 30
0.0
 10
47.92450469547469
 20
-80.72117682995658
 30
0.0
 10
47.86932845513115
 20
-80.30356113043963
 30
0.0
 10
47.65799140641772
 20
-79.06566259260673
 30
0.0
 10
47.45602829104249
 20
-78.25630533862203
 30
0.0
 10
47.21356543128067
 20
-77.45749776879214
 30
0.0
  0
LINE
  5
36D
330
1F
100
AcDbEntity
  8
0
  6
Continuous
 62
     7
370
    15
100
AcDbLine
 10
39.2872828863
 20
-87.3411685602
 30
0.0
 11
47.2135681532
 21
-87.3411685602
 31
0.0
  0
SPLINE
  5
36E
330
1F
100
AcDbEntity
  8
0
  6
Continuous
 62
     7
370
    15
100
AcDbSpline
210
0.0
220
0.0
230
1.0
 70
     8
 71
     3
 72
    10
 73
     6
 74
     0
 42
0.00000001
 43
0.00000001
 12
1.0
 22
0.0
 32
0.0
 13
1.0
 23
0.0
 33
0.0
 40
0.0
 40
0.0
 40
0.0
 40
0.0
 40
0.4159333586724117
 40
0.8317450122408117
 40
0.9999999999999999
 40
0.9999999999999999
 40
0.9999999999999999
 40
0.9999999999999999
 10
47.21356815316947
 20
-95.06415728494738
 30
0.0
 10
47.33456232544845
 20
-94.97077180427563
 30
0.0
 10
47.57651526623797
 20
-94.78402816819805
 30
0.0
 10
47.80248165108107
 20
-94.55570949698762
 30
0.0
 10
47.86777089939332
 20
-94.42051771411124
 30
0.0
 10
47.8865790984896
 20
-94.38157234356021
 30
0.0
  0
SPLINE
  5
36F
330
1F
100
AcDbEntity
  8
0
  6
Continuous
 62
     7
370
    15
100
AcDbSpline
210
0.0
220
0.0
230
1.0
 70
     8
 71
     3
 72
    15
 73
    11
 74
     0
 42
0.00000001
 43
0.00000001
 12
1.0
 22
0.0
 32
0.0
 13
1.0
 23
0.0
 33
0.0
 40
0.0
 40
0.0
 40
0.0
 40
0.0
 40
0.1323061269768077
 40
0.264574889171747
 40
0.3998007402858989
 40
0.5350033645922514
 40
0.6501947709181948
 40
0.7654022647703642
 40
0.8826899001206173
 40
1.0
 40
1.0
 40
1.0
 40
1.0
 10
47.21356815316947
 20
-87.34116856023883
 30
0.0
 10
47.33593291272748
 20
-87.67483382248888
 30
0.0
 10
47.5806278746189
 20
-88.34207011605632
 30
0.0
 10
47.84393129144657
 20
-89.36954214859706
 30
0.0
 10
48.00223141459823
 20
-90.4163994428639
 30
0.0
 10
48.03358069928336
 20
-91.42533735231038
 30
0.0
 10
47.95223994469986
 20
-92.37972923007194
 30
0.0
 10
47.78558510942902
 20
-93.28049383334383
 30
0.0
 10
47.54109726286971
 20
-94.17714061480282
 30
0.0
 10
47.32275149249591
 20
-94.76846618691572
 30
0.0
 10
47.21356815316947
 20
-95.06415728494738
 30
0.0
  0
SPLINE
  5
370
330
1F
100
AcDbEntity
  8
0
  6
Continuous
 62
     7
370
    15
100
AcDbSpline
210
0.0
220
0.0
230
1.0
 70
     8
 71
     3
 72
    16
 73
    12
 74
     0
 42
0.00000001
 43
0.00000001
 12
1.0
 22
0.0
 32
0.0
 13
1.0
 23
0.0
 33
0.0
 40
0.0
 40
0.0
 40
0.0
 40
0.0
 40
0.2499999999999961
 40
0.2499999999999961
 40
0.4999999999999922
 40
0.4999999999999922
 40
0.6249999999999979
 40
0.6249999999999979
 40
0.7500000000000037
 40
0.7500000000000037
 40
1.0
 40
1.0
 40
1.0
 40
1.0
 10
47.21356543128106
 20
-75.2968160968886
 30
0.0
 10
47.4584869458635
 20
-75.4732152394263
 30
0.0
 10
47.66034666589997
 20
-75.65090048155515
 30
0.0
 10
47.93998793749705
 20
-76.00997673059669
 30
0.0
 10
48.01684707222537
 20
-76.1913952867539
 30
0.0
 10
48.01769123339454
 20
-76.46694116426563
 30
0.0
 10
47.99890214672445
 20
-76.55922196061498
 30
0.0
 10
47.92563465464362
 20
-76.74176311051235
 30
0.0
 10
47.87123060298027
 20
-76.83242169280442
 30
0.0
 10
47.6611515446282
 20
-77.10278338749153
 30
0.0
 10
47.45879225146086
 20
-77.28087873685149
 30
0.0
 10
47.21356543128086
 20
-77.4574977687922
 30
0.0
  0
LINE
  5
371
330
1F
100
AcDbEntity
  8
0
  6
Continuous
 62
     7
370
    15
100
AcDbLine
 10
48.4504241369
 20
-82.6310977714
 30
0.0
 11
48.4504241369
 21
-76.9304871933
 31
0.0
  0
LINE
  5
372
330
1F
100
AcDbEntity
  8
0
  6
Continuous
 62
     7
370
    15
100
AcDbLine
 10
48.4504241369
 20
-93.4304833786
 30
0.0
 11
48.4504241369
 21
-82.6310977714
 31
0.0
  0
SPLINE
  5
373
330
1F
100
AcDbEntity
  8
0
  6
Continuous
 62
     7
370
    15
100
AcDbSpline
210
0.0
220
0.0
230
1.0
 70
     8
 71
     3
 72
    14
 73
    10
 74
     0
 42
0.00000001
 43
0.00000001
 12
1.0
 22
0.0
 32
0.0
 13
1.0
 23
0.0
 33
0.0
 40
0.0
 40
0.0
 40
0.0
 40
0.0
 40
0.133191098897241
 40
0.2578374743720793
 40
0.3824531825692736
 40
0.5101674163030557
 40
0.6378835326687133
 40
0.8180576355453886
 40
1.0
 40
1.0
 40
1.0
 40
1.0
 10
39.28728288629325
 20
-276.4595687763414
 30
0.0
 10
39.16402861652549
 20
-276.0297311274864
 30
0.0
 10
38.92542731444446
 20
-275.1976315751259
 30
0.0
 10
38.67259143204364
 20
-273.9401969709974
 30
0.0
 10
38.51283192121425
 20
-272.6876516793769
 30
0.0
 10
38.46499235744181
 20
-271.4158128165582
 30
0.0
 10
38.54209725481356
 20
-269.9596018851979
 30
0.0
 10
38.79395176998785
 20
-268.3347600695484
 30
0.0
 10
39.12230471754447
 20
-267.1640900524955
 30
0.0
 10
39.28728288629325
 20
-266.5758967773638
 30
0.0
  0
SPLINE
  5
374
330
1F
100
AcDbEntity
  8
0
  6
Continuous
 62
     7
370
    15
100
AcDbSpline
210
0.0
220
0.0
230
1.0
 70
     8
 71
     3
 72
    16
 73
    12
 74
     0
 42
0.00000001
 43
0.00000001
 12
1.0
 22
0.0
 32
0.0
 13
1.0
 23
0.0
 33
0.0
 40
0.0
 40
0.0
 40
0.0
 40
0.0
 40
0.2499999999999956
 40
0.2499999999999956
 40
0.4999999999999911
 40
0.4999999999999911
 40
0.6249999999999893
 40
0.6249999999999893
 40
0.7499999999999876
 40
0.7499999999999876
 40
1.0
 40
1.0
 40
1.0
 40
1.0
 10
39.28728598965146
 20
-278.6202492407198
 30
0.0
 10
39.04236447506899
 20
-278.4438500981822
 30
0.0
 10
38.84050475503254
 20
-278.2661648560533
 30
0.0
 10
38.56086348343552
 20
-277.9070886070119
 30
0.0
 10
38.48400434870717
 20
-277.7256700508547
 30
0.0
 10
38.48316018753793
 20
-277.4501241733429
 30
0.0
 10
38.50194927420803
 20
-277.3578433769936
 30
0.0
 10
38.57521676628881
 20
-277.1753022270963
 30
0.0
 10
38.62962081795222
 20
-277.0846436448041
 30
0.0
 10
38.83969987630427
 20
-276.8142819501171
 30
0.0
 10
39.0420591694716
 20
-276.6361866007572
 30
0.0
 10
39.28728598965162
 20
-276.4595675688165
 30
0.0
  0
SPLINE
  5
375
330
1F
100
AcDbEntity
  8
0
  6
Continuous
 62
     7
370
    15
100
AcDbSpline
210
0.0
220
0.0
230
1.0
 70
     8
 71
     3
 72
    10
 73
     6
 74
     0
 42
0.00000001
 43
0.00000001
 12
1.0
 22
0.0
 32
0.0
 13
1.0
 23
0.0
 33
0.0
 40
0.0
 40
0.0
 40
0.0
 40
0.0
 40
0.4159333586724117
 40
0.8317450122408117
 40
0.9999999999999999
 40
0.9999999999999999
 40
0.9999999999999999
 40
0.9999999999999999
 10
39.28728288629325
 20
-258.8529080526552
 30
0.0
 10
39.16628871401424
 20
-258.946293533327
 30
0.0
 10
38.92433577322458
 20
-259.1330371694045
 30
0.0
 10
38.69836938838184
 20
-259.361355840615
 30
0.0
 10
38.63308014006942
 20
-259.4965476234913
 30
0.0
 10
38.61427194097312
 20
-259.5354929940424
 30
0.0
  0
SPLINE
  5
376
330
1F
100
AcDbEntity
  8
0
  6
Continuous
 62
     7
370
    15
100
AcDbSpline
210
0.0
220
0.0
230
1.0
 70
     8
 71
     3
 72
    15
 73
    11
 74
     0
 42
0.00000001
 43
0.00000001
 12
1.0
 22
0.0
 32
0.0
 13
1.0
 23
0.0
 33
0.0
 40
0.0
 40
0.0
 40
0.0
 40
0.0
 40
0.1323061269768077
 40
0.264574889171747
 40
0.3998007402858989
 40
0.5350033645922514
 40
0.6501947709181948
 40
0.7654022647703642
 40
0.8826899001206173
 40
1.0
 40
1.0
 40
1.0
 40
1.0
 10
39.28728288629325
 20
-266.5758967773638
 30
0.0
 10
39.16491812673521
 20
-266.2422315151137
 30
0.0
 10
38.92022316484376
 20
-265.5749952215463
 30
0.0
 10
38.65691974801619
 20
-264.5475231890055
 30
0.0
 10
38.49861962486451
 20
-263.5006658947387
 30
0.0
 10
38.46727034017939
 20
-262.4917279852922
 30
0.0
 10
38.54861109476277
 20
-261.5373361075307
 30
0.0
 10
38.71526593003369
 20
-260.6365715042588
 30
0.0
 10
38.95975377659309
 20
-259.7399247227998
 30
0.0
 10
39.17809954696683
 20
-259.1485991506869
 30
0.0
 10
39.28728288629325
 20
-258.8529080526552
 30
0.0
  0
SPLINE
  5
377
330
1F
100
AcDbEntity
  8
0
  6
Continuous
 62
     7
370
    15
100
AcDbSpline
210
0.0
220
0.0
230
1.0
 70
     8
 71
     3
 72
    10
 73
     6
 74
     0
 42
0.00000001
 43
0.00000001
 12
1.0
 22
0.0
 32
0.0
 13
1.0
 23
0.0
 33
0.0
 40
0.0
 40
0.0
 40
0.0
 40
0.0
 40
0.2626906249212645
 40
0.6313067170355549
 40
1.0
 40
1.0
 40
1.0
 40
1.0
 10
47.89259916761191
 20
-259.535537697526
 30
0.0
 10
47.85645748296569
 20
-259.4748774417398
 30
0.0
 10
47.76960060221867
 20
-259.3290967274628
 30
0.0
 10
47.53935625736894
 20
-259.1011117659382
 30
0.0
 10
47.32217176710702
 20
-258.9356483980141
 30
0.0
 10
47.21356815316944
 20
-258.8529080526552
 30
0.0
  0
SPLINE
  5
378
330
1F
100
AcDbEntity
  8
0
  6
Continuous
 62
     7
370
    15
100
AcDbSpline
210
0.0
220
0.0
230
1.0
 70
     8
 71
     3
 72
    16
 73
    12
 74
     0
 42
0.00000001
 43
0.00000001
 12
1.0
 22
0.0
 32
0.0
 13
1.0
 23
0.0
 33
0.0
 40
0.0
 40
0.0
 40
0.0
 40
0.0
 40
0.2499999999999963
 40
0.2499999999999963
 40
0.4999999999999927
 40
0.4999999999999927
 40
0.6249999999999984
 40
0.6249999999999984
 40
0.7500000000000043
 40
0.7500000000000043
 40
1.0
 40
1.0
 40
1.0
 40
1.0
 10
47.21356543128106
 20
-276.4595675688165
 30
0.0
 10
47.45848694586347
 20
-276.6359667113541
 30
0.0
 10
47.66034666589992
 20
-276.813651953483
 30
0.0
 10
47.93998793749702
 20
-277.1727282025245
 30
0.0
 10
48.01684707222535
 20
-277.3541467586816
 30
0.0
 10
48.01769123339454
 20
-277.6296926361934
 30
0.0
 10
47.99890214672448
 20
-277.7219734325427
 30
0.0
 10
47.92563465464362
 20
-277.90451458244
 30
0.0
 10
47.87123060298027
 20
-277.9951731647321
 30
0.0
 10
47.66115154462817
 20
-278.2655348594192
 30
0.0
 10
47.45879225146086
 20
-278.4436302087792
 30
0.0
 10
47.21356543128086
 20
-278.6202492407198
 30
0.0
  0
SPLINE
  5
379
330
1F
100
AcDbEntity
  8
0
  6
Continuous
 62
     7
370
    15
100
AcDbSpline
210
0.0
220
0.0
230
1.0
 70
     8
 71
     3
 72
    16
 73
    12
 74
     0
 42
0.00000001
 43
0.00000001
 12
1.0
 22
0.0
 32
0.0
 13
1.0
 23
0.0
 33
0.0
 40
0.0
 40
0.0
 40
0.0
 40
0.0
 40
0.2500000000000024
 40
0.2500000000000024
 40
0.5000000000000048
 40
0.5000000000000048
 40
0.6250000000000054
 40
0.6250000000000054
 40
0.750000000000006
 40
0.750000000000006
 40
1.0
 40
1.0
 40
1.0
 40
1.0
 10
47.21356543128073
 20
-276.4595675688165
 30
0.0
 10
47.45754081438575
 20
-275.6557769055044
 30
0.0
 10
47.66223482762692
 20
-274.8323253447646
 30
0.0
 10
47.9420886092212
 20
-273.1813996874288
 30
0.0
 10
48.01749713509169
 20
-272.351469300218
 30
0.0
 10
48.01737083783085
 20
-271.0987325063308
 30
0.0
 10
47.99867930517746
 20
-270.6798621995276
 30
0.0
 10
47.92450429193588
 20
-269.839573936403
 30
0.0
 10
47.8693279594163
 20
-269.4219582668723
 30
0.0
 10
47.65799064856247
 20
-268.1840597457841
 30
0.0
 10
47.45602738424718
 20
-267.3747024962368
 30
0.0
 10
47.21356439882566
 20
-266.57589492478
 30
0.0
  0
SPLINE
  5
37A
330
1F
100
AcDbEntity
  8
0
  6
Continuous
 62
     7
370
    15
100
AcDbSpline
210
0.0
220
0.0
230
1.0
 70
     8
 71
     3
 72
    15
 73
    11
 74
     0
 42
0.00000001
 43
0.00000001
 12
1.0
 22
0.0
 32
0.0
 13
1.0
 23
0.0
 33
0.0
 40
0.0
 40
0.0
 40
0.0
 40
0.0
 40
0.1323042933410297
 40
0.2645730520313239
 40
0.3997994212592426
 40
0.5350015172506328
 40
0.6501934443656253
 40
0.765402288249291
 40
0.8826885823990119
 40
1.0
 40
1.0
 40
1.0
 40
1.0
 10
47.21356815316947
 20
-258.8529080526552
 30
0.0
 10
47.33593321027985
 20
-259.1865747279183
 30
0.0
 10
47.58063045935721
 20
-259.8538184613318
 30
0.0
 10
47.84393142544561
 20
-260.8812801308812
 30
0.0
 10
48.0022309564138
 20
-261.9281476238338
 30
0.0
 10
48.03358091388749
 20
-262.9370740427462
 30
0.0
 10
47.95223878281396
 20
-263.8914883596193
 30
0.0
 10
47.7855886513654
 20
-264.7922118504602
 30
0.0
 10
47.54109304596854
 20
-265.6889068226837
 30
0.0
 10
47.32275091164082
 20
-266.2802123511796
 30
0.0
 10
47.21356815316947
 20
-266.5758967773638
 30
0.0
  0
LINE
  5
37B
330
1F
100
AcDbEntity
  8
0
  6
Continuous
 62
     7
370
    15
100
AcDbLine
 10
48.4504241369
 20
-271.2859675662
 30
0.0
 11
48.4504241369
 21
-260.486581959
 31
0.0
  0
LINE
  5
37C
330
1F
100
AcDbEntity
  8
0
  6
Continuous
 62
     7
370
    15
100
AcDbLine
 10
48.4504241369
 20
-276.9865781443
 30
0.0
 11
48.4504241369
 21
-271.2859675662
 31
0.0
  0
LINE
  5
37D
330
1F
100
AcDbEntity
  8
0
  6
Continuous
 62
     7
370
    15
100
AcDbLine
 10
39.2872828863
 20
-266.5758967774
 30
0.0
 11
47.2135681532
 21
-266.5758967774
 31
0.0
  0
LINE
  5
37E
330
1F
100
AcDbEntity
  8
0
  6
Continuous
 62
     7
370
    15
100
AcDbLine
 10
39.2872828863
 20
-276.4595687763
 30
0.0
 11
47.2135681532
 21
-276.4595687763
 31
0.0
  0
LINE
  5
37F
330
1F
100
AcDbEntity
  8
0
  6
Continuous
 62
     7
370
    15
100
AcDbLine
 10
39.2872828863
 20
-95.0641572849
 30
0.0
 11
47.2135681532
 21
-95.0641572849
 31
0.0
  0
LINE
  5
380
330
1F
100
AcDbEntity
  8
0
  6
Continuous
 62
     7
370
    15
100
AcDbLine
 10
39.2872828863
 20
-258.8529080527
 30
0.0
 11
47.2135681532
 21
-258.8529080527
 31
0.0
  0
SPLINE
  5
381
330
1F
100
AcDbEntity
  8
0
  6
Continuous
 62
     7
370
    15
100
AcDbSpline
210
0.0
220
0.0
230
1.0
 70
     8
 71
     3
 72
    11
 73
     7
 74
     0
 42
0.00000001
 43
0.00000001
 12
1.0
 22
0.0
 32
0.0
 13
1.0
 23
0.0
 33
0.0
 40
0.0
 40
0.0
 40
0.0
 40
0.0
 40
0.2846871807909964
 40
0.5775583539780859
 40
0.8628133657610232
 40
1.0
 40
1.0
 40
1.0
 40
1.0
 10
27.88856512525351
 20
-468.9447299020014
 30
0.0
 10
27.86744036688858
 20
-468.7757128353765
 30
0.0
 10
27.82458357005086
 20
-468.4328199150743
 30
0.0
 10
27.7437909250119
 20
-468.1215563094073
 30
0.0
 10
27.69645855417555
 20
-467.9609687950926
 30
0.0
 10
27.70081225385236
 20
-467.9756713492652
 30
0.0
 10
27.70222610452445
 20
-467.9804459588251
 30
0.0
  0
SPLINE
  5
382
330
1F
100
AcDbEntity
  8
0
  6
Continuous
 62
     7
370
    15
100
AcDbSpline
210
0.0
220
0.0
230
1.0
 70
     8
 71
     3
 72
    11
 73
     7
 74
     0
 42
0.00000001
 43
0.00000001
 12
1.0
 22
0.0
 32
0.0
 13
1.0
 23
0.0
 33
0.0
 40
0.0
 40
0.0
 40
0.0
 40
0.0
 40
0.1569283086626634
 40
0.4326245338156724
 40
0.7159629817010185
 40
1.0
 40
1.0
 40
1.0
 40
1.0
 10
27.70222610452445
 20
114.0633806212225
 30
0.0
 10
27.70113267919908
 20
114.0596067452224
 30
0.0
 10
27.69811829240249
 20
114.049202813904
 30
0.0
 10
27.74638279377926
 20
114.2141177356608
 30
0.0
 10
27.82550856043404
 20
114.5221760270768
 30
0.0
 10
27.86752902467727
 20
114.8590301368541
 30
0.0
 10
27.88856512525349
 20
115.0276645643988
 30
0.0
  0
LINE
  5
383
330
1F
100
AcDbEntity
  8
0
  6
Continuous
 62
     7
370
    15
100
AcDbLine
 10
39.2872828863
 20
-75.296813287
 30
0.0
 11
47.2135681532
 21
-75.296813287
 31
0.0
  0
LINE
  5
384
330
1F
100
AcDbEntity
  8
0
  6
Continuous
 62
     7
370
    15
100
AcDbLine
 10
39.2872828863
 20
-278.6202520506
 30
0.0
 11
47.2135681532
 21
-278.6202520506
 31
0.0
  0
LINE
  5
385
330
1F
100
AcDbEntity
  8
0
  6
Continuous
 62
     7
370
    15
100
AcDbLine
 10
88.5504249356
 20
-83.3263859527
 30
0.0
 11
88.5504249356
 21
-79.1804880278
 31
0.0
  0
LINE
  5
386
330
1F
100
AcDbEntity
  8
0
  6
Continuous
 62
     7
370
    15
100
AcDbLine
 10
88.5504249356
 20
-91.1804825442
 30
0.0
 11
88.5504249356
 21
-83.3263859527
 31
0.0
  0
LINE
  5
387
330
1F
100
AcDbEntity
  8
0
  6
Continuous
 62
     7
370
    15
100
AcDbLine
 10
88.5504249356
 20
-270.5906793849
 30
0.0
 11
88.5504249356
 21
-262.7365827934
 31
0.0
  0
LINE
  5
388
330
1F
100
AcDbEntity
  8
0
  6
Continuous
 62
     7
370
    15
100
AcDbLine
 10
88.5504249356
 20
-274.7365773098
 30
0.0
 11
88.5504249356
 21
-270.5906793849
 31
0.0
  0
LINE
  5
389
330
1F
100
AcDbEntity
  8
0
  6
Continuous
 62
     7
370
    15
100
AcDbLine
 10
-4.4495772698
 20
106.669066809
 30
0.0
 11
-4.4495772698
 21
69.3195148928
 31
0.0
  0
LINE
  5
38A
330
1F
100
AcDbEntity
  8
0
  6
Continuous
 62
     7
370
    15
100
AcDbLine
 10
-4.4495772698
 20
37.8511681779
 30
0.0
 11
-4.4495772698
 21
-79.1804880278
 31
0.0
  0
LINE
  5
38B
330
1F
100
AcDbEntity
  8
0
  6
Continuous
 62
     7
370
    15
100
AcDbLine
 10
-4.4495772698
 20
-91.1804825442
 30
0.0
 11
-4.4495772698
 21
-262.7365827934
 31
0.0
  0
LINE
  5
38C
330
1F
100
AcDbEntity
  8
0
  6
Continuous
 62
     7
370
    15
100
AcDbLine
 10
-4.4495772698
 20
-274.7365773098
 30
0.0
 11
-4.4495772698
 21
-309.5054492728
 31
0.0
  0
LINE
  5
38D
330
1F
100
AcDbEntity
  8
0
  6
Continuous
 62
     7
370
    15
100
AcDbLine
 10
-4.4495772698
 20
-339.5054504649
 30
0.0
 11
-4.4495772698
 21
-411.2365857141
 31
0.0
  0
LINE
  5
38E
330
1F
100
AcDbEntity
  8
0
  6
Continuous
 62
     7
370
    15
100
AcDbLine
 10
-4.4495772698
 20
-423.2365802304
 30
0.0
 11
-4.4495772698
 21
-460.5861321466
 31
0.0
  0
LINE
  5
38F
330
1F
100
AcDbEntity
  8
0
  6
Continuous
 62
     7
370
    15
100
AcDbLine
 10
35.5504292867
 20
-339.5054504649
 30
0.0
 11
35.5504292867
 21
-487.9585221784
 31
0.0
  0
LINE
  5
390
330
1F
100
AcDbEntity
  8
0
  6
Continuous
 62
     7
370
    15
100
AcDbLine
 10
-135.449574528
 20
24.8511716349
 30
0.0
 11
-135.449574528
 21
80.8511659129
 31
0.0
  0
LINE
  5
391
330
1F
100
AcDbEntity
  8
0
  6
Continuous
 62
     7
370
    15
100
AcDbLine
 10
166.5504265449
 20
24.8511716349
 30
0.0
 11
166.5504265449
 21
80.8511659129
 31
0.0
  0
LINE
  5
392
330
1F
100
AcDbEntity
  8
0
  6
Continuous
 62
     7
370
    15
100
AcDbLine
 10
-134.6495609858
 20
67.7953943236
 30
0.0
 11
-134.6495609858
 21
57.7013328297
 31
0.0
  0
LINE
  5
393
330
1F
100
AcDbEntity
  8
0
  6
Continuous
 62
     7
370
    15
100
AcDbLine
 10
-134.6495609858
 20
77.8894707186
 30
0.0
 11
-134.6495609858
 21
67.7953943236
 31
0.0
  0
LINE
  5
394
330
1F
100
AcDbEntity
  8
0
  6
Continuous
 62
     7
370
    15
100
AcDbLine
 10
-134.6495609858
 20
77.8894707186
 30
0.0
 11
-111.9038622954
 21
77.8894707186
 31
0.0
  0
SPLINE
  5
395
330
1F
100
AcDbEntity
  8
0
  6
Continuous
 62
     7
370
    15
100
AcDbSpline
210
0.0
220
0.0
230
1.0
 70
     8
 71
     3
 72
    13
 73
     9
 74
     0
 42
0.00000001
 43
0.00000001
 12
1.0
 22
0.0
 32
0.0
 13
1.0
 23
0.0
 33
0.0
 40
0.0
 40
0.0
 40
0.0
 40
0.0
 40
0.1340637346597166
 40
0.2683983757142104
 40
0.4503875506468546
 40
0.6323949088840125
 40
0.8161890578321871
 40
1.0
 40
1.0
 40
1.0
 40
1.0
 10
-109.8495882131788
 20
67.79539432361508
 30
0.0
 10
-109.8574997066768
 20
68.25338549864519
 30
0.0
 10
-109.8733386806525
 20
69.17029332447541
 30
0.0
 10
-110.015293715039
 20
70.70572885119563
 30
0.0
 10
-110.2790513583525
 20
72.39697517208855
 30
0.0
 10
-110.7040779165222
 20
74.24085239989509
 30
0.0
 10
-111.2411403525664
 20
76.07424391737982
 30
0.0
 10
-111.6829482534273
 20
77.28437669081988
 30
0.0
 10
-111.9038622953626
 20
77.88947071864987
 30
0.0
  0
SPLINE
  5
396
330
1F
100
AcDbEntity
  8
0
  6
Continuous
 62
     7
370
    15
100
AcDbSpline
210
0.0
220
0.0
230
1.0
 70
     8
 71
     3
 72
    12
 73
     8
 74
     0
 42
0.00000001
 43
0.00000001
 12
1.0
 22
0.0
 32
0.0
 13
1.0
 23
0.0
 33
0.0
 40
0.0
 40
0.0
 40
0.0
 40
0.0
 40
0.2571675895769358
 40
0.4417515167641765
 40
0.6263159170082875
 40
0.8131627331363834
 40
1.0
 40
1.0
 40
1.0
 40
1.0
 10
-111.9038622953626
 20
57.70133282974149
 30
0.0
 10
-111.5989898379611
 20
58.54890153376505
 30
0.0
 10
-111.075292933937
 20
60.00481890336886
 30
0.0
 10
-110.5151318317899
 20
62.10267619101323
 30
0.0
 10
-110.1391621422186
 20
63.98074254067326
 30
0.0
 10
-109.8963986338902
 20
65.88050907039609
 30
0.0
 10
-109.8651914209223
 20
67.15711011345753
 30
0.0
 10
-109.8495882131789
 20
67.79539432361511
 30
0.0
  0
LINE
  5
397
330
1F
100
AcDbEntity
  8
0
  6
Continuous
 62
     7
370
    15
100
AcDbLine
 10
-134.6495609858
 20
57.7013328297
 30
0.0
 11
-111.9038622954
 21
57.7013328297
 31
0.0
  0
SPLINE
  5
398
330
1F
100
AcDbEntity
  8
0
  6
Continuous
 62
     7
370
    15
100
AcDbSpline
210
0.0
220
0.0
230
1.0
 70
     8
 71
     3
 72
    13
 73
     9
 74
     0
 42
0.00000001
 43
0.00000001
 12
1.0
 22
0.0
 32
0.0
 13
1.0
 23
0.0
 33
0.0
 40
0.0
 40
0.0
 40
0.0
 40
0.0
 40
0.0700731064855767
 40
0.2236278121242487
 40
0.3772869878826598
 40
0.5308670267401097
 40
0.7654105607351221
 40
1.0
 40
1.0
 40
1.0
 40
1.0
 10
-109.8495882131788
 20
45.18219675853635
 30
0.0
 10
-109.8518367207105
 20
45.47906171587302
 30
0.0
 10
-109.859012495342
 20
46.42646171332038
 30
0.0
 10
-109.9472448471996
 20
48.02360772902014
 30
0.0
 10
-110.1527005074642
 20
49.96681672503767
 30
0.0
 10
-110.511096493542
 20
52.23771624688275
 30
0.0
 10
-111.0667355658228
 20
54.82573373222735
 30
0.0
 10
-111.6248018496795
 20
56.74273727014268
 30
0.0
 10
-111.9038622953627
 20
57.70133282974152
 30
0.0
  0
LINE
  5
399
330
1F
100
AcDbEntity
  8
0
  6
Continuous
 62
     7
370
    15
100
AcDbLine
 10
-109.8495882132
 20
67.7953943236
 30
0.0
 11
-109.8495882132
 21
45.1821967585
 31
0.0
  0
LINE
  5
39A
330
1F
100
AcDbEntity
  8
0
  6
Continuous
 62
     7
370
    15
100
AcDbLine
 10
-134.6495609858
 20
45.1821967585
 30
0.0
 11
-134.6495609858
 21
32.6630457862
 31
0.0
  0
LINE
  5
39B
330
1F
100
AcDbEntity
  8
0
  6
Continuous
 62
     7
370
    15
100
AcDbLine
 10
-134.6495609858
 20
57.7013328297
 30
0.0
 11
-134.6495609858
 21
45.1821967585
 31
0.0
  0
SPLINE
  5
39C
330
1F
100
AcDbEntity
  8
0
  6
Continuous
 62
     7
370
    15
100
AcDbSpline
210
0.0
220
0.0
230
1.0
 70
     8
 71
     3
 72
    13
 73
     9
 74
     0
 42
0.00000001
 43
0.00000001
 12
1.0
 22
0.0
 32
0.0
 13
1.0
 23
0.0
 33
0.0
 40
0.0
 40
0.0
 40
0.0
 40
0.0
 40
0.165114793211652
 40
0.3302749361174266
 40
0.4953484587944419
 40
0.6635403901514183
 40
0.8318394624080322
 40
1.0
 40
1.0
 40
1.0
 40
1.0
 10
-111.9038622953626
 20
32.66304578617002
 30
0.0
 10
-111.704673171872
 20
33.33696125391889
 30
0.0
 10
-111.306240216493
 20
34.68497728403924
 30
0.0
 10
-110.807572451227
 20
36.73096381431942
 30
0.0
 10
-110.3925403845004
 20
38.80671090979482
 30
0.0
 10
-110.0870369097124
 20
40.91272895382364
 30
0.0
 10
-109.8879496129674
 20
43.0440820513979
 30
0.0
 10
-109.8623718359571
 20
44.46968751686353
 30
0.0
 10
-109.8495882131788
 20
45.18219675853635
 30
0.0
  0
LINE
  5
39D
330
1F
100
AcDbEntity
  8
0
  6
Continuous
 62
     7
370
    15
100
AcDbLine
 10
-134.6495609858
 20
32.6630457862
 30
0.0
 11
-111.9038622954
 21
32.6630457862
 31
0.0
  0
LINE
  5
39E
330
1F
100
AcDbEntity
  8
0
  6
Continuous
 62
     7
370
    15
100
AcDbLine
 10
165.7504260413
 20
59.9585607274
 30
0.0
 11
165.7504260413
 21
72.5876971705
 31
0.0
  0
LINE
  5
39F
330
1F
100
AcDbEntity
  8
0
  6
Continuous
 62
     7
370
    15
100
AcDbLine
 10
165.7504260413
 20
47.3294242842
 30
0.0
 11
165.7504260413
 21
59.9585607274
 31
0.0
  0
LINE
  5
3A0
330
1F
100
AcDbEntity
  8
0
  6
Continuous
 62
     7
370
    15
100
AcDbLine
 10
165.7504260413
 20
47.3294242842
 30
0.0
 11
143.0047031365
 21
47.3294242842
 31
0.0
  0
SPLINE
  5
3A1
330
1F
100
AcDbEntity
  8
0
  6
Continuous
 62
     7
370
    15
100
AcDbSpline
210
0.0
220
0.0
230
1.0
 70
     8
 71
     3
 72
    12
 73
     8
 74
     0
 42
0.00000001
 43
0.00000001
 12
1.0
 22
0.0
 32
0.0
 13
1.0
 23
0.0
 33
0.0
 40
0.0
 40
0.0
 40
0.0
 40
0.0
 40
0.2500000000000014
 40
0.2500000000000014
 40
0.5000000000000029
 40
0.5000000000000029
 40
1.0
 40
1.0
 40
1.0
 40
1.0
 10
140.9504257104695
 20
59.95856208746078
 30
0.0
 10
140.9504257104695
 20
58.89087022621506
 30
0.0
 10
140.9981342414347
 20
57.81975841281118
 30
0.0
 10
141.1877368963117
 20
55.67078315866627
 30
0.0
 10
141.328651220926
 20
54.60415354479009
 30
0.0
 10
141.8686809632201
 20
51.44033598760728
 30
0.0
 10
142.3848742235128
 20
49.37148955155074
 30
0.0
 10
143.0047028524414
 20
47.32942916641819
 30
0.0
  0
SPLINE
  5
3A2
330
1F
100
AcDbEntity
  8
0
  6
Continuous
 62
     7
370
    15
100
AcDbSpline
210
0.0
220
0.0
230
1.0
 70
     8
 71
     3
 72
    12
 73
     8
 74
     0
 42
0.00000001
 43
0.00000001
 12
1.0
 22
0.0
 32
0.0
 13
1.0
 23
0.0
 33
0.0
 40
0.0
 40
0.0
 40
0.0
 40
0.0
 40
0.2499999999999976
 40
0.2499999999999976
 40
0.4999999999999952
 40
0.4999999999999952
 40
1.0
 40
1.0
 40
1.0
 40
1.0
 10
143.0047028524413
 20
72.58769500850597
 30
0.0
 10
142.6929725472345
 20
71.56068193199077
 30
0.0
 10
142.4067829149672
 20
70.52423585594258
 30
0.0
 10
141.8989624592315
 20
68.42750004026347
 30
0.0
 10
141.6795693628443
 20
67.3756991342801
 30
0.0
 10
141.143305729189
 20
64.21296715841116
 30
0.0
 10
140.9504257104694
 20
62.09267785651237
 30
0.0
 10
140.9504257104695
 20
59.95856208746078
 30
0.0
  0
LINE
  5
3A3
330
1F
100
AcDbEntity
  8
0
  6
Continuous
 62
     7
370
    15
100
AcDbLine
 10
165.7504260413
 20
72.5876971705
 30
0.0
 11
143.0047031365
 21
72.5876971705
 31
0.0
  0
LINE
  5
3A4
330
1F
100
AcDbEntity
  8
0
  6
Continuous
 62
     7
370
    15
100
AcDbLine
 10
165.7504260413
 20
27.5929107888
 30
0.0
 11
165.7504260413
 21
37.4611600859
 31
0.0
  0
LINE
  5
3A5
330
1F
100
AcDbEntity
  8
0
  6
Continuous
 62
     7
370
    15
100
AcDbLine
 10
165.7504260413
 20
27.5929107888
 30
0.0
 11
143.0047031365
 21
27.5929107888
 31
0.0
  0
SPLINE
  5
3A6
330
1F
100
AcDbEntity
  8
0
  6
Continuous
 62
     7
370
    15
100
AcDbSpline
210
0.0
220
0.0
230
1.0
 70
     8
 71
     3
 72
    14
 73
    10
 74
     0
 42
0.00000001
 43
0.00000001
 12
1.0
 22
0.0
 32
0.0
 13
1.0
 23
0.0
 33
0.0
 40
0.0
 40
0.0
 40
0.0
 40
0.0
 40
0.1250000000000004
 40
0.1250000000000004
 40
0.2500000000000009
 40
0.2500000000000009
 40
0.5000000000000019
 40
0.5000000000000019
 40
1.0
 40
1.0
 40
1.0
 40
1.0
 10
140.9504257104706
 20
37.46116727058035
 30
0.0
 10
140.9504257104707
 20
37.04242453033441
 30
0.0
 10
140.9624740022719
 20
36.62158686604991
 30
0.0
 10
141.0102654096587
 20
35.78382687809706
 30
0.0
 10
141.0459570514971
 20
35.366398920155
 30
0.0
 10
141.1868850488347
 20
34.11828223333388
 30
0.0
 10
141.3260529960156
 20
33.29177035696257
 30
0.0
 10
141.8628091678855
 20
30.82691424538006
 30
0.0
 10
142.3791857115116
 20
29.20319240962718
 30
0.0
 10
143.0047028524428
 20
27.59290537474673
 30
0.0
  0
SPLINE
  5
3A7
330
1F
100
AcDbEntity
  8
0
  6
Continuous
 62
     7
370
    15
100
AcDbSpline
210
0.0
220
0.0
230
1.0
 70
     8
 71
     3
 72
    10
 73
     6
 74
     0
 42
0.00000001
 43
0.00000001
 12
1.0
 22
0.0
 32
0.0
 13
1.0
 23
0.0
 33
0.0
 40
0.0
 40
0.0
 40
0.0
 40
0.0
 40
0.5
 40
0.5
 40
1.0
 40
1.0
 40
1.0
 40
1.0
 10
143.0047028524416
 20
47.32942916641441
 30
0.0
 10
142.377619486925
 20
45.71511015386479
 30
0.0
 10
141.8609962129312
 20
44.08899984922834
 30
0.0
 10
141.1462090681892
 20
40.80278462896297
 30
0.0
 10
140.9504257104705
 20
39.14242560052244
 30
0.0
 10
140.9504257104706
 20
37.46116727058035
 30
0.0
  0
LINE
  5
3A8
330
1F
100
AcDbEntity
  8
0
  6
Continuous
 62
     7
370
    15
100
AcDbLine
 10
165.7504260413
 20
37.4611600859
 30
0.0
 11
165.7504260413
 21
47.3294242842
 31
0.0
  0
LINE
  5
3A9
330
1F
100
AcDbEntity
  8
0
  6
Continuous
 62
     7
370
    15
100
AcDbLine
 10
140.950425329
 20
37.4611600859
 30
0.0
 11
140.950425329
 21
59.9585607274
 31
0.0
  0
SPLINE
  5
3AA
330
1F
100
AcDbEntity
  8
0
  6
Continuous
 62
     7
370
    15
100
AcDbSpline
210
0.0
220
0.0
230
1.0
 70
     8
 71
     3
 72
    13
 73
     9
 74
     0
 42
0.00000001
 43
0.00000001
 12
1.0
 22
0.0
 32
0.0
 13
1.0
 23
0.0
 33
0.0
 40
0.0
 40
0.0
 40
0.0
 40
0.0
 40
0.070071842561627
 40
0.2236273232901238
 40
0.3772870076757285
 40
0.5308667541473203
 40
0.7654113181213408
 40
0.9999999999999999
 40
0.9999999999999999
 40
0.9999999999999999
 40
0.9999999999999999
 10
140.9504253289965
 20
75.34855451419736
 30
0.0
 10
140.9526807744375
 20
75.28309452750132
 30
0.0
 10
140.9598788044645
 20
75.07418548397821
 30
0.0
 10
141.0481137299959
 20
74.72194410717775
 30
0.0
 10
141.2535378612649
 20
74.29340092301689
 30
0.0
 10
141.6119447596668
 20
73.79259924358294
 30
0.0
 10
142.1675827300332
 20
73.22186694810812
 30
0.0
 10
142.7256455073401
 20
72.7991003488933
 30
0.0
 10
143.0047031364706
 20
72.58769717052368
 30
0.0
  0
LINE
  5
3AB
330
1F
100
AcDbEntity
  8
0
  6
Continuous
 62
     7
370
    15
100
AcDbLine
 10
140.950425329
 20
59.9585607274
 30
0.0
 11
140.950425329
 21
75.3485545142
 31
0.0
  0
SPLINE
  5
3AC
330
1F
100
AcDbEntity
  8
0
  6
Continuous
 62
     7
370
    15
100
AcDbSpline
210
0.0
220
0.0
230
1.0
 70
     8
 71
     3
 72
    13
 73
     9
 74
     0
 42
0.00000001
 43
0.00000001
 12
1.0
 22
0.0
 32
0.0
 13
1.0
 23
0.0
 33
0.0
 40
0.0
 40
0.0
 40
0.0
 40
0.0
 40
0.0700728580141571
 40
0.2236273349212464
 40
0.3772863899903913
 40
0.5308670715364565
 40
0.7654102499164454
 40
1.0
 40
1.0
 40
1.0
 40
1.0
 10
-109.8495882131788
 20
30.23797120883848
 30
0.0
 10
-109.8518367300171
 20
30.29547407341615
 30
0.0
 10
-109.859012544481
 20
30.47898610247074
 30
0.0
 10
-109.9472447472338
 20
30.78837400240342
 30
0.0
 10
-110.1527014587032
 20
31.16479628422744
 30
0.0
 10
-110.5110947113803
 20
31.60470198980619
 30
0.0
 10
-111.0667370929465
 20
32.10602495130144
 30
0.0
 10
-111.624802094505
 20
32.47735988684253
 30
0.0
 10
-111.9038622953626
 20
32.66304578617002
 30
0.0
  0
LINE
  5
3AD
330
1F
100
AcDbEntity
  8
0
  6
Continuous
 62
     7
370
    15
100
AcDbLine
 10
-109.8495882132
 20
45.1821967585
 30
0.0
 11
-109.8495882132
 21
30.2379712088
 31
0.0
  0
LINE
  5
3AE
330
1F
100
AcDbEntity
  8
0
  6
Continuous
 62
     7
370
    15
100
AcDbLine
 10
165.7504260413
 20
75.3485545142
 30
0.0
 11
165.7504260413
 21
78.1094416602
 31
0.0
  0
SPLINE
  5
3AF
330
1F
100
AcDbEntity
  8
0
  6
Continuous
 62
     7
370
    15
100
AcDbSpline
210
0.0
220
0.0
230
1.0
 70
     8
 71
     3
 72
    13
 73
     9
 74
     0
 42
0.00000001
 43
0.00000001
 12
1.0
 22
0.0
 32
0.0
 13
1.0
 23
0.0
 33
0.0
 40
0.0
 40
0.0
 40
0.0
 40
0.0
 40
0.1651137511253103
 40
0.3302735379959018
 40
0.4953481692149912
 40
0.6635402951953266
 40
0.8318386834801597
 40
1.0
 40
1.0
 40
1.0
 40
1.0
 10
143.0047031364706
 20
78.10944166019345
 30
0.0
 10
142.8055207315851
 20
77.96081046936409
 30
0.0
 10
142.4071003873091
 20
77.66350664750054
 30
0.0
 10
141.9084409503521
 20
77.2123677916059
 30
0.0
 10
141.4933758295022
 20
76.75454211037025
 30
0.0
 10
141.1878978240724
 20
76.29014066029937
 30
0.0
 10
140.9888082088312
 20
75.8200743931156
 30
0.0
 10
140.9632161469214
 20
75.50568511370354
 30
0.0
 10
140.9504253289965
 20
75.34855451419736
 30
0.0
  0
LINE
  5
3B0
330
1F
100
AcDbEntity
  8
0
  6
Continuous
 62
     7
370
    15
100
AcDbLine
 10
165.7504260413
 20
78.1094416602
 30
0.0
 11
143.0047031365
 21
78.1094416602
 31
0.0
  0
LINE
  5
3B1
330
1F
100
AcDbEntity
  8
0
  6
Continuous
 62
     7
370
    15
100
AcDbLine
 10
165.7504260413
 20
72.5876971705
 30
0.0
 11
165.7504260413
 21
75.3485545142
 31
0.0
  0
SPLINE
  5
3B2
330
1F
100
AcDbEntity
  8
0
  6
Continuous
 62
     7
370
    15
100
AcDbSpline
210
0.0
220
0.0
230
1.0
 70
     8
 71
     3
 72
    12
 73
     8
 74
     0
 42
0.00000001
 43
0.00000001
 12
1.0
 22
0.0
 32
0.0
 13
1.0
 23
0.0
 33
0.0
 40
0.0
 40
0.0
 40
0.0
 40
0.0
 40
0.2419284775866148
 40
0.4839244334316718
 40
0.7257938899740528
 40
0.9722325143278403
 40
1.0
 40
1.0
 40
1.0
 40
1.0
 10
-111.9038622953627
 20
77.88947071864993
 30
0.0
 10
-111.7048475187961
 20
77.75891262191404
 30
0.0
 10
-111.3067624568173
 20
77.49776001341135
 30
0.0
 10
-110.8054775261428
 20
77.10150432174196
 30
0.0
 10
-110.4004531923257
 20
76.69920445855666
 30
0.0
 10
-110.159173367796
 20
76.41327922406099
 30
0.0
 10
-110.0906538843339
 20
76.26010257470406
 30
0.0
 10
-110.0837152578565
 20
76.24459113910581
 30
0.0
  0
LINE
  5
3B3
330
1F
100
AcDbEntity
  8
0
  6
Continuous
 62
     7
370
    15
100
AcDbLine
 10
-109.8495882132
 20
75.8511706813
 30
0.0
 11
-109.8495882132
 21
67.7953943236
 31
0.0
  0
LINE
  5
3B4
330
1F
100
AcDbEntity
  8
0
  6
Continuous
 62
     7
370
    15
100
AcDbLine
 10
-134.6495609858
 20
30.2379712088
 30
0.0
 11
-134.6495609858
 21
27.8128817303
 31
0.0
  0
SPLINE
  5
3B5
330
1F
100
AcDbEntity
  8
0
  6
Continuous
 62
     7
370
    15
100
AcDbSpline
210
0.0
220
0.0
230
1.0
 70
     8
 71
     3
 72
    13
 73
     9
 74
     0
 42
0.00000001
 43
0.00000001
 12
1.0
 22
0.0
 32
0.0
 13
1.0
 23
0.0
 33
0.0
 40
0.0
 40
0.0
 40
0.0
 40
0.0
 40
0.1651138787306611
 40
0.3302740056538846
 40
0.4953488661938785
 40
0.6635401989131249
 40
0.831839613276324
 40
1.0
 40
1.0
 40
1.0
 40
1.0
 10
-111.9038622953626
 20
27.81288173034574
 30
0.0
 10
-111.7046730363404
 20
27.94342984061471
 30
0.0
 10
-111.3062387256317
 20
28.2045626275165
 30
0.0
 10
-110.8075700908602
 20
28.60087989181956
 30
0.0
 10
-110.3925433428392
 20
29.00296468039412
 30
0.0
 10
-110.0870355701056
 20
29.41092766990447
 30
0.0
 10
-109.8879500578029
 20
29.82380225701292
 30
0.0
 10
-109.8623719717031
 20
30.09995292738587
 30
0.0
 10
-109.8495882131788
 20
30.23797120883848
 30
0.0
  0
LINE
  5
3B6
330
1F
100
AcDbEntity
  8
0
  6
Continuous
 62
     7
370
    15
100
AcDbLine
 10
-134.6495609858
 20
27.8128817303
 30
0.0
 11
-111.9038622954
 21
27.8128817303
 31
0.0
  0
LINE
  5
3B7
330
1F
100
AcDbEntity
  8
0
  6
Continuous
 62
     7
370
    15
100
AcDbLine
 10
-134.6495609858
 20
32.6630457862
 30
0.0
 11
-134.6495609858
 21
30.2379712088
 31
0.0
  0
SPLINE
  5
3B8
330
1F
100
AcDbEntity
  8
0
  6
Continuous
 62
     7
370
    15
100
AcDbSpline
210
0.0
220
0.0
230
1.0
 70
     8
 71
     3
 72
    11
 73
     7
 74
     0
 42
0.00000001
 43
0.00000001
 12
1.0
 22
0.0
 32
0.0
 13
1.0
 23
0.0
 33
0.0
 40
0.0
 40
0.0
 40
0.0
 40
0.0
 40
0.2594278515628072
 40
0.5189294357628886
 40
0.7782961638728779
 40
1.0
 40
1.0
 40
1.0
 40
1.0
 10
143.0047031364706
 20
27.59291078880216
 30
0.0
 10
142.8053673996355
 20
27.74152149221129
 30
0.0
 10
142.4066392722578
 20
28.0387851360486
 30
0.0
 10
141.910279394282
 20
28.49005354284814
 30
0.0
 10
141.509470546906
 20
28.92272440215338
 30
0.0
 10
141.3357197564062
 20
29.20655509661341
 30
0.0
 10
141.2556458137301
 20
29.33735992744355
 30
0.0
  0
LINE
  5
3B9
330
1F
100
AcDbEntity
  8
0
  6
Continuous
 62
     7
370
    15
100
AcDbLine
 10
140.950425329
 20
29.8511668666
 30
0.0
 11
140.950425329
 21
37.4611600859
 31
0.0
  0
LINE
  5
3BA
330
1F
100
AcDbEntity
  8
0
  6
Continuous
 62
     7
370
    15
100
AcDbLine
 10
318.0504280947
 20
37.8511681779
 30
0.0
 11
318.0504280947
 21
67.85116937
 31
0.0
  0
LINE
  5
3BB
330
1F
100
AcDbEntity
  8
0
  6
Continuous
 62
     7
370
    15
100
AcDbLine
 10
-286.9495611765
 20
37.8511681779
 30
0.0
 11
-286.9495611765
 21
67.85116937
 31
0.0
  0
LINE
  5
3BC
330
1F
100
AcDbEntity
  8
0
  6
Continuous
 62
     7
370
    15
100
AcDbLine
 10
140.950425329
 20
75.3485545142
 30
0.0
 11
140.950425329
 21
75.8511706813
 31
0.0
  0
LINE
  5
3BD
330
1F
100
AcDbEntity
  8
0
  6
Continuous
 62
     7
370
    15
100
AcDbLine
 10
-109.8495882132
 20
30.2379712088
 30
0.0
 11
-109.8495882132
 21
29.8511668666
 31
0.0
  0
LINE
  5
3BE
330
1F
100
AcDbEntity
  8
0
  6
Continuous
 62
     7
370
    15
100
AcDbLine
 10
35.5504292867
 20
134.0414568408
 30
0.0
 11
35.5504292867
 21
67.85116937
 31
0.0
  0
LINE
  5
3BF
330
1F
100
AcDbEntity
  8
0
  6
Continuous
 62
     7
370
    15
100
AcDbLine
 10
38.0504269026
 20
67.85116937
 30
0.0
 11
38.0504269026
 21
75.3195270522
 31
0.0
  0
LINE
  5
3C0
330
1F
100
AcDbEntity
  8
0
  6
Continuous
 62
     7
370
    15
100
AcDbLine
 10
38.0504269026
 20
-429.2365923898
 30
0.0
 11
38.0504269026
 21
-405.2365735547
 31
0.0
  0
SPLINE
  5
3C1
330
1F
100
AcDbEntity
  8
0
  6
Continuous
 62
     7
370
    15
100
AcDbSpline
210
0.0
220
0.0
230
1.0
 70
     8
 71
     3
 72
    15
 73
    11
 74
     0
 42
0.00000001
 43
0.00000001
 12
1.0
 22
0.0
 32
0.0
 13
1.0
 23
0.0
 33
0.0
 40
0.0
 40
0.0
 40
0.0
 40
0.0
 40
0.1899411987907695
 40
0.2857366816338374
 40
0.3815224098718373
 40
0.5126801628820102
 40
0.6438339355153685
 40
0.7784831173856417
 40
0.913168285737959
 40
0.9999999999999999
 40
0.9999999999999999
 40
0.9999999999999999
 40
0.9999999999999999
 10
47.21356815316947
 20
73.65488853290464
 30
0.0
 10
47.37775955420621
 20
73.29468074147233
 30
0.0
 10
47.62475971206413
 20
72.75280473101346
 30
0.0
 10
47.84298033755561
 20
72.01479880842423
 30
0.0
 10
47.97421460708591
 20
71.38606666217781
 30
0.0
 10
48.03431375134726
 20
70.68352572814035
 30
0.0
 10
47.99194456009784
 20
69.90413592863743
 30
0.0
 10
47.8330990894251
 20
69.12327849114419
 30
0.0
 10
47.61551607898829
 20
68.43542138769787
 30
0.0
 10
47.42301664815832
 20
68.01569615806919
 30
0.0
 10
47.34755939462455
 20
67.85116936996366
 30
0.0
  0
LINE
  5
3C2
330
1F
100
AcDbEntity
  8
0
  6
Continuous
 62
     7
370
    15
100
AcDbLine
 10
47.5254345558
 20
73.1712266429
 30
0.0
 11
47.2135681532
 21
73.6548885329
 31
0.0
  0
LINE
  5
3C3
330
1F
100
AcDbEntity
  8
0
  6
Continuous
 62
     7
370
    15
100
AcDbLine
 10
48.4504241369
 20
69.9939116462
 30
0.0
 11
48.4504241369
 21
71.5695157273
 31
0.0
  0
LINE
  5
3C4
330
1F
100
AcDbEntity
  8
0
  6
Continuous
 62
     7
370
    15
100
AcDbLine
 10
48.4504241369
 20
67.85116937
 30
0.0
 11
48.4504241369
 21
69.9939116462
 31
0.0
  0
SPLINE
  5
3C5
330
1F
100
AcDbEntity
  8
0
  6
Continuous
 62
     7
370
    15
100
AcDbSpline
210
0.0
220
0.0
230
1.0
 70
     8
 71
     3
 72
    14
 73
    10
 74
     0
 42
0.00000001
 43
0.00000001
 12
1.0
 22
0.0
 32
0.0
 13
1.0
 23
0.0
 33
0.0
 40
0.0
 40
0.0
 40
0.0
 40
0.0
 40
0.0868377159987506
 40
0.2181498925545616
 40
0.3494286705965923
 40
0.4839725307761957
 40
0.6185189384708664
 40
0.8083288891965786
 40
1.0
 40
1.0
 40
1.0
 40
1.0
 10
39.15329164483817
 20
67.85116936996366
 30
0.0
 10
39.07782191164988
 20
68.015694307022
 30
0.0
 10
38.88823016575022
 20
68.42900662102089
 30
0.0
 10
38.67372916835746
 20
69.10365922509936
 30
0.0
 10
38.51251859669966
 20
69.87758429939578
 30
0.0
 10
38.46507612657236
 20
70.66366492210372
 30
0.0
 10
38.54206476450528
 20
71.56364390689096
 30
0.0
 10
38.79395913807463
 20
72.56785684961261
 30
0.0
 10
39.12230765742525
 20
73.29136802251874
 30
0.0
 10
39.28728288629325
 20
73.65488853290464
 30
0.0
  0
LINE
  5
3C6
330
1F
100
AcDbEntity
  8
0
  6
Continuous
 62
     7
370
    15
100
AcDbLine
 10
39.2872828863
 20
73.6548885329
 30
0.0
 11
38.9797229193
 21
73.1711968406
 31
0.0
  0
LINE
  5
3C7
330
1F
100
AcDbEntity
  8
0
  6
Continuous
 62
     7
370
    15
100
AcDbLine
 10
39.2872828863
 20
-411.1281350629
 30
0.0
 11
47.2135681532
 21
-411.1281350629
 31
0.0
  0
SPLINE
  5
3C8
330
1F
100
AcDbEntity
  8
0
  6
Continuous
 62
     7
370
    15
100
AcDbSpline
210
0.0
220
0.0
230
1.0
 70
     8
 71
     3
 72
    16
 73
    12
 74
     0
 42
0.00000001
 43
0.00000001
 12
1.0
 22
0.0
 32
0.0
 13
1.0
 23
0.0
 33
0.0
 40
0.0
 40
0.0
 40
0.0
 40
0.0
 40
0.2499999999999954
 40
0.2499999999999954
 40
0.4999999999999909
 40
0.4999999999999909
 40
0.6249999999999929
 40
0.6249999999999929
 40
0.749999999999995
 40
0.749999999999995
 40
1.0
 40
1.0
 40
1.0
 40
1.0
 10
47.21356543128108
 20
-411.1281364727014
 30
0.0
 10
47.45848694586344
 20
-411.9719216821232
 30
0.0
 10
47.66034666589994
 20
-412.8218588024743
 30
0.0
 10
47.93998793749702
 20
-414.539459146995
 30
0.0
 10
48.01684707222537
 20
-415.4072541498389
 30
0.0
 10
48.01769123339457
 20
-416.725296474857
 30
0.0
 10
47.99890214672445
 20
-417.1667111549573
 30
0.0
 10
47.92563465464362
 20
-418.0398759571121
 30
0.0
 10
47.87123060298027
 20
-418.4735309610127
 30
0.0
 10
47.66115154462823
 20
-419.7667753378806
 30
0.0
 10
47.45879225146086
 20
-420.6186741594673
 30
0.0
 10
47.21356543128089
 20
-421.4635111848067
 30
0.0
  0
LINE
  5
3C9
330
1F
100
AcDbEntity
  8
0
  6
Continuous
 62
     7
370
    15
100
AcDbLine
 10
39.2872828863
 20
-421.4635059612
 30
0.0
 11
47.2135681532
 21
-421.4635059612
 31
0.0
  0
SPLINE
  5
3CA
330
1F
100
AcDbEntity
  8
0
  6
Continuous
 62
     7
370
    15
100
AcDbSpline
210
0.0
220
0.0
230
1.0
 70
     8
 71
     3
 72
    16
 73
    12
 74
     0
 42
0.00000001
 43
0.00000001
 12
1.0
 22
0.0
 32
0.0
 13
1.0
 23
0.0
 33
0.0
 40
0.0
 40
0.0
 40
0.0
 40
0.0
 40
0.2500000000000046
 40
0.2500000000000046
 40
0.5000000000000091
 40
0.5000000000000091
 40
0.625000000000007
 40
0.625000000000007
 40
0.750000000000005
 40
0.750000000000005
 40
1.0
 40
1.0
 40
1.0
 40
1.0
 10
39.2872859896514
 20
-421.4635111848068
 30
0.0
 10
39.04236447506893
 20
-420.619725975385
 30
0.0
 10
38.84050475503248
 20
-419.7697888550339
 30
0.0
 10
38.56086348343544
 20
-418.0521885105131
 30
0.0
 10
38.48400434870717
 20
-417.1843935076693
 30
0.0
 10
38.48316018753795
 20
-415.8663511826513
 30
0.0
 10
38.50194927420803
 20
-415.4249365025508
 30
0.0
 10
38.57521676628895
 20
-414.5517717003959
 30
0.0
 10
38.6296208179523
 20
-414.1181166964954
 30
0.0
 10
38.83969987630429
 20
-412.8248723196275
 30
0.0
 10
39.04205916947166
 20
-411.9729734980409
 30
0.0
 10
39.28728598965165
 20
-411.1281364727014
 30
0.0
  0
SPLINE
  5
3CB
330
1F
100
AcDbEntity
  8
0
  6
Continuous
 62
     7
370
    15
100
AcDbSpline
210
0.0
220
0.0
230
1.0
 70
     8
 71
     3
 72
    16
 73
    12
 74
     0
 42
0.00000001
 43
0.00000001
 12
1.0
 22
0.0
 32
0.0
 13
1.0
 23
0.0
 33
0.0
 40
0.0
 40
0.0
 40
0.0
 40
0.0
 40
0.249999999999999
 40
0.249999999999999
 40
0.499999999999998
 40
0.499999999999998
 40
0.625000000000001
 40
0.625000000000001
 40
0.7500000000000041
 40
0.7500000000000041
 40
1.0
 40
1.0
 40
1.0
 40
1.0
 10
47.21356543128111
 20
-406.9012052860576
 30
0.0
 10
47.45848694586356
 20
-407.246294082147
 30
0.0
 10
47.6603466659
 20
-407.5938988686954
 30
0.0
 10
47.93998793749713
 20
-408.2963580116562
 30
0.0
 10
48.01684707222543
 20
-408.6512662625238
 30
0.0
 10
48.01769123339454
 20
-409.1903153404842
 30
0.0
 10
47.99890214672454
 20
-409.37084381957
 30
0.0
 10
47.92563465464364
 20
-409.7279481951845
 30
0.0
 10
47.87123060298033
 20
-409.9053031446944
 30
0.0
 10
47.66115154462823
 20
-410.4342104306714
 30
0.0
 10
47.45879225146094
 20
-410.782617508028
 30
0.0
 10
47.21356543128092
 20
-411.1281364727015
 30
0.0
  0
LINE
  5
3CC
330
1F
100
AcDbEntity
  8
0
  6
Continuous
 62
     7
370
    15
100
AcDbLine
 10
47.2135681532
 20
-427.5719538705
 30
0.0
 11
47.5211281202
 21
-427.0882621782
 31
0.0
  0
SPLINE
  5
3CD
330
1F
100
AcDbEntity
  8
0
  6
Continuous
 62
     7
370
    15
100
AcDbSpline
210
0.0
220
0.0
230
1.0
 70
     8
 71
     3
 72
    16
 73
    12
 74
     0
 42
0.00000001
 43
0.00000001
 12
1.0
 22
0.0
 32
0.0
 13
1.0
 23
0.0
 33
0.0
 40
0.0
 40
0.0
 40
0.0
 40
0.0
 40
0.249999999999998
 40
0.249999999999998
 40
0.499999999999996
 40
0.499999999999996
 40
0.6249999999999959
 40
0.6249999999999959
 40
0.7499999999999958
 40
0.7499999999999958
 40
1.0
 40
1.0
 40
1.0
 40
1.0
 10
47.2135654312807
 20
-427.5719547102682
 30
0.0
 10
47.45754072781114
 20
-427.0751849367802
 30
0.0
 10
47.66223468330212
 20
-426.5662640680118
 30
0.0
 10
47.94208845562765
 20
-425.5459362647956
 30
0.0
 10
48.01749702991874
 20
-425.0330112624317
 30
0.0
 10
48.01737089068601
 20
-424.2587776263496
 30
0.0
 10
47.99867942449244
 20
-423.9999016342895
 30
0.0
 10
47.92450456743539
 20
-423.4805751171714
 30
0.0
 10
47.86932831911467
 20
-423.2224745110321
 30
0.0
 10
47.65799127903914
 20
-422.4574113903395
 30
0.0
 10
47.45602821466966
 20
-421.9572012579258
 30
0.0
 10
47.21356543128067
 20
-421.4635111848067
 30
0.0
  0
LINE
  5
3CE
330
1F
100
AcDbEntity
  8
0
  6
Continuous
 62
     7
370
    15
100
AcDbLine
 10
48.4504241369
 20
-423.9109769838
 30
0.0
 11
48.4504241369
 21
-408.9865848796
 31
0.0
  0
LINE
  5
3CF
330
1F
100
AcDbEntity
  8
0
  6
Continuous
 62
     7
370
    15
100
AcDbLine
 10
48.4504241369
 20
-425.4865810649
 30
0.0
 11
48.4504241369
 21
-423.9109769838
 31
0.0
  0
SPLINE
  5
3D0
330
1F
100
AcDbEntity
  8
0
  6
Continuous
 62
     7
370
    15
100
AcDbSpline
210
0.0
220
0.0
230
1.0
 70
     8
 71
     3
 72
    16
 73
    12
 74
     0
 42
0.00000001
 43
0.00000001
 12
1.0
 22
0.0
 32
0.0
 13
1.0
 23
0.0
 33
0.0
 40
0.0
 40
0.0
 40
0.0
 40
0.0
 40
0.2499999999999979
 40
0.2499999999999979
 40
0.4999999999999959
 40
0.4999999999999959
 40
0.6249999999999981
 40
0.6249999999999981
 40
0.7500000000000002
 40
0.7500000000000002
 40
1.0
 40
1.0
 40
1.0
 40
1.0
 10
39.28728598965176
 20
-427.5719547102681
 30
0.0
 10
39.04331069312126
 20
-427.0751849367802
 30
0.0
 10
38.83861673763037
 20
-426.5662640680118
 30
0.0
 10
38.55876296530484
 20
-425.5459362647956
 30
0.0
 10
38.48335439101375
 20
-425.0330112624317
 30
0.0
 10
38.48348053024642
 20
-424.2587776263495
 30
0.0
 10
38.50217199644002
 20
-423.9999016342895
 30
0.0
 10
38.57634685349713
 20
-423.4805751171714
 30
0.0
 10
38.63152310181784
 20
-423.2224745110321
 30
0.0
 10
38.84286014189332
 20
-422.4574113903395
 30
0.0
 10
39.04482320626283
 20
-421.957201257926
 30
0.0
 10
39.28728598965179
 20
-421.4635111848068
 30
0.0
  0
LINE
  5
3D1
330
1F
100
AcDbEntity
  8
0
  6
Continuous
 62
     7
370
    15
100
AcDbLine
 10
38.9754164837
 20
-427.0882919805
 30
0.0
 11
39.2872828863
 21
-427.5719538705
 31
0.0
  0
SPLINE
  5
3D2
330
1F
100
AcDbEntity
  8
0
  6
Continuous
 62
     7
370
    15
100
AcDbSpline
210
0.0
220
0.0
230
1.0
 70
     8
 71
     3
 72
    16
 73
    12
 74
     0
 42
0.00000001
 43
0.00000001
 12
1.0
 22
0.0
 32
0.0
 13
1.0
 23
0.0
 33
0.0
 40
0.0
 40
0.0
 40
0.0
 40
0.0
 40
0.250000000000001
 40
0.250000000000001
 40
0.500000000000002
 40
0.500000000000002
 40
0.6249999999999989
 40
0.6249999999999989
 40
0.7499999999999959
 40
0.7499999999999959
 40
1.0
 40
1.0
 40
1.0
 40
1.0
 10
39.28728598965143
 20
-411.1281364727015
 30
0.0
 10
39.04236447506904
 20
-410.7830476766121
 30
0.0
 10
38.84050475503254
 20
-410.4354428900637
 30
0.0
 10
38.56086348343547
 20
-409.7329837471028
 30
0.0
 10
38.48400434870712
 20
-409.3780754962353
 30
0.0
 10
38.48316018753793
 20
-408.8390264182748
 30
0.0
 10
38.50194927420803
 20
-408.6584979391891
 30
0.0
 10
38.57521676628892
 20
-408.3013935635745
 30
0.0
 10
38.62962081795227
 20
-408.1240386140646
 30
0.0
 10
38.83969987630427
 20
-407.5951313280877
 30
0.0
 10
39.04205916947163
 20
-407.2467242507311
 30
0.0
 10
39.28728598965165
 20
-406.9012052860576
 30
0.0
  0
LINE
  5
3D3
330
1F
100
AcDbEntity
  8
0
  6
Continuous
 62
     7
370
    15
100
AcDbLine
 10
39.2872828863
 20
73.6548885329
 30
0.0
 11
47.2135681532
 21
73.6548885329
 31
0.0
  0
LINE
  5
3D4
330
1F
100
AcDbEntity
  8
0
  6
Continuous
 62
     7
370
    15
100
AcDbLine
 10
39.2872828863
 20
-427.5719538705
 30
0.0
 11
47.2135681532
 21
-427.5719538705
 31
0.0
  0
LINE
  5
3D5
330
1F
100
AcDbEntity
  8
0
  6
Continuous
 62
     7
370
    15
100
AcDbLine
 10
39.2872828863
 20
-406.901212074
 30
0.0
 11
47.2135681532
 21
-406.901212074
 31
0.0
  0
LINE
  5
3D6
330
1F
100
AcDbEntity
  8
0
  6
Continuous
 62
     7
370
    15
100
AcDbLine
 10
88.5504249356
 20
67.85116937
 30
0.0
 11
88.5504249356
 21
69.3195148928
 31
0.0
  0
LINE
  5
3D7
330
1F
100
AcDbEntity
  8
0
  6
Continuous
 62
     7
370
    15
100
AcDbLine
 10
88.5504249356
 20
-422.0906809346
 30
0.0
 11
88.5504249356
 21
-411.2365857141
 31
0.0
  0
LINE
  5
3D8
330
1F
100
AcDbEntity
  8
0
  6
Continuous
 62
     7
370
    15
100
AcDbLine
 10
88.5504249356
 20
-423.2365802304
 30
0.0
 11
88.5504249356
 21
-422.0906809346
 31
0.0
  0
LINE
  5
3D9
330
1F
100
AcDbEntity
  8
0
  6
Continuous
 62
     7
370
    15
100
AcDbLine
 10
38.0504269026
 20
120.0414582713
 30
0.0
 11
38.0504269026
 21
132.0414527877
 31
0.0
  0
LINE
  5
3DA
330
1F
100
AcDbEntity
  8
0
  6
Continuous
 62
     7
370
    15
100
AcDbLine
 10
38.0504269026
 20
108.0414637549
 30
0.0
 11
38.0504269026
 21
120.0414582713
 31
0.0
  0
LINE
  5
3DB
330
1F
100
AcDbEntity
  8
0
  6
Continuous
 62
     7
370
    15
100
AcDbLine
 10
38.0504269026
 20
-485.9585181253
 30
0.0
 11
38.0504269026
 21
-461.9585290925
 31
0.0
  0
LINE
  5
3DC
330
1F
100
AcDbEntity
  8
0
  6
Continuous
 62
     7
370
    15
100
AcDbLine
 10
39.2872828863
 20
129.0414616092
 30
0.0
 11
47.2135681532
 21
129.0414616092
 31
0.0
  0
SPLINE
  5
3DD
330
1F
100
AcDbEntity
  8
0
  6
Continuous
 62
     7
370
    15
100
AcDbSpline
210
0.0
220
0.0
230
1.0
 70
     8
 71
     3
 72
    16
 73
    12
 74
     0
 42
0.00000001
 43
0.00000001
 12
1.0
 22
0.0
 32
0.0
 13
1.0
 23
0.0
 33
0.0
 40
0.0
 40
0.0
 40
0.0
 40
0.0
 40
0.2499999999999932
 40
0.2499999999999932
 40
0.4999999999999865
 40
0.4999999999999865
 40
0.6249999999999898
 40
0.6249999999999898
 40
0.7499999999999932
 40
0.7499999999999932
 40
1.0
 40
1.0
 40
1.0
 40
1.0
 10
47.21356543128106
 20
129.0414673311986
 30
0.0
 10
47.45848694586344
 20
128.3067027874515
 30
0.0
 10
47.66034666589994
 20
127.5665811860353
 30
0.0
 10
47.93998793749699
 20
126.0709021679749
 30
0.0
 10
48.0168470722254
 20
125.3152299990262
 30
0.0
 10
48.01769123339457
 20
124.1674843917702
 30
0.0
 10
47.99890214672443
 20
123.7831023803226
 30
0.0
 10
47.92563465464359
 20
123.0227542131498
 30
0.0
 10
47.8712306029803
 20
122.6451292944777
 30
0.0
 10
47.66115154462817
 20
121.5189776341826
 30
0.0
 10
47.45879225146086
 20
120.7771477917386
 30
0.0
 10
47.21356543128086
 20
120.0414673311985
 30
0.0
  0
LINE
  5
3DE
330
1F
100
AcDbEntity
  8
0
  6
Continuous
 62
     7
370
    15
100
AcDbLine
 10
39.2872828863
 20
120.0414582713
 30
0.0
 11
47.2135681532
 21
120.0414582713
 31
0.0
  0
SPLINE
  5
3DF
330
1F
100
AcDbEntity
  8
0
  6
Continuous
 62
     7
370
    15
100
AcDbSpline
210
0.0
220
0.0
230
1.0
 70
     8
 71
     3
 72
    16
 73
    12
 74
     0
 42
0.00000001
 43
0.00000001
 12
1.0
 22
0.0
 32
0.0
 13
1.0
 23
0.0
 33
0.0
 40
0.0
 40
0.0
 40
0.0
 40
0.0
 40
0.2499999999999932
 40
0.2499999999999932
 40
0.4999999999999865
 40
0.4999999999999865
 40
0.6249999999999898
 40
0.6249999999999898
 40
0.7499999999999932
 40
0.7499999999999932
 40
1.0
 40
1.0
 40
1.0
 40
1.0
 10
39.28728598965146
 20
120.0414673311985
 30
0.0
 10
39.04236447506896
 20
120.7762318749457
 30
0.0
 10
38.84050475503254
 20
121.5163534763619
 30
0.0
 10
38.5608634834355
 20
123.0120324944222
 30
0.0
 10
38.48400434870714
 20
123.7677046633708
 30
0.0
 10
38.48316018753793
 20
124.9154502706269
 30
0.0
 10
38.50194927420803
 20
125.2998322820744
 30
0.0
 10
38.5752167662889
 20
126.0601804492473
 30
0.0
 10
38.62962081795222
 20
126.4378053679193
 30
0.0
 10
38.83969987630429
 20
127.5639570282147
 30
0.0
 10
39.04205916947163
 20
128.3057868706585
 30
0.0
 10
39.28728598965162
 20
129.0414673311986
 30
0.0
  0
SPLINE
  5
3E0
330
1F
100
AcDbEntity
  8
0
  6
Continuous
 62
     7
370
    15
100
AcDbSpline
210
0.0
220
0.0
230
1.0
 70
    24
 71
     3
 72
    11
 73
     7
 74
     0
 42
0.00000001
 43
0.00000001
 12
1.0
 22
0.0
 32
0.0
 13
1.0
 23
0.0
 33
0.0
 40
0.0
 40
0.0
 40
0.0
 40
0.0
 40
0.266349915374214
 40
0.5156113715342201
 40
0.7648107267938205
 40
1.0
 40
1.0
 40
1.0
 40
1.0
 10
39.28728288629325
 20
129.0414616091528
 30
0.0
 10
39.16388106052127
 20
129.0414616091528
 30
0.0
 10
38.92499461467156
 20
129.0414616091527
 30
0.0
 10
38.6741964400465
 20
129.0414616091529
 30
0.0
 10
38.51122779569847
 20
129.0414616091527
 30
0.0
 10
38.49568179268848
 20
129.0414616091528
 30
0.0
 10
38.4881336114672
 20
129.0414616091528
 30
0.0
  0
SPLINE
  5
3E1
330
1F
100
AcDbEntity
  8
0
  6
Continuous
 62
     7
370
    15
100
AcDbSpline
210
0.0
220
0.0
230
1.0
 70
     8
 71
     3
 72
    15
 73
    11
 74
     0
 42
0.00000001
 43
0.00000001
 12
1.0
 22
0.0
 32
0.0
 13
1.0
 23
0.0
 33
0.0
 40
0.0
 40
0.0
 40
0.0
 40
0.0
 40
0.132305523115219
 40
0.2645744495679388
 40
0.3998008646293332
 40
0.5350041193144416
 40
0.6501945249325092
 40
0.7654023964041992
 40
0.8826914760330786
 40
1.0
 40
1.0
 40
1.0
 40
1.0
 10
39.28728288629325
 20
111.0414549334326
 30
0.0
 10
39.16491800860537
 20
111.4302923418322
 30
0.0
 10
38.92022210023791
 20
112.2078596033982
 30
0.0
 10
38.65691949329287
 20
113.4052416565344
 30
0.0
 10
38.49861974806982
 20
114.6251908678952
 30
0.0
 10
38.46726999725087
 20
115.8009516758674
 30
0.0
 10
38.54861162500595
 20
116.9131858274189
 30
0.0
 10
38.71526764323
 20
117.9628587103882
 30
0.0
 10
38.95974921849788
 20
119.0077972328771
 30
0.0
 10
39.17809896447677
 20
119.6968855537374
 30
0.0
 10
39.28728288629325
 20
120.0414582712927
 30
0.0
  0
SPLINE
  5
3E2
330
1F
100
AcDbEntity
  8
0
  6
Continuous
 62
     7
370
    15
100
AcDbSpline
210
0.0
220
0.0
230
1.0
 70
    24
 71
     3
 72
    11
 73
     7
 74
     0
 42
0.00000001
 43
0.00000001
 12
1.0
 22
0.0
 32
0.0
 13
1.0
 23
0.0
 33
0.0
 40
0.0
 40
0.0
 40
0.0
 40
0.0
 40
0.2223489949580444
 40
0.477964600503961
 40
0.7336484296721452
 40
1.0
 40
1.0
 40
1.0
 40
1.0
 10
38.48911708810599
 20
111.0414549334326
 30
0.0
 10
38.49529329867303
 20
111.0414549334326
 30
0.0
 10
38.50856976982087
 20
111.0414549334325
 30
0.0
 10
38.66830735764896
 20
111.0414549334325
 30
0.0
 10
38.92202409699714
 20
111.0414549334326
 30
0.0
 10
39.16388250573289
 20
111.0414549334326
 30
0.0
 10
39.28728288629325
 20
111.0414549334326
 30
0.0
  0
SPLINE
  5
3E3
330
1F
100
AcDbEntity
  8
0
  6
Continuous
 62
     7
370
    15
100
AcDbSpline
210
0.0
220
0.0
230
1.0
 70
    24
 71
     3
 72
    11
 73
     7
 74
     0
 42
0.00000001
 43
0.00000001
 12
1.0
 22
0.0
 32
0.0
 13
1.0
 23
0.0
 33
0.0
 40
0.0
 40
0.0
 40
0.0
 40
0.0
 40
0.266349915374214
 40
0.5156113715342201
 40
0.7648107267938205
 40
1.0
 40
1.0
 40
1.0
 40
1.0
 10
47.21356815316947
 20
111.0414549334326
 30
0.0
 10
47.33696997894147
 20
111.0414549334326
 30
0.0
 10
47.57585642479121
 20
111.0414549334326
 30
0.0
 10
47.82665459941616
 20
111.0414549334326
 30
0.0
 10
47.98962324376422
 20
111.0414549334326
 30
0.0
 10
48.00516924677423
 20
111.0414549334326
 30
0.0
 10
48.01271742799552
 20
111.0414549334326
 30
0.0
  0
SPLINE
  5
3E4
330
1F
100
AcDbEntity
  8
0
  6
Continuous
 62
     7
370
    15
100
AcDbSpline
210
0.0
220
0.0
230
1.0
 70
     8
 71
     3
 72
    15
 73
    11
 74
     0
 42
0.00000001
 43
0.00000001
 12
1.0
 22
0.0
 32
0.0
 13
1.0
 23
0.0
 33
0.0
 40
0.0
 40
0.0
 40
0.0
 40
0.0
 40
0.1323055243877938
 40
0.2645720055322785
 40
0.3997984438321512
 40
0.535001699817706
 40
0.6501921065437274
 40
0.7654024035127733
 40
0.8826891083515586
 40
1.0
 40
1.0
 40
1.0
 40
1.0
 10
47.21356815316947
 20
120.0414582712927
 30
0.0
 10
47.3359325434507
 20
119.6526200021222
 30
0.0
 10
47.58062521438972
 20
118.8750582096109
 30
0.0
 10
47.84393457183209
 20
117.6776966282275
 30
0.0
 10
48.00223054640854
 20
116.4577518374028
 30
0.0
 10
48.0335818304866
 20
115.2819902644357
 30
0.0
 10
47.95223676964517
 20
114.1697535991718
 30
0.0
 10
47.78558974663597
 20
113.1200623682433
 30
0.0
 10
47.54109429144513
 20
112.0751377386583
 30
0.0
 10
47.32275103626166
 20
111.3860395503173
 30
0.0
 10
47.21356815316944
 20
111.0414549334326
 30
0.0
  0
SPLINE
  5
3E5
330
1F
100
AcDbEntity
  8
0
  6
Continuous
 62
     7
370
    15
100
AcDbSpline
210
0.0
220
0.0
230
1.0
 70
    24
 71
     3
 72
    11
 73
     7
 74
     0
 42
0.00000001
 43
0.00000001
 12
1.0
 22
0.0
 32
0.0
 13
1.0
 23
0.0
 33
0.0
 40
0.0
 40
0.0
 40
0.0
 40
0.0
 40
0.2223489949580444
 40
0.477964600503961
 40
0.7336484296721452
 40
1.0
 40
1.0
 40
1.0
 40
1.0
 10
48.01173395135672
 20
129.0414616091528
 30
0.0
 10
48.00555774078969
 20
129.0414616091527
 30
0.0
 10
47.9922812696419
 20
129.0414616091527
 30
0.0
 10
47.83254368181381
 20
129.0414616091527
 30
0.0
 10
47.57882694246558
 20
129.0414616091529
 30
0.0
 10
47.3369685337298
 20
129.0414616091528
 30
0.0
 10
47.21356815316947
 20
129.0414616091528
 30
0.0
  0
LINE
  5
3E6
330
1F
100
AcDbEntity
  8
0
  6
Continuous
 62
     7
370
    15
100
AcDbLine
 10
48.4504241369
 20
111.7914601786
 30
0.0
 11
48.4504241369
 21
128.2914563639
 31
0.0
  0
LINE
  5
3E7
330
1F
100
AcDbEntity
  8
0
  6
Continuous
 62
     7
370
    15
100
AcDbLine
 10
39.2872828863
 20
111.0414549334
 30
0.0
 11
47.2135681532
 21
111.0414549334
 31
0.0
  0
SPLINE
  5
3E8
330
1F
100
AcDbEntity
  8
0
  6
Continuous
 62
     7
370
    15
100
AcDbSpline
210
0.0
220
0.0
230
1.0
 70
     8
 71
     3
 72
    15
 73
    11
 74
     0
 42
0.00000001
 43
0.00000001
 12
1.0
 22
0.0
 32
0.0
 13
1.0
 23
0.0
 33
0.0
 40
0.0
 40
0.0
 40
0.0
 40
0.0
 40
0.132305523115219
 40
0.2645744495679388
 40
0.3998008646293332
 40
0.5350041193144416
 40
0.6501945249325092
 40
0.7654023964041992
 40
0.8826914760330786
 40
1.0
 40
1.0
 40
1.0
 40
1.0
 10
47.21356815316947
 20
-464.9585202710352
 30
0.0
 10
47.33593303085729
 20
-465.3473576794348
 30
0.0
 10
47.58062893922477
 20
-466.1249249410008
 30
0.0
 10
47.84393154616979
 20
-467.322306994137
 30
0.0
 10
48.00223129139284
 20
-468.5422562054978
 30
0.0
 10
48.03358104221179
 20
-469.7180170134699
 30
0.0
 10
47.95223941445668
 20
-470.8302511650215
 30
0.0
 10
47.78558339623266
 20
-471.8799240479908
 30
0.0
 10
47.54110182096483
 20
-472.9248625704797
 30
0.0
 10
47.32275207498594
 20
-473.61395089134
 30
0.0
 10
47.21356815316947
 20
-473.9585236088953
 30
0.0
  0
SPLINE
  5
3E9
330
1F
100
AcDbEntity
  8
0
  6
Continuous
 62
     7
370
    15
100
AcDbSpline
210
0.0
220
0.0
230
1.0
 70
    24
 71
     3
 72
    11
 73
     7
 74
     0
 42
0.00000001
 43
0.00000001
 12
1.0
 22
0.0
 32
0.0
 13
1.0
 23
0.0
 33
0.0
 40
0.0
 40
0.0
 40
0.0
 40
0.0
 40
0.0202120046577571
 40
0.2756763523035132
 40
0.6360711875227147
 40
1.0
 40
1.0
 40
1.0
 40
1.0
 10
48.01271742799552
 20
-464.9585202710352
 30
0.0
 10
48.01408344951489
 20
-464.9585202710351
 30
0.0
 10
48.0327149428278
 20
-464.9585202710356
 30
0.0
 10
47.947678895511
 20
-464.958520271035
 30
0.0
 10
47.71008770990621
 20
-464.9585202710352
 30
0.0
 10
47.37961213585535
 20
-464.9585202710352
 30
0.0
 10
47.21356815316947
 20
-464.9585202710352
 30
0.0
  0
SPLINE
  5
3EA
330
1F
100
AcDbEntity
  8
0
  6
Continuous
 62
     7
370
    15
100
AcDbSpline
210
0.0
220
0.0
230
1.0
 70
    24
 71
     3
 72
    12
 73
     8
 74
     0
 42
0.00000001
 43
0.00000001
 12
1.0
 22
0.0
 32
0.0
 13
1.0
 23
0.0
 33
0.0
 40
0.0
 40
0.0
 40
0.0
 40
0.0
 40
0.3606193893754343
 40
0.542494941334156
 40
0.7243526644484468
 40
0.9733652366846371
 40
1.0
 40
1.0
 40
1.0
 40
1.0
 10
47.21356815316944
 20
-482.9585269467555
 30
0.0
 10
47.37750986319415
 20
-482.9585269467554
 30
0.0
 10
47.62413428490395
 20
-482.9585269467555
 30
0.0
 10
47.84411693443328
 20
-482.9585269467555
 30
0.0
 10
47.96918424456187
 20
-482.9585269467555
 30
0.0
 10
48.03097479869984
 20
-482.9585269467553
 30
0.0
 10
48.0134293061822
 20
-482.9585269467553
 30
0.0
 10
48.01173395135672
 20
-482.9585269467554
 30
0.0
  0
SPLINE
  5
3EB
330
1F
100
AcDbEntity
  8
0
  6
Continuous
 62
     7
370
    15
100
AcDbSpline
210
0.0
220
0.0
230
1.0
 70
     8
 71
     3
 72
    16
 73
    12
 74
     0
 42
0.00000001
 43
0.00000001
 12
1.0
 22
0.0
 32
0.0
 13
1.0
 23
0.0
 33
0.0
 40
0.0
 40
0.0
 40
0.0
 40
0.0
 40
0.2500000000000068
 40
0.2500000000000068
 40
0.5000000000000135
 40
0.5000000000000135
 40
0.6250000000000101
 40
0.6250000000000101
 40
0.7500000000000068
 40
0.7500000000000068
 40
1.0
 40
1.0
 40
1.0
 40
1.0
 10
47.21356543128108
 20
-473.9585326688012
 30
0.0
 10
47.45848694586347
 20
-474.6932972125484
 30
0.0
 10
47.66034666589992
 20
-475.4334188139646
 30
0.0
 10
47.93998793749708
 20
-476.9290978320249
 30
0.0
 10
48.01684707222537
 20
-477.6847700009736
 30
0.0
 10
48.01769123339451
 20
-478.8325156082295
 30
0.0
 10
47.9989021467244
 20
-479.2168976196772
 30
0.0
 10
47.92563465464357
 20
-479.9772457868499
 30
0.0
 10
47.87123060298024
 20
-480.354870705522
 30
0.0
 10
47.66115154462823
 20
-481.4810223658172
 30
0.0
 10
47.45879225146091
 20
-482.2228522082611
 30
0.0
 10
47.21356543128086
 20
-482.9585326688012
 30
0.0
  0
LINE
  5
3EC
330
1F
100
AcDbEntity
  8
0
  6
Continuous
 62
     7
370
    15
100
AcDbLine
 10
48.4504241369
 20
-482.2085217015
 30
0.0
 11
48.4504241369
 21
-465.7085255162
 31
0.0
  0
LINE
  5
3ED
330
1F
100
AcDbEntity
  8
0
  6
Continuous
 62
     7
370
    15
100
AcDbLine
 10
39.2872828863
 20
-464.958520271
 30
0.0
 11
47.2135681532
 21
-464.958520271
 31
0.0
  0
LINE
  5
3EE
330
1F
100
AcDbEntity
  8
0
  6
Continuous
 62
     7
370
    15
100
AcDbLine
 10
39.2872828863
 20
-473.9585236089
 30
0.0
 11
47.2135681532
 21
-473.9585236089
 31
0.0
  0
SPLINE
  5
3EF
330
1F
100
AcDbEntity
  8
0
  6
Continuous
 62
     7
370
    15
100
AcDbSpline
210
0.0
220
0.0
230
1.0
 70
     8
 71
     3
 72
    15
 73
    11
 74
     0
 42
0.00000001
 43
0.00000001
 12
1.0
 22
0.0
 32
0.0
 13
1.0
 23
0.0
 33
0.0
 40
0.0
 40
0.0
 40
0.0
 40
0.0
 40
0.1323055243877938
 40
0.2645720055322785
 40
0.3997984438321512
 40
0.535001699817706
 40
0.6501921065437274
 40
0.7654024035127733
 40
0.8826891083515586
 40
1.0
 40
1.0
 40
1.0
 40
1.0
 10
39.28728288629325
 20
-473.9585236088953
 30
0.0
 10
39.16491849601198
 20
-473.5696853397248
 30
0.0
 10
38.92022582507291
 20
-472.7921235472135
 30
0.0
 10
38.65691646763073
 20
-471.5947619658301
 30
0.0
 10
38.49862049305401
 20
-470.3748171750054
 30
0.0
 10
38.46726920897621
 20
-469.1990556020383
 30
0.0
 10
38.54861426981749
 20
-468.0868189367744
 30
0.0
 10
38.71526129282663
 20
-467.0371277058459
 30
0.0
 10
38.95975674801767
 20
-465.9922030762609
 30
0.0
 10
39.17810000320097
 20
-465.3031048879199
 30
0.0
 10
39.28728288629322
 20
-464.9585202710352
 30
0.0
  0
SPLINE
  5
3F0
330
1F
100
AcDbEntity
  8
0
  6
Continuous
 62
     7
370
    15
100
AcDbSpline
210
0.0
220
0.0
230
1.0
 70
    24
 71
     3
 72
    11
 73
     7
 74
     0
 42
0.00000001
 43
0.00000001
 12
1.0
 22
0.0
 32
0.0
 13
1.0
 23
0.0
 33
0.0
 40
0.0
 40
0.0
 40
0.0
 40
0.0
 40
0.0202120046577571
 40
0.2756763523035132
 40
0.6360711875227147
 40
1.0
 40
1.0
 40
1.0
 40
1.0
 10
38.4881336114672
 20
-482.9585269467554
 30
0.0
 10
38.48676758994785
 20
-482.9585269467554
 30
0.0
 10
38.46813609663455
 20
-482.9585269467557
 30
0.0
 10
38.55317214395188
 20
-482.9585269467552
 30
0.0
 10
38.79076332955642
 20
-482.9585269467555
 30
0.0
 10
39.12123890360733
 20
-482.9585269467555
 30
0.0
 10
39.28728288629325
 20
-482.9585269467554
 30
0.0
  0
SPLINE
  5
3F1
330
1F
100
AcDbEntity
  8
0
  6
Continuous
 62
     7
370
    15
100
AcDbSpline
210
0.0
220
0.0
230
1.0
 70
    24
 71
     3
 72
    12
 73
     8
 74
     0
 42
0.00000001
 43
0.00000001
 12
1.0
 22
0.0
 32
0.0
 13
1.0
 23
0.0
 33
0.0
 40
0.0
 40
0.0
 40
0.0
 40
0.0
 40
0.3606193893754343
 40
0.542494941334156
 40
0.7243526644484468
 40
0.9733652366846371
 40
1.0
 40
1.0
 40
1.0
 40
1.0
 10
39.28728288629322
 20
-464.9585202710352
 30
0.0
 10
39.12334117626854
 20
-464.9585202710352
 30
0.0
 10
38.87671675455868
 20
-464.9585202710353
 30
0.0
 10
38.65673410502938
 20
-464.9585202710352
 30
0.0
 10
38.53166679490076
 20
-464.9585202710352
 30
0.0
 10
38.46987624076299
 20
-464.958520271035
 30
0.0
 10
38.48742173328055
 20
-464.9585202710352
 30
0.0
 10
38.48911708810599
 20
-464.9585202710352
 30
0.0
  0
SPLINE
  5
3F2
330
1F
100
AcDbEntity
  8
0
  6
Continuous
 62
     7
370
    15
100
AcDbSpline
210
0.0
220
0.0
230
1.0
 70
     8
 71
     3
 72
    16
 73
    12
 74
     0
 42
0.00000001
 43
0.00000001
 12
1.0
 22
0.0
 32
0.0
 13
1.0
 23
0.0
 33
0.0
 40
0.0
 40
0.0
 40
0.0
 40
0.0
 40
0.2500000000000068
 40
0.2500000000000068
 40
0.5000000000000135
 40
0.5000000000000135
 40
0.6250000000000101
 40
0.6250000000000101
 40
0.7500000000000068
 40
0.7500000000000068
 40
1.0
 40
1.0
 40
1.0
 40
1.0
 10
39.28728598965143
 20
-482.9585326688012
 30
0.0
 10
39.04236447506899
 20
-482.2237681250541
 30
0.0
 10
38.84050475503251
 20
-481.4836465236377
 30
0.0
 10
38.5608634834355
 20
-479.9879675055775
 30
0.0
 10
38.48400434870714
 20
-479.2322953366289
 30
0.0
 10
38.48316018753795
 20
-478.0845497293728
 30
0.0
 10
38.50194927420803
 20
-477.7001677179254
 30
0.0
 10
38.57521676628892
 20
-476.9398195507525
 30
0.0
 10
38.62962081795224
 20
-476.5621946320805
 30
0.0
 10
38.83969987630429
 20
-475.4360429717851
 30
0.0
 10
39.04205916947168
 20
-474.6942131293411
 30
0.0
 10
39.28728598965165
 20
-473.9585326688011
 30
0.0
  0
LINE
  5
3F3
330
1F
100
AcDbEntity
  8
0
  6
Continuous
 62
     7
370
    15
100
AcDbLine
 10
39.2872828863
 20
-482.9585269468
 30
0.0
 11
47.2135681532
 21
-482.9585269468
 31
0.0
  0
LINE
  5
3F4
330
1F
100
AcDbEntity
  8
0
  6
Continuous
 62
     7
370
    15
100
AcDbLine
 10
88.5504249356
 20
114.0414759143
 30
0.0
 11
88.5504249356
 21
126.0414704306
 31
0.0
  0
LINE
  5
3F5
330
1F
100
AcDbEntity
  8
0
  6
Continuous
 62
     7
370
    15
100
AcDbLine
 10
88.5504249356
 20
-479.9585357682
 30
0.0
 11
88.5504249356
 21
-467.9585412519
 31
0.0
  0
LINE
  5
3F6
330
1F
100
AcDbEntity
  8
0
  6
Continuous
 62
     7
370
    15
100
AcDbLine
 10
166.5504265449
 20
-475.3047541158
 30
0.0
 11
166.5504265449
 21
-469.9572340028
 31
0.0
  0
LINE
  5
3F7
330
1F
100
AcDbEntity
  8
0
  6
Continuous
 62
     7
370
    15
100
AcDbLine
 10
166.5504265449
 20
-525.9572580831
 30
0.0
 11
166.5504265449
 21
-475.3047541158
 31
0.0
  0
LINE
  5
3F8
330
1F
100
AcDbEntity
  8
0
  6
Continuous
 62
     7
370
    15
100
AcDbLine
 10
-135.449574528
 20
-525.9572580831
 30
0.0
 11
-135.449574528
 21
-479.9585357682
 31
0.0
  0
SPLINE
  5
3F9
330
1F
100
AcDbEntity
  8
0
  6
Continuous
 62
     7
370
    15
100
AcDbSpline
210
0.0
220
0.0
230
1.0
 70
     8
 71
     3
 72
    10
 73
     6
 74
     0
 42
0.00000001
 43
0.00000001
 12
1.0
 22
0.0
 32
0.0
 13
1.0
 23
0.0
 33
0.0
 40
0.0
 40
0.0
 40
0.0
 40
0.0
 40
0.5
 40
0.5
 40
1.0
 40
1.0
 40
1.0
 40
1.0
 10
143.0047028524405
 20
-487.1550858852439
 30
0.0
 10
142.3776201046151
 20
-489.3154642766679
 30
0.0
 10
141.8609972305713
 20
-491.4916224658341
 30
0.0
 10
141.1462101627915
 20
-495.8894324102232
 30
0.0
 10
140.9504264698007
 20
-498.111424233011
 30
0.0
 10
140.9504257104707
 20
-500.3613847197921
 30
0.0
  0
LINE
  5
3FA
330
1F
100
AcDbEntity
  8
0
  6
Continuous
 62
     7
370
    15
100
AcDbLine
 10
140.950425329
 20
-500.3613844888
 30
0.0
 11
140.950425329
 21
-479.3498531358
 31
0.0
  0
SPLINE
  5
3FB
330
1F
100
AcDbEntity
  8
0
  6
Continuous
 62
     7
370
    15
100
AcDbSpline
210
0.0
220
0.0
230
1.0
 70
     8
 71
     3
 72
    12
 73
     8
 74
     0
 42
0.00000001
 43
0.00000001
 12
1.0
 22
0.0
 32
0.0
 13
1.0
 23
0.0
 33
0.0
 40
0.0
 40
0.0
 40
0.0
 40
0.0
 40
0.25
 40
0.25
 40
0.5
 40
0.5
 40
1.0
 40
1.0
 40
1.0
 40
1.0
 10
143.0047028524416
 20
-487.1550858852439
 30
0.0
 10
142.6929725472347
 20
-486.5203568970667
 30
0.0
 10
142.4067829149673
 20
-485.8797979945626
 30
0.0
 10
141.8989624592317
 20
-484.5839439950436
 30
0.0
 10
141.6795693628445
 20
-483.9338952857482
 30
0.0
 10
141.1433057291892
 20
-481.979219427355
 30
0.0
 10
140.9504257104696
 20
-480.6688085727986
 30
0.0
 10
140.9504257104697
 20
-479.3498524915976
 30
0.0
  0
LINE
  5
3FC
330
1F
100
AcDbEntity
  8
0
  6
Continuous
 62
     7
370
    15
100
AcDbLine
 10
165.7504260413
 20
-500.3613844888
 30
0.0
 11
165.7504260413
 21
-487.1550813691
 31
0.0
  0
LINE
  5
3FD
330
1F
100
AcDbEntity
  8
0
  6
Continuous
 62
     7
370
    15
100
AcDbLine
 10
165.7504260413
 20
-513.5677174108
 30
0.0
 11
165.7504260413
 21
-500.3613844888
 31
0.0
  0
LINE
  5
3FE
330
1F
100
AcDbEntity
  8
0
  6
Continuous
 62
     7
370
    15
100
AcDbLine
 10
165.7504260413
 20
-513.5677174108
 30
0.0
 11
143.0047031365
 21
-513.5677174108
 31
0.0
  0
SPLINE
  5
3FF
330
1F
100
AcDbEntity
  8
0
  6
Continuous
 62
     7
370
    15
100
AcDbSpline
210
0.0
220
0.0
230
1.0
 70
     8
 71
     3
 72
    13
 73
     9
 74
     0
 42
0.00000001
 43
0.00000001
 12
1.0
 22
0.0
 32
0.0
 13
1.0
 23
0.0
 33
0.0
 40
0.0
 40
0.0
 40
0.0
 40
0.0
 40
0.0700742286905179
 40
0.2236282103621244
 40
0.3772863408267154
 40
0.5308671613026575
 40
0.7654103216936397
 40
0.9999999999999999
 40
0.9999999999999999
 40
0.9999999999999999
 40
0.9999999999999999
 10
140.9504253289965
 20
-500.3613844887933
 30
0.0
 10
140.9526806524462
 20
-500.674553503417
 30
0.0
 10
140.9598780766104
 20
-501.6739712293042
 30
0.0
 10
141.0481131840184
 20
-503.3587588177698
 30
0.0
 10
141.2535409833623
 20
-505.4086495807172
 30
0.0
 10
141.6119404103669
 20
-507.8041954360375
 30
0.0
 10
142.1675879277442
 20
-510.5342686592591
 30
0.0
 10
142.7256462883871
 20
-512.5565009872806
 30
0.0
 10
143.0047031364706
 20
-513.5677174107751
 30
0.0
  0
LINE
  5
400
330
1F
100
AcDbEntity
  8
0
  6
Continuous
 62
     7
370
    15
100
AcDbLine
 10
165.7504260413
 20
-487.1550813691
 30
0.0
 11
143.0047031365
 21
-487.1550813691
 31
0.0
  0
LINE
  5
401
330
1F
100
AcDbEntity
  8
0
  6
Continuous
 62
     7
370
    15
100
AcDbLine
 10
-134.6495609858
 20
-491.4161578195
 30
0.0
 11
-134.6495609858
 21
-504.1469052808
 31
0.0
  0
LINE
  5
402
330
1F
100
AcDbEntity
  8
0
  6
Continuous
 62
     7
370
    15
100
AcDbLine
 10
-134.6495609858
 20
-479.9585357682
 30
0.0
 11
-134.6495609858
 21
-491.4161578195
 31
0.0
  0
SPLINE
  5
403
330
1F
100
AcDbEntity
  8
0
  6
Continuous
 62
     7
370
    15
100
AcDbSpline
210
0.0
220
0.0
230
1.0
 70
     8
 71
     3
 72
    13
 73
     9
 74
     0
 42
0.00000001
 43
0.00000001
 12
1.0
 22
0.0
 32
0.0
 13
1.0
 23
0.0
 33
0.0
 40
0.0
 40
0.0
 40
0.0
 40
0.0
 40
0.0780174794861825
 40
0.2489836123425284
 40
0.4200644789969843
 40
0.5910577078909542
 40
0.8521957031287839
 40
1.0
 40
1.0
 40
1.0
 40
1.0
 10
-109.8495882131788
 20
-491.4161578194818
 30
0.0
 10
-109.8518342078699
 20
-491.1142743466565
 30
0.0
 10
-109.8590020358383
 20
-490.1508487391442
 30
0.0
 10
-109.9473518943776
 20
-488.5267610110837
 30
0.0
 10
-110.1523057638153
 20
-486.5505716367509
 30
0.0
 10
-110.5128974143375
 20
-484.2418196134831
 30
0.0
 10
-110.9671639128549
 20
-482.0379432054888
 30
0.0
 10
-111.3993553148141
 20
-480.5105739131623
 30
0.0
 10
-111.5555625536176
 20
-479.9585357682428
 30
0.0
  0
SPLINE
  5
404
330
1F
100
AcDbEntity
  8
0
  6
Continuous
 62
     7
370
    15
100
AcDbSpline
210
0.0
220
0.0
230
1.0
 70
     8
 71
     3
 72
    13
 73
     9
 74
     0
 42
0.00000001
 43
0.00000001
 12
1.0
 22
0.0
 32
0.0
 13
1.0
 23
0.0
 33
0.0
 40
0.0
 40
0.0
 40
0.0
 40
0.0
 40
0.1651149473747744
 40
0.3302743767695047
 40
0.4953482281984345
 40
0.6635400909584168
 40
0.831838648567277
 40
1.0
 40
1.0
 40
1.0
 40
1.0
 10
-111.9038622953626
 20
-504.1469052808008
 30
0.0
 10
-111.7046734670856
 20
-503.461597385946
 30
0.0
 10
-111.3062421489971
 20
-502.090796974069
 30
0.0
 10
-110.8075703926691
 20
-500.0102422768827
 30
0.0
 10
-110.3925411970619
 20
-497.8993992085433
 30
0.0
 10
-110.0870371683354
 20
-495.7577914002022
 30
0.0
 10
-109.8879490454638
 20
-493.5904176043521
 30
0.0
 10
-109.8623716805125
 20
-492.1407140211884
 30
0.0
 10
-109.8495882131788
 20
-491.4161578194818
 30
0.0
  0
LINE
  5
405
330
1F
100
AcDbEntity
  8
0
  6
Continuous
 62
     7
370
    15
100
AcDbLine
 10
-134.6495609858
 20
-504.1469052808
 30
0.0
 11
-111.9038622954
 21
-504.1469052808
 31
0.0
  0
LINE
  5
406
330
1F
100
AcDbEntity
  8
0
  6
Continuous
 62
     7
370
    15
100
AcDbLine
 10
-134.6495609858
 20
-513.7828007714
 30
0.0
 11
-134.6495609858
 21
-523.4186962621
 31
0.0
  0
SPLINE
  5
407
330
1F
100
AcDbEntity
  8
0
  6
Continuous
 62
     7
370
    15
100
AcDbSpline
210
0.0
220
0.0
230
1.0
 70
     8
 71
     3
 72
    13
 73
     9
 74
     0
 42
0.00000001
 43
0.00000001
 12
1.0
 22
0.0
 32
0.0
 13
1.0
 23
0.0
 33
0.0
 40
0.0
 40
0.0
 40
0.0
 40
0.0
 40
0.0700722859722275
 40
0.2236285628201388
 40
0.3772874141822978
 40
0.5308667808900489
 40
0.7654109377783976
 40
1.0
 40
1.0
 40
1.0
 40
1.0
 10
-109.8495882131788
 20
-513.7828007714471
 30
0.0
 10
-109.8518368041663
 20
-513.5543077273377
 30
0.0
 10
-109.8590129532522
 20
-512.8250954523329
 30
0.0
 10
-109.9472437321324
 20
-511.5957834827278
 30
0.0
 10
-110.1527000332547
 20
-510.1000903236099
 30
0.0
 10
-110.5110985882911
 20
-508.3522158703209
 30
0.0
 10
-111.0667333827339
 20
-506.3602286240076
 30
0.0
 10
-111.6248015184315
 20
-504.8847268067777
 30
0.0
 10
-111.9038622953626
 20
-504.1469052808008
 30
0.0
  0
SPLINE
  5
408
330
1F
100
AcDbEntity
  8
0
  6
Continuous
 62
     7
370
    15
100
AcDbSpline
210
0.0
220
0.0
230
1.0
 70
     8
 71
     3
 72
    13
 73
     9
 74
     0
 42
0.00000001
 43
0.00000001
 12
1.0
 22
0.0
 32
0.0
 13
1.0
 23
0.0
 33
0.0
 40
0.0
 40
0.0
 40
0.0
 40
0.0
 40
0.165114279837333
 40
0.3302736327008125
 40
0.4953483748736615
 40
0.663540593198109
 40
0.8318400282196652
 40
1.0
 40
1.0
 40
1.0
 40
1.0
 10
-111.9038622953626
 20
-523.4186962620935
 30
0.0
 10
-111.7046733741427
 20
-522.8999876027783
 30
0.0
 10
-111.3062411569544
 20
-521.8624286866497
 30
0.0
 10
-110.8075688083108
 20
-520.2876722088241
 30
0.0
 10
-110.3925421703575
 20
-518.6899596837393
 30
0.0
 10
-110.0870365098857
 20
-517.068974495251
 30
0.0
 10
-109.8879500876181
 20
-515.4284795722639
 30
0.0
 10
-109.8623719705947
 20
-514.3312087645812
 30
0.0
 10
-109.8495882131788
 20
-513.7828007714471
 30
0.0
  0
LINE
  5
409
330
1F
100
AcDbEntity
  8
0
  6
Continuous
 62
     7
370
    15
100
AcDbLine
 10
-134.6495609858
 20
-523.4186962621
 30
0.0
 11
-111.9038622954
 21
-523.4186962621
 31
0.0
  0
LINE
  5
40A
330
1F
100
AcDbEntity
  8
0
  6
Continuous
 62
     7
370
    15
100
AcDbLine
 10
-134.6495609858
 20
-504.1469052808
 30
0.0
 11
-134.6495609858
 21
-513.7828007714
 31
0.0
  0
LINE
  5
40B
330
1F
100
AcDbEntity
  8
0
  6
Continuous
 62
     7
370
    15
100
AcDbLine
 10
-109.8495882132
 20
-491.4161578195
 30
0.0
 11
-109.8495882132
 21
-513.7828007714
 31
0.0
  0
SPLINE
  5
40C
330
1F
100
AcDbEntity
  8
0
  6
Continuous
 62
     7
370
    15
100
AcDbSpline
210
0.0
220
0.0
230
1.0
 70
     8
 71
     3
 72
    10
 73
     6
 74
     0
 42
0.00000001
 43
0.00000001
 12
1.0
 22
0.0
 32
0.0
 13
1.0
 23
0.0
 33
0.0
 40
0.0
 40
0.0
 40
0.0
 40
0.0
 40
0.5
 40
0.5
 40
1.0
 40
1.0
 40
1.0
 40
1.0
 10
143.0047028524388
 20
-513.5677101495105
 30
0.0
 10
142.3776194869222
 20
-514.4512562276196
 30
0.0
 10
141.8609962129283
 20
-515.3412558937733
 30
0.0
 10
141.1462090681858
 20
-517.1398610933132
 30
0.0
 10
140.9504257104667
 20
-518.0486057072511
 30
0.0
 10
140.9504257104665
 20
-518.9687888879982
 30
0.0
  0
LINE
  5
40D
330
1F
100
AcDbEntity
  8
0
  6
Continuous
 62
     7
370
    15
100
AcDbLine
 10
140.950425329
 20
-518.9687922971
 30
0.0
 11
140.950425329
 21
-500.3613844888
 31
0.0
  0
SPLINE
  5
40E
330
1F
100
AcDbEntity
  8
0
  6
Continuous
 62
     7
370
    15
100
AcDbSpline
210
0.0
220
0.0
230
1.0
 70
     8
 71
     3
 72
    12
 73
     8
 74
     0
 42
0.00000001
 43
0.00000001
 12
1.0
 22
0.0
 32
0.0
 13
1.0
 23
0.0
 33
0.0
 40
0.0
 40
0.0
 40
0.0
 40
0.0
 40
0.2499999999999982
 40
0.2499999999999982
 40
0.4999999999999964
 40
0.4999999999999964
 40
1.0
 40
1.0
 40
1.0
 40
1.0
 10
140.9504257104697
 20
-479.3498524915976
 30
0.0
 10
140.9504257104697
 20
-478.6899826318362
 30
0.0
 10
140.9981342414348
 20
-478.027999125401
 30
0.0
 10
141.1877368963118
 20
-476.699859377357
 30
0.0
 10
141.3286512209261
 20
-476.0406460225745
 30
0.0
 10
141.86868096322
 20
-474.0852992380321
 30
0.0
 10
142.3848742235126
 20
-472.8066818230449
 30
0.0
 10
143.0047028524412
 20
-471.5446190979534
 30
0.0
  0
LINE
  5
40F
330
1F
100
AcDbEntity
  8
0
  6
Continuous
 62
     7
370
    15
100
AcDbLine
 10
165.7504260413
 20
-471.5446249025
 30
0.0
 11
143.0047031365
 21
-471.5446249025
 31
0.0
  0
LINE
  5
410
330
1F
100
AcDbEntity
  8
0
  6
Continuous
 62
     7
370
    15
100
AcDbLine
 10
165.7504260413
 20
-471.5446249025
 30
0.0
 11
165.7504260413
 21
-479.3498531358
 31
0.0
  0
LINE
  5
411
330
1F
100
AcDbEntity
  8
0
  6
Continuous
 62
     7
370
    15
100
AcDbLine
 10
165.7504260413
 20
-479.3498531358
 30
0.0
 11
165.7504260413
 21
-487.1550813691
 31
0.0
  0
LINE
  5
412
330
1F
100
AcDbEntity
  8
0
  6
Continuous
 62
     7
370
    15
100
AcDbLine
 10
-109.8495882132
 20
-479.9585357682
 30
0.0
 11
-109.8495882132
 21
-491.4161578195
 31
0.0
  0
LINE
  5
413
330
1F
100
AcDbEntity
  8
0
  6
Continuous
 62
     7
370
    15
100
AcDbLine
 10
165.7504260413
 20
-524.3698671834
 30
0.0
 11
165.7504260413
 21
-518.9687922971
 31
0.0
  0
LINE
  5
414
330
1F
100
AcDbEntity
  8
0
  6
Continuous
 62
     7
370
    15
100
AcDbLine
 10
165.7504260413
 20
-524.3698671834
 30
0.0
 11
143.0047031365
 21
-524.3698671834
 31
0.0
  0
SPLINE
  5
415
330
1F
100
AcDbEntity
  8
0
  6
Continuous
 62
     7
370
    15
100
AcDbSpline
210
0.0
220
0.0
230
1.0
 70
     8
 71
     3
 72
    14
 73
    10
 74
     0
 42
0.00000001
 43
0.00000001
 12
1.0
 22
0.0
 32
0.0
 13
1.0
 23
0.0
 33
0.0
 40
0.0
 40
0.0
 40
0.0
 40
0.0
 40
0.1249999999999976
 40
0.1249999999999976
 40
0.2499999999999952
 40
0.2499999999999952
 40
0.4999999999999968
 40
0.4999999999999968
 40
1.0
 40
1.0
 40
1.0
 40
1.0
 10
140.9504257104665
 20
-518.9687888879982
 30
0.0
 10
140.9504257104664
 20
-519.1979743854154
 30
0.0
 10
140.9624740022677
 20
-519.42830647276
 30
0.0
 10
141.0102654096544
 20
-519.8868277105072
 30
0.0
 10
141.0459570514928
 20
-520.1152936037205
 30
0.0
 10
141.1868850488303
 20
-520.7984105063222
 30
0.0
 10
141.3260529960112
 20
-521.2507754485684
 30
0.0
 10
141.8628091678812
 20
-522.5998359090867
 30
0.0
 10
142.3791857115077
 20
-523.4885283228956
 30
0.0
 10
143.0047028524391
 20
-524.3698676264898
 30
0.0
  0
LINE
  5
416
330
1F
100
AcDbEntity
  8
0
  6
Continuous
 62
     7
370
    15
100
AcDbLine
 10
165.7504260413
 20
-518.9687922971
 30
0.0
 11
165.7504260413
 21
-513.5677174108
 31
0.0
  0
SPLINE
  5
417
330
1F
100
AcDbEntity
  8
0
  6
Continuous
 62
     7
370
    15
100
AcDbSpline
210
0.0
220
0.0
230
1.0
 70
     8
 71
     3
 72
    11
 73
     7
 74
     0
 42
0.00000001
 43
0.00000001
 12
1.0
 22
0.0
 32
0.0
 13
1.0
 23
0.0
 33
0.0
 40
0.0
 40
0.0
 40
0.0
 40
0.0
 40
0.0681100122411678
 40
0.3767095906604635
 40
0.6883407133912268
 40
1.0
 40
1.0
 40
1.0
 40
1.0
 10
-110.2377038576338
 20
-521.608592607232
 30
0.0
 10
-110.2581697281408
 20
-521.6503902420073
 30
0.0
 10
-110.3713643884779
 20
-521.881568733519
 30
0.0
 10
-110.7111976743547
 20
-522.2998443472387
 30
0.0
 10
-111.2393529160245
 20
-522.8621810142799
 30
0.0
 10
-111.6823524964859
 20
-523.2331855914424
 30
0.0
 10
-111.9038622953626
 20
-523.4186962620935
 30
0.0
  0
LINE
  5
418
330
1F
100
AcDbEntity
  8
0
  6
Continuous
 62
     7
370
    15
100
AcDbLine
 10
-109.8495882132
 20
-513.7828007714
 30
0.0
 11
-109.8495882132
 21
-520.9572330491
 31
0.0
  0
LINE
  5
419
330
1F
100
AcDbEntity
  8
0
  6
Continuous
 62
     7
370
    15
100
AcDbLine
 10
318.0504280947
 20
-484.3466595189
 30
0.0
 11
318.0504280947
 21
-482.9572454469
 31
0.0
  0
LINE
  5
41A
330
1F
100
AcDbEntity
  8
0
  6
Continuous
 62
     7
370
    15
100
AcDbLine
 10
318.0504280947
 20
-512.957246639
 30
0.0
 11
318.0504280947
 21
-484.3466595189
 31
0.0
  0
LINE
  5
41B
330
1F
100
AcDbEntity
  8
0
  6
Continuous
 62
     7
370
    15
100
AcDbLine
 10
-286.9495611765
 20
-484.3466595189
 30
0.0
 11
-286.9495611765
 21
-482.9572454469
 31
0.0
  0
LINE
  5
41C
330
1F
100
AcDbEntity
  8
0
  6
Continuous
 62
     7
370
    15
100
AcDbLine
 10
-286.9495611765
 20
-512.957246639
 30
0.0
 11
-286.9495611765
 21
-484.3466595189
 31
0.0
  0
LINE
  5
41D
330
1F
100
AcDbEntity
  8
0
  6
Continuous
 62
     7
370
    15
100
AcDbLine
 10
142.2077070794
 20
-472.7806166188
 30
0.0
 11
143.0047031365
 21
-471.5446249025
 31
0.0
  0
LINE
  5
41E
330
1F
100
AcDbEntity
  8
0
  6
Continuous
 62
     7
370
    15
100
AcDbLine
 10
140.950425329
 20
-479.3498531358
 30
0.0
 11
140.950425329
 21
-474.9572292344
 31
0.0
  0
LINE
  5
41F
330
1F
100
AcDbEntity
  8
0
  6
Continuous
 62
     7
370
    15
100
AcDbLine
 10
140.950425329
 20
-520.9572330491
 30
0.0
 11
140.950425329
 21
-518.9687922971
 31
0.0
  0
LINE
  5
420
330
1F
100
AcDbEntity
  8
0
  6
Continuous
 62
     7
370
    15
100
AcDbLine
 10
166.5504265449
 20
84.6185966952
 30
0.0
 11
166.5504265449
 21
140.6185909732
 31
0.0
  0
LINE
  5
421
330
1F
100
AcDbEntity
  8
0
  6
Continuous
 62
     7
370
    15
100
AcDbLine
 10
-135.449574528
 20
94.0414651854
 30
0.0
 11
-135.449574528
 21
114.0414759143
 31
0.0
  0
LINE
  5
422
330
1F
100
AcDbEntity
  8
0
  6
Continuous
 62
     7
370
    15
100
AcDbLine
 10
-135.449574528
 20
126.0414704306
 30
0.0
 11
-135.449574528
 21
140.6185909732
 31
0.0
  0
LINE
  5
423
330
1F
100
AcDbEntity
  8
0
  6
Continuous
 62
     7
370
    15
100
AcDbLine
 10
165.7504260413
 20
124.1185947879
 30
0.0
 11
165.7504260413
 21
135.6185957415
 31
0.0
  0
LINE
  5
424
330
1F
100
AcDbEntity
  8
0
  6
Continuous
 62
     7
370
    15
100
AcDbLine
 10
165.7504260413
 20
112.6185938342
 30
0.0
 11
165.7504260413
 21
124.1185947879
 31
0.0
  0
LINE
  5
425
330
1F
100
AcDbEntity
  8
0
  6
Continuous
 62
     7
370
    15
100
AcDbLine
 10
165.7504260413
 20
112.6185938342
 30
0.0
 11
143.0047031365
 21
112.6185938342
 31
0.0
  0
SPLINE
  5
426
330
1F
100
AcDbEntity
  8
0
  6
Continuous
 62
     7
370
    15
100
AcDbSpline
210
0.0
220
0.0
230
1.0
 70
     8
 71
     3
 72
    14
 73
    10
 74
     0
 42
0.00000001
 43
0.00000001
 12
1.0
 22
0.0
 32
0.0
 13
1.0
 23
0.0
 33
0.0
 40
0.0
 40
0.0
 40
0.0
 40
0.0
 40
0.1249999999999999
 40
0.1249999999999999
 40
0.2499999999999998
 40
0.2499999999999998
 40
0.4999999999999994
 40
0.4999999999999994
 40
1.0
 40
1.0
 40
1.0
 40
1.0
 10
140.9504257104706
 20
124.1185876924108
 30
0.0
 10
140.9504257104706
 20
123.6306049489794
 30
0.0
 10
140.9624740022719
 20
123.1401808813619
 30
0.0
 10
141.0102654096587
 20
122.1638954966453
 30
0.0
 10
141.0459570514971
 20
121.6774449375695
 30
0.0
 10
141.1868850488348
 20
120.2229495005866
 30
0.0
 10
141.3260529960156
 20
119.2597721266376
 30
0.0
 10
141.8628091678855
 20
116.387346811784
 30
0.0
 10
142.3791857115116
 20
114.4951391152046
 30
0.0
 10
143.0047028524428
 20
112.6185876924111
 30
0.0
  0
SPLINE
  5
427
330
1F
100
AcDbEntity
  8
0
  6
Continuous
 62
     7
370
    15
100
AcDbSpline
210
0.0
220
0.0
230
1.0
 70
     8
 71
     3
 72
    10
 73
     6
 74
     0
 42
0.00000001
 43
0.00000001
 12
1.0
 22
0.0
 32
0.0
 13
1.0
 23
0.0
 33
0.0
 40
0.0
 40
0.0
 40
0.0
 40
0.0
 40
0.5
 40
0.5
 40
1.0
 40
1.0
 40
1.0
 40
1.0
 10
143.0047028524416
 20
135.618587692411
 30
0.0
 10
142.377619486925
 20
133.7373375958608
 30
0.0
 10
141.8609962129312
 20
131.8423464919852
 30
0.0
 10
141.1462090681891
 20
128.0127485919734
 30
0.0
 10
140.9504257104705
 20
126.0778456649314
 30
0.0
 10
140.9504257104706
 20
124.1185876924108
 30
0.0
  0
LINE
  5
428
330
1F
100
AcDbEntity
  8
0
  6
Continuous
 62
     7
370
    15
100
AcDbLine
 10
165.7504260413
 20
135.6185957415
 30
0.0
 11
143.0047031365
 21
135.6185957415
 31
0.0
  0
LINE
  5
429
330
1F
100
AcDbEntity
  8
0
  6
Continuous
 62
     7
370
    15
100
AcDbLine
 10
165.7504260413
 20
89.6185919268
 30
0.0
 11
165.7504260413
 21
101.1185928805
 31
0.0
  0
LINE
  5
42A
330
1F
100
AcDbEntity
  8
0
  6
Continuous
 62
     7
370
    15
100
AcDbLine
 10
165.7504260413
 20
89.6185919268
 30
0.0
 11
143.0047031365
 21
89.6185919268
 31
0.0
  0
SPLINE
  5
42B
330
1F
100
AcDbEntity
  8
0
  6
Continuous
 62
     7
370
    15
100
AcDbSpline
210
0.0
220
0.0
230
1.0
 70
     8
 71
     3
 72
    14
 73
    10
 74
     0
 42
0.00000001
 43
0.00000001
 12
1.0
 22
0.0
 32
0.0
 13
1.0
 23
0.0
 33
0.0
 40
0.0
 40
0.0
 40
0.0
 40
0.0
 40
0.1249999999999959
 40
0.1249999999999959
 40
0.2499999999999919
 40
0.2499999999999919
 40
0.4999999999999946
 40
0.4999999999999946
 40
1.0
 40
1.0
 40
1.0
 40
1.0
 10
140.9504257104704
 20
101.1185876924061
 30
0.0
 10
140.9504257104704
 20
100.6306049489748
 30
0.0
 10
140.9624740022717
 20
100.1401808813577
 30
0.0
 10
141.0102654096585
 20
99.16389549664129
 30
0.0
 10
141.0459570514969
 20
98.67744493756564
 30
0.0
 10
141.1868850488345
 20
97.22294950058308
 30
0.0
 10
141.3260529960154
 20
96.25977212663433
 30
0.0
 10
141.8628091678851
 20
93.38734681178119
 30
0.0
 10
142.3791857115111
 20
91.49513911520202
 30
0.0
 10
143.0047028524421
 20
89.61858769240916
 30
0.0
  0
SPLINE
  5
42C
330
1F
100
AcDbEntity
  8
0
  6
Continuous
 62
     7
370
    15
100
AcDbSpline
210
0.0
220
0.0
230
1.0
 70
     8
 71
     3
 72
    10
 73
     6
 74
     0
 42
0.00000001
 43
0.00000001
 12
1.0
 22
0.0
 32
0.0
 13
1.0
 23
0.0
 33
0.0
 40
0.0
 40
0.0
 40
0.0
 40
0.0
 40
0.4999999999999993
 40
0.4999999999999993
 40
1.0
 40
1.0
 40
1.0
 40
1.0
 10
143.0047028524422
 20
112.6185876924098
 30
0.0
 10
142.3776194869253
 20
110.7373375958589
 30
0.0
 10
141.8609962129313
 20
108.8423464919828
 30
0.0
 10
141.1462090681889
 20
105.01274859197
 30
0.0
 10
140.9504257104702
 20
103.0778456649273
 30
0.0
 10
140.9504257104704
 20
101.1185876924061
 30
0.0
  0
LINE
  5
42D
330
1F
100
AcDbEntity
  8
0
  6
Continuous
 62
     7
370
    15
100
AcDbLine
 10
165.7504260413
 20
101.1185928805
 30
0.0
 11
165.7504260413
 21
112.6185938342
 31
0.0
  0
LINE
  5
42E
330
1F
100
AcDbEntity
  8
0
  6
Continuous
 62
     7
370
    15
100
AcDbLine
 10
140.950425329
 20
101.1185928805
 30
0.0
 11
140.950425329
 21
124.1185947879
 31
0.0
  0
SPLINE
  5
42F
330
1F
100
AcDbEntity
  8
0
  6
Continuous
 62
     7
370
    15
100
AcDbSpline
210
0.0
220
0.0
230
1.0
 70
     8
 71
     3
 72
    10
 73
     6
 74
     0
 42
0.00000001
 43
0.00000001
 12
1.0
 22
0.0
 32
0.0
 13
1.0
 23
0.0
 33
0.0
 40
0.0
 40
0.0
 40
0.0
 40
0.0
 40
0.2116301860282387
 40
0.6753985556131522
 40
1.0
 40
1.0
 40
1.0
 40
1.0
 10
-109.8495882131789
 20
109.6255167944709
 30
0.0
 10
-109.8520421151817
 20
109.9376998939947
 30
0.0
 10
-109.8598735209915
 20
110.9340039584683
 30
0.0
 10
-109.9289868350257
 20
112.4089683124903
 30
0.0
 10
-110.0553921100466
 20
113.5653501189878
 30
0.0
 10
-110.1074379064771
 20
114.0414759142676
 30
0.0
  0
SPLINE
  5
430
330
1F
100
AcDbEntity
  8
0
  6
Continuous
 62
     7
370
    15
100
AcDbSpline
210
0.0
220
0.0
230
1.0
 70
     8
 71
     3
 72
    11
 73
     7
 74
     0
 42
0.00000001
 43
0.00000001
 12
1.0
 22
0.0
 32
0.0
 13
1.0
 23
0.0
 33
0.0
 40
0.0
 40
0.0
 40
0.0
 40
0.0
 40
0.148314610108439
 40
0.4321669839356715
 40
0.7162007340724864
 40
1.0
 40
1.0
 40
1.0
 40
1.0
 10
-110.6308560945722
 20
126.0414704306402
 30
0.0
 10
-110.5556003563263
 20
126.2773858666589
 30
0.0
 10
-110.3363161914161
 20
126.9648087872567
 30
0.0
 10
-110.0901137991009
 20
128.1161779840597
 30
0.0
 10
-109.8871810609865
 20
129.4912837696979
 30
0.0
 10
-109.8621157122386
 20
130.4113976416671
 30
0.0
 10
-109.8495882131788
 20
130.8712645991125
 30
0.0
  0
LINE
  5
431
330
1F
100
AcDbEntity
  8
0
  6
Continuous
 62
     7
370
    15
100
AcDbLine
 10
-109.8495882132
 20
130.8712645991
 30
0.0
 11
-109.8495882132
 21
126.0414704306
 31
0.0
  0
LINE
  5
432
330
1F
100
AcDbEntity
  8
0
  6
Continuous
 62
     7
370
    15
100
AcDbLine
 10
-109.8495882132
 20
114.0414759143
 30
0.0
 11
-109.8495882132
 21
109.6255167945
 31
0.0
  0
LINE
  5
433
330
1F
100
AcDbEntity
  8
0
  6
Continuous
 62
     7
370
    15
100
AcDbLine
 10
-134.6495609858
 20
109.6255167945
 30
0.0
 11
-134.6495609858
 21
96.4593872054
 31
0.0
  0
LINE
  5
434
330
1F
100
AcDbEntity
  8
0
  6
Continuous
 62
     7
370
    15
100
AcDbLine
 10
-134.6495609858
 20
114.0414759143
 30
0.0
 11
-134.6495609858
 21
109.6255167945
 31
0.0
  0
SPLINE
  5
435
330
1F
100
AcDbEntity
  8
0
  6
Continuous
 62
     7
370
    15
100
AcDbSpline
210
0.0
220
0.0
230
1.0
 70
     8
 71
     3
 72
    13
 73
     9
 74
     0
 42
0.00000001
 43
0.00000001
 12
1.0
 22
0.0
 32
0.0
 13
1.0
 23
0.0
 33
0.0
 40
0.0
 40
0.0
 40
0.0
 40
0.0
 40
0.1651129696947196
 40
0.3302729871988695
 40
0.4953474606929265
 40
0.6635407604226732
 40
0.8318386316792903
 40
1.0
 40
1.0
 40
1.0
 40
1.0
 10
-111.9038622953626
 20
96.45938720538999
 30
0.0
 10
-111.7046727748716
 20
97.16812240573114
 30
0.0
 10
-111.3062369762002
 20
98.58579475565277
 30
0.0
 10
-110.8075711732294
 20
100.7375004337472
 30
0.0
 10
-110.3925397647723
 20
102.9205466683372
 30
0.0
 10
-110.0870393621875
 20
105.1354018409005
 30
0.0
 10
-109.8879484172829
 20
107.3769032791289
 30
0.0
 10
-109.8623714889909
 20
108.8761817105562
 30
0.0
 10
-109.8495882131788
 20
109.6255167944708
 30
0.0
  0
LINE
  5
436
330
1F
100
AcDbEntity
  8
0
  6
Continuous
 62
     7
370
    15
100
AcDbLine
 10
-134.6495609858
 20
96.4593872054
 30
0.0
 11
-111.9038622954
 21
96.4593872054
 31
0.0
  0
LINE
  5
437
330
1F
100
AcDbEntity
  8
0
  6
Continuous
 62
     7
370
    15
100
AcDbLine
 10
-109.8495882132
 20
109.6255167945
 30
0.0
 11
-109.8495882132
 21
94.0414651854
 31
0.0
  0
SPLINE
  5
438
330
1F
100
AcDbEntity
  8
0
  6
Continuous
 62
     7
370
    15
100
AcDbSpline
210
0.0
220
0.0
230
1.0
 70
     8
 71
     3
 72
    10
 73
     6
 74
     0
 42
0.00000001
 43
0.00000001
 12
1.0
 22
0.0
 32
0.0
 13
1.0
 23
0.0
 33
0.0
 40
0.0
 40
0.0
 40
0.0
 40
0.0
 40
0.5350282526674777
 40
0.9190483786265062
 40
1.0
 40
1.0
 40
1.0
 40
1.0
 10
-111.9038622953626
 20
96.45938720538999
 30
0.0
 10
-111.6022875683878
 20
96.03207954114906
 30
0.0
 10
-111.0842555532947
 20
95.29806892762089
 30
0.0
 10
-110.6287645136949
 20
94.48832488934467
 30
0.0
 10
-110.4822577648176
 20
94.10772726474853
 30
0.0
 10
-110.4567509271833
 20
94.04146518543149
 30
0.0
  0
LINE
  5
439
330
1F
100
AcDbEntity
  8
0
  6
Continuous
 62
     7
370
    15
100
AcDbLine
 10
-134.6495609858
 20
130.8712645991
 30
0.0
 11
-134.6495609858
 21
126.0414704306
 31
0.0
  0
LINE
  5
43A
330
1F
100
AcDbEntity
  8
0
  6
Continuous
 62
     7
370
    15
100
AcDbLine
 10
-134.6495609858
 20
138.9508530124
 30
0.0
 11
-134.6495609858
 21
130.8712645991
 31
0.0
  0
LINE
  5
43B
330
1F
100
AcDbEntity
  8
0
  6
Continuous
 62
     7
370
    15
100
AcDbLine
 10
-134.6495609858
 20
138.9508530124
 30
0.0
 11
-111.9038622954
 21
138.9508530124
 31
0.0
  0
SPLINE
  5
43C
330
1F
100
AcDbEntity
  8
0
  6
Continuous
 62
     7
370
    15
100
AcDbSpline
210
0.0
220
0.0
230
1.0
 70
     8
 71
     3
 72
    13
 73
     9
 74
     0
 42
0.00000001
 43
0.00000001
 12
1.0
 22
0.0
 32
0.0
 13
1.0
 23
0.0
 33
0.0
 40
0.0
 40
0.0
 40
0.0
 40
0.0
 40
0.0700711972271381
 40
0.2236274253573306
 40
0.3772865276348701
 40
0.530867235960024
 40
0.7654111511280928
 40
0.9999999999999999
 40
0.9999999999999999
 40
0.9999999999999999
 40
0.9999999999999999
 10
-109.8495882131788
 20
130.8712645991125
 30
0.0
 10
-109.8518368540088
 20
131.062849392921
 30
0.0
 10
-109.8590132371629
 20
131.6742791368442
 30
0.0
 10
-109.9472436741484
 20
132.7050378390296
 30
0.0
 10
-110.1527013941322
 20
133.95915401651
 30
0.0
 10
-110.5110957591821
 20
135.424751936705
 30
0.0
 10
-111.066733870781
 20
137.0950112014559
 30
0.0
 10
-111.6248016698576
 20
138.3321995759377
 30
0.0
 10
-111.9038622953626
 20
138.950853012351
 30
0.0
  0
LINE
  5
43D
330
1F
100
AcDbEntity
  8
0
  6
Continuous
 62
     7
370
    15
100
AcDbLine
 10
-134.6495609858
 20
94.0414651854
 30
0.0
 11
-134.6495609858
 21
96.4593872054
 31
0.0
  0
SPLINE
  5
43E
330
1F
100
AcDbEntity
  8
0
  6
Continuous
 62
     7
370
    15
100
AcDbSpline
210
0.0
220
0.0
230
1.0
 70
    24
 71
     3
 72
    12
 73
     8
 74
     0
 42
0.00000001
 43
0.00000001
 12
1.0
 22
0.0
 32
0.0
 13
1.0
 23
0.0
 33
0.0
 40
0.0
 40
0.0
 40
0.0
 40
0.0
 40
0.2500000000000016
 40
0.2500000000000016
 40
0.5000000000000031
 40
0.5000000000000031
 40
1.0
 40
1.0
 40
1.0
 40
1.0
 10
140.9504257104697
 20
89.618587692409
 30
0.0
 10
140.9504257104697
 20
89.618587692409
 30
0.0
 10
140.9981342414348
 20
89.61858769240894
 30
0.0
 10
141.1877368963118
 20
89.61858769240888
 30
0.0
 10
141.328651220926
 20
89.61858769240894
 30
0.0
 10
141.86868096322
 20
89.618587692409
 30
0.0
 10
142.3848742235126
 20
89.618587692409
 30
0.0
 10
143.0047028524412
 20
89.61858769240894
 30
0.0
  0
LINE
  5
43F
330
1F
100
AcDbEntity
  8
0
  6
Continuous
 62
     7
370
    15
100
AcDbLine
 10
140.950425329
 20
89.6185919268
 30
0.0
 11
140.950425329
 21
101.1185928805
 31
0.0
  0
SPLINE
  5
440
330
1F
100
AcDbEntity
  8
0
  6
Continuous
 62
     7
370
    15
100
AcDbSpline
210
0.0
220
0.0
230
1.0
 70
    24
 71
     3
 72
    12
 73
     8
 74
     0
 42
0.00000001
 43
0.00000001
 12
1.0
 22
0.0
 32
0.0
 13
1.0
 23
0.0
 33
0.0
 40
0.0
 40
0.0
 40
0.0
 40
0.0
 40
0.2500000000000016
 40
0.2500000000000016
 40
0.5000000000000031
 40
0.5000000000000031
 40
1.0
 40
1.0
 40
1.0
 40
1.0
 10
140.9504257104695
 20
135.6185876924125
 30
0.0
 10
140.9504257104695
 20
135.6185876924126
 30
0.0
 10
140.9981342414347
 20
135.6185876924125
 30
0.0
 10
141.1877368963117
 20
135.6185876924124
 30
0.0
 10
141.328651220926
 20
135.6185876924124
 30
0.0
 10
141.8686809632201
 20
135.6185876924125
 30
0.0
 10
142.3848742235128
 20
135.6185876924125
 30
0.0
 10
143.0047028524414
 20
135.6185876924124
 30
0.0
  0
LINE
  5
441
330
1F
100
AcDbEntity
  8
0
  6
Continuous
 62
     7
370
    15
100
AcDbLine
 10
140.950425329
 20
124.1185947879
 30
0.0
 11
140.950425329
 21
135.6185957415
 31
0.0
  0
LINE
  5
442
330
1F
100
AcDbEntity
  8
0
  6
Continuous
 62
     7
370
    15
100
AcDbLine
 10
318.0504280947
 20
97.9014619811
 30
0.0
 11
318.0504280947
 21
127.6185795291
 31
0.0
  0
LINE
  5
443
330
1F
100
AcDbEntity
  8
0
  6
Continuous
 62
     7
370
    15
100
AcDbLine
 10
318.0504280947
 20
97.618578337
 30
0.0
 11
318.0504280947
 21
97.9014619811
 31
0.0
  0
LINE
  5
444
330
1F
100
AcDbEntity
  8
0
  6
Continuous
 62
     7
370
    15
100
AcDbLine
 10
-286.9495611765
 20
97.9014619811
 30
0.0
 11
-286.9495611765
 21
127.6185795291
 31
0.0
  0
LINE
  5
445
330
1F
100
AcDbEntity
  8
0
  6
Continuous
 62
     7
370
    15
100
AcDbLine
 10
-286.9495611765
 20
97.618578337
 30
0.0
 11
-286.9495611765
 21
97.9014619811
 31
0.0
  0
SPLINE
  5
446
330
1F
100
AcDbEntity
  8
0
  6
Continuous
 62
     7
370
    15
100
AcDbSpline
210
0.0
220
0.0
230
1.0
 70
     8
 71
     3
 72
     9
 73
     5
 74
     0
 42
0.00000001
 43
0.00000001
 12
1.0
 22
0.0
 32
0.0
 13
1.0
 23
0.0
 33
0.0
 40
0.0
 40
0.0
 40
0.0
 40
0.0
 40
0.898013520860911
 40
1.0
 40
1.0
 40
1.0
 40
1.0
 10
-111.9038622953626
 20
138.950853012351
 30
0.0
 10
-111.5869175861476
 20
138.5247568469027
 30
0.0
 10
-111.2339777897497
 20
138.0502693747767
 30
0.0
 10
-110.9799949035177
 20
137.5670323758086
 30
0.0
 10
-110.9540920831892
 20
137.517748735694
 30
0.0
  0
LINE
  5
447
330
1F
100
AcDbEntity
  8
0
  6
Continuous
 62
     7
370
    15
100
AcDbLine
 10
-109.8495882132
 20
135.6185957415
 30
0.0
 11
-109.8495882132
 21
130.8712645991
 31
0.0
  0
LINE
  5
448
330
1F
100
AcDbEntity
  8
0
  6
Continuous
 62
     7
370
    15
100
AcDbLine
 10
318.0504280947
 20
-229.59013436
 30
0.0
 11
318.0504280947
 21
-212.7997331695
 31
0.0
  0
LINE
  5
449
330
1F
100
AcDbEntity
  8
0
  6
Continuous
 62
     7
370
    15
100
AcDbLine
 10
318.0504280947
 20
-242.7997306363
 30
0.0
 11
318.0504280947
 21
-229.59013436
 31
0.0
  0
LINE
  5
44A
330
1F
100
AcDbEntity
  8
0
  6
Continuous
 62
     7
370
    15
100
AcDbLine
 10
-286.9495611765
 20
-229.59013436
 30
0.0
 11
-286.9495611765
 21
-212.7997331695
 31
0.0
  0
LINE
  5
44B
330
1F
100
AcDbEntity
  8
0
  6
Continuous
 62
     7
370
    15
100
AcDbLine
 10
-286.9495611765
 20
-242.7997306363
 30
0.0
 11
-286.9495611765
 21
-229.59013436
 31
0.0
  0
LINE
  5
44C
330
1F
100
AcDbEntity
  8
0
  6
Continuous
 62
     8
370
     0
100
AcDbLine
 10
32.2994131468
 20
-339.5054504649
 30
0.0
 11
32.2994131468
 21
-487.9585221784
 31
0.0
  0
LINE
  5
44D
330
1F
100
AcDbEntity
  8
0
  6
Continuous
 62
     8
370
     0
100
AcDbLine
 10
32.2994131468
 20
134.0414568408
 30
0.0
 11
32.2994131468
 21
67.85116937
 31
0.0
  0
LINE
  5
44E
330
1F
100
AcDbEntity
  8
0
  6
Continuous
 62
     8
370
     0
100
AcDbLine
 10
32.2994131468
 20
37.8511681779
 30
0.0
 11
32.2994131468
 21
-309.5054492728
 31
0.0
  0
LINE
  5
44F
330
1F
100
AcDbEntity
  8
0
  6
Continuous
 62
     8
370
     0
100
AcDbLine
 10
29.3108362577
 20
131.3029214366
 30
0.0
 11
29.3108362577
 21
67.85116937
 31
0.0
  0
LINE
  5
450
330
1F
100
AcDbEntity
  8
0
  6
Continuous
 62
     8
370
     0
100
AcDbLine
 10
29.3108362577
 20
37.8511681779
 30
0.0
 11
29.3108362577
 21
-309.5054492728
 31
0.0
  0
LINE
  5
451
330
1F
100
AcDbEntity
  8
0
  6
Continuous
 62
     8
370
     0
100
AcDbLine
 10
29.3108362577
 20
-339.5054504649
 30
0.0
 11
29.3108362577
 21
-485.2199867742
 31
0.0
  0
LINE
  5
452
330
1F
100
AcDbEntity
  8
0
  6
Continuous
 62
     8
370
     0
100
AcDbLine
 10
27.8885651253
 20
-91.1804825442
 30
0.0
 11
27.8885651253
 21
-262.7365827934
 31
0.0
  0
LINE
  5
453
330
1F
100
AcDbEntity
  8
0
  6
Continuous
 62
     8
370
     0
100
AcDbLine
 10
27.8885651253
 20
37.8511681779
 30
0.0
 11
27.8885651253
 21
-79.1804880278
 31
0.0
  0
LINE
  5
454
330
1F
100
AcDbEntity
  8
0
  6
Continuous
 62
     8
370
     0
100
AcDbLine
 10
27.8885651253
 20
115.0276645644
 30
0.0
 11
27.8885651253
 21
69.3195148928
 31
0.0
  0
LINE
  5
455
330
1F
100
AcDbEntity
  8
0
  6
Continuous
 62
     8
370
     0
100
AcDbLine
 10
27.8885651253
 20
-423.2365802304
 30
0.0
 11
27.8885651253
 21
-468.944729902
 31
0.0
  0
LINE
  5
456
330
1F
100
AcDbEntity
  8
0
  6
Continuous
 62
     8
370
     0
100
AcDbLine
 10
27.8885651253
 20
-274.7365773098
 30
0.0
 11
27.8885651253
 21
-309.5054492728
 31
0.0
  0
LINE
  5
457
330
1F
100
AcDbEntity
  8
0
  6
Continuous
 62
     8
370
     0
100
AcDbLine
 10
27.8885651253
 20
-339.5054504649
 30
0.0
 11
27.8885651253
 21
-411.2431571262
 31
0.0
  0
LINE
  5
458
330
1F
100
AcDbEntity
  8
0
  6
Continuous
 62
     8
370
     0
100
AcDbLine
 10
23.169263067
 20
110.4889198764
 30
0.0
 11
23.169263067
 21
69.3195148928
 31
0.0
  0
LINE
  5
459
330
1F
100
AcDbEntity
  8
0
  6
Continuous
 62
     8
370
     0
100
AcDbLine
 10
23.169263067
 20
37.8511681779
 30
0.0
 11
23.169263067
 21
-79.1804880278
 31
0.0
  0
LINE
  5
45A
330
1F
100
AcDbEntity
  8
0
  6
Continuous
 62
     8
370
     0
100
AcDbLine
 10
23.169263067
 20
-91.1804825442
 30
0.0
 11
23.169263067
 21
-262.7365827934
 31
0.0
  0
LINE
  5
45B
330
1F
100
AcDbEntity
  8
0
  6
Continuous
 62
     8
370
     0
100
AcDbLine
 10
23.169263067
 20
-274.7365773098
 30
0.0
 11
23.169263067
 21
-309.5054492728
 31
0.0
  0
LINE
  5
45C
330
1F
100
AcDbEntity
  8
0
  6
Continuous
 62
     8
370
     0
100
AcDbLine
 10
23.169263067
 20
-339.5054504649
 30
0.0
 11
23.169263067
 21
-411.2365857141
 31
0.0
  0
LINE
  5
45D
330
1F
100
AcDbEntity
  8
0
  6
Continuous
 62
     8
370
     0
100
AcDbLine
 10
23.169263067
 20
-423.2365802304
 30
0.0
 11
23.169263067
 21
-464.405985214
 31
0.0
  0
LINE
  5
45E
330
1F
100
AcDbEntity
  8
0
  6
Continuous
 62
     8
370
     0
100
AcDbLine
 10
-2.0804118492
 20
109.1656371577
 30
0.0
 11
-2.0804118492
 21
69.3195148928
 31
0.0
  0
LINE
  5
45F
330
1F
100
AcDbEntity
  8
0
  6
Continuous
 62
     8
370
     0
100
AcDbLine
 10
-2.0804118492
 20
37.8511681779
 30
0.0
 11
-2.0804118492
 21
-79.1804880278
 31
0.0
  0
LINE
  5
460
330
1F
100
AcDbEntity
  8
0
  6
Continuous
 62
     8
370
     0
100
AcDbLine
 10
-2.0804118492
 20
-91.1804825442
 30
0.0
 11
-2.0804118492
 21
-262.7365827934
 31
0.0
  0
LINE
  5
461
330
1F
100
AcDbEntity
  8
0
  6
Continuous
 62
     8
370
     0
100
AcDbLine
 10
-2.0804118492
 20
-274.7365773098
 30
0.0
 11
-2.0804118492
 21
-309.5054492728
 31
0.0
  0
LINE
  5
462
330
1F
100
AcDbEntity
  8
0
  6
Continuous
 62
     8
370
     0
100
AcDbLine
 10
-2.0804118492
 20
-339.5054504649
 30
0.0
 11
-2.0804118492
 21
-411.2365857141
 31
0.0
  0
LINE
  5
463
330
1F
100
AcDbEntity
  8
0
  6
Continuous
 62
     8
370
     0
100
AcDbLine
 10
-2.0804118492
 20
-423.2365802304
 30
0.0
 11
-2.0804118492
 21
-463.0827024953
 31
0.0
  0
LINE
  5
464
330
1F
100
AcDbEntity
  8
FORMAT
  6
CENTERX2
370
     0
100
AcDbLine
 10
-284.0564157592
 20
-176.9585326688
 30
0.0
 11
317.9540785141
 21
-176.9585326688
 31
0.0
  0
ENDSEC
  0
SECTION
  2
OBJECTS
  0
DICTIONARY
  5
C
330
0
100
AcDbDictionary
281
     1
  3
ACAD_GROUP
350
D
  3
ACAD_LAYOUT
350
1A
  3
ACAD_MLINESTYLE
350
17
  3
ACAD_PLOTSETTINGS
350
19
  3
ACAD_PLOTSTYLENAME
350
E
  0
DICTIONARY
  5
D
102
{ACAD_REACTORS
330
C
102
}
330
C
100
AcDbDictionary
281
     1
  0
DICTIONARY
  5
1A
102
{ACAD_REACTORS
330
C
102
}
330
C
100
AcDbDictionary
281
     1
  3
Layout1
350
1E
  3
Layout2
350
26
  3
Model
350
22
  0
DICTIONARY
  5
17
102
{ACAD_REACTORS
330
C
102
}
330
C
100
AcDbDictionary
281
     1
  3
Standard
350
18
  0
DICTIONARY
  5
19
102
{ACAD_REACTORS
330
C
102
}
330
C
100
AcDbDictionary
281
     1
  0
ACDBDICTIONARYWDFLT
  5
E
102
{ACAD_REACTORS
330
C
102
}
330
C
100
AcDbDictionary
281
     1
  3
Normal
350
F
100
AcDbDictionaryWithDefault
340
F
  0
LAYOUT
  5
1E
102
{ACAD_REACTORS
330
1A
102
}
330
1A
100
AcDbPlotSettings
  1

  2
none_device
  4

  6

 40
0.0
 41
0.0
 42
0.0
 43
0.0
 44
0.0
 45
0.0
 46
0.0
 47
0.0
 48
0.0
 49
0.0
140
0.0
141
0.0
142
1.0
143
1.0
 70
   688
 72
     0
 73
     0
 74
     5
  7

 75
    16
147
1.0
148
0.0
149
0.0
100
AcDbLayout
  1
Layout1
 70
     1
 71
     1
 10
0.0
 20
0.0
 11
420.0
 21
297.0
 12
0.0
 22
0.0
 32
0.0
 14
1.0000000000E+20
 24
1.0000000000E+20
 34
1.0000000000E+20
 15
-1.0000000000E+20
 25
-1.0000000000E+20
 35
-1.0000000000E+20
146
0.0
 13
0.0
 23
0.0
 33
0.0
 16
1.0
 26
0.0
 36
0.0
 17
0.0
 27
1.0
 37
0.0
 76
     0
330
1B
  0
LAYOUT
  5
26
102
{ACAD_REACTORS
330
1A
102
}
330
1A
100
AcDbPlotSettings
  1

  2
none_device
  4

  6

 40
0.0
 41
0.0
 42
0.0
 43
0.0
 44
0.0
 45
0.0
 46
0.0
 47
0.0
 48
0.0
 49
0.0
140
0.0
141
0.0
142
1.0
143
1.0
 70
   688
 72
     0
 73
     0
 74
     5
  7

 75
    16
147
1.0
148
0.0
149
0.0
100
AcDbLayout
  1
Layout2
 70
     1
 71
     2
 10
0.0
 20
0.0
 11
0.0
 21
0.0
 12
0.0
 22
0.0
 32
0.0
 14
0.0
 24
0.0
 34
0.0
 15
0.0
 25
0.0
 35
0.0
146
0.0
 13
0.0
 23
0.0
 33
0.0
 16
1.0
 26
0.0
 36
0.0
 17
0.0
 27
1.0
 37
0.0
 76
     0
330
23
  0
LAYOUT
  5
22
102
{ACAD_REACTORS
330
1A
102
}
330
1A
100
AcDbPlotSettings
  1

  2
none_device
  4

  6

 40
0.0
 41
0.0
 42
0.0
 43
0.0
 44
0.0
 45
0.0
 46
0.0
 47
0.0
 48
0.0
 49
0.0
140
0.0
141
0.0
142
1.0
143
1.0
 70
  1712
 72
     0
 73
     0
 74
     0
  7

 75
     0
147
1.0
148
0.0
149
0.0
100
AcDbLayout
  1
Model
 70
     1
 71
     0
 10
0.0
 20
0.0
 11
841.0
 21
594.0
 12
0.0
 22
0.0
 32
0.0
 14
0.0
 24
0.0
 34
0.0
 15
841.0
 25
594.0
 35
0.0
146
0.0
 13
0.0
 23
0.0
 33
0.0
 16
1.0
 26
0.0
 36
0.0
 17
0.0
 27
1.0
 37
0.0
 76
     0
330
1F
331
29
  0
MLINESTYLE
  5
18
102
{ACAD_REACTORS
330
17
102
}
330
17
100
AcDbMlineStyle
  2
Standard
 70
     0
  3

 62
   256
 51
90.0
 52
90.0
 71
     2
 49
0.5
 62
   256
  6
BYLAYER
 49
-0.5
 62
   256
  6
BYLAYER
  0
ACDBPLACEHOLDER
  5
F
102
{ACAD_REACTORS
330
E
102
}
330
E
  0
ENDSEC
  0
EOF
