  0
SECTION
  2
HEADER
  9
$ACADVER
  1
AC1015
  9
$ACADMAINTVER
 70
     6
  9
$DWGCODEPAGE
  3
ANSI_1252
  9
$INSBASE
 10
0.0
 20
0.0
 30
0.0
  9
$EXTMIN
 10
0.0
 20
0.0
 30
0.0
  9
$EXTMAX
 10
420.0
 20
297.0
 30
0.0
  9
$LIMMIN
 10
0.0
 20
0.0
  9
$LIMMAX
 10
420.0
 20
297.0
  9
$ORTHOMODE
 70
     0
  9
$REGENMODE
 70
     1
  9
$FILLMODE
 70
     1
  9
$QTEXTMODE
 70
     0
  9
$MIRRTEXT
 70
     1
  9
$LTSCALE
 40
1.0
  9
$ATTMODE
 70
     1
  9
$TEXTSIZE
 40
2.5
  9
$TRACEWID
 40
1.0
  9
$TEXTSTYLE
  7
Standard
  9
$CLAYER
  8
0
  9
$CELTYPE
  6
ByLayer
  9
$CECOLOR
 62
   256
  9
$CELTSCALE
 40
1.0
  9
$DISPSILH
 70
     0
  9
$DIMSCALE
 40
1.0
  9
$DIMASZ
 40
2.5
  9
$DIMEXO
 40
1.0
  9
$DIMDLI
 40
3.75
  9
$DIMRND
 40
0.0
  9
$DIMDLE
 40
0.0
  9
$DIMEXE
 40
1.0
  9
$DIMTP
 40
0.0
  9
$DIMTM
 40
0.0
  9
$DIMTXT
 40
2.5
  9
$DIMCEN
 40
2.5
  9
$DIMTSZ
 40
0.0
  9
$DIMTOL
 70
     0
  9
$DIMLIM
 70
     0
  9
$DIMTIH
 70
     1
  9
$DIMTOH
 70
     1
  9
$DIMSE1
 70
     0
  9
$DIMSE2
 70
     0
  9
$DIMTAD
 70
     1
  9
$DIMZIN
 70
     0
  9
$DIMBLK
  1

  9
$DIMASO
 70
     1
  9
$DIMSHO
 70
     1
  9
$DIMPOST
  1

  9
$DIMAPOST
  1

  9
$DIMALT
 70
     0
  9
$DIMALTD
 70
     3
  9
$DIMALTF
 40
0.0393700787
  9
$DIMLFAC
 40
1.0
  9
$DIMTOFL
 70
     1
  9
$DIMTVP
 40
0.0
  9
$DIMTIX
 70
     0
  9
$DIMSOXD
 70
     0
  9
$DIMSAH
 70
     0
  9
$DIMBLK1
  1

  9
$DIMBLK2
  1

  9
$DIMSTYLE
  2
ISO-25
  9
$DIMCLRD
 70
     0
  9
$DIMCLRE
 70
     0
  9
$DIMCLRT
 70
     0
  9
$DIMTFAC
 40
1.0
  9
$DIMGAP
 40
1.524
  9
$DIMJUST
 70
     0
  9
$DIMSD1
 70
     0
  9
$DIMSD2
 70
     0
  9
$DIMTOLJ
 70
     0
  9
$DIMTZIN
 70
     0
  9
$DIMALTZ
 70
     0
  9
$DIMALTTZ
 70
     0
  9
$DIMUPT
 70
     0
  9
$DIMDEC
 70
     2
  9
$DIMTDEC
 70
     2
  9
$DIMALTU
 70
     2
  9
$DIMALTTD
 70
     3
  9
$DIMTXSTY
  7
Standard
  9
$DIMAUNIT
 70
     0
  9
$DIMADEC
 70
     2
  9
$DIMALTRND
 40
0.0
  9
$DIMAZIN
 70
     0
  9
$DIMDSEP
 70
    44
  9
$DIMATFIT
 70
     3
  9
$DIMFRAC
 70
     0
  9
$DIMLDRBLK
  1

  9
$DIMLUNIT
 70
     2
  9
$DIMLWD
 70
    -2
  9
$DIMLWE
 70
    -2
  9
$DIMTMOVE
 70
     0
  9
$LUNITS
 70
     2
  9
$LUPREC
 70
     2
  9
$SKETCHINC
 40
1.0
  9
$FILLETRAD
 40
10.0
  9
$AUNITS
 70
     0
  9
$AUPREC
 70
     2
  9
$MENU
  1
.
  9
$ELEVATION
 40
0.0
  9
$PELEVATION
 40
0.0
  9
$THICKNESS
 40
0.0
  9
$LIMCHECK
 70
     0
  9
$CHAMFERA
 40
10.0
  9
$CHAMFERB
 40
10.0
  9
$CHAMFERC
 40
20.0
  9
$CHAMFERD
 40
0.0
  9
$SKPOLY
 70
     0
  9
$TDCREATE
 40
2458043.457067558
  9
$TDUCREATE
 40
2458043.373734225
  9
$TDUPDATE
 40
2458043.457068646
  9
$TDUUPDATE
 40
2458043.373735312
  9
$TDINDWG
 40
0.0000000116
  9
$TDUSRTIMER
 40
0.0000000116
  9
$USRTIMER
 70
     1
  9
$ANGBASE
 50
0.0
  9
$ANGDIR
 70
     0
  9
$PDMODE
 70
     0
  9
$PDSIZE
 40
-1.0
  9
$PLINEWID
 40
0.0
  9
$SPLFRAME
 70
     0
  9
$SPLINETYPE
 70
     6
  9
$SPLINESEGS
 70
     8
  9
$HANDSEED
  5
297
  9
$SURFTAB1
 70
     6
  9
$SURFTAB2
 70
     6
  9
$SURFTYPE
 70
     6
  9
$SURFU
 70
     6
  9
$SURFV
 70
     6
  9
$UCSBASE
  2

  9
$UCSNAME
  2

  9
$UCSORG
 10
0.0
 20
0.0
 30
0.0
  9
$UCSXDIR
 10
1.0
 20
0.0
 30
0.0
  9
$UCSYDIR
 10
0.0
 20
1.0
 30
0.0
  9
$UCSORTHOREF
  2

  9
$UCSORTHOVIEW
 70
     0
  9
$UCSORGTOP
 10
0.0
 20
0.0
 30
0.0
  9
$UCSORGBOTTOM
 10
0.0
 20
0.0
 30
0.0
  9
$UCSORGLEFT
 10
0.0
 20
0.0
 30
0.0
  9
$UCSORGRIGHT
 10
0.0
 20
0.0
 30
0.0
  9
$UCSORGFRONT
 10
0.0
 20
0.0
 30
0.0
  9
$UCSORGBACK
 10
0.0
 20
0.0
 30
0.0
  9
$PUCSBASE
  2

  9
$PUCSNAME
  2

  9
$PUCSORG
 10
0.0
 20
0.0
 30
0.0
  9
$PUCSXDIR
 10
1.0
 20
0.0
 30
0.0
  9
$PUCSYDIR
 10
0.0
 20
1.0
 30
0.0
  9
$PUCSORTHOREF
  2

  9
$PUCSORTHOVIEW
 70
     0
  9
$PUCSORGTOP
 10
0.0
 20
0.0
 30
0.0
  9
$PUCSORGBOTTOM
 10
0.0
 20
0.0
 30
0.0
  9
$PUCSORGLEFT
 10
0.0
 20
0.0
 30
0.0
  9
$PUCSORGRIGHT
 10
0.0
 20
0.0
 30
0.0
  9
$PUCSORGFRONT
 10
0.0
 20
0.0
 30
0.0
  9
$PUCSORGBACK
 10
0.0
 20
0.0
 30
0.0
  9
$USERI1
 70
     0
  9
$USERI2
 70
     0
  9
$USERI3
 70
     0
  9
$USERI4
 70
     0
  9
$USERI5
 70
     0
  9
$USERR1
 40
0.0
  9
$USERR2
 40
0.0
  9
$USERR3
 40
0.0
  9
$USERR4
 40
0.0
  9
$USERR5
 40
0.0
  9
$WORLDVIEW
 70
     1
  9
$SHADEDGE
 70
     3
  9
$SHADEDIF
 70
    70
  9
$TILEMODE
 70
     1
  9
$MAXACTVP
 70
    64
  9
$PINSBASE
 10
0.0
 20
0.0
 30
0.0
  9
$PLIMCHECK
 70
     0
  9
$PEXTMIN
 10
1.0000000000E+20
 20
1.0000000000E+20
 30
1.0000000000E+20
  9
$PEXTMAX
 10
-1.0000000000E+20
 20
-1.0000000000E+20
 30
-1.0000000000E+20
  9
$PLIMMIN
 10
0.0
 20
0.0
  9
$PLIMMAX
 10
420.0
 20
297.0
  9
$UNITMODE
 70
     0
  9
$VISRETAIN
 70
     1
  9
$PLINEGEN
 70
     0
  9
$PSLTSCALE
 70
     1
  9
$TREEDEPTH
 70
  3020
  9
$CMLSTYLE
  2
Standard
  9
$CMLJUST
 70
     0
  9
$CMLSCALE
 40
20.0
  9
$PROXYGRAPHICS
 70
     1
  9
$MEASUREMENT
 70
     1
  9
$CELWEIGHT
370
    -1
  9
$ENDCAPS
280
     0
  9
$JOINSTYLE
280
     0
  9
$LWDISPLAY
290
     1
  9
$INSUNITS
 70
     4
  9
$HYPERLINKBASE
  1

  9
$STYLESHEET
  1

  9
$XEDIT
290
     1
  9
$CEPSNTYPE
380
     0
  9
$PSTYLEMODE
290
     1
  9
$FINGERPRINTGUID
  2
{FD9E4800-F7A6-4722-A299-52F7232C7049}
  9
$VERSIONGUID
  2
{FAEB1C32-E019-11D5-929B-00C0DF256EC4}
  9
$EXTNAMES
290
     1
  9
$PSVPSCALE
 40
0.0
  9
$OLESTARTUP
290
     0
  0
ENDSEC
  0
SECTION
  2
CLASSES
  0
CLASS
  1
ACDBDICTIONARYWDFLT
  2
AcDbDictionaryWithDefault
  3
ObjectDBX Classes
 90
        0
280
     0
281
     0
  0
CLASS
  1
VISUALSTYLE
  2
AcDbVisualStyle
  3
ObjectDBX Classes
 90
     4095
280
     0
281
     0
  0
CLASS
  1
MATERIAL
  2
AcDbMaterial
  3
ObjectDBX Classes
 90
     1153
280
     0
281
     0
  0
CLASS
  1
ACDBPLACEHOLDER
  2
AcDbPlaceHolder
  3
ObjectDBX Classes
 90
        0
280
     0
281
     0
  0
CLASS
  1
LAYOUT
  2
AcDbLayout
  3
ObjectDBX Classes
 90
        0
280
     0
281
     0
  0
ENDSEC
  0
SECTION
  2
TABLES
  0
TABLE
  2
VPORT
  5
8
330
0
100
AcDbSymbolTable
 70
     1
  0
VPORT
  5
29
330
8
100
AcDbSymbolTableRecord
100
AcDbViewportTableRecord
  2
*Active
 70
     0
 10
0.0
 20
0.0
 11
1.0
 21
1.0
 12
210.0
 22
148.5
 13
0.0
 23
0.0
 14
10.0
 24
10.0
 15
10.0
 25
10.0
 16
0.0
 26
0.0
 36
1.0
 17
0.0
 27
0.0
 37
0.0
 40
297.0
 41
1.4141414141
 42
50.0
 43
0.0
 44
0.0
 50
0.0
 51
0.0
 71
     0
 72
  2000
 73
     1
 74
     3
 75
     0
 76
     0
 77
     0
 78
     0
281
     0
 65
     1
110
0.0
120
0.0
130
0.0
111
1.0
121
0.0
131
0.0
112
0.0
122
1.0
132
0.0
 79
     0
146
0.0
  0
ENDTAB
  0
TABLE
  2
LTYPE
  5
5
330
0
100
AcDbSymbolTable
 70
     6
  0
LTYPE
  5
14
330
5
100
AcDbSymbolTableRecord
100
AcDbLinetypeTableRecord
  2
ByBlock
 70
     0
  3

 72
    65
 73
     0
 40
0.0
  0
LTYPE
  5
15
330
5
100
AcDbSymbolTableRecord
100
AcDbLinetypeTableRecord
  2
ByLayer
 70
     0
  3

 72
    65
 73
     0
 40
0.0
  0
LTYPE
  5
16
330
5
100
AcDbSymbolTableRecord
100
AcDbLinetypeTableRecord
  2
Continuous
 70
     0
  3
Solid line
 72
    65
 73
     0
 40
0.0
  0
LTYPE
  5
3F
330
5
100
AcDbSymbolTableRecord
100
AcDbLinetypeTableRecord
  2
HIDDEN
 70
     0
  3
Hidden __ __ __ __ __ __ __ __ __ __ __ __ __ __
 72
    65
 73
     2
 40
1.905
 49
1.27
 74
     0
 49
-0.635
 74
     0
  0
LTYPE
  5
40
330
5
100
AcDbSymbolTableRecord
100
AcDbLinetypeTableRecord
  2
PHANTOM
 70
     0
  3
Phantom ______  __  __  ______  __  __  ______
 72
    65
 73
     6
 40
12.7
 49
6.35
 74
     0
 49
-1.27
 74
     0
 49
1.27
 74
     0
 49
-1.27
 74
     0
 49
1.27
 74
     0
 49
-1.27
 74
     0
  0
LTYPE
  5
41
330
5
100
AcDbSymbolTableRecord
100
AcDbLinetypeTableRecord
  2
CENTER
 70
     0
  3
Center ____ _ ____ _ ____ _ ____ _ ____ _ ____
 72
    65
 73
     4
 40
10.16
 49
6.35
 74
     0
 49
-1.27
 74
     0
 49
1.27
 74
     0
 49
-1.27
 74
     0
  0
LTYPE
  5
42
330
5
100
AcDbSymbolTableRecord
100
AcDbLinetypeTableRecord
  2
CENTERX2
 70
     0
  3
Center (2x) ________  __  ________  __  _____
 72
    65
 73
     4
 40
20.32
 49
12.7
 74
     0
 49
-2.54
 74
     0
 49
2.54
 74
     0
 49
-2.54
 74
     0
  0
LTYPE
  5
43
330
5
100
AcDbSymbolTableRecord
100
AcDbLinetypeTableRecord
  2
DOT2
 70
     0
  3
Dot (.5x) ........................................
 72
    65
 73
     2
 40
0.635
 49
0.0
 74
     0
 49
-0.635
 74
     0
  0
ENDTAB
  0
TABLE
  2
LAYER
  5
2
330
0
100
AcDbSymbolTable
 70
     3
  0
LAYER
  5
10
330
2
100
AcDbSymbolTableRecord
100
AcDbLayerTableRecord
  2
0
 70
     0
 62
     7
  6
Continuous
370
    -3
390
F
  0
LAYER
  5
44
330
2
100
AcDbSymbolTableRecord
100
AcDbLayerTableRecord
  2
FORMAT
 70
     0
 62
     7
  6
Continuous
370
    -3
390
F
  0
LAYER
  5
45
330
2
100
AcDbSymbolTableRecord
100
AcDbLayerTableRecord
  2
PROTOTYPE
 70
     0
 62
     7
  6
Continuous
370
    -3
390
F
  0
ENDTAB
  0
TABLE
  2
STYLE
  5
3
330
0
100
AcDbSymbolTable
 70
     1
  0
STYLE
  5
11
330
3
100
AcDbSymbolTableRecord
100
AcDbTextStyleTableRecord
  2
Standard
 70
     0
 40
0.0
 41
1.0
 50
0.0
 71
     0
 42
2.5
  3
txt
  4

  0
ENDTAB
  0
TABLE
  2
VIEW
  5
6
330
0
100
AcDbSymbolTable
 70
     0
  0
ENDTAB
  0
TABLE
  2
UCS
  5
7
330
0
100
AcDbSymbolTable
 70
     0
  0
ENDTAB
  0
TABLE
  2
APPID
  5
9
330
0
100
AcDbSymbolTable
 70
     1
  0
APPID
  5
12
330
9
100
AcDbSymbolTableRecord
100
AcDbRegAppTableRecord
  2
ACAD
 70
     0
  0
ENDTAB
  0
TABLE
  2
DIMSTYLE
  5
A
330
0
100
AcDbSymbolTable
 70
     1
100
AcDbDimStyleTable
  0
DIMSTYLE
105
27
330
A
100
AcDbSymbolTableRecord
100
AcDbDimStyleTableRecord
  2
ISO-25
 70
     0
 41
2.5
 42
0.625
 43
3.75
 44
1.25
 73
     0
 74
     0
 77
     1
 78
     8
140
2.5
141
2.5
143
0.0393700787
147
0.625
171
     3
172
     1
178
     0
271
     2
272
     2
274
     3
278
    44
283
     0
284
     8
340
11
  0
ENDTAB
  0
TABLE
  2
BLOCK_RECORD
  5
1
330
0
100
AcDbSymbolTable
 70
     3
  0
BLOCK_RECORD
  5
1F
330
1
100
AcDbSymbolTableRecord
100
AcDbBlockTableRecord
  2
*Model_Space
340
22
  0
BLOCK_RECORD
  5
1B
330
1
100
AcDbSymbolTableRecord
100
AcDbBlockTableRecord
  2
*Paper_Space
340
1E
  0
BLOCK_RECORD
  5
23
330
1
100
AcDbSymbolTableRecord
100
AcDbBlockTableRecord
  2
*Paper_Space0
340
26
  0
BLOCK_RECORD
  5
1D7
330
1
100
AcDbSymbolTableRecord
100
AcDbBlockTableRecord
  2
SW_CENTERMARKSYMBOL_0
340
0
102
{BLKREFS
331
1E2
102
}
  0
BLOCK_RECORD
  5
28B
330
1
100
AcDbSymbolTableRecord
100
AcDbBlockTableRecord
  2
SW_CENTERMARKSYMBOL_1
340
0
102
{BLKREFS
331
296
102
}
  0
ENDTAB
  0
ENDSEC
  0
SECTION
  2
BLOCKS
  0
BLOCK
  5
20
330
1F
100
AcDbEntity
  8
0
100
AcDbBlockBegin
  2
*Model_Space
 70
     0
 10
0.0
 20
0.0
 30
0.0
  3
*Model_Space
  1

  0
ENDBLK
  5
21
330
1F
100
AcDbEntity
  8
0
100
AcDbBlockEnd
  0
BLOCK
  5
1C
330
1B
100
AcDbEntity
 67
     1
  8
0
100
AcDbBlockBegin
  2
*Paper_Space
 70
     0
 10
0.0
 20
0.0
 30
0.0
  3
*Paper_Space
  1

  0
ENDBLK
  5
1D
330
1B
100
AcDbEntity
 67
     1
  8
0
100
AcDbBlockEnd
  0
BLOCK
  5
24
330
23
100
AcDbEntity
  8
0
100
AcDbBlockBegin
  2
*Paper_Space0
 70
     0
 10
0.0
 20
0.0
 30
0.0
  3
*Paper_Space0
  1

  0
ENDBLK
  5
25
330
23
100
AcDbEntity
  8
0
100
AcDbBlockEnd
  0
BLOCK
  5
1D8
330
1D7
100
AcDbEntity
  8
0
100
AcDbBlockBegin
  2
SW_CENTERMARKSYMBOL_0
 70
     0
 10
0.0
 20
0.0
 30
0.0
  3
SW_CENTERMARKSYMBOL_0
  1

  0
LINE
  5
1DA
330
1D7
100
AcDbEntity
  8
FORMAT
 62
     0
100
AcDbLine
 10
0.0
 20
0.0
 30
0.0
 11
0.0
 21
2.5
 31
0.0
  0
LINE
  5
1DB
330
1D7
100
AcDbEntity
  8
FORMAT
 62
     0
100
AcDbLine
 10
0.0
 20
0.0
 30
0.0
 11
-2.5
 21
0.0
 31
0.0
  0
LINE
  5
1DC
330
1D7
100
AcDbEntity
  8
FORMAT
 62
     0
100
AcDbLine
 10
0.0
 20
0.0
 30
0.0
 11
0.0
 21
-2.5
 31
0.0
  0
LINE
  5
1DD
330
1D7
100
AcDbEntity
  8
FORMAT
 62
     0
100
AcDbLine
 10
0.0
 20
0.0
 30
0.0
 11
2.5
 21
0.0
 31
0.0
  0
LINE
  5
1DE
330
1D7
100
AcDbEntity
  8
FORMAT
 62
     0
100
AcDbLine
 10
0.0
 20
5.0
 30
0.0
 11
0.0
 21
184.0935293323
 31
0.0
  0
LINE
  5
1DF
330
1D7
100
AcDbEntity
  8
FORMAT
 62
     0
100
AcDbLine
 10
-5.0
 20
0.0
 30
0.0
 11
-32.7431859961
 21
0.0
 31
0.0
  0
LINE
  5
1E0
330
1D7
100
AcDbEntity
  8
FORMAT
 62
     0
100
AcDbLine
 10
0.0
 20
-5.0
 30
0.0
 11
0.0
 21
-25.0757769137
 31
0.0
  0
LINE
  5
1E1
330
1D7
100
AcDbEntity
  8
FORMAT
 62
     0
100
AcDbLine
 10
5.0
 20
0.0
 30
0.0
 11
32.375560288
 21
0.0
 31
0.0
  0
ENDBLK
  5
1D9
330
1D7
100
AcDbEntity
  8
0
100
AcDbBlockEnd
  0
BLOCK
  5
28C
330
28B
100
AcDbEntity
  8
0
100
AcDbBlockBegin
  2
SW_CENTERMARKSYMBOL_1
 70
     0
 10
0.0
 20
0.0
 30
0.0
  3
SW_CENTERMARKSYMBOL_1
  1

  0
LINE
  5
28E
330
28B
100
AcDbEntity
  8
FORMAT
 62
     0
100
AcDbLine
 10
0.0
 20
0.0
 30
0.0
 11
0.0
 21
2.5
 31
0.0
  0
LINE
  5
28F
330
28B
100
AcDbEntity
  8
FORMAT
 62
     0
100
AcDbLine
 10
0.0
 20
0.0
 30
0.0
 11
-2.5
 21
0.0
 31
0.0
  0
LINE
  5
290
330
28B
100
AcDbEntity
  8
FORMAT
 62
     0
100
AcDbLine
 10
0.0
 20
0.0
 30
0.0
 11
0.0
 21
-2.5
 31
0.0
  0
LINE
  5
291
330
28B
100
AcDbEntity
  8
FORMAT
 62
     0
100
AcDbLine
 10
0.0
 20
0.0
 30
0.0
 11
2.5
 21
0.0
 31
0.0
  0
LINE
  5
292
330
28B
100
AcDbEntity
  8
FORMAT
 62
     0
100
AcDbLine
 10
0.0
 20
5.0
 30
0.0
 11
0.0
 21
37.4277538324
 31
0.0
  0
LINE
  5
293
330
28B
100
AcDbEntity
  8
FORMAT
 62
     0
100
AcDbLine
 10
-5.0
 20
0.0
 30
0.0
 11
-60.1088571393
 21
0.0
 31
0.0
  0
LINE
  5
294
330
28B
100
AcDbEntity
  8
FORMAT
 62
     0
100
AcDbLine
 10
0.0
 20
-5.0
 30
0.0
 11
0.0
 21
-38.2743735849
 31
0.0
  0
LINE
  5
295
330
28B
100
AcDbEntity
  8
FORMAT
 62
     0
100
AcDbLine
 10
5.0
 20
0.0
 30
0.0
 11
60.2381146523
 21
0.0
 31
0.0
  0
ENDBLK
  5
28D
330
28B
100
AcDbEntity
  8
0
100
AcDbBlockEnd
  0
ENDSEC
  0
SECTION
  2
ENTITIES
  0
LINE
  5
46
330
1F
100
AcDbEntity
  8
0
  6
Continuous
 62
     7
370
    15
100
AcDbLine
 10
133.1333743735
 20
267.5973721004
 30
0.0
 11
133.1333743735
 21
282.5973726964
 31
0.0
  0
LINE
  5
47
330
1F
100
AcDbEntity
  8
0
  6
Continuous
 62
     7
370
    15
100
AcDbLine
 10
78.6333756848
 20
282.5973726964
 30
0.0
 11
78.6333756848
 21
267.5973721004
 31
0.0
  0
LINE
  5
48
330
1F
100
AcDbEntity
  8
0
  6
Continuous
 62
     7
370
    15
100
AcDbLine
 10
163.0479658349
 20
151.5973698503
 30
0.0
 11
163.3833760723
 21
157.9973701543
 31
0.0
  0
LINE
  5
49
330
1F
100
AcDbEntity
  8
0
  6
Continuous
 62
     7
370
    15
100
AcDbLine
 10
163.3833760723
 20
191.1973696357
 30
0.0
 11
163.0479658349
 21
197.5973699397
 31
0.0
  0
LINE
  5
4A
330
1F
100
AcDbEntity
  8
0
  6
Continuous
 62
     7
370
    15
100
AcDbLine
 10
48.7187842234
 20
197.5973699397
 30
0.0
 11
48.3833739861
 21
191.1973696357
 31
0.0
  0
LINE
  5
4B
330
1F
100
AcDbEntity
  8
0
  6
Continuous
 62
     7
370
    15
100
AcDbLine
 10
48.3833739861
 20
157.9973701543
 30
0.0
 11
48.7187842234
 21
151.5973698503
 31
0.0
  0
LINE
  5
4C
330
1F
100
AcDbEntity
  8
0
  6
Continuous
 62
     7
370
    15
100
AcDbLine
 10
129.8833752378
 20
282.5973726964
 30
0.0
 11
124.8567348673
 21
291.3037635541
 31
0.0
  0
LINE
  5
4D
330
1F
100
AcDbEntity
  8
0
  6
Continuous
 62
     7
370
    15
100
AcDbLine
 10
86.910015191
 20
291.3037635541
 30
0.0
 11
81.8833748206
 21
282.5973726964
 31
0.0
  0
LINE
  5
4E
330
1F
100
AcDbEntity
  8
0
  6
Continuous
 62
     7
370
    15
100
AcDbLine
 10
124.8567348673
 20
291.3037635541
 30
0.0
 11
123.8833742543
 21
313.5973684645
 31
0.0
  0
LINE
  5
4F
330
1F
100
AcDbEntity
  8
0
  6
Continuous
 62
     7
370
    15
100
AcDbLine
 10
87.883375804
 20
313.5973684645
 30
0.0
 11
86.910015191
 21
291.3037635541
 31
0.0
  0
LINE
  5
50
330
1F
100
AcDbEntity
  8
0
  6
Continuous
 62
     7
370
    15
100
AcDbLine
 10
155.8833757742
 20
241.5973715639
 30
0.0
 11
155.2025417193
 21
267.5973721004
 31
0.0
  0
LINE
  5
51
330
1F
100
AcDbEntity
  8
0
  6
Continuous
 62
     7
370
    15
100
AcDbLine
 10
56.5642083391
 20
267.5973721004
 30
0.0
 11
55.8833742841
 21
241.5973715639
 31
0.0
  0
LINE
  5
52
330
1F
100
AcDbEntity
  8
0
  6
Continuous
 62
     7
370
    15
100
AcDbLine
 10
114.8833746417
 20
313.5973684645
 30
0.0
 11
114.8833746417
 21
318.3860950327
 31
0.0
  0
LINE
  5
53
330
1F
100
AcDbEntity
  8
0
  6
Continuous
 62
     7
370
    15
100
AcDbLine
 10
96.8833754166
 20
318.3860950327
 30
0.0
 11
96.8833754166
 21
313.5973684645
 31
0.0
  0
SPLINE
  5
54
330
1F
100
AcDbEntity
  8
0
  6
Continuous
 62
     7
370
    15
100
AcDbSpline
210
0.0
220
0.0
230
1.0
 70
    24
 71
     3
 72
     8
 73
     4
 74
     0
 42
0.00000001
 43
0.00000001
 12
1.0
 22
0.0
 32
0.0
 13
1.0
 23
0.0
 33
0.0
 40
0.001001884639077
 40
0.001001884639077
 40
0.001001884639077
 40
0.001001884639077
 40
0.0110190796468041
 40
0.0110190796468041
 40
0.0110190796468041
 40
0.0110190796468041
 10
140.8033750291715
 20
241.5973698949822
 30
0.0
 10
140.7082881667278
 20
238.2639302968002
 30
0.0
 10
140.6132041633705
 20
234.9305909289914
 30
0.0
 10
140.5181235355025
 20
231.5973698949822
 30
0.0
  0
LINE
  5
55
330
1F
100
AcDbEntity
  8
0
  6
Continuous
 62
     7
370
    15
100
AcDbLine
 10
120.3878691747
 20
231.5973699248
 30
0.0
 11
140.5181253656
 21
231.5973699248
 31
0.0
  0
LINE
  5
56
330
1F
100
AcDbEntity
  8
0
  6
Continuous
 62
     7
370
    15
100
AcDbLine
 10
120.3878691747
 20
231.5973699248
 30
0.0
 11
120.47789454
 21
241.5973715639
 31
0.0
  0
LINE
  5
57
330
1F
100
AcDbEntity
  8
0
  6
Continuous
 62
     7
370
    15
100
AcDbLine
 10
120.47789454
 20
241.5973715639
 30
0.0
 11
140.7079363569
 21
241.5973715639
 31
0.0
  0
SPLINE
  5
58
330
1F
100
AcDbEntity
  8
0
  6
Continuous
 62
     7
370
    15
100
AcDbSpline
210
0.0
220
0.0
230
1.0
 70
     8
 71
     3
 72
     8
 73
     4
 74
     0
 42
0.00000001
 43
0.00000001
 12
1.0
 22
0.0
 32
0.0
 13
1.0
 23
0.0
 33
0.0
 40
0.0
 40
0.0
 40
0.0
 40
0.0
 40
1.0
 40
1.0
 40
1.0
 40
1.0
 10
120.4778945484979
 20
241.5973698949822
 30
0.0
 10
120.2565869594193
 20
244.9309931871452
 30
0.0
 10
120.0310553898444
 20
248.2643943774256
 30
0.0
 10
119.8006660115302
 20
251.5973698949823
 30
0.0
  0
LINE
  5
59
330
1F
100
AcDbEntity
  8
0
  6
Continuous
 62
     7
370
    15
100
AcDbLine
 10
119.8006656348
 20
251.5973694777
 30
0.0
 11
140.5232215627
 21
251.5973694777
 31
0.0
  0
LINE
  5
5A
330
1F
100
AcDbEntity
  8
0
  6
Continuous
 62
     7
370
    15
100
AcDbLine
 10
140.5232215627
 20
251.5973694777
 30
0.0
 11
140.7079363569
 21
241.5973715639
 31
0.0
  0
LINE
  5
5B
330
1F
100
AcDbEntity
  8
0
  6
Continuous
 62
     7
370
    15
100
AcDbLine
 10
71.2435284956
 20
251.5973694777
 30
0.0
 11
91.9660844236
 21
251.5973694777
 31
0.0
  0
SPLINE
  5
5C
330
1F
100
AcDbEntity
  8
0
  6
Continuous
 62
     7
370
    15
100
AcDbSpline
210
0.0
220
0.0
230
1.0
 70
     8
 71
     3
 72
     8
 73
     4
 74
     0
 42
0.00000001
 43
0.00000001
 12
1.0
 22
0.0
 32
0.0
 13
1.0
 23
0.0
 33
0.0
 40
0.0
 40
0.0
 40
0.0
 40
0.0
 40
1.0
 40
1.0
 40
1.0
 40
1.0
 10
91.96608404681272
 20
251.5973698949822
 30
0.0
 10
91.73569466849851
 20
248.2643943774255
 30
0.0
 10
91.51016309892363
 20
244.9309931871452
 30
0.0
 10
91.28885550984505
 20
241.5973698949822
 30
0.0
  0
LINE
  5
5D
330
1F
100
AcDbEntity
  8
0
  6
Continuous
 62
     7
370
    15
100
AcDbLine
 10
71.0588137015
 20
241.5973715639
 30
0.0
 11
91.2888555183
 21
241.5973715639
 31
0.0
  0
LINE
  5
5E
330
1F
100
AcDbEntity
  8
0
  6
Continuous
 62
     7
370
    15
100
AcDbLine
 10
71.0588137015
 20
241.5973715639
 30
0.0
 11
71.2435284956
 21
251.5973694777
 31
0.0
  0
LINE
  5
5F
330
1F
100
AcDbEntity
  8
0
  6
Continuous
 62
     7
370
    15
100
AcDbLine
 10
91.3788808837
 20
231.5973699248
 30
0.0
 11
91.2888555183
 21
241.5973715639
 31
0.0
  0
LINE
  5
60
330
1F
100
AcDbEntity
  8
0
  6
Continuous
 62
     7
370
    15
100
AcDbLine
 10
91.3788808837
 20
231.5973699248
 30
0.0
 11
71.2486246928
 21
231.5973699248
 31
0.0
  0
SPLINE
  5
61
330
1F
100
AcDbEntity
  8
0
  6
Continuous
 62
     7
370
    15
100
AcDbSpline
210
0.0
220
0.0
230
1.0
 70
    24
 71
     3
 72
     8
 73
     4
 74
     0
 42
0.00000001
 43
0.00000001
 12
1.0
 22
0.0
 32
0.0
 13
1.0
 23
0.0
 33
0.0
 40
0.001001884639077
 40
0.001001884639077
 40
0.001001884639077
 40
0.001001884639077
 40
0.0110190796468041
 40
0.0110190796468041
 40
0.0110190796468041
 40
0.0110190796468041
 10
70.96337502917146
 20
241.5973698949822
 30
0.0
 10
71.05846189161514
 20
238.2639302968002
 30
0.0
 10
71.15354589497242
 20
234.9305909289914
 30
0.0
 10
71.24862652284042
 20
231.5973698949822
 30
0.0
  0
SPLINE
  5
62
330
1F
100
AcDbEntity
  8
0
  6
Continuous
 62
     7
370
    15
100
AcDbSpline
210
0.0
220
0.0
230
1.0
 70
     8
 71
     3
 72
    18
 73
    14
 74
     0
 42
0.00000001
 43
0.00000001
 12
1.0
 22
0.0
 32
0.0
 13
1.0
 23
0.0
 33
0.0
 40
0.0
 40
0.0
 40
0.0
 40
0.0
 40
0.125
 40
0.125
 40
0.25
 40
0.25
 40
0.4999999999999999
 40
0.4999999999999999
 40
0.6249999999999999
 40
0.6249999999999999
 40
0.7499999999999999
 40
0.7499999999999999
 40
1.0
 40
1.0
 40
1.0
 40
1.0
 10
91.96608404681271
 20
251.5973698949822
 30
0.0
 10
93.11531517044553
 20
251.8487230177568
 30
0.0
 10
94.26998945223365
 20
252.0744948368285
 30
0.0
 10
96.57925553527642
 20
252.4664909937825
 30
0.0
 10
97.73557972720121
 20
252.6330813839263
 30
0.0
 10
101.2100632834938
 20
253.0370212213413
 30
0.0
 10
103.5337917805236
 20
253.1775281185465
 30
0.0
 10
107.0314438906796
 20
253.1785862194973
 30
0.0
 10
108.1993242129949
 20
253.1442251861747
 30
0.0
 10
110.5390557048231
 20
253.0064534143263
 30
0.0
 10
111.7138662759295
 20
252.9026842055337
 30
0.0
 10
115.2228548404185
 20
252.4941438015813
 30
0.0
 10
117.5258386842772
 20
252.0949068487941
 30
0.0
 10
119.8006660115302
 20
251.5973698949822
 30
0.0
  0
LINE
  5
63
330
1F
100
AcDbEntity
  8
0
  6
Continuous
 62
     7
370
    15
100
AcDbLine
 10
120.47789454
 20
241.5973715639
 30
0.0
 11
91.2888555183
 21
241.5973715639
 31
0.0
  0
SPLINE
  5
64
330
1F
100
AcDbEntity
  8
0
  6
Continuous
 62
     7
370
    15
100
AcDbSpline
210
0.0
220
0.0
230
1.0
 70
     8
 71
     3
 72
     8
 73
     4
 74
     0
 42
0.00000001
 43
0.00000001
 12
1.0
 22
0.0
 32
0.0
 13
1.0
 23
0.0
 33
0.0
 40
0.0
 40
0.0
 40
0.0
 40
0.0
 40
1.0
 40
1.0
 40
1.0
 40
1.0
 10
71.24352949788916
 20
251.5973698949822
 30
0.0
 10
73.29905019591942
 20
252.7220078398979
 30
0.0
 10
75.35869420632568
 20
253.8390589179265
 30
0.0
 10
77.42545503248331
 20
254.9430151031015
 30
0.0
  0
LINE
  5
65
330
1F
100
AcDbEntity
  8
0
  6
Continuous
 62
     7
370
    15
100
AcDbLine
 10
77.4254558935
 20
254.9430154419
 30
0.0
 11
134.3412941649
 21
254.9430154419
 31
0.0
  0
SPLINE
  5
66
330
1F
100
AcDbEntity
  8
0
  6
Continuous
 62
     7
370
    15
100
AcDbSpline
210
0.0
220
0.0
230
1.0
 70
     8
 71
     3
 72
     8
 73
     4
 74
     0
 42
0.00000001
 43
0.00000001
 12
1.0
 22
0.0
 32
0.0
 13
1.0
 23
0.0
 33
0.0
 40
0.0
 40
0.0
 40
0.0
 40
0.0
 40
1.0
 40
1.0
 40
1.0
 40
1.0
 10
134.3412950258596
 20
254.9430151031015
 30
0.0
 10
136.4080558520173
 20
253.8390589179265
 30
0.0
 10
138.4676998624235
 20
252.7220078398979
 30
0.0
 10
140.5232205604538
 20
251.5973698949822
 30
0.0
  0
LINE
  5
67
330
1F
100
AcDbEntity
  8
0
  6
Continuous
 62
     7
370
    15
100
AcDbLine
 10
91.3788808837
 20
231.5973699248
 30
0.0
 11
120.3878691747
 21
231.5973699248
 31
0.0
  0
SPLINE
  5
68
330
1F
100
AcDbEntity
  8
0
  6
Continuous
 62
     7
370
    15
100
AcDbSpline
210
0.0
220
0.0
230
1.0
 70
     8
 71
     3
 72
     8
 73
     4
 74
     0
 42
0.00000001
 43
0.00000001
 12
1.0
 22
0.0
 32
0.0
 13
1.0
 23
0.0
 33
0.0
 40
0.0
 40
0.0
 40
0.0
 40
0.0
 40
1.0
 40
1.0
 40
1.0
 40
1.0
 10
119.1875097248217
 20
230.1066638843267
 30
0.0
 10
119.6048080022894
 20
230.6025299892247
 30
0.0
 10
120.0036320738756
 20
231.0995952148703
 30
0.0
 10
120.387868933665
 20
231.5973698949822
 30
0.0
  0
SPLINE
  5
69
330
1F
100
AcDbEntity
  8
0
  6
Continuous
 62
     7
370
    15
100
AcDbSpline
210
0.0
220
0.0
230
1.0
 70
     8
 71
     3
 72
    12
 73
     8
 74
     0
 42
0.00000001
 43
0.00000001
 12
1.0
 22
0.0
 32
0.0
 13
1.0
 23
0.0
 33
0.0
 40
0.0
 40
0.0
 40
0.0
 40
0.0
 40
0.4999999999999984
 40
0.4999999999999984
 40
0.7499999999999992
 40
0.7499999999999992
 40
1.0
 40
1.0
 40
1.0
 40
1.0
 10
140.5181235355025
 20
231.5973698949822
 30
0.0
 10
139.590372740955
 20
231.3414240161322
 30
0.0
 10
138.7090602967463
 20
231.0882180166136
 30
0.0
 10
137.454235869788
 20
230.7128337472806
 30
0.0
 10
137.046442483371
 20
230.5882176443472
 30
0.0
 10
136.2578506603486
 20
230.3421156212628
 30
0.0
 10
135.8830923930534
 20
230.222528211653
 30
0.0
 10
135.5272507431102
 20
230.1066638843267
 30
0.0
  0
LINE
  5
6A
330
1F
100
AcDbEntity
  8
0
  6
Continuous
 62
     7
370
    15
100
AcDbLine
 10
119.18750986
 20
230.1066652095
 30
0.0
 11
135.5272515072
 21
230.1066652095
 31
0.0
  0
SPLINE
  5
6B
330
1F
100
AcDbEntity
  8
0
  6
Continuous
 62
     7
370
    15
100
AcDbSpline
210
0.0
220
0.0
230
1.0
 70
     8
 71
     3
 72
    12
 73
     8
 74
     0
 42
0.00000001
 43
0.00000001
 12
1.0
 22
0.0
 32
0.0
 13
1.0
 23
0.0
 33
0.0
 40
0.0
 40
0.0
 40
0.0
 40
0.0
 40
0.4999999999999984
 40
0.4999999999999984
 40
0.7499999999999992
 40
0.7499999999999992
 40
1.0
 40
1.0
 40
1.0
 40
1.0
 10
71.24862652284041
 20
231.5973698949822
 30
0.0
 10
72.17637731738789
 20
231.3414240161322
 30
0.0
 10
73.05768976159659
 20
231.0882180166136
 30
0.0
 10
74.31251418855494
 20
230.7128337472806
 30
0.0
 10
74.72030757497197
 20
230.5882176443472
 30
0.0
 10
75.50889939799433
 20
230.3421156212628
 30
0.0
 10
75.88365766528953
 20
230.222528211653
 30
0.0
 10
76.23949931523269
 20
230.1066638843267
 30
0.0
  0
SPLINE
  5
6C
330
1F
100
AcDbEntity
  8
0
  6
Continuous
 62
     7
370
    15
100
AcDbSpline
210
0.0
220
0.0
230
1.0
 70
     8
 71
     3
 72
     8
 73
     4
 74
     0
 42
0.00000001
 43
0.00000001
 12
1.0
 22
0.0
 32
0.0
 13
1.0
 23
0.0
 33
0.0
 40
0.0
 40
0.0
 40
0.0
 40
0.0
 40
1.0
 40
1.0
 40
1.0
 40
1.0
 10
92.5792403335212
 20
230.1066638843267
 30
0.0
 10
92.16194205605352
 20
230.6025299892247
 30
0.0
 10
91.76311798446734
 20
231.0995952148703
 30
0.0
 10
91.37888112467795
 20
231.5973698949822
 30
0.0
  0
LINE
  5
6D
330
1F
100
AcDbEntity
  8
0
  6
Continuous
 62
     7
370
    15
100
AcDbLine
 10
92.5792401983
 20
230.1066652095
 30
0.0
 11
76.2394985511
 21
230.1066652095
 31
0.0
  0
LINE
  5
6E
330
1F
100
AcDbEntity
  8
0
  6
Continuous
 62
     7
370
    15
100
AcDbLine
 10
92.5792401983
 20
230.1066652095
 30
0.0
 11
119.18750986
 21
230.1066652095
 31
0.0
  0
SPLINE
  5
6F
330
1F
100
AcDbEntity
  8
0
  6
Continuous
 62
     7
370
    15
100
AcDbSpline
210
0.0
220
0.0
230
1.0
 70
     8
 71
     3
 72
    14
 73
    10
 74
     0
 42
0.00000001
 43
0.00000001
 12
1.0
 22
0.0
 32
0.0
 13
1.0
 23
0.0
 33
0.0
 40
0.0
 40
0.0
 40
0.0
 40
0.0
 40
0.25
 40
0.25
 40
0.5
 40
0.5
 40
0.75
 40
0.75
 40
1.0
 40
1.0
 40
1.0
 40
1.0
 10
77.42545503248331
 20
254.9430151031015
 30
0.0
 10
77.4927847731091
 20
255.778447520523
 30
0.0
 10
77.63008381669812
 20
256.5959451095491
 30
0.0
 10
78.0380775229061
 20
258.1967477569526
 30
0.0
 10
78.30879435408022
 20
258.9800471329921
 30
0.0
 10
78.98783392358429
 20
260.5113741555189
 30
0.0
 10
79.38754003779323
 20
261.2395908161769
 30
0.0
 10
80.29799415314552
 20
262.6204176840923
 30
0.0
 10
80.80918076346383
 20
263.2738718750063
 30
0.0
 10
81.37693635111357
 20
263.8899643201017
 30
0.0
  0
LINE
  5
70
330
1F
100
AcDbEntity
  8
0
  6
Continuous
 62
     7
370
    15
100
AcDbLine
 10
130.3898135527
 20
263.8899631953
 30
0.0
 11
81.3769365056
 21
263.8899631953
 31
0.0
  0
SPLINE
  5
71
330
1F
100
AcDbEntity
  8
0
  6
Continuous
 62
     7
370
    15
100
AcDbSpline
210
0.0
220
0.0
230
1.0
 70
     8
 71
     3
 72
    14
 73
    10
 74
     0
 42
0.00000001
 43
0.00000001
 12
1.0
 22
0.0
 32
0.0
 13
1.0
 23
0.0
 33
0.0
 40
0.0
 40
0.0
 40
0.0
 40
0.0
 40
0.25
 40
0.25
 40
0.5
 40
0.5
 40
0.75
 40
0.75
 40
1.0
 40
1.0
 40
1.0
 40
1.0
 10
130.3898137072294
 20
263.8899643201017
 30
0.0
 10
130.9575545930435
 20
263.2738878285081
 30
0.0
 10
131.4684995955683
 20
262.6207012442538
 30
0.0
 10
132.3782938348144
 20
261.2410853684414
 30
0.0
 10
132.7771908723921
 20
260.5146873096789
 30
0.0
 10
133.4563042985602
 20
258.9843459613049
 30
0.0
 10
133.7281813432199
 20
258.198435961964
 30
0.0
 10
134.1366370329364
 20
256.5962984433521
 30
0.0
 10
134.2739658543898
 20
255.7784404583939
 30
0.0
 10
134.3412950258596
 20
254.9430151031015
 30
0.0
  0
LINE
  5
72
330
1F
100
AcDbEntity
  8
0
  6
Continuous
 62
     7
370
    15
100
AcDbLine
 10
110.6174199237
 20
218.3650344765
 30
0.0
 11
112.4104244961
 21
215.5505813813
 31
0.0
  0
ARC
  5
73
330
1F
100
AcDbEntity
  8
0
  6
Continuous
 62
     7
370
    15
100
AcDbCircle
 10
110.5415146559
 20
218.3166780377
 30
0.0
 40
0.0900000000000073
100
AcDbArc
 50
32.5
 51
157.5
  0
LINE
  5
74
330
1F
100
AcDbEntity
  8
0
  6
Continuous
 62
     7
370
    15
100
AcDbLine
 10
114.7933753534
 20
221.3489398515
 30
0.0
 11
113.0819276302
 21
221.3489398515
 31
0.0
  0
ARC
  5
75
330
1F
100
AcDbEntity
  8
0
  6
Continuous
 62
     7
370
    15
100
AcDbCircle
 10
114.7933750292
 20
221.258938427
 30
0.0
 40
0.0900000000000034
100
AcDbArc
 50
0.0
 51
90.0
  0
ARC
  5
76
330
1F
100
AcDbEntity
  8
0
  6
Continuous
 62
     7
370
    15
100
AcDbCircle
 10
114.3745934452
 20
219.658938427
 30
0.0
 40
0.0900000000000318
100
AcDbArc
 50
90.0
 51
155.6299254055
  0
ARC
  5
77
330
1F
100
AcDbEntity
  8
0
  6
Continuous
 62
     7
370
    15
100
AcDbCircle
 10
111.0133750292
 20
221.181538427
 30
0.0
 40
3.600000000000007
100
AcDbArc
 50
298.1331998573
 51
335.6299254055
  0
LINE
  5
78
330
1F
100
AcDbEntity
  8
0
  6
Continuous
 62
     7
370
    15
100
AcDbLine
 10
114.0992317676
 20
215.6472936428
 30
0.0
 11
112.6773895091
 21
217.8791411376
 31
0.0
  0
LINE
  5
79
330
1F
100
AcDbEntity
  8
0
  6
Continuous
 62
     7
370
    15
100
AcDbLine
 10
112.4863296143
 20
215.5089400864
 30
0.0
 11
114.0233271151
 21
215.5089400864
 31
0.0
  0
ARC
  5
7A
330
1F
100
AcDbEntity
  8
0
  6
Continuous
 62
     7
370
    15
100
AcDbCircle
 10
112.486329767
 20
215.598938427
 30
0.0
 40
0.090000000000028
100
AcDbArc
 50
212.5
 51
270.0
  0
ARC
  5
7B
330
1F
100
AcDbEntity
  8
0
  6
Continuous
 62
     7
370
    15
100
AcDbCircle
 10
110.0284112928
 20
221.258938427
 30
0.0
 40
0.0900000000000034
100
AcDbArc
 50
90.0
 51
157.5
  0
LINE
  5
7C
330
1F
100
AcDbEntity
  8
0
  6
Continuous
 62
     7
370
    15
100
AcDbLine
 10
114.8833746417
 20
219.8389381325
 30
0.0
 11
114.8833746417
 21
221.2589368379
 31
0.0
  0
LINE
  5
7D
330
1F
100
AcDbEntity
  8
0
  6
Continuous
 62
     7
370
    15
100
AcDbLine
 10
109.3041086431
 20
215.5644953406
 30
0.0
 11
110.4583653948
 21
218.3511205173
 31
0.0
  0
ARC
  5
7E
330
1F
100
AcDbEntity
  8
0
  6
Continuous
 62
     7
370
    15
100
AcDbCircle
 10
109.2209594541
 20
215.598938427
 30
0.0
 40
0.0900000000000034
100
AcDbArc
 50
270.0
 51
337.5
  0
LINE
  5
7F
330
1F
100
AcDbEntity
  8
0
  6
Continuous
 62
     7
370
    15
100
AcDbLine
 10
107.6839625464
 20
215.5089400864
 30
0.0
 11
109.2209594651
 21
215.5089400864
 31
0.0
  0
ARC
  5
80
330
1F
100
AcDbEntity
  8
0
  6
Continuous
 62
     7
370
    15
100
AcDbCircle
 10
107.6839625297
 20
215.598938427
 30
0.0
 40
0.0900000000000034
100
AcDbArc
 50
157.5
 51
270.0
  0
LINE
  5
81
330
1F
100
AcDbEntity
  8
0
  6
Continuous
 62
     7
370
    15
100
AcDbLine
 10
109.9452620699
 20
221.293380872
 30
0.0
 11
107.6008133684
 21
215.6333796835
 31
0.0
  0
ARC
  5
82
330
1F
100
AcDbEntity
  8
0
  6
Continuous
 62
     7
370
    15
100
AcDbCircle
 10
112.7532947063
 20
217.927497936
 30
0.0
 40
0.0899999999999921
100
AcDbArc
 50
118.1331998573
 51
212.5
  0
LINE
  5
83
330
1F
100
AcDbEntity
  8
0
  6
Continuous
 62
     7
370
    15
100
AcDbLine
 10
111.5654080502
 20
221.3489398515
 30
0.0
 11
110.0284114807
 21
221.3489398515
 31
0.0
  0
ARC
  5
84
330
1F
100
AcDbEntity
  8
0
  6
Continuous
 62
     7
370
    15
100
AcDbCircle
 10
111.5654082172
 20
221.258938427
 30
0.0
 40
0.0900000000000043
100
AcDbArc
 50
337.5
 51
90.0
  0
LINE
  5
85
330
1F
100
AcDbEntity
  8
0
  6
Continuous
 62
     7
370
    15
100
AcDbLine
 10
110.8626660286
 20
219.3271875536
 30
0.0
 11
111.648557461
 21
221.2244965291
 31
0.0
  0
ARC
  5
86
330
1F
100
AcDbEntity
  8
0
  6
Continuous
 62
     7
370
    15
100
AcDbCircle
 10
110.9458153687
 20
219.2927463018
 30
0.0
 40
0.0900000000000094
100
AcDbArc
 50
157.5
 51
267.9514771269
  0
ARC
  5
87
330
1F
100
AcDbEntity
  8
0
  6
Continuous
 62
     7
370
    15
100
AcDbCircle
 10
111.0133750292
 20
221.181538427
 30
0.0
 40
1.980000000000006
100
AcDbArc
 50
267.9514771269
 51
2.1428634539
  0
ARC
  5
88
330
1F
100
AcDbEntity
  8
0
  6
Continuous
 62
     7
370
    15
100
AcDbCircle
 10
113.0819274796
 20
221.258938427
 30
0.0
 40
0.0900000000000071
100
AcDbArc
 50
90.0
 51
182.1428634539
  0
ARC
  5
89
330
1F
100
AcDbEntity
  8
0
  6
Continuous
 62
     7
370
    15
100
AcDbCircle
 10
114.7933750292
 20
219.838938427
 30
0.0
 40
0.0900000000000318
100
AcDbArc
 50
270.0
 51
0.0
  0
LINE
  5
8A
330
1F
100
AcDbEntity
  8
0
  6
Continuous
 62
     7
370
    15
100
AcDbLine
 10
114.3745931192
 20
219.7489388442
 30
0.0
 11
114.7933753534
 21
219.7489388442
 31
0.0
  0
ARC
  5
8B
330
1F
100
AcDbEntity
  8
0
  6
Continuous
 62
     7
370
    15
100
AcDbCircle
 10
114.0233266914
 20
215.598938427
 30
0.0
 40
0.0900000000000073
100
AcDbArc
 50
270.0
 51
32.5
  0
ARC
  5
8C
330
1F
100
AcDbEntity
  8
0
  6
Continuous
 62
     7
370
    15
100
AcDbCircle
 10
101.4176093608
 20
216.678938427
 30
0.0
 40
0.0900000000000034
100
AcDbArc
 50
22.5
 51
90.0
  0
LINE
  5
8D
330
1F
100
AcDbEntity
  8
0
  6
Continuous
 62
     7
370
    15
100
AcDbLine
 10
98.8972477942
 20
216.7689375734
 30
0.0
 11
101.4176092437
 21
216.7689375734
 31
0.0
  0
LINE
  5
8E
330
1F
100
AcDbEntity
  8
0
  6
Continuous
 62
     7
370
    15
100
AcDbLine
 10
96.7180693849
 20
215.5089400864
 30
0.0
 11
98.25506642
 21
215.5089400864
 31
0.0
  0
ARC
  5
8F
330
1F
100
AcDbEntity
  8
0
  6
Continuous
 62
     7
370
    15
100
AcDbCircle
 10
96.7180695478
 20
215.598938427
 30
0.0
 40
0.0900000000000034
100
AcDbArc
 50
157.5
 51
270.0
  0
LINE
  5
90
330
1F
100
AcDbEntity
  8
0
  6
Continuous
 62
     7
370
    15
100
AcDbLine
 10
100.8628697461
 20
218.2533800757
 30
0.0
 11
100.2405776969
 21
219.7557263231
 31
0.0
  0
ARC
  5
91
330
1F
100
AcDbEntity
  8
0
  6
Continuous
 62
     7
370
    15
100
AcDbCircle
 10
100.1574285382
 20
219.7212840599
 30
0.0
 40
0.0900000000000021
100
AcDbArc
 50
22.5
 51
157.5
  0
LINE
  5
92
330
1F
100
AcDbEntity
  8
0
  6
Continuous
 62
     7
370
    15
100
AcDbLine
 10
100.074279341
 20
219.7557263231
 30
0.0
 11
99.4519872918
 21
218.2533800757
 31
0.0
  0
ARC
  5
93
330
1F
100
AcDbEntity
  8
0
  6
Continuous
 62
     7
370
    15
100
AcDbCircle
 10
99.5351366017
 20
218.218938427
 30
0.0
 40
0.0900000000000129
100
AcDbArc
 50
157.5
 51
270.0
  0
LINE
  5
94
330
1F
100
AcDbEntity
  8
0
  6
Continuous
 62
     7
370
    15
100
AcDbLine
 10
99.5351367026
 20
218.1289367533
 30
0.0
 11
100.7797203354
 21
218.1289367533
 31
0.0
  0
ARC
  5
95
330
1F
100
AcDbEntity
  8
0
  6
Continuous
 62
     7
370
    15
100
AcDbCircle
 10
100.7797204747
 20
218.218938427
 30
0.0
 40
0.0900000000000261
100
AcDbArc
 50
270.0
 51
22.5
  0
LINE
  5
96
330
1F
100
AcDbEntity
  8
0
  6
Continuous
 62
     7
370
    15
100
AcDbLine
 10
101.2523386023
 20
221.3489398515
 30
0.0
 11
96.9733747049
 21
221.3489398515
 31
0.0
  0
ARC
  5
97
330
1F
100
AcDbEntity
  8
0
  6
Continuous
 62
     7
370
    15
100
AcDbCircle
 10
96.9733750292
 20
221.258938427
 30
0.0
 40
0.0900000000000034
100
AcDbArc
 50
90.0
 51
180.0
  0
LINE
  5
98
330
1F
100
AcDbEntity
  8
0
  6
Continuous
 62
     7
370
    15
100
AcDbLine
 10
96.8833754166
 20
221.2589368379
 30
0.0
 11
96.8833754166
 21
219.8389381325
 31
0.0
  0
ARC
  5
99
330
1F
100
AcDbEntity
  8
0
  6
Continuous
 62
     7
370
    15
100
AcDbCircle
 10
96.9733750292
 20
219.838938427
 30
0.0
 40
0.0900000000000034
100
AcDbArc
 50
180.0
 51
270.0
  0
LINE
  5
9A
330
1F
100
AcDbEntity
  8
0
  6
Continuous
 62
     7
370
    15
100
AcDbLine
 10
96.9733747049
 20
219.7489388442
 30
0.0
 11
98.2049458987
 21
219.7489388442
 31
0.0
  0
LINE
  5
9B
330
1F
100
AcDbEntity
  8
0
  6
Continuous
 62
     7
370
    15
100
AcDbLine
 10
98.2880953095
 20
219.6244955218
 30
0.0
 11
96.6349199741
 21
215.6333796835
 31
0.0
  0
ARC
  5
9C
330
1F
100
AcDbEntity
  8
0
  6
Continuous
 62
     7
370
    15
100
AcDbCircle
 10
98.2550664722
 20
215.598938427
 30
0.0
 40
0.0900000000000152
100
AcDbArc
 50
270.0
 51
337.5
  0
LINE
  5
9D
330
1F
100
AcDbEntity
  8
0
  6
Continuous
 62
     7
370
    15
100
AcDbLine
 10
98.3382158308
 20
215.5644953406
 30
0.0
 11
98.8140983834
 21
216.7133785939
 31
0.0
  0
ARC
  5
9E
330
1F
100
AcDbEntity
  8
0
  6
Continuous
 62
     7
370
    15
100
AcDbCircle
 10
98.8972477156
 20
216.678938427
 30
0.0
 40
0.0899999999999912
100
AcDbArc
 50
90.0
 51
157.5
  0
LINE
  5
9F
330
1F
100
AcDbEntity
  8
0
  6
Continuous
 62
     7
370
    15
100
AcDbLine
 10
101.5007586545
 20
216.7133785939
 30
0.0
 11
101.9766416728
 21
215.5644953406
 31
0.0
  0
ARC
  5
A0
330
1F
100
AcDbEntity
  8
0
  6
Continuous
 62
     7
370
    15
100
AcDbCircle
 10
102.0597906042
 20
215.598938427
 30
0.0
 40
0.0900000000000043
100
AcDbArc
 50
202.5
 51
270.0
  0
LINE
  5
A1
330
1F
100
AcDbEntity
  8
0
  6
Continuous
 62
     7
370
    15
100
AcDbLine
 10
102.0597906179
 20
215.5089400864
 30
0.0
 11
103.5967874202
 21
215.5089400864
 31
0.0
  0
ARC
  5
A2
330
1F
100
AcDbEntity
  8
0
  6
Continuous
 62
     7
370
    15
100
AcDbCircle
 10
103.5967875286
 20
215.598938427
 30
0.0
 40
0.0900000000000034
100
AcDbArc
 50
270.0
 51
22.5
  0
ARC
  5
A3
330
1F
100
AcDbEntity
  8
0
  6
Continuous
 62
     7
370
    15
100
AcDbCircle
 10
101.2523387656
 20
221.258938427
 30
0.0
 40
0.0900000000000034
100
AcDbArc
 50
22.5
 51
90.0
  0
ARC
  5
A4
330
1F
100
AcDbEntity
  8
0
  6
Continuous
 62
     7
370
    15
100
AcDbCircle
 10
98.204946015
 20
219.658938427
 30
0.0
 40
0.0900000000000034
100
AcDbArc
 50
337.5
 51
90.0
  0
LINE
  5
A5
330
1F
100
AcDbEntity
  8
0
  6
Continuous
 62
     7
370
    15
100
AcDbLine
 10
103.6799365981
 20
215.6333796835
 30
0.0
 11
101.3354880131
 21
221.293380872
 31
0.0
  0
LINE
  5
A6
330
1F
100
AcDbEntity
  8
0
  6
Continuous
 62
     7
370
    15
100
AcDbLine
 10
102.1373022675
 20
222.4933788335
 30
0.0
 11
105.0073396043
 21
215.5644953406
 31
0.0
  0
LINE
  5
A7
330
1F
100
AcDbEntity
  8
0
  6
Continuous
 62
     7
370
    15
100
AcDbLine
 10
96.8833754166
 20
224.058939532
 30
0.0
 11
96.8833754166
 21
222.6389371014
 31
0.0
  0
ARC
  5
A8
330
1F
100
AcDbEntity
  8
0
  6
Continuous
 62
     7
370
    15
100
AcDbCircle
 10
109.2265969273
 20
222.458938427
 30
0.0
 40
0.0899999999999912
100
AcDbArc
 50
90.0
 51
157.5
  0
ARC
  5
A9
330
1F
100
AcDbEntity
  8
0
  6
Continuous
 62
     7
370
    15
100
AcDbCircle
 10
105.6403750292
 20
218.4523970379
 30
0.0
 40
0.0900000000000175
100
AcDbArc
 50
202.5
 51
337.5
  0
LINE
  5
AA
330
1F
100
AcDbEntity
  8
0
  6
Continuous
 62
     7
370
    15
100
AcDbLine
 10
108.0743619102
 20
224.0933798409
 30
0.0
 11
105.7235241903
 21
218.4179559505
 31
0.0
  0
ARC
  5
AB
330
1F
100
AcDbEntity
  8
0
  6
Continuous
 62
     7
370
    15
100
AcDbCircle
 10
108.1575111066
 20
224.058938427
 30
0.0
 40
0.0900000000000034
100
AcDbArc
 50
90.0
 51
157.5
  0
ARC
  5
AC
330
1F
100
AcDbEntity
  8
0
  6
Continuous
 62
     7
370
    15
100
AcDbCircle
 10
105.090488765
 20
215.598938427
 30
0.0
 40
0.0900000000000034
100
AcDbArc
 50
202.5
 51
270.0
  0
ARC
  5
AD
330
1F
100
AcDbEntity
  8
0
  6
Continuous
 62
     7
370
    15
100
AcDbCircle
 10
114.7933750292
 20
224.058938427
 30
0.0
 40
0.0900000000000034
100
AcDbArc
 50
0.0
 51
90.0
  0
ARC
  5
AE
330
1F
100
AcDbEntity
  8
0
  6
Continuous
 62
     7
370
    15
100
AcDbCircle
 10
103.1232389518
 20
224.058938427
 30
0.0
 40
0.0900000000000034
100
AcDbArc
 50
22.5
 51
90.0
  0
LINE
  5
AF
330
1F
100
AcDbEntity
  8
0
  6
Continuous
 62
     7
370
    15
100
AcDbLine
 10
96.9733747049
 20
222.548937813
 30
0.0
 11
102.0541530895
 21
222.548937813
 31
0.0
  0
LINE
  5
B0
330
1F
100
AcDbEntity
  8
0
  6
Continuous
 62
     7
370
    15
100
AcDbLine
 10
109.2265969935
 20
222.548937813
 30
0.0
 11
114.7933753534
 21
222.548937813
 31
0.0
  0
LINE
  5
B1
330
1F
100
AcDbEntity
  8
0
  6
Continuous
 62
     7
370
    15
100
AcDbLine
 10
106.2734104496
 20
215.5644953406
 30
0.0
 11
109.1434478155
 21
222.4933788335
 31
0.0
  0
ARC
  5
B2
330
1F
100
AcDbEntity
  8
0
  6
Continuous
 62
     7
370
    15
100
AcDbCircle
 10
106.1902612933
 20
215.598938427
 30
0.0
 40
0.0900000000000034
100
AcDbArc
 50
270.0
 51
337.5
  0
LINE
  5
B3
330
1F
100
AcDbEntity
  8
0
  6
Continuous
 62
     7
370
    15
100
AcDbLine
 10
105.0904887822
 20
215.5089400864
 30
0.0
 11
106.1902613007
 21
215.5089400864
 31
0.0
  0
LINE
  5
B4
330
1F
100
AcDbEntity
  8
0
  6
Continuous
 62
     7
370
    15
100
AcDbLine
 10
105.5572258635
 20
218.4179559505
 30
0.0
 11
103.2063881728
 21
224.0933798409
 31
0.0
  0
ARC
  5
B5
330
1F
100
AcDbEntity
  8
0
  6
Continuous
 62
     7
370
    15
100
AcDbCircle
 10
102.0541531311
 20
222.458938427
 30
0.0
 40
0.0899999999999912
100
AcDbArc
 50
22.5
 51
90.0
  0
ARC
  5
B6
330
1F
100
AcDbEntity
  8
0
  6
Continuous
 62
     7
370
    15
100
AcDbCircle
 10
96.9733750292
 20
222.638938427
 30
0.0
 40
0.0900000000000034
100
AcDbArc
 50
180.0
 51
270.0
  0
LINE
  5
B7
330
1F
100
AcDbEntity
  8
0
  6
Continuous
 62
     7
370
    15
100
AcDbLine
 10
114.7933753534
 20
224.1489388204
 30
0.0
 11
108.1575110882
 21
224.1489388204
 31
0.0
  0
LINE
  5
B8
330
1F
100
AcDbEntity
  8
0
  6
Continuous
 62
     7
370
    15
100
AcDbLine
 10
103.1232389948
 20
224.1489388204
 30
0.0
 11
96.9733747049
 21
224.1489388204
 31
0.0
  0
ARC
  5
B9
330
1F
100
AcDbEntity
  8
0
  6
Continuous
 62
     7
370
    15
100
AcDbCircle
 10
114.7933750292
 20
222.638938427
 30
0.0
 40
0.0900000000000034
100
AcDbArc
 50
270.0
 51
0.0
  0
LINE
  5
BA
330
1F
100
AcDbEntity
  8
0
  6
Continuous
 62
     7
370
    15
100
AcDbLine
 10
114.8833746417
 20
222.6389371014
 30
0.0
 11
114.8833746417
 21
224.058939532
 31
0.0
  0
ARC
  5
BB
330
1F
100
AcDbEntity
  8
0
  6
Continuous
 62
     7
370
    15
100
AcDbCircle
 10
96.9733750292
 20
224.058938427
 30
0.0
 40
0.0900000000000034
100
AcDbArc
 50
90.0
 51
180.0
  0
SPLINE
  5
BC
330
1F
100
AcDbEntity
  8
0
  6
Continuous
 62
     7
370
    15
100
AcDbSpline
210
0.0
220
0.0
230
1.0
 70
     8
 71
     3
 72
    12
 73
     8
 74
     0
 42
0.00000001
 43
0.00000001
 12
1.0
 22
0.0
 32
0.0
 13
1.0
 23
0.0
 33
0.0
 40
0.0
 40
0.0
 40
0.0
 40
0.0
 40
0.5000000000000004
 40
0.5000000000000004
 40
0.7500000000000002
 40
0.7500000000000002
 40
1.0
 40
1.0
 40
1.0
 40
1.0
 10
73.38337502917145
 20
186.0973698949822
 30
0.0
 10
73.38337502917145
 20
188.097680981891
 30
0.0
 10
73.03020248007788
 20
190.06397859208
 30
0.0
 10
72.07553127810542
 20
192.9725023837749
 30
0.0
 10
71.69230654043285
 20
193.9212357024579
 30
0.0
 10
70.8272971498792
 20
195.7829811955683
 30
0.0
 10
70.34524693897423
 20
196.6967306811903
 30
0.0
 10
69.82526264644872
 20
197.5973698949823
 30
0.0
  0
SPLINE
  5
BD
330
1F
100
AcDbEntity
  8
0
  6
Continuous
 62
     7
370
    15
100
AcDbSpline
210
0.0
220
0.0
230
1.0
 70
     8
 71
     3
 72
    14
 73
    10
 74
     0
 42
0.00000001
 43
0.00000001
 12
1.0
 22
0.0
 32
0.0
 13
1.0
 23
0.0
 33
0.0
 40
0.0
 40
0.0
 40
0.0
 40
0.0
 40
0.5000000000000001
 40
0.5000000000000001
 40
0.75
 40
0.75
 40
0.8750000000000001
 40
0.8750000000000001
 40
1.0
 40
1.0
 40
1.0
 40
1.0
 10
69.82526264644875
 20
174.5973698949822
 30
0.0
 10
70.8664370777165
 20
176.4007369094797
 30
0.0
 10
71.75116360104039
 20
178.2449174132845
 30
0.0
 10
72.69709922781671
 20
181.110622104319
 30
0.0
 10
72.9482111930683
 20
182.0826052109337
 30
0.0
 10
73.2061184248545
 20
183.5715616799449
 30
0.0
 10
73.27227625138354
 20
184.0730487808795
 30
0.0
 10
73.3612274864161
 20
185.0873357144732
 30
0.0
 10
73.38337502917145
 20
185.593764909261
 30
0.0
 10
73.38337502917145
 20
186.0973698949822
 30
0.0
  0
LINE
  5
BE
330
1F
100
AcDbEntity
  8
0
  6
Continuous
 62
     7
370
    15
100
AcDbLine
 10
69.8252620502
 20
174.597369895
 30
0.0
 11
48.9052573546
 21
174.597369895
 31
0.0
  0
SPLINE
  5
BF
330
1F
100
AcDbEntity
  8
0
  6
Continuous
 62
     7
370
    15
100
AcDbSpline
210
0.0
220
0.0
230
1.0
 70
     8
 71
     3
 72
     9
 73
     5
 74
     0
 42
0.00000001
 43
0.00000001
 12
1.0
 22
0.0
 32
0.0
 13
1.0
 23
0.0
 33
0.0
 40
0.0
 40
0.0
 40
0.0
 40
0.0
 40
0.5
 40
1.0
 40
1.0
 40
1.0
 40
1.0
 10
48.90525758500085
 20
197.5973698949823
 30
0.0
 10
48.78926994400687
 20
193.7640365616489
 30
0.0
 10
48.64829968915888
 20
186.0973698949823
 30
0.0
 10
48.78926994400685
 20
178.4307032283156
 30
0.0
 10
48.90525758500085
 20
174.5973698949822
 30
0.0
  0
LINE
  5
C0
330
1F
100
AcDbEntity
  8
0
  6
Continuous
 62
     7
370
    15
100
AcDbLine
 10
69.8252620502
 20
197.5973699397
 30
0.0
 11
48.9052573546
 21
197.5973699397
 31
0.0
  0
LINE
  5
C1
330
1F
100
AcDbEntity
  8
0
  6
Continuous
 62
     7
370
    15
100
AcDbLine
 10
73.3833762213
 20
186.0973699173
 30
0.0
 11
73.3833762213
 21
163.0973698726
 31
0.0
  0
SPLINE
  5
C2
330
1F
100
AcDbEntity
  8
0
  6
Continuous
 62
     7
370
    15
100
AcDbSpline
210
0.0
220
0.0
230
1.0
 70
     8
 71
     3
 72
    12
 73
     8
 74
     0
 42
0.00000001
 43
0.00000001
 12
1.0
 22
0.0
 32
0.0
 13
1.0
 23
0.0
 33
0.0
 40
0.0
 40
0.0
 40
0.0
 40
0.0
 40
0.5000000000000002
 40
0.5000000000000002
 40
0.7500000000000001
 40
0.7500000000000001
 40
1.0
 40
1.0
 40
1.0
 40
1.0
 10
73.38337502917145
 20
163.0973698949823
 30
0.0
 10
73.38337502917145
 20
165.0976809818911
 30
0.0
 10
73.03020248007789
 20
167.06397859208
 30
0.0
 10
72.07553127810544
 20
169.9725023837749
 30
0.0
 10
71.69230654043291
 20
170.9212357024579
 30
0.0
 10
70.82729714987926
 20
172.7829811955683
 30
0.0
 10
70.34524693897428
 20
173.6967306811903
 30
0.0
 10
69.82526264644878
 20
174.5973698949822
 30
0.0
  0
SPLINE
  5
C3
330
1F
100
AcDbEntity
  8
0
  6
Continuous
 62
     7
370
    15
100
AcDbSpline
210
0.0
220
0.0
230
1.0
 70
     8
 71
     3
 72
     9
 73
     5
 74
     0
 42
0.00000001
 43
0.00000001
 12
1.0
 22
0.0
 32
0.0
 13
1.0
 23
0.0
 33
0.0
 40
0.0
 40
0.0
 40
0.0
 40
0.0
 40
0.5
 40
1.0
 40
1.0
 40
1.0
 40
1.0
 10
162.8614924733421
 20
197.5973698949823
 30
0.0
 10
162.9774801143361
 20
193.7640365616489
 30
0.0
 10
163.118450369184
 20
186.0973698949823
 30
0.0
 10
162.9774801143361
 20
178.4307032283156
 30
0.0
 10
162.8614924733421
 20
174.5973698949822
 30
0.0
  0
LINE
  5
C4
330
1F
100
AcDbEntity
  8
0
  6
Continuous
 62
     7
370
    15
100
AcDbLine
 10
141.9414880081
 20
174.597369895
 30
0.0
 11
162.8614927038
 21
174.597369895
 31
0.0
  0
SPLINE
  5
C5
330
1F
100
AcDbEntity
  8
0
  6
Continuous
 62
     7
370
    15
100
AcDbSpline
210
0.0
220
0.0
230
1.0
 70
     8
 71
     3
 72
    14
 73
    10
 74
     0
 42
0.00000001
 43
0.00000001
 12
1.0
 22
0.0
 32
0.0
 13
1.0
 23
0.0
 33
0.0
 40
0.0
 40
0.0
 40
0.0
 40
0.0
 40
0.5000000000000001
 40
0.5000000000000001
 40
0.75
 40
0.75
 40
0.8750000000000001
 40
0.8750000000000001
 40
1.0
 40
1.0
 40
1.0
 40
1.0
 10
141.9414874118942
 20
174.5973698949822
 30
0.0
 10
140.9003129806264
 20
176.4007369094797
 30
0.0
 10
140.0155864573025
 20
178.2449174132845
 30
0.0
 10
139.0696508305262
 20
181.110622104319
 30
0.0
 10
138.8185388652746
 20
182.0826052109337
 30
0.0
 10
138.5606316334884
 20
183.5715616799449
 30
0.0
 10
138.4944738069594
 20
184.0730487808795
 30
0.0
 10
138.4055225719268
 20
185.0873357144732
 30
0.0
 10
138.3833750291715
 20
185.593764909261
 30
0.0
 10
138.3833750291715
 20
186.0973698949822
 30
0.0
  0
SPLINE
  5
C6
330
1F
100
AcDbEntity
  8
0
  6
Continuous
 62
     7
370
    15
100
AcDbSpline
210
0.0
220
0.0
230
1.0
 70
     8
 71
     3
 72
    12
 73
     8
 74
     0
 42
0.00000001
 43
0.00000001
 12
1.0
 22
0.0
 32
0.0
 13
1.0
 23
0.0
 33
0.0
 40
0.0
 40
0.0
 40
0.0
 40
0.0
 40
0.5000000000000004
 40
0.5000000000000004
 40
0.7500000000000002
 40
0.7500000000000002
 40
1.0
 40
1.0
 40
1.0
 40
1.0
 10
138.3833750291715
 20
186.0973698949822
 30
0.0
 10
138.3833750291715
 20
188.097680981891
 30
0.0
 10
138.736547578265
 20
190.06397859208
 30
0.0
 10
139.6912187802375
 20
192.9725023837749
 30
0.0
 10
140.0744435179101
 20
193.9212357024579
 30
0.0
 10
140.9394529084637
 20
195.7829811955683
 30
0.0
 10
141.4215031193687
 20
196.6967306811903
 30
0.0
 10
141.9414874118942
 20
197.5973698949823
 30
0.0
  0
LINE
  5
C7
330
1F
100
AcDbEntity
  8
0
  6
Continuous
 62
     7
370
    15
100
AcDbLine
 10
141.9414880081
 20
197.5973699397
 30
0.0
 11
162.8614927038
 21
197.5973699397
 31
0.0
  0
LINE
  5
C8
330
1F
100
AcDbEntity
  8
0
  6
Continuous
 62
     7
370
    15
100
AcDbLine
 10
138.3833738371
 20
186.0973699173
 30
0.0
 11
138.3833738371
 21
163.0973698726
 31
0.0
  0
SPLINE
  5
C9
330
1F
100
AcDbEntity
  8
0
  6
Continuous
 62
     7
370
    15
100
AcDbSpline
210
0.0
220
0.0
230
1.0
 70
     8
 71
     3
 72
    12
 73
     8
 74
     0
 42
0.00000001
 43
0.00000001
 12
1.0
 22
0.0
 32
0.0
 13
1.0
 23
0.0
 33
0.0
 40
0.0
 40
0.0
 40
0.0
 40
0.0
 40
0.5000000000000002
 40
0.5000000000000002
 40
0.7500000000000001
 40
0.7500000000000001
 40
1.0
 40
1.0
 40
1.0
 40
1.0
 10
138.3833750291715
 20
163.0973698949823
 30
0.0
 10
138.3833750291715
 20
165.0976809818911
 30
0.0
 10
138.736547578265
 20
167.06397859208
 30
0.0
 10
139.6912187802375
 20
169.9725023837749
 30
0.0
 10
140.07444351791
 20
170.9212357024579
 30
0.0
 10
140.9394529084637
 20
172.7829811955683
 30
0.0
 10
141.4215031193686
 20
173.6967306811903
 30
0.0
 10
141.9414874118941
 20
174.5973698949822
 30
0.0
  0
SPLINE
  5
CA
330
1F
100
AcDbEntity
  8
0
  6
Continuous
 62
     7
370
    15
100
AcDbSpline
210
0.0
220
0.0
230
1.0
 70
     8
 71
     3
 72
     8
 73
     4
 74
     0
 42
0.00000001
 43
0.00000001
 12
1.0
 22
0.0
 32
0.0
 13
1.0
 23
0.0
 33
0.0
 40
0.0
 40
0.0
 40
0.0
 40
0.0
 40
1.0
 40
1.0
 40
1.0
 40
1.0
 10
82.04022927866383
 20
166.7789320527793
 30
0.0
 10
81.57668931354377
 20
167.6824136409587
 30
0.0
 10
81.11220582584106
 20
168.5875539793156
 30
0.0
 10
80.66990966734234
 20
169.500008380404
 30
0.0
  0
ELLIPSE
  5
CB
330
1F
100
AcDbEntity
  8
0
  6
Continuous
 62
     7
370
    15
100
AcDbEllipse
 10
105.8833750292
 20
130.8226406067
 30
0.0
 11
0.0
 21
66.47971453579612
 31
0.0
210
0.0
220
0.0
230
1.0
 40
0.4663076582
 41
0.4435688131157735
 42
0.9498660693797547
  0
LINE
  5
CC
330
1F
100
AcDbEntity
  8
0
  6
Continuous
 62
     7
370
    15
100
AcDbLine
 10
119.18750986
 20
190.8688344216
 30
0.0
 11
92.5792401983
 21
190.8688344216
 31
0.0
  0
ELLIPSE
  5
CD
330
1F
100
AcDbEntity
  8
0
  6
Continuous
 62
     7
370
    15
100
AcDbEllipse
 10
105.8833750292
 20
130.8226406067
 30
0.0
 11
0.0
 21
66.47971453579612
 31
0.0
210
0.0
220
0.0
230
1.0
 40
0.4663076582
 41
5.333319237799845
 42
5.839616494063838
  0
SPLINE
  5
CE
330
1F
100
AcDbEntity
  8
0
  6
Continuous
 62
     7
370
    15
100
AcDbSpline
210
0.0
220
0.0
230
1.0
 70
     8
 71
     3
 72
     8
 73
     4
 74
     0
 42
0.00000001
 43
0.00000001
 12
1.0
 22
0.0
 32
0.0
 13
1.0
 23
0.0
 33
0.0
 40
0.0
 40
0.0
 40
0.0
 40
0.0
 40
1.0
 40
1.0
 40
1.0
 40
1.0
 10
129.7265207796791
 20
166.7789320527793
 30
0.0
 10
130.1900607447992
 20
167.6824136409587
 30
0.0
 10
130.6545442325018
 20
168.5875539793156
 30
0.0
 10
131.0968403910006
 20
169.500008380404
 30
0.0
  0
SPLINE
  5
CF
330
1F
100
AcDbEntity
  8
0
  6
Continuous
 62
     7
370
    15
100
AcDbSpline
210
0.0
220
0.0
230
1.0
 70
     8
 71
     3
 72
    18
 73
    14
 74
     0
 42
0.00000001
 43
0.00000001
 12
1.0
 22
0.0
 32
0.0
 13
1.0
 23
0.0
 33
0.0
 40
0.0
 40
0.0
 40
0.0
 40
0.0
 40
0.2499999999999999
 40
0.2499999999999999
 40
0.3749999999999997
 40
0.3749999999999997
 40
0.4999999999999994
 40
0.4999999999999994
 40
0.7499999999999997
 40
0.7499999999999997
 40
0.8749999999999998
 40
0.8749999999999998
 40
1.0
 40
1.0
 40
1.0
 40
1.0
 10
134.7118021539177
 20
193.2134500738802
 30
0.0
 10
134.9137322896494
 20
193.7629290918067
 30
0.0
 10
135.118055510662
 20
194.2516811287626
 30
0.0
 10
135.4148895226704
 20
194.9071966449219
 30
0.0
 10
135.5122621187109
 20
195.1126502265428
 30
0.0
 10
135.7019245799735
 20
195.498650994004
 30
0.0
 10
135.7944918710292
 20
195.6796855684421
 30
0.0
 10
136.0578244179533
 20
196.179245834285
 30
0.0
 10
136.2153965759463
 20
196.4571763879335
 30
0.0
 10
136.4183414196584
 20
196.8023846323041
 30
0.0
 10
136.4804311981013
 20
196.9054270327647
 30
0.0
 10
136.5924808731106
 20
197.0884237174216
 30
0.0
 10
136.6423220841607
 20
197.168179068646
 30
0.0
 10
136.6851606916943
 20
197.2359503174466
 30
0.0
  0
SPLINE
  5
D0
330
1F
100
AcDbEntity
  8
0
  6
Continuous
 62
     7
370
    15
100
AcDbSpline
210
0.0
220
0.0
230
1.0
 70
     8
 71
     3
 72
    12
 73
     8
 74
     0
 42
0.00000001
 43
0.00000001
 12
1.0
 22
0.0
 32
0.0
 13
1.0
 23
0.0
 33
0.0
 40
0.0
 40
0.0
 40
0.0
 40
0.0
 40
0.4999999999999993
 40
0.4999999999999993
 40
0.7499999999999997
 40
0.7499999999999997
 40
1.0
 40
1.0
 40
1.0
 40
1.0
 10
132.5549479044253
 20
186.3167375838295
 30
0.0
 10
132.8771918833906
 20
187.5910213234399
 30
0.0
 10
133.2293844458523
 20
188.8038118532592
 30
0.0
 10
133.7770634273472
 20
190.5306286031952
 30
0.0
 10
133.9628872448421
 20
191.0907159742164
 30
0.0
 10
134.3368653006054
 20
192.1780119999189
 30
0.0
 10
134.5256088917822
 20
192.7067932024231
 30
0.0
 10
134.7118021539177
 20
193.2134500738802
 30
0.0
  0
SPLINE
  5
D1
330
1F
100
AcDbEntity
  8
0
  6
Continuous
 62
     7
370
    15
100
AcDbSpline
210
0.0
220
0.0
230
1.0
 70
     8
 71
     3
 72
    20
 73
    16
 74
     0
 42
0.00000001
 43
0.00000001
 12
1.0
 22
0.0
 32
0.0
 13
1.0
 23
0.0
 33
0.0
 40
0.0
 40
0.0
 40
0.0
 40
0.0
 40
0.125
 40
0.125
 40
0.25
 40
0.25
 40
0.375
 40
0.375
 40
0.4375
 40
0.4375
 40
0.5
 40
0.5
 40
0.75
 40
0.75
 40
1.0
 40
1.0
 40
1.0
 40
1.0
 10
131.0968403910113
 20
169.5000083804049
 30
0.0
 10
130.9846925828433
 20
170.2050936968545
 30
0.0
 10
130.8899010575359
 20
170.9245825732992
 30
0.0
 10
130.7494742539771
 20
172.3618385619065
 30
0.0
 10
130.7032685053305
 20
173.0829367862823
 30
0.0
 10
130.6643247940735
 20
174.5304682766105
 30
0.0
 10
130.6716239915186
 20
175.2569041264248
 30
0.0
 10
130.7230651406242
 20
176.3506159673651
 30
0.0
 10
130.7470395683752
 20
176.7170876975464
 30
0.0
 10
130.8071753854267
 20
177.4429752509784
 30
0.0
 10
130.8433003026309
 20
177.8028225063188
 30
0.0
 10
131.0507861536099
 20
179.5879450334419
 30
0.0
 10
131.3025074365469
 20
180.9710093727019
 30
0.0
 10
131.8885926035105
 20
183.6808743856156
 30
0.0
 10
132.2239131123798
 20
185.0076913943452
 30
0.0
 10
132.5549479044253
 20
186.3167375838295
 30
0.0
  0
LINE
  5
D2
330
1F
100
AcDbEntity
  8
0
  6
Continuous
 62
     7
370
    15
100
AcDbLine
 10
119.18750986
 20
190.8688344216
 30
0.0
 11
119.18750986
 21
230.1066652095
 31
0.0
  0
SPLINE
  5
D3
330
1F
100
AcDbEntity
  8
0
  6
Continuous
 62
     7
370
    15
100
AcDbSpline
210
0.0
220
0.0
230
1.0
 70
     8
 71
     3
 72
     8
 73
     4
 74
     0
 42
0.00000001
 43
0.00000001
 12
1.0
 22
0.0
 32
0.0
 13
1.0
 23
0.0
 33
0.0
 40
0.0
 40
0.0
 40
0.0
 40
0.0
 40
1.0
 40
1.0
 40
1.0
 40
1.0
 10
135.7855352534903
 20
210.9498120420069
 30
0.0
 10
135.7025528321783
 20
217.3351837280115
 30
0.0
 10
135.6164578971298
 20
223.7208251628185
 30
0.0
 10
135.5272507431102
 20
230.1066638843267
 30
0.0
  0
LINE
  5
D4
330
1F
100
AcDbEntity
  8
0
  6
Continuous
 62
     7
370
    15
100
AcDbLine
 10
136.685161139
 20
197.2359497255
 30
0.0
 11
136.685161139
 21
211.0285185432
 31
0.0
  0
LINE
  5
D5
330
1F
100
AcDbEntity
  8
0
  6
Continuous
 62
     7
370
    15
100
AcDbLine
 10
92.5792401983
 20
190.8688344216
 30
0.0
 11
92.5792401983
 21
230.1066652095
 31
0.0
  0
SPLINE
  5
D6
330
1F
100
AcDbEntity
  8
0
  6
Continuous
 62
     7
370
    15
100
AcDbSpline
210
0.0
220
0.0
230
1.0
 70
     8
 71
     3
 72
     8
 73
     4
 74
     0
 42
0.00000001
 43
0.00000001
 12
1.0
 22
0.0
 32
0.0
 13
1.0
 23
0.0
 33
0.0
 40
0.0
 40
0.0
 40
0.0
 40
0.0
 40
1.0
 40
1.0
 40
1.0
 40
1.0
 10
75.98121480485263
 20
210.9498120420069
 30
0.0
 10
76.06419722616464
 20
217.3351837280115
 30
0.0
 10
76.15029216121313
 20
223.7208251628185
 30
0.0
 10
76.23949931523269
 20
230.1066638843267
 30
0.0
  0
SPLINE
  5
D7
330
1F
100
AcDbEntity
  8
0
  6
Continuous
 62
     7
370
    15
100
AcDbSpline
210
0.0
220
0.0
230
1.0
 70
     8
 71
     3
 72
    20
 73
    16
 74
     0
 42
0.00000001
 43
0.00000001
 12
1.0
 22
0.0
 32
0.0
 13
1.0
 23
0.0
 33
0.0
 40
0.0
 40
0.0
 40
0.0
 40
0.0
 40
0.125
 40
0.125
 40
0.25
 40
0.25
 40
0.375
 40
0.375
 40
0.4375
 40
0.4375
 40
0.5
 40
0.5
 40
0.75
 40
0.75
 40
1.0
 40
1.0
 40
1.0
 40
1.0
 10
80.66990966733157
 20
169.5000083804049
 30
0.0
 10
80.78205747549963
 20
170.2050936968545
 30
0.0
 10
80.87684900080703
 20
170.9245825732992
 30
0.0
 10
81.01727580436581
 20
172.3618385619065
 30
0.0
 10
81.06348155301241
 20
173.0829367862823
 30
0.0
 10
81.10242526426948
 20
174.5304682766105
 30
0.0
 10
81.09512606682433
 20
175.2569041264248
 30
0.0
 10
81.04368491771869
 20
176.3506159673651
 30
0.0
 10
81.01971048996771
 20
176.7170876975464
 30
0.0
 10
80.95957467291626
 20
177.4429752509784
 30
0.0
 10
80.92344975571207
 20
177.8028225063188
 30
0.0
 10
80.71596390473303
 20
179.5879450334419
 30
0.0
 10
80.46424262179599
 20
180.9710093727019
 30
0.0
 10
79.87815745483239
 20
183.6808743856156
 30
0.0
 10
79.54283694596307
 20
185.0076913943452
 30
0.0
 10
79.21180215391765
 20
186.3167375838295
 30
0.0
  0
SPLINE
  5
D8
330
1F
100
AcDbEntity
  8
0
  6
Continuous
 62
     7
370
    15
100
AcDbSpline
210
0.0
220
0.0
230
1.0
 70
     8
 71
     3
 72
    12
 73
     8
 74
     0
 42
0.00000001
 43
0.00000001
 12
1.0
 22
0.0
 32
0.0
 13
1.0
 23
0.0
 33
0.0
 40
0.0
 40
0.0
 40
0.0
 40
0.0
 40
0.4999999999999993
 40
0.4999999999999993
 40
0.7499999999999997
 40
0.7499999999999997
 40
1.0
 40
1.0
 40
1.0
 40
1.0
 10
79.21180215391763
 20
186.3167375838295
 30
0.0
 10
78.8895581749523
 20
187.5910213234399
 30
0.0
 10
78.5373656124906
 20
188.8038118532592
 30
0.0
 10
77.9896866309957
 20
190.5306286031952
 30
0.0
 10
77.8038628135008
 20
191.0907159742164
 30
0.0
 10
77.42988475773757
 20
192.1780119999189
 30
0.0
 10
77.24114116656072
 20
192.7067932024231
 30
0.0
 10
77.05494790442528
 20
193.2134500738802
 30
0.0
  0
SPLINE
  5
D9
330
1F
100
AcDbEntity
  8
0
  6
Continuous
 62
     7
370
    15
100
AcDbSpline
210
0.0
220
0.0
230
1.0
 70
     8
 71
     3
 72
    18
 73
    14
 74
     0
 42
0.00000001
 43
0.00000001
 12
1.0
 22
0.0
 32
0.0
 13
1.0
 23
0.0
 33
0.0
 40
0.0
 40
0.0
 40
0.0
 40
0.0
 40
0.2499999999999999
 40
0.2499999999999999
 40
0.3749999999999997
 40
0.3749999999999997
 40
0.4999999999999994
 40
0.4999999999999994
 40
0.7499999999999997
 40
0.7499999999999997
 40
0.8749999999999998
 40
0.8749999999999998
 40
1.0
 40
1.0
 40
1.0
 40
1.0
 10
77.05494790442528
 20
193.2134500738802
 30
0.0
 10
76.85301776869355
 20
193.7629290918067
 30
0.0
 10
76.64869454768089
 20
194.2516811287626
 30
0.0
 10
76.35186053567246
 20
194.9071966449219
 30
0.0
 10
76.25448793963203
 20
195.1126502265428
 30
0.0
 10
76.0648254783694
 20
195.498650994004
 30
0.0
 10
75.97225818731371
 20
195.6796855684421
 30
0.0
 10
75.70892564038964
 20
196.179245834285
 30
0.0
 10
75.55135348239658
 20
196.4571763879335
 30
0.0
 10
75.34840863868452
 20
196.8023846323041
 30
0.0
 10
75.2863188602416
 20
196.9054270327647
 30
0.0
 10
75.17426918523233
 20
197.0884237174216
 30
0.0
 10
75.12442797418225
 20
197.168179068646
 30
0.0
 10
75.08158936664857
 20
197.2359503174466
 30
0.0
  0
LINE
  5
DA
330
1F
100
AcDbEntity
  8
0
  6
Continuous
 62
     7
370
    15
100
AcDbLine
 10
75.0815889194
 20
197.2359497255
 30
0.0
 11
75.0815889194
 21
211.0285185432
 31
0.0
  0
ELLIPSE
  5
DB
330
1F
100
AcDbEntity
  8
0
  6
Continuous
 62
     7
370
    15
100
AcDbEllipse
 10
105.8833750292
 20
718.9531111078
 30
0.0
 11
0.0
 21
1040.635515843946
 31
0.0
210
0.0
220
0.0
230
1.0
 40
0.0261859216
 41
4.259802016859977
 42
4.263759701715692
  0
ELLIPSE
  5
DC
330
1F
100
AcDbEntity
  8
0
  6
Continuous
 62
     7
370
    15
100
AcDbEllipse
 10
105.8833750292
 20
718.9531111078
 30
0.0
 11
0.0
 21
1040.635515843946
 31
0.0
210
0.0
220
0.0
230
1.0
 40
0.0261859216
 41
2.019425605463998
 42
2.023383290319712
  0
LINE
  5
DD
330
1F
100
AcDbEntity
  8
0
  6
Continuous
 62
     7
370
    15
100
AcDbLine
 10
133.1333743735
 20
282.5973726964
 30
0.0
 11
78.6333756848
 21
282.5973726964
 31
0.0
  0
LINE
  5
DE
330
1F
100
AcDbEntity
  8
0
  6
Continuous
 62
     7
370
    15
100
AcDbLine
 10
109.3833751372
 20
282.5973726964
 30
0.0
 11
109.3833751372
 21
301.5973739481
 31
0.0
  0
LINE
  5
DF
330
1F
100
AcDbEntity
  8
0
  6
Continuous
 62
     7
370
    15
100
AcDbLine
 10
102.3833749211
 20
282.5973726964
 30
0.0
 11
102.3833749211
 21
301.5973739481
 31
0.0
  0
LINE
  5
E0
330
1F
100
AcDbEntity
  8
0
  6
Continuous
 62
     7
370
    15
100
AcDbLine
 10
102.3833749211
 20
301.5973739481
 30
0.0
 11
109.3833751372
 21
301.5973739481
 31
0.0
  0
LINE
  5
E1
330
1F
100
AcDbEntity
  8
0
  6
Continuous
 62
     7
370
    15
100
AcDbLine
 10
102.3833749211
 20
307.5973712063
 30
0.0
 11
102.3833749211
 21
310.597377286
 31
0.0
  0
LINE
  5
E2
330
1F
100
AcDbEntity
  8
0
  6
Continuous
 62
     7
370
    15
100
AcDbLine
 10
109.3833751372
 20
310.597377286
 30
0.0
 11
102.3833749211
 21
310.597377286
 31
0.0
  0
LINE
  5
E3
330
1F
100
AcDbEntity
  8
0
  6
Continuous
 62
     7
370
    15
100
AcDbLine
 10
109.3833751372
 20
307.5973712063
 30
0.0
 11
109.3833751372
 21
310.597377286
 31
0.0
  0
LINE
  5
E4
330
1F
100
AcDbEntity
  8
0
  6
Continuous
 62
     7
370
    15
100
AcDbLine
 10
109.3833751372
 20
307.5973712063
 30
0.0
 11
102.3833749211
 21
307.5973712063
 31
0.0
  0
LINE
  5
E5
330
1F
100
AcDbEntity
  8
0
  6
Continuous
 62
     7
370
    15
100
AcDbLine
 10
102.3833749211
 20
313.5973684645
 30
0.0
 11
109.3833751372
 21
313.5973684645
 31
0.0
  0
SPLINE
  5
E6
330
1F
100
AcDbEntity
  8
0
  6
Continuous
 62
     7
370
    15
100
AcDbSpline
210
0.0
220
0.0
230
1.0
 70
    24
 71
     3
 72
     8
 73
     4
 74
     0
 42
0.00000001
 43
0.00000001
 12
1.0
 22
0.0
 32
0.0
 13
1.0
 23
0.0
 33
0.0
 40
0.0
 40
0.0
 40
0.0
 40
0.0
 40
0.00426344474639
 40
0.00426344474639
 40
0.00426344474639
 40
0.00426344474639
 10
109.3833750291712
 20
313.5973698949822
 30
0.0
 10
109.3833750291712
 20
312.5979974346511
 30
0.0
 10
109.3833750291712
 20
311.5979260870816
 30
0.0
 10
109.3833750291712
 20
310.5973698949822
 30
0.0
  0
SPLINE
  5
E7
330
1F
100
AcDbEntity
  8
0
  6
Continuous
 62
     7
370
    15
100
AcDbSpline
210
0.0
220
0.0
230
1.0
 70
    24
 71
     3
 72
     8
 73
     4
 74
     0
 42
0.00000001
 43
0.00000001
 12
1.0
 22
0.0
 32
0.0
 13
1.0
 23
0.0
 33
0.0
 40
0.0
 40
0.0
 40
0.0
 40
0.0
 40
0.00426344474639
 40
0.00426344474639
 40
0.00426344474639
 40
0.00426344474639
 10
102.3833750291712
 20
310.5973698949822
 30
0.0
 10
102.3833750291712
 20
311.5979260870816
 30
0.0
 10
102.3833750291712
 20
312.5979974346511
 30
0.0
 10
102.3833750291712
 20
313.5973698949822
 30
0.0
  0
SPLINE
  5
E8
330
1F
100
AcDbEntity
  8
0
  6
Continuous
 62
     7
370
    15
100
AcDbSpline
210
0.0
220
0.0
230
1.0
 70
     8
 71
     3
 72
     9
 73
     5
 74
     0
 42
0.00000001
 43
0.00000001
 12
1.0
 22
0.0
 32
0.0
 13
1.0
 23
0.0
 33
0.0
 40
0.0
 40
0.0
 40
0.0
 40
0.0
 40
0.5
 40
1.0
 40
1.0
 40
1.0
 40
1.0
 10
162.8614924733421
 20
174.5973698949822
 30
0.0
 10
162.9774801143361
 20
170.7640365616489
 30
0.0
 10
163.118450369184
 20
163.0973698949822
 30
0.0
 10
162.9774801143361
 20
155.4307032283155
 30
0.0
 10
162.8614924733421
 20
151.5973698949822
 30
0.0
  0
LINE
  5
E9
330
1F
100
AcDbEntity
  8
0
  6
Continuous
 62
     7
370
    15
100
AcDbLine
 10
141.9414880081
 20
151.5973698503
 30
0.0
 11
162.8614927038
 21
151.5973698503
 31
0.0
  0
SPLINE
  5
EA
330
1F
100
AcDbEntity
  8
0
  6
Continuous
 62
     7
370
    15
100
AcDbSpline
210
0.0
220
0.0
230
1.0
 70
     8
 71
     3
 72
    14
 73
    10
 74
     0
 42
0.00000001
 43
0.00000001
 12
1.0
 22
0.0
 32
0.0
 13
1.0
 23
0.0
 33
0.0
 40
0.0
 40
0.0
 40
0.0
 40
0.0
 40
0.5000000000000007
 40
0.5000000000000007
 40
0.7500000000000006
 40
0.7500000000000006
 40
0.8750000000000002
 40
0.8750000000000002
 40
1.0
 40
1.0
 40
1.0
 40
1.0
 10
141.9414874118943
 20
151.5973698949822
 30
0.0
 10
140.9003129806265
 20
153.4007369094796
 30
0.0
 10
140.0155864573026
 20
155.2449174132845
 30
0.0
 10
139.0696508305262
 20
158.110622104319
 30
0.0
 10
138.8185388652746
 20
159.0826052109337
 30
0.0
 10
138.5606316334884
 20
160.5715616799449
 30
0.0
 10
138.4944738069594
 20
161.0730487808796
 30
0.0
 10
138.4055225719268
 20
162.0873357144733
 30
0.0
 10
138.3833750291715
 20
162.5937649092612
 30
0.0
 10
138.3833750291715
 20
163.0973698949823
 30
0.0
  0
SPLINE
  5
EB
330
1F
100
AcDbEntity
  8
0
  6
Continuous
 62
     7
370
    15
100
AcDbSpline
210
0.0
220
0.0
230
1.0
 70
    24
 71
     3
 72
    12
 73
     8
 74
     0
 42
0.00000001
 43
0.00000001
 12
1.0
 22
0.0
 32
0.0
 13
1.0
 23
0.0
 33
0.0
 40
0.0
 40
0.0
 40
0.0
 40
0.0
 40
0.0702299766532517
 40
0.3708629773982832
 40
0.671499391847179
 40
0.9721295749190922
 40
0.9999999999999999
 40
0.9999999999999999
 40
0.9999999999999999
 40
0.9999999999999999
 10
162.8614927037606
 20
197.5973699396857
 30
0.0
 10
162.8694991326095
 20
197.5973699396857
 30
0.0
 10
162.9117786289544
 20
197.5973699396857
 30
0.0
 10
162.9761754385823
 20
197.5973699396857
 30
0.0
 10
163.0294119579382
 20
197.5973699396857
 30
0.0
 10
163.0529276225276
 20
197.5973699396857
 30
0.0
 10
163.0469219205655
 20
197.5973699396857
 30
0.0
 10
163.046412388886
 20
197.5973699396857
 30
0.0
  0
SPLINE
  5
EC
330
1F
100
AcDbEntity
  8
0
  6
Continuous
 62
     7
370
    15
100
AcDbSpline
210
0.0
220
0.0
230
1.0
 70
    24
 71
     3
 72
    12
 73
     8
 74
     0
 42
0.00000001
 43
0.00000001
 12
1.0
 22
0.0
 32
0.0
 13
1.0
 23
0.0
 33
0.0
 40
0.0
 40
0.0
 40
0.0
 40
0.0
 40
0.0273102677886101
 40
0.3281271373350955
 40
0.6289503180646201
 40
0.9297700233510571
 40
0.9999999999999999
 40
0.9999999999999999
 40
0.9999999999999999
 40
0.9999999999999999
 10
163.0464421912083
 20
151.5973698502787
 30
0.0
 10
163.0469425901934
 20
151.5973698502787
 30
0.0
 10
163.0529547790062
 20
151.5973698502787
 30
0.0
 10
163.029458591973
 20
151.5973698502787
 30
0.0
 10
162.9762298166698
 20
151.5973698502787
 30
0.0
 10
162.9117997564771
 20
151.5973698502787
 30
0.0
 10
162.8694991075656
 20
151.5973698502787
 30
0.0
 10
162.8614927037606
 20
151.5973698502787
 30
0.0
  0
LINE
  5
ED
330
1F
100
AcDbEntity
  8
0
  6
Continuous
 62
     7
370
    15
100
AcDbLine
 10
163.3833760723
 20
174.597369895
 30
0.0
 11
163.3833760723
 21
191.1973696357
 31
0.0
  0
LINE
  5
EE
330
1F
100
AcDbEntity
  8
0
  6
Continuous
 62
     7
370
    15
100
AcDbLine
 10
163.3833760723
 20
157.9973701543
 30
0.0
 11
163.3833760723
 21
174.597369895
 31
0.0
  0
SPLINE
  5
EF
330
1F
100
AcDbEntity
  8
0
  6
Continuous
 62
     7
370
    15
100
AcDbSpline
210
0.0
220
0.0
230
1.0
 70
     8
 71
     3
 72
    14
 73
    10
 74
     0
 42
0.00000001
 43
0.00000001
 12
1.0
 22
0.0
 32
0.0
 13
1.0
 23
0.0
 33
0.0
 40
0.0
 40
0.0
 40
0.0
 40
0.0
 40
0.5000000000000007
 40
0.5000000000000007
 40
0.7500000000000006
 40
0.7500000000000006
 40
0.8750000000000002
 40
0.8750000000000002
 40
1.0
 40
1.0
 40
1.0
 40
1.0
 10
69.82526264644868
 20
151.5973698949822
 30
0.0
 10
70.86643707771645
 20
153.4007369094796
 30
0.0
 10
71.75116360104036
 20
155.2449174132845
 30
0.0
 10
72.6970992278167
 20
158.110622104319
 30
0.0
 10
72.9482111930683
 20
159.0826052109337
 30
0.0
 10
73.20611842485447
 20
160.5715616799449
 30
0.0
 10
73.27227625138354
 20
161.0730487808796
 30
0.0
 10
73.36122748641611
 20
162.0873357144733
 30
0.0
 10
73.38337502917146
 20
162.5937649092612
 30
0.0
 10
73.38337502917145
 20
163.0973698949823
 30
0.0
  0
LINE
  5
F0
330
1F
100
AcDbEntity
  8
0
  6
Continuous
 62
     7
370
    15
100
AcDbLine
 10
69.8252620502
 20
151.5973698503
 30
0.0
 11
48.9052573546
 21
151.5973698503
 31
0.0
  0
SPLINE
  5
F1
330
1F
100
AcDbEntity
  8
0
  6
Continuous
 62
     7
370
    15
100
AcDbSpline
210
0.0
220
0.0
230
1.0
 70
     8
 71
     3
 72
     9
 73
     5
 74
     0
 42
0.00000001
 43
0.00000001
 12
1.0
 22
0.0
 32
0.0
 13
1.0
 23
0.0
 33
0.0
 40
0.0
 40
0.0
 40
0.0
 40
0.0
 40
0.5
 40
1.0
 40
1.0
 40
1.0
 40
1.0
 10
48.90525758500085
 20
174.5973698949822
 30
0.0
 10
48.78926994400687
 20
170.7640365616489
 30
0.0
 10
48.64829968915888
 20
163.0973698949822
 30
0.0
 10
48.78926994400686
 20
155.4307032283155
 30
0.0
 10
48.90525758500085
 20
151.5973698949822
 30
0.0
  0
SPLINE
  5
F2
330
1F
100
AcDbEntity
  8
0
  6
Continuous
 62
     7
370
    15
100
AcDbSpline
210
0.0
220
0.0
230
1.0
 70
    24
 71
     3
 72
    11
 73
     7
 74
     0
 42
0.00000001
 43
0.00000001
 12
1.0
 22
0.0
 32
0.0
 13
1.0
 23
0.0
 33
0.0
 40
0.0
 40
0.0
 40
0.0
 40
0.0
 40
0.2729454513595879
 40
0.5737677311618018
 40
0.874586264877005
 40
1.0
 40
1.0
 40
1.0
 40
1.0
 10
48.72033766945695
 20
197.5973699396857
 30
0.0
 10
48.72273842310491
 20
197.5973699396857
 30
0.0
 10
48.72778512737057
 20
197.5973699396857
 30
0.0
 10
48.77913043815617
 20
197.5973699396857
 30
0.0
 10
48.84304263224417
 20
197.5973699396857
 30
0.0
 10
48.89111317398091
 20
197.5973699396857
 30
0.0
 10
48.9052573545823
 20
197.5973699396857
 30
0.0
  0
SPLINE
  5
F3
330
1F
100
AcDbEntity
  8
0
  6
Continuous
 62
     7
370
    15
100
AcDbSpline
210
0.0
220
0.0
230
1.0
 70
    24
 71
     3
 72
    11
 73
     7
 74
     0
 42
0.00000001
 43
0.00000001
 12
1.0
 22
0.0
 32
0.0
 13
1.0
 23
0.0
 33
0.0
 40
0.0
 40
0.0
 40
0.0
 40
0.0
 40
0.1254137344512395
 40
0.4260455726626384
 40
0.7266811023351406
 40
1.0
 40
1.0
 40
1.0
 40
1.0
 10
48.9052573545823
 20
151.5973698502787
 30
0.0
 10
48.8911132994937
 20
151.5973698502787
 30
0.0
 10
48.84306423950548
 20
151.5973698502787
 30
0.0
 10
48.77917027125157
 20
151.5973698502787
 30
0.0
 10
48.72780825693717
 20
151.5973698502787
 30
0.0
 10
48.72272739128625
 20
151.5973698502787
 30
0.0
 10
48.72030786713457
 20
151.5973698502787
 30
0.0
  0
LINE
  5
F4
330
1F
100
AcDbEntity
  8
0
  6
Continuous
 62
     7
370
    15
100
AcDbLine
 10
48.3833739861
 20
191.1973696357
 30
0.0
 11
48.3833739861
 21
157.9973701543
 31
0.0
  0
LINE
  5
F5
330
1F
100
AcDbEntity
  8
0
  6
Continuous
 62
     7
370
    15
100
AcDbLine
 10
124.8567348673
 20
291.3037635541
 30
0.0
 11
109.3833751372
 21
291.3037635541
 31
0.0
  0
LINE
  5
F6
330
1F
100
AcDbEntity
  8
0
  6
Continuous
 62
     7
370
    15
100
AcDbLine
 10
102.3833749211
 20
291.3037635541
 30
0.0
 11
86.910015191
 21
291.3037635541
 31
0.0
  0
LINE
  5
F7
330
1F
100
AcDbEntity
  8
0
  6
Continuous
 62
     7
370
    15
100
AcDbLine
 10
102.3833749211
 20
307.5973712063
 30
0.0
 11
102.3833749211
 21
301.5973739481
 31
0.0
  0
LINE
  5
F8
330
1F
100
AcDbEntity
  8
0
  6
Continuous
 62
     7
370
    15
100
AcDbLine
 10
109.3833751372
 20
301.5973739481
 30
0.0
 11
109.3833751372
 21
307.5973712063
 31
0.0
  0
SPLINE
  5
F9
330
1F
100
AcDbEntity
  8
0
  6
Continuous
 62
     7
370
    15
100
AcDbSpline
210
0.0
220
0.0
230
1.0
 70
     8
 71
     3
 72
    14
 73
    10
 74
     0
 42
0.00000001
 43
0.00000001
 12
1.0
 22
0.0
 32
0.0
 13
1.0
 23
0.0
 33
0.0
 40
0.0
 40
0.0
 40
0.0
 40
0.0
 40
0.25
 40
0.25
 40
0.5
 40
0.5
 40
0.75
 40
0.75
 40
1.0
 40
1.0
 40
1.0
 40
1.0
 10
74.22652077967908
 20
151.7938613929994
 30
0.0
 10
74.48866974104025
 20
151.7938613929994
 30
0.0
 10
74.74816248077035
 20
151.8196049622698
 30
0.0
 10
75.26185263185177
 20
151.9224133653217
 30
0.0
 10
75.51647399955928
 20
152.0002301430742
 30
0.0
 10
76.00203970943213
 20
152.2034497454448
 30
0.0
 10
76.23590776252375
 20
152.3300932415168
 30
0.0
 10
76.66854298183966
 20
152.6224678599933
 30
0.0
 10
76.86956317522196
 20
152.7889180015225
 30
0.0
 10
77.05494790442528
 20
152.9760787508263
 30
0.0
  0
SPLINE
  5
FA
330
1F
100
AcDbEntity
  8
0
  6
Continuous
 62
     7
370
    15
100
AcDbSpline
210
0.0
220
0.0
230
1.0
 70
     8
 71
     3
 72
    10
 73
     6
 74
     0
 42
0.00000001
 43
0.00000001
 12
1.0
 22
0.0
 32
0.0
 13
1.0
 23
0.0
 33
0.0
 40
0.0
 40
0.0
 40
0.0
 40
0.0
 40
0.500000000000006
 40
0.500000000000006
 40
1.0
 40
1.0
 40
1.0
 40
1.0
 10
74.22652077967908
 20
197.3295057383208
 30
0.0
 10
74.37146939005999
 20
197.3295057383208
 30
0.0
 10
74.51563714216255
 20
197.3215249828461
 30
0.0
 10
74.80064968388976
 20
197.2902246128484
 30
0.0
 10
74.94179613667082
 20
197.2669040519702
 30
0.0
 10
75.08158936664857
 20
197.2359503174466
 30
0.0
  0
SPLINE
  5
FB
330
1F
100
AcDbEntity
  8
0
  6
Continuous
 62
     7
370
    15
100
AcDbSpline
210
0.0
220
0.0
230
1.0
 70
     8
 71
     3
 72
    14
 73
    10
 74
     0
 42
0.00000001
 43
0.00000001
 12
1.0
 22
0.0
 32
0.0
 13
1.0
 23
0.0
 33
0.0
 40
0.0
 40
0.0
 40
0.0
 40
0.0
 40
0.25
 40
0.25
 40
0.5
 40
0.5
 40
0.75
 40
0.75
 40
1.0
 40
1.0
 40
1.0
 40
1.0
 10
137.5402292786638
 20
151.7938613929994
 30
0.0
 10
137.2780803173027
 20
151.7938613929994
 30
0.0
 10
137.0185875775726
 20
151.8196049622698
 30
0.0
 10
136.5048974264912
 20
151.9224133653217
 30
0.0
 10
136.2502760587836
 20
152.0002301430742
 30
0.0
 10
135.7647103489108
 20
152.2034497454448
 30
0.0
 10
135.5308422958192
 20
152.3300932415168
 30
0.0
 10
135.0982070765033
 20
152.6224678599933
 30
0.0
 10
134.897186883121
 20
152.7889180015225
 30
0.0
 10
134.7118021539177
 20
152.9760787508263
 30
0.0
  0
SPLINE
  5
FC
330
1F
100
AcDbEntity
  8
0
  6
Continuous
 62
     7
370
    15
100
AcDbSpline
210
0.0
220
0.0
230
1.0
 70
     8
 71
     3
 72
    10
 73
     6
 74
     0
 42
0.00000001
 43
0.00000001
 12
1.0
 22
0.0
 32
0.0
 13
1.0
 23
0.0
 33
0.0
 40
0.0
 40
0.0
 40
0.0
 40
0.0
 40
0.500000000000006
 40
0.500000000000006
 40
1.0
 40
1.0
 40
1.0
 40
1.0
 10
137.5402292786638
 20
197.3295057383208
 30
0.0
 10
137.3952806682829
 20
197.3295057383208
 30
0.0
 10
137.2511129161804
 20
197.3215249828461
 30
0.0
 10
136.9661003744532
 20
197.2902246128484
 30
0.0
 10
136.8249539216721
 20
197.2669040519702
 30
0.0
 10
136.6851606916943
 20
197.2359503174466
 30
0.0
  0
LINE
  5
FD
330
1F
100
AcDbEntity
  8
0
  6
Continuous
 62
     7
370
    15
100
AcDbLine
 10
138.3833738371
 20
197.3295066661
 30
0.0
 11
138.3833738371
 21
186.0973699173
 31
0.0
  0
LINE
  5
FE
330
1F
100
AcDbEntity
  8
0
  6
Continuous
 62
     7
370
    15
100
AcDbLine
 10
138.3833738371
 20
163.0973698726
 30
0.0
 11
138.3833738371
 21
151.7938621497
 31
0.0
  0
LINE
  5
FF
330
1F
100
AcDbEntity
  8
0
  6
Continuous
 62
     7
370
    15
100
AcDbLine
 10
138.3833738371
 20
151.7938621497
 30
0.0
 11
137.5402288838
 21
151.7938621497
 31
0.0
  0
LINE
  5
100
330
1F
100
AcDbEntity
  8
0
  6
Continuous
 62
     7
370
    15
100
AcDbLine
 10
138.3833738371
 20
197.3295066661
 30
0.0
 11
137.5402288838
 21
197.3295066661
 31
0.0
  0
LINE
  5
101
330
1F
100
AcDbEntity
  8
0
  6
Continuous
 62
     7
370
    15
100
AcDbLine
 10
73.3833762213
 20
151.7938621497
 30
0.0
 11
74.2265211745
 21
151.7938621497
 31
0.0
  0
LINE
  5
102
330
1F
100
AcDbEntity
  8
0
  6
Continuous
 62
     7
370
    15
100
AcDbLine
 10
73.3833762213
 20
163.0973698726
 30
0.0
 11
73.3833762213
 21
151.7938621497
 31
0.0
  0
LINE
  5
103
330
1F
100
AcDbEntity
  8
0
  6
Continuous
 62
     7
370
    15
100
AcDbLine
 10
73.3833762213
 20
197.3295066661
 30
0.0
 11
73.3833762213
 21
186.0973699173
 31
0.0
  0
LINE
  5
104
330
1F
100
AcDbEntity
  8
0
  6
Continuous
 62
     7
370
    15
100
AcDbLine
 10
73.3833762213
 20
197.3295066661
 30
0.0
 11
74.2265211745
 21
197.3295066661
 31
0.0
  0
LINE
  5
105
330
1F
100
AcDbEntity
  8
0
  6
Continuous
 62
     7
370
    15
100
AcDbLine
 10
73.1885472639
 20
151.5973698503
 30
0.0
 11
73.3833762213
 21
151.7938621497
 31
0.0
  0
SPLINE
  5
106
330
1F
100
AcDbEntity
  8
0
  6
Continuous
 62
     7
370
    15
100
AcDbSpline
210
0.0
220
0.0
230
1.0
 70
    24
 71
     3
 72
    12
 73
     8
 74
     0
 42
0.00000001
 43
0.00000001
 12
1.0
 22
0.0
 32
0.0
 13
1.0
 23
0.0
 33
0.0
 40
0.0
 40
0.0
 40
0.0
 40
0.0
 40
0.2500000000000001
 40
0.2500000000000001
 40
0.5000000000000001
 40
0.5000000000000001
 40
1.0
 40
1.0
 40
1.0
 40
1.0
 10
69.82526264644875
 20
151.5973698949822
 30
0.0
 10
70.23076511220313
 20
151.5973698949822
 30
0.0
 10
70.61649299387052
 20
151.5973698949822
 30
0.0
 10
71.32970542661056
 20
151.5973698949822
 30
0.0
 10
71.65565101554486
 20
151.5973698949822
 30
0.0
 10
72.52360468631113
 20
151.5973698949822
 30
0.0
 10
72.95578979622968
 20
151.5973698949822
 30
0.0
 10
73.18854801968506
 20
151.5973698949822
 30
0.0
  0
LINE
  5
107
330
1F
100
AcDbEntity
  8
0
  6
Continuous
 62
     7
370
    15
100
AcDbLine
 10
138.5782027944
 20
151.5973698503
 30
0.0
 11
138.3833738371
 21
151.7938621497
 31
0.0
  0
SPLINE
  5
108
330
1F
100
AcDbEntity
  8
0
  6
Continuous
 62
     7
370
    15
100
AcDbSpline
210
0.0
220
0.0
230
1.0
 70
    24
 71
     3
 72
    12
 73
     8
 74
     0
 42
0.00000001
 43
0.00000001
 12
1.0
 22
0.0
 32
0.0
 13
1.0
 23
0.0
 33
0.0
 40
0.0
 40
0.0
 40
0.0
 40
0.0
 40
0.2500000000000001
 40
0.2500000000000001
 40
0.5000000000000001
 40
0.5000000000000001
 40
1.0
 40
1.0
 40
1.0
 40
1.0
 10
141.9414874118942
 20
151.5973698949822
 30
0.0
 10
141.5359849461398
 20
151.5973698949822
 30
0.0
 10
141.1502570644724
 20
151.5973698949822
 30
0.0
 10
140.4370446317323
 20
151.5973698949822
 30
0.0
 10
140.1110990427981
 20
151.5973698949822
 30
0.0
 10
139.2431453720318
 20
151.5973698949822
 30
0.0
 10
138.8109602621132
 20
151.5973698949822
 30
0.0
 10
138.5782020386579
 20
151.5973698949822
 30
0.0
  0
SPLINE
  5
109
330
1F
100
AcDbEntity
  8
0
  6
Continuous
 62
     7
370
    15
100
AcDbSpline
210
0.0
220
0.0
230
1.0
 70
     8
 71
     3
 72
     8
 73
     4
 74
     0
 42
0.00000001
 43
0.00000001
 12
1.0
 22
0.0
 32
0.0
 13
1.0
 23
0.0
 33
0.0
 40
0.0
 40
0.0
 40
0.0
 40
0.0
 40
1.0
 40
1.0
 40
1.0
 40
1.0
 10
134.7118021539177
 20
152.9760787508263
 30
0.0
 10
133.9924671276034
 20
153.7023051401519
 30
0.0
 10
133.2734692866549
 20
154.4288737439776
 30
0.0
 10
132.5549479044253
 20
155.1558992873759
 30
0.0
  0
SPLINE
  5
10A
330
1F
100
AcDbEntity
  8
0
  6
Continuous
 62
     7
370
    15
100
AcDbSpline
210
0.0
220
0.0
230
1.0
 70
     8
 71
     3
 72
     8
 73
     4
 74
     0
 42
0.00000001
 43
0.00000001
 12
1.0
 22
0.0
 32
0.0
 13
1.0
 23
0.0
 33
0.0
 40
0.0
 40
0.0
 40
0.0
 40
0.0
 40
1.0
 40
1.0
 40
1.0
 40
1.0
 10
77.05494790442528
 20
152.9760787508263
 30
0.0
 10
77.77428293073955
 20
153.7023051401519
 30
0.0
 10
78.49328077168809
 20
154.4288737439776
 30
0.0
 10
79.21180215391763
 20
155.1558992873759
 30
0.0
  0
SPLINE
  5
10B
330
1F
100
AcDbEntity
  8
0
  6
Continuous
 62
     7
370
    15
100
AcDbSpline
210
0.0
220
0.0
230
1.0
 70
    24
 71
     3
 72
    12
 73
     8
 74
     0
 42
0.00000001
 43
0.00000001
 12
1.0
 22
0.0
 32
0.0
 13
1.0
 23
0.0
 33
0.0
 40
0.0
 40
0.0
 40
0.0
 40
0.0
 40
0.2500000000000002
 40
0.2500000000000002
 40
0.5000000000000003
 40
0.5000000000000003
 40
1.0
 40
1.0
 40
1.0
 40
1.0
 10
69.82526264644875
 20
197.5973698949822
 30
0.0
 10
70.21193890539324
 20
197.5973698949822
 30
0.0
 10
70.58047396435819
 20
197.5973698949822
 30
0.0
 10
71.26599161401215
 20
197.5973698949822
 30
0.0
 10
71.5811017540415
 20
197.5973698949822
 30
0.0
 10
72.4280934685444
 20
197.5973698949822
 30
0.0
 10
72.86176030631759
 20
197.5973698949822
 30
0.0
 10
73.11859478090818
 20
197.5973698949822
 30
0.0
  0
LWPOLYLINE
  5
10C
330
1F
100
AcDbEntity
  8
0
  6
Continuous
 62
     7
370
    15
100
AcDbPolyline
 90
        3
 70
   128
 43
0.0
 10
73.1185937627
 20
197.5973699397
 10
73.1850343152
 20
197.5301638401
 10
73.3833762213
 20
197.3295066661
  0
SPLINE
  5
10D
330
1F
100
AcDbEntity
  8
0
  6
Continuous
 62
     7
370
    15
100
AcDbSpline
210
0.0
220
0.0
230
1.0
 70
    24
 71
     3
 72
    12
 73
     8
 74
     0
 42
0.00000001
 43
0.00000001
 12
1.0
 22
0.0
 32
0.0
 13
1.0
 23
0.0
 33
0.0
 40
0.0
 40
0.0
 40
0.0
 40
0.0
 40
0.2500000000000002
 40
0.2500000000000002
 40
0.5000000000000003
 40
0.5000000000000003
 40
1.0
 40
1.0
 40
1.0
 40
1.0
 10
141.9414874118942
 20
197.5973698949822
 30
0.0
 10
141.5548111529497
 20
197.5973698949822
 30
0.0
 10
141.1862760939847
 20
197.5973698949822
 30
0.0
 10
140.5007584443308
 20
197.5973698949822
 30
0.0
 10
140.1856483043014
 20
197.5973698949822
 30
0.0
 10
139.3386565897985
 20
197.5973698949822
 30
0.0
 10
138.9049897520253
 20
197.5973698949822
 30
0.0
 10
138.6481552774347
 20
197.5973698949822
 30
0.0
  0
LWPOLYLINE
  5
10E
330
1F
100
AcDbEntity
  8
0
  6
Continuous
 62
     7
370
    15
100
AcDbPolyline
 90
        3
 70
   128
 43
0.0
 10
138.6481562956
 20
197.5973699397
 10
138.5817157431
 20
197.5301638401
 10
138.3833738371
 20
197.3295066661
  0
SPLINE
  5
10F
330
1F
100
AcDbEntity
  8
0
  6
Continuous
 62
     7
370
    15
100
AcDbSpline
210
0.0
220
0.0
230
1.0
 70
     8
 71
     3
 72
    14
 73
    10
 74
     0
 42
0.00000001
 43
0.00000001
 12
1.0
 22
0.0
 32
0.0
 13
1.0
 23
0.0
 33
0.0
 40
0.0
 40
0.0
 40
0.0
 40
0.0
 40
0.25
 40
0.25
 40
0.5
 40
0.5
 40
0.75
 40
0.75
 40
1.0
 40
1.0
 40
1.0
 40
1.0
 10
79.21180215391763
 20
155.1558992873759
 30
0.0
 10
79.39522301277293
 20
155.3414910496782
 30
0.0
 10
79.59570142612293
 20
155.5086493070437
 30
0.0
 10
80.03210599218605
 20
155.8046586846788
 30
0.0
 10
80.26443492457652
 20
155.9307512217129
 30
0.0
 10
80.7504859290131
 20
156.1350097385947
 30
0.0
 10
81.00316070728249
 20
156.2125338795746
 30
0.0
 10
81.51445591297168
 20
156.3157349728959
 30
0.0
 10
81.77659846676973
 20
156.3422336314535
 30
0.0
 10
82.04022927866383
 20
156.3422336314535
 30
0.0
  0
SPLINE
  5
110
330
1F
100
AcDbEntity
  8
0
  6
Continuous
 62
     7
370
    15
100
AcDbSpline
210
0.0
220
0.0
230
1.0
 70
     8
 71
     3
 72
    14
 73
    10
 74
     0
 42
0.00000001
 43
0.00000001
 12
1.0
 22
0.0
 32
0.0
 13
1.0
 23
0.0
 33
0.0
 40
0.0
 40
0.0
 40
0.0
 40
0.0
 40
0.25
 40
0.25
 40
0.5
 40
0.5
 40
0.75
 40
0.75
 40
1.0
 40
1.0
 40
1.0
 40
1.0
 10
132.5549479044253
 20
155.1558992873759
 30
0.0
 10
132.37152704557
 20
155.3414910496782
 30
0.0
 10
132.17104863222
 20
155.5086493070437
 30
0.0
 10
131.7346440661569
 20
155.8046586846788
 30
0.0
 10
131.5023151337664
 20
155.9307512217129
 30
0.0
 10
131.0162641293298
 20
156.1350097385947
 30
0.0
 10
130.7635893510604
 20
156.2125338795746
 30
0.0
 10
130.2522941453712
 20
156.3157349728959
 30
0.0
 10
129.9901515915732
 20
156.3422336314535
 30
0.0
 10
129.7265207796791
 20
156.3422336314535
 30
0.0
  0
LINE
  5
111
330
1F
100
AcDbEntity
  8
0
  6
Continuous
 62
     7
370
    15
100
AcDbLine
 10
123.8833742543
 20
313.5973684645
 30
0.0
 11
109.3833751372
 21
313.5973684645
 31
0.0
  0
LINE
  5
112
330
1F
100
AcDbEntity
  8
0
  6
Continuous
 62
     7
370
    15
100
AcDbLine
 10
102.3833749211
 20
313.5973684645
 30
0.0
 11
87.883375804
 21
313.5973684645
 31
0.0
  0
LINE
  5
113
330
1F
100
AcDbEntity
  8
0
  6
Continuous
 62
     7
370
    15
100
AcDbLine
 10
129.7265200271
 20
156.3422329879
 30
0.0
 11
82.0402300312
 21
156.3422329879
 31
0.0
  0
LINE
  5
114
330
1F
100
AcDbEntity
  8
0
  6
Continuous
 62
     7
370
    15
100
AcDbLine
 10
68.3833735391
 20
267.5973721004
 30
0.0
 11
81.3299680456
 21
267.5973721004
 31
0.0
  0
LINE
  5
115
330
1F
100
AcDbEntity
  8
0
  6
Continuous
 62
     7
370
    15
100
AcDbLine
 10
68.3833735391
 20
241.5973715639
 30
0.0
 11
71.0588137015
 21
241.5973715639
 31
0.0
  0
LINE
  5
116
330
1F
100
AcDbEntity
  8
0
  6
Continuous
 62
     7
370
    15
100
AcDbLine
 10
130.4367820128
 20
267.5973721004
 30
0.0
 11
143.3833765193
 21
267.5973721004
 31
0.0
  0
LINE
  5
117
330
1F
100
AcDbEntity
  8
0
  6
Continuous
 62
     7
370
    15
100
AcDbLine
 10
140.7079363569
 20
241.5973715639
 30
0.0
 11
143.3833765193
 21
241.5973715639
 31
0.0
  0
LINE
  5
118
330
1F
100
AcDbEntity
  8
0
  6
Continuous
 62
     7
370
    15
100
AcDbLine
 10
143.3833765193
 20
267.5973721004
 30
0.0
 11
155.2025417193
 21
267.5973721004
 31
0.0
  0
LINE
  5
119
330
1F
100
AcDbEntity
  8
0
  6
Continuous
 62
     7
370
    15
100
AcDbLine
 10
155.383374761
 20
241.5973715639
 30
0.0
 11
143.3833765193
 21
241.5973715639
 31
0.0
  0
SPLINE
  5
11A
330
1F
100
AcDbEntity
  8
0
  6
Continuous
 62
     7
370
    15
100
AcDbSpline
210
0.0
220
0.0
230
1.0
 70
     8
 71
     3
 72
    16
 73
    12
 74
     0
 42
0.00000001
 43
0.00000001
 12
1.0
 22
0.0
 32
0.0
 13
1.0
 23
0.0
 33
0.0
 40
0.0
 40
0.0
 40
0.0
 40
0.0
 40
0.2499999999999999
 40
0.2499999999999999
 40
0.4999999999999999
 40
0.4999999999999999
 40
0.7499999999999998
 40
0.7499999999999998
 40
0.8749999999999999
 40
0.8749999999999999
 40
1.0
 40
1.0
 40
1.0
 40
1.0
 10
154.1554230059949
 20
214.7171877641726
 30
0.0
 10
153.9823125253782
 20
214.4139677771712
 30
0.0
 10
153.7713042849325
 20
214.1190156815445
 30
0.0
 10
153.2784842540373
 20
213.5730173614996
 30
0.0
 10
152.9962107877826
 20
213.3200546313777
 30
0.0
 10
152.3488815180806
 20
212.8688035849312
 30
0.0
 10
151.9806929054298
 20
212.6698174896902
 30
0.0
 10
151.3757008599934
 20
212.4416890531188
 30
0.0
 10
151.1646471041568
 20
212.3769170686164
 30
0.0
 10
150.7221982260845
 20
212.274249600081
 30
0.0
 10
150.4891511763458
 20
212.2362117480959
 30
0.0
 10
150.2490111709014
 20
212.2152022199605
 30
0.0
  0
LWPOLYLINE
  5
11B
330
1F
100
AcDbEntity
  8
0
  6
Continuous
 62
     7
370
    15
100
AcDbPolyline
 90
       44
 70
   128
 43
0.0
 10
150.2490120335
 20
212.2152023172
 10
149.9551238819
 20
212.1894903636
 10
149.6542433604
 20
212.1631674623
 10
149.3466945692
 20
212.1362596905
 10
149.0328053339
 20
212.1087968504
 10
148.712914656
 20
212.0808124697
 10
148.3873615368
 20
212.0523289001
 10
148.0564961537
 20
212.0233833945
 10
147.7206724091
 20
211.9940020299
 10
147.3802479311
 20
211.964218334
 10
147.0355915233
 20
211.9340658343
 10
146.6870719894
 20
211.9035743332
 10
146.3350581332
 20
211.8727773583
 10
145.9799299343
 20
211.8417047119
 10
145.6220673724
 20
211.8103973722
 10
145.2618541523
 20
211.7788814163
 10
144.8996739789
 20
211.747194097
 10
144.5359180077
 20
211.7153726673
 10
144.1709699436
 20
211.6834432042
 10
143.8052283927
 20
211.6514429605
 10
143.4390770598
 20
211.6194091892
 10
143.0729145511
 20
211.5873754179
 10
142.7071282967
 20
211.555371449
 10
142.3421131774
 20
211.5234382606
 10
141.9782603486
 20
211.491605655
 10
141.6159572407
 20
211.4599071598
 10
141.2555912836
 20
211.428380028
 10
140.8975499078
 20
211.3970540619
 10
140.5422130926
 20
211.3659665143
 10
140.1899682685
 20
211.335150913
 10
139.8411879643
 20
211.3046370602
 10
139.4962447091
 20
211.2744584835
 10
139.155511032
 20
211.2446449852
 10
138.8193520113
 20
211.2152375436
 10
138.4881215497
 20
211.1862585104
 10
138.1621810003
 20
211.1577414131
 10
137.8418805405
 20
211.1297197795
 10
137.5275554462
 20
211.1022196865
 10
137.2195447191
 20
211.0752709365
 10
136.9181836351
 20
211.048907057
 10
136.6237907066
 20
211.0231503999
 10
136.3366807207
 20
210.9980307674
 10
136.0571628763
 20
210.9735779619
 10
135.7855351969
 20
210.9498106098
  0
SPLINE
  5
11C
330
1F
100
AcDbEntity
  8
0
  6
Continuous
 62
     7
370
    15
100
AcDbSpline
210
0.0
220
0.0
230
1.0
 70
     8
 71
     3
 72
     8
 73
     4
 74
     0
 42
0.00000001
 43
0.00000001
 12
1.0
 22
0.0
 32
0.0
 13
1.0
 23
0.0
 33
0.0
 40
0.0
 40
0.0
 40
0.0
 40
0.0
 40
1.0
 40
1.0
 40
1.0
 40
1.0
 10
154.1554230059949
 20
214.7171877641726
 30
0.0
 10
154.5667551741357
 20
223.6771563860491
 30
0.0
 10
154.9758663884241
 20
232.6372268230101
 30
0.0
 10
155.3833750291715
 20
241.5973698949822
 30
0.0
  0
LINE
  5
11D
330
1F
100
AcDbEntity
  8
0
  6
Continuous
 62
     7
370
    15
100
AcDbLine
 10
56.5642083391
 20
267.5973721004
 30
0.0
 11
68.3833735391
 21
267.5973721004
 31
0.0
  0
LINE
  5
11E
330
1F
100
AcDbEntity
  8
0
  6
Continuous
 62
     7
370
    15
100
AcDbLine
 10
56.3833752974
 20
241.5973715639
 30
0.0
 11
68.3833735391
 21
241.5973715639
 31
0.0
  0
LWPOLYLINE
  5
11F
330
1F
100
AcDbEntity
  8
0
  6
Continuous
 62
     7
370
    15
100
AcDbPolyline
 90
       44
 70
   128
 43
0.0
 10
61.5177380248
 20
212.2152023172
 10
61.8116261764
 20
212.1894903636
 10
62.112506698
 20
212.1631674623
 10
62.4200554891
 20
212.1362596905
 10
62.7339447244
 20
212.1087968504
 10
63.0538354023
 20
212.0808124697
 10
63.3793885215
 20
212.0523289001
 10
63.7102539047
 20
212.0233833945
 10
64.0460776492
 20
211.9940020299
 10
64.3865021273
 20
211.964218334
 10
64.7311585351
 20
211.9340658343
 10
65.079678069
 20
211.9035743332
 10
65.4316919251
 20
211.8727773583
 10
65.786820124
 20
211.8417047119
 10
66.1446826859
 20
211.8103973722
 10
66.5048959061
 20
211.7788814163
 10
66.8670760795
 20
211.747194097
 10
67.2308320506
 20
211.7153726673
 10
67.5957801147
 20
211.6834432042
 10
67.9615216657
 20
211.6514429605
 10
68.3276729985
 20
211.6194091892
 10
68.6938355072
 20
211.5873754179
 10
69.0596217616
 20
211.555371449
 10
69.424636881
 20
211.5234382606
 10
69.7884897097
 20
211.491605655
 10
70.1507928177
 20
211.4599071598
 10
70.5111587747
 20
211.428380028
 10
70.8692001506
 20
211.3970540619
 10
71.2245369657
 20
211.3659665143
 10
71.5767817899
 20
211.335150913
 10
71.9255620941
 20
211.3046370602
 10
72.2705053492
 20
211.2744584835
 10
72.6112390264
 20
211.2446449852
 10
72.9473980471
 20
211.2152375436
 10
73.2786285087
 20
211.1862585104
 10
73.604569058
 20
211.1577414131
 10
73.9248695179
 20
211.1297197795
 10
74.2391946121
 20
211.1022196865
 10
74.5472053393
 20
211.0752709365
 10
74.8485664233
 20
211.048907057
 10
75.1429593517
 20
211.0231503999
 10
75.4300693377
 20
210.9980307674
 10
75.709587182
 20
210.9735779619
 10
75.9812148615
 20
210.9498106098
  0
SPLINE
  5
120
330
1F
100
AcDbEntity
  8
0
  6
Continuous
 62
     7
370
    15
100
AcDbSpline
210
0.0
220
0.0
230
1.0
 70
     8
 71
     3
 72
    16
 73
    12
 74
     0
 42
0.00000001
 43
0.00000001
 12
1.0
 22
0.0
 32
0.0
 13
1.0
 23
0.0
 33
0.0
 40
0.0
 40
0.0
 40
0.0
 40
0.0
 40
0.2499999999999999
 40
0.2499999999999999
 40
0.4999999999999999
 40
0.4999999999999999
 40
0.7499999999999998
 40
0.7499999999999998
 40
0.8749999999999999
 40
0.8749999999999999
 40
1.0
 40
1.0
 40
1.0
 40
1.0
 10
57.61132705234804
 20
214.7171877641726
 30
0.0
 10
57.7844375329647
 20
214.4139677771712
 30
0.0
 10
57.99544577341045
 20
214.1190156815445
 30
0.0
 10
58.48826580430564
 20
213.5730173614996
 30
0.0
 10
58.77053927056033
 20
213.3200546313777
 30
0.0
 10
59.41786854026233
 20
212.8688035849312
 30
0.0
 10
59.78605715291311
 20
212.6698174896902
 30
0.0
 10
60.39104919834951
 20
212.4416890531188
 30
0.0
 10
60.60210295418613
 20
212.3769170686164
 30
0.0
 10
61.04455183225839
 20
212.274249600081
 30
0.0
 10
61.27759888199714
 20
212.2362117480959
 30
0.0
 10
61.51773888744155
 20
212.2152022199605
 30
0.0
  0
SPLINE
  5
121
330
1F
100
AcDbEntity
  8
0
  6
Continuous
 62
     7
370
    15
100
AcDbSpline
210
0.0
220
0.0
230
1.0
 70
     8
 71
     3
 72
     8
 73
     4
 74
     0
 42
0.00000001
 43
0.00000001
 12
1.0
 22
0.0
 32
0.0
 13
1.0
 23
0.0
 33
0.0
 40
0.0
 40
0.0
 40
0.0
 40
0.0
 40
1.0
 40
1.0
 40
1.0
 40
1.0
 10
57.61132705234803
 20
214.7171877641726
 30
0.0
 10
57.19999488420721
 20
223.6771563860491
 30
0.0
 10
56.79088366991883
 20
232.6372268230101
 30
0.0
 10
56.38337502917145
 20
241.5973698949822
 30
0.0
  0
ELLIPSE
  5
122
330
1F
100
AcDbEntity
  8
0
  6
Continuous
 62
     7
370
    15
100
AcDbEllipse
 10
105.8833750292
 20
326.6330825228
 30
0.0
 11
9.0
 21
0.0
 31
0.0
210
0.0
220
0.0
230
1.0
 40
0.916331174
 41
4.163540591599614
 42
5.261237369169792
  0
LINE
  5
123
330
1F
100
AcDbEntity
  8
0
  6
Continuous
 62
     7
370
    15
100
AcDbLine
 10
101.1880289159
 20
319.5973657227
 30
0.0
 11
110.5787211425
 21
319.5973657227
 31
0.0
  0
LWPOLYLINE
  5
124
330
1F
100
AcDbEntity
  8
0
  6
Continuous
 62
     7
370
    15
100
AcDbPolyline
 90
       19
 70
   128
 43
0.0
 10
98.2052420593
 20
319.5973657227
 10
98.0617834582
 20
319.4659076786
 10
97.9260171159
 20
319.341512785
 10
97.7980766772
 20
319.2242704487
 10
97.6780897333
 20
319.1143296814
 10
97.5661726995
 20
319.0117649889
 10
97.4624354719
 20
318.9167104816
 10
97.366980496
 20
318.8292406654
 10
97.2799027666
 20
318.7494598484
 10
97.2012861027
 20
318.677412734
 10
97.1312087356
 20
318.6132036304
 10
97.069739583
 20
318.5568772411
 10
97.016939181
 20
318.5084931707
 10
96.9728587522
 20
318.4680961227
 10
96.9375430002
 20
318.4357308006
 10
96.9110254525
 20
318.4114419079
 10
96.8933321862
 20
318.3952294445
 10
96.8844818278
 20
318.3871232128
 10
96.8833754166
 20
318.3860950327
  0
LWPOLYLINE
  5
125
330
1F
100
AcDbEntity
  8
0
  6
Continuous
 62
     7
370
    15
100
AcDbPolyline
 90
       10
 70
   128
 43
0.0
 10
98.2052420593
 20
319.5973657227
 10
98.3312891192
 20
322.4843166924
 10
98.4625525168
 20
325.4907600737
 10
98.5989423796
 20
328.6145948029
 10
98.7403641782
 20
331.8536751127
 10
98.8867201238
 20
335.2057807302
 10
99.0379091679
 20
338.6685870743
 10
99.1938265367
 20
342.2396801567
 10
99.3543651282
 20
345.9166161871
 10
99.5194141149
 20
349.696861968
  0
ELLIPSE
  5
126
330
1F
100
AcDbEntity
  8
0
  6
Continuous
 62
     7
370
    15
100
AcDbEllipse
 10
105.8833750292
 20
495.4555280178
 30
0.0
 11
0.0
 21
206.1338899358803
 31
0.0
210
0.0
220
0.0
230
1.0
 40
0.0436609429
 41
2.356194490192345
 42
2.592744264804702
  0
ELLIPSE
  5
127
330
1F
100
AcDbEntity
  8
0
  6
Continuous
 62
     7
370
    15
100
AcDbEllipse
 10
105.8833750292
 20
495.4555280178
 30
0.0
 11
0.0
 21
206.1338899358803
 31
0.0
210
0.0
220
0.0
230
1.0
 40
0.0436609429
 41
3.690441042375117
 42
3.926990816987401
  0
LWPOLYLINE
  5
128
330
1F
100
AcDbEntity
  8
0
  6
Continuous
 62
     7
370
    15
100
AcDbPolyline
 90
       10
 70
   128
 43
0.0
 10
112.2473359435
 20
349.696861968
 10
112.4123849302
 20
345.9166161871
 10
112.5729235216
 20
342.2396801567
 10
112.7288408904
 20
338.6685870743
 10
112.8800299346
 20
335.2057807302
 10
113.0263858802
 20
331.8536751127
 10
113.1678076788
 20
328.6145948029
 10
113.3041975415
 20
325.4907600737
 10
113.4354609392
 20
322.4843166924
 10
113.5615079991
 20
319.5973657227
  0
LWPOLYLINE
  5
129
330
1F
100
AcDbEntity
  8
0
  6
Continuous
 62
     7
370
    15
100
AcDbPolyline
 90
       19
 70
   128
 43
0.0
 10
114.8833746417
 20
318.3860950327
 10
114.8822682305
 20
318.3871232128
 10
114.8734178721
 20
318.3952294445
 10
114.8557246058
 20
318.4114419079
 10
114.8292070582
 20
318.4357308006
 10
114.7938913061
 20
318.4680961227
 10
114.7498108773
 20
318.5084931707
 10
114.6970104753
 20
318.5568772411
 10
114.6355413227
 20
318.6132036304
 10
114.5654639556
 20
318.677412734
 10
114.4868472918
 20
318.7494598484
 10
114.3997695624
 20
318.8292406654
 10
114.3043145864
 20
318.9167104816
 10
114.2005773588
 20
319.0117649889
 10
114.088660325
 20
319.1143296814
 10
113.9686733811
 20
319.2242704487
 10
113.8407329424
 20
319.341512785
 10
113.7049666001
 20
319.4659076786
 10
113.5615079991
 20
319.5973657227
  0
LINE
  5
12A
330
1F
100
AcDbEntity
  8
0
  6
Continuous
 62
     7
370
    15
100
AcDbLine
 10
99.5194141149
 20
349.696861968
 30
0.0
 11
99.7333752318
 21
354.5973770475
 31
0.0
  0
LINE
  5
12B
330
1F
100
AcDbEntity
  8
0
  6
Continuous
 62
     7
370
    15
100
AcDbLine
 10
99.7333752318
 20
354.5973770475
 30
0.0
 11
112.0333748265
 21
354.5973770475
 31
0.0
  0
LINE
  5
12C
330
1F
100
AcDbEntity
  8
0
  6
Continuous
 62
     7
370
    15
100
AcDbLine
 10
112.2473359435
 20
349.696861968
 30
0.0
 11
112.0333748265
 21
354.5973770475
 31
0.0
  0
LINE
  5
12D
330
1F
100
AcDbEntity
  8
0
  6
Continuous
 62
     7
370
    15
100
AcDbLine
 10
155.8833757742
 20
241.5973715639
 30
0.0
 11
155.383374761
 21
241.5973715639
 31
0.0
  0
LINE
  5
12E
330
1F
100
AcDbEntity
  8
0
  6
Continuous
 62
     7
370
    15
100
AcDbLine
 10
155.8833757742
 20
241.5973715639
 30
0.0
 11
153.9622919961
 21
197.5973699397
 31
0.0
  0
LINE
  5
12F
330
1F
100
AcDbEntity
  8
0
  6
Continuous
 62
     7
370
    15
100
AcDbLine
 10
55.8833742841
 20
241.5973715639
 30
0.0
 11
57.8044580623
 21
197.5973699397
 31
0.0
  0
LINE
  5
130
330
1F
100
AcDbEntity
  8
0
  6
Continuous
 62
     7
370
    15
100
AcDbLine
 10
55.8833742841
 20
241.5973715639
 30
0.0
 11
56.3833752974
 21
241.5973715639
 31
0.0
  0
LINE
  5
131
330
1F
100
AcDbEntity
  8
0
  6
Continuous
 62
     7
370
    15
100
AcDbLine
 10
73.1885472639
 20
151.5973698503
 30
0.0
 11
138.5782027944
 21
151.5973698503
 31
0.0
  0
SPLINE
  5
132
330
1F
100
AcDbEntity
  8
0
  6
Continuous
 62
     7
370
    15
100
AcDbSpline
210
0.0
220
0.0
230
1.0
 70
     8
 71
     3
 72
     8
 73
     4
 74
     0
 42
0.00000001
 43
0.00000001
 12
1.0
 22
0.0
 32
0.0
 13
1.0
 23
0.0
 33
0.0
 40
0.0
 40
0.0
 40
0.0
 40
0.0
 40
0.00426344474639
 40
0.00426344474639
 40
0.00426344474639
 40
0.00426344474639
 10
130.6004030258454
 20
310.5973698949822
 30
0.0
 10
129.7263822946084
 20
311.5979260870816
 30
0.0
 10
128.8519448837173
 20
312.5979974346511
 30
0.0
 10
127.9769090141998
 20
313.5973698949822
 30
0.0
  0
LINE
  5
133
330
1F
100
AcDbEntity
  8
0
  6
Continuous
 62
     7
370
    15
100
AcDbLine
 10
130.6004023506
 20
307.5973712063
 30
0.0
 11
130.6004023506
 21
310.597377286
 31
0.0
  0
LINE
  5
134
330
1F
100
AcDbEntity
  8
0
  6
Continuous
 62
     7
370
    15
100
AcDbLine
 10
130.6004023506
 20
307.5973712063
 30
0.0
 11
127.7579872265
 21
307.5973712063
 31
0.0
  0
LINE
  5
135
330
1F
100
AcDbEntity
  8
0
  6
Continuous
 62
     7
370
    15
100
AcDbLine
 10
127.7579872265
 20
307.5973712063
 30
0.0
 11
127.7579872265
 21
301.5973739481
 31
0.0
  0
LINE
  5
136
330
1F
100
AcDbEntity
  8
0
  6
Continuous
 62
     7
370
    15
100
AcDbLine
 10
127.7579872265
 20
301.5973739481
 30
0.0
 11
130.6004023506
 21
301.5973739481
 31
0.0
  0
LINE
  5
137
330
1F
100
AcDbEntity
  8
0
  6
Continuous
 62
     7
370
    15
100
AcDbLine
 10
130.6004023506
 20
282.5973726964
 30
0.0
 11
130.6004023506
 21
301.5973739481
 31
0.0
  0
LINE
  5
138
330
1F
100
AcDbEntity
  8
0
  6
Continuous
 62
     7
370
    15
100
AcDbLine
 10
123.8833742543
 20
313.5973684645
 30
0.0
 11
127.9769094988
 21
313.5973684645
 31
0.0
  0
LINE
  5
139
330
1F
100
AcDbEntity
  8
0
  6
Continuous
 62
     7
370
    15
100
AcDbLine
 10
81.1663477077
 20
301.5973739481
 30
0.0
 11
84.0087628319
 21
301.5973739481
 31
0.0
  0
LINE
  5
13A
330
1F
100
AcDbEntity
  8
0
  6
Continuous
 62
     7
370
    15
100
AcDbLine
 10
84.0087628319
 20
301.5973739481
 30
0.0
 11
84.0087628319
 21
307.5973712063
 31
0.0
  0
LINE
  5
13B
330
1F
100
AcDbEntity
  8
0
  6
Continuous
 62
     7
370
    15
100
AcDbLine
 10
84.0087628319
 20
307.5973712063
 30
0.0
 11
81.1663477077
 21
307.5973712063
 31
0.0
  0
LINE
  5
13C
330
1F
100
AcDbEntity
  8
0
  6
Continuous
 62
     7
370
    15
100
AcDbLine
 10
81.1663477077
 20
307.5973712063
 30
0.0
 11
81.1663477077
 21
310.597377286
 31
0.0
  0
SPLINE
  5
13D
330
1F
100
AcDbEntity
  8
0
  6
Continuous
 62
     7
370
    15
100
AcDbSpline
210
0.0
220
0.0
230
1.0
 70
     8
 71
     3
 72
     8
 73
     4
 74
     0
 42
0.00000001
 43
0.00000001
 12
1.0
 22
0.0
 32
0.0
 13
1.0
 23
0.0
 33
0.0
 40
0.0
 40
0.0
 40
0.0
 40
0.0
 40
0.00426344474639
 40
0.00426344474639
 40
0.00426344474639
 40
0.00426344474639
 10
83.78984104414322
 20
313.5973698949822
 30
0.0
 10
82.91480517462574
 20
312.5979974346511
 30
0.0
 10
82.04036776373465
 20
311.5979260870816
 30
0.0
 10
81.16634703249764
 20
310.5973698949822
 30
0.0
  0
LINE
  5
13E
330
1F
100
AcDbEntity
  8
0
  6
Continuous
 62
     7
370
    15
100
AcDbLine
 10
81.1663477077
 20
282.5973726964
 30
0.0
 11
81.1663477077
 21
301.5973739481
 31
0.0
  0
LINE
  5
13F
330
1F
100
AcDbEntity
  8
0
  6
Continuous
 62
     7
370
    15
100
AcDbLine
 10
83.7898405596
 20
313.5973684645
 30
0.0
 11
87.883375804
 21
313.5973684645
 31
0.0
  0
LINE
  5
140
330
1F
100
AcDbEntity
  8
0
  6
Continuous
 62
     8
370
     0
100
AcDbLine
 10
129.7265200271
 20
166.7789317822
 30
0.0
 11
82.0402300312
 21
166.7789317822
 31
0.0
  0
LINE
  5
141
330
1F
100
AcDbEntity
  8
0
  6
Continuous
 62
     8
370
     0
100
AcDbLine
 10
77.0549478336
 20
193.2134501791
 30
0.0
 11
77.0549478336
 21
152.9760793006
 31
0.0
  0
LINE
  5
142
330
1F
100
AcDbEntity
  8
0
  6
Continuous
 62
     8
370
     0
100
AcDbLine
 10
74.2265211745
 20
197.3295066661
 30
0.0
 11
74.2265211745
 21
151.7938621497
 31
0.0
  0
LINE
  5
143
330
1F
100
AcDbEntity
  8
0
  6
Continuous
 62
     8
370
     0
100
AcDbLine
 10
137.5402288838
 20
197.3295066661
 30
0.0
 11
137.5402288838
 21
151.7938621497
 31
0.0
  0
LINE
  5
144
330
1F
100
AcDbEntity
  8
0
  6
Continuous
 62
     8
370
     0
100
AcDbLine
 10
134.7118022247
 20
193.2134501791
 30
0.0
 11
134.7118022247
 21
152.9760793006
 31
0.0
  0
LINE
  5
145
330
1F
100
AcDbEntity
  8
0
  6
Continuous
 62
     8
370
     0
100
AcDbLine
 10
132.5549485489
 20
186.3167373618
 30
0.0
 11
132.5549485489
 21
155.1558993912
 31
0.0
  0
LINE
  5
146
330
1F
100
AcDbEntity
  8
0
  6
Continuous
 62
     8
370
     0
100
AcDbLine
 10
79.2118015095
 20
186.3167373618
 30
0.0
 11
79.2118015095
 21
155.1558993912
 31
0.0
  0
LINE
  5
147
330
1F
100
AcDbEntity
  8
0
  6
Continuous
 62
     8
370
     0
100
AcDbLine
 10
82.0402300312
 20
156.3422329879
 30
0.0
 11
82.0402300312
 21
166.7789317822
 31
0.0
  0
LINE
  5
148
330
1F
100
AcDbEntity
  8
0
  6
Continuous
 62
     8
370
     0
100
AcDbLine
 10
129.7265200271
 20
156.3422329879
 30
0.0
 11
129.7265200271
 21
166.7789317822
 31
0.0
  0
LINE
  5
149
330
1F
100
AcDbEntity
  8
0
  6
Continuous
 62
     8
370
     0
100
AcDbLine
 10
68.3833735391
 20
267.5973721004
 30
0.0
 11
68.3833735391
 21
241.5973715639
 31
0.0
  0
LINE
  5
14A
330
1F
100
AcDbEntity
  8
0
  6
Continuous
 62
     8
370
     0
100
AcDbLine
 10
143.3833765193
 20
267.5973721004
 30
0.0
 11
143.3833765193
 21
241.5973715639
 31
0.0
  0
LINE
  5
14B
330
1F
100
AcDbEntity
  8
FORMAT
  6
CENTERX2
370
     0
100
AcDbLine
 10
167.8389800026
 20
174.597369895
 30
0.0
 11
44.6195822169
 21
174.597369895
 31
0.0
  0
LINE
  5
14C
330
1F
100
AcDbEntity
  8
FORMAT
  6
CENTERX2
370
     0
100
AcDbLine
 10
105.8833750292
 20
148.0748054623
 30
0.0
 11
105.8833750292
 21
357.3223803606
 31
0.0
  0
LINE
  5
14D
330
1F
100
AcDbEntity
  8
0
  6
Continuous
 62
     7
370
    15
100
AcDbLine
 10
302.440027856
 20
241.5973715639
 30
0.0
 11
303.749106974
 21
211.6145365095
 31
0.0
  0
LINE
  5
14E
330
1F
100
AcDbEntity
  8
0
  6
Continuous
 62
     7
370
    15
100
AcDbLine
 10
326.1309491104
 20
211.6145365095
 30
0.0
 11
327.4400282285
 21
241.5973715639
 31
0.0
  0
LINE
  5
14F
330
1F
100
AcDbEntity
  8
0
  6
Continuous
 62
     7
370
    15
100
AcDbLine
 10
283.9967144287
 20
254.9430154419
 30
0.0
 11
280.9400261945
 21
253.1782336688
 31
0.0
  0
LINE
  5
150
330
1F
100
AcDbEntity
  8
0
  6
Continuous
 62
     7
370
    15
100
AcDbLine
 10
348.94002989
 20
253.1782336688
 30
0.0
 11
345.8833416558
 21
254.9430154419
 31
0.0
  0
ARC
  5
151
330
1F
100
AcDbEntity
  8
0
  6
Continuous
 62
     7
370
    15
100
AcDbCircle
 10
329.9400280422
 20
253.597369895
 30
0.0
 40
16.00000000000001
100
AcDbArc
 50
4.8244358216
 51
40.03737313
  0
ARC
  5
152
330
1F
100
AcDbEntity
  8
0
  6
Continuous
 62
     7
370
    15
100
AcDbCircle
 10
299.9400280422
 20
253.597369895
 30
0.0
 40
16.00000000000001
100
AcDbArc
 50
139.96262687
 51
175.1755641784
  0
LINE
  5
153
330
1F
100
AcDbEntity
  8
0
  6
Continuous
 62
     7
370
    15
100
AcDbLine
 10
342.1900273866
 20
263.8899631953
 30
0.0
 11
342.1900273866
 21
282.5973726964
 31
0.0
  0
LINE
  5
154
330
1F
100
AcDbEntity
  8
0
  6
Continuous
 62
     7
370
    15
100
AcDbLine
 10
287.6900286979
 20
282.5973726964
 30
0.0
 11
287.6900286979
 21
263.8899631953
 31
0.0
  0
LINE
  5
155
330
1F
100
AcDbEntity
  8
0
  6
Continuous
 62
     7
370
    15
100
AcDbLine
 10
295.9666682041
 20
291.3037635541
 30
0.0
 11
290.9400278336
 21
282.5973726964
 31
0.0
  0
LINE
  5
156
330
1F
100
AcDbEntity
  8
0
  6
Continuous
 62
     7
370
    15
100
AcDbLine
 10
296.9400288171
 20
313.5973684645
 30
0.0
 11
295.9666682041
 21
291.3037635541
 31
0.0
  0
LINE
  5
157
330
1F
100
AcDbEntity
  8
0
  6
Continuous
 62
     7
370
    15
100
AcDbLine
 10
323.9400276548
 20
313.5973684645
 30
0.0
 11
323.9400276548
 21
318.3860950327
 31
0.0
  0
LINE
  5
158
330
1F
100
AcDbEntity
  8
0
  6
Continuous
 62
     7
370
    15
100
AcDbLine
 10
305.9400284296
 20
318.3860950327
 30
0.0
 11
305.9400284296
 21
313.5973684645
 31
0.0
  0
LINE
  5
159
330
1F
100
AcDbEntity
  8
0
  6
Continuous
 62
     7
370
    15
100
AcDbLine
 10
341.6900282359
 20
310.597377286
 30
0.0
 11
338.6900277442
 21
313.5973684645
 31
0.0
  0
LINE
  5
15A
330
1F
100
AcDbEntity
  8
0
  6
Continuous
 62
     7
370
    15
100
AcDbLine
 10
341.6900282359
 20
307.5973712063
 30
0.0
 11
341.6900282359
 21
310.597377286
 31
0.0
  0
LINE
  5
15B
330
1F
100
AcDbEntity
  8
0
  6
Continuous
 62
     7
370
    15
100
AcDbLine
 10
341.6900282359
 20
282.5973726964
 30
0.0
 11
341.6900282359
 21
301.5973739481
 31
0.0
  0
LINE
  5
15C
330
1F
100
AcDbEntity
  8
0
  6
Continuous
 62
     7
370
    15
100
AcDbLine
 10
338.4400272376
 20
301.5973739481
 30
0.0
 11
338.4400272376
 21
307.5973712063
 31
0.0
  0
LINE
  5
15D
330
1F
100
AcDbEntity
  8
0
  6
Continuous
 62
     7
370
    15
100
AcDbLine
 10
286.9400271779
 20
163.5973699546
 30
0.0
 11
294.7327682382
 21
163.5973699546
 31
0.0
  0
SPLINE
  5
15E
330
1F
100
AcDbEntity
  8
0
  6
Continuous
 62
     7
370
    15
100
AcDbSpline
210
0.0
220
0.0
230
1.0
 70
    24
 71
     3
 72
     9
 73
     5
 74
     0
 42
0.00000001
 43
0.00000001
 12
1.0
 22
0.0
 32
0.0
 13
1.0
 23
0.0
 33
0.0
 40
0.0
 40
0.0
 40
0.0
 40
0.0
 40
0.5
 40
1.0
 40
1.0
 40
1.0
 40
1.0
 10
301.6609718508546
 20
197.5973698949823
 30
0.0
 10
299.4477958189611
 20
193.7640365616489
 30
0.0
 10
295.0214437551739
 20
186.0973698949823
 30
0.0
 10
290.5950916913868
 20
178.4307032283156
 30
0.0
 10
288.3819156594933
 20
174.5973698949822
 30
0.0
  0
SPLINE
  5
15F
330
1F
100
AcDbEntity
  8
0
  6
Continuous
 62
     7
370
    15
100
AcDbSpline
210
0.0
220
0.0
230
1.0
 70
    24
 71
     3
 72
    10
 73
     6
 74
     0
 42
0.00000001
 43
0.00000001
 12
1.0
 22
0.0
 32
0.0
 13
1.0
 23
0.0
 33
0.0
 40
0.0
 40
0.0
 40
0.0
 40
0.0
 40
0.5
 40
0.5
 40
1.0
 40
1.0
 40
1.0
 40
1.0
 10
301.6609718508547
 20
197.5973698949822
 30
0.0
 10
306.0870304150936
 20
197.5973698949822
 30
0.0
 10
310.5135489050439
 20
197.5973698949822
 30
0.0
 10
319.3662879070229
 20
197.5973698949822
 30
0.0
 10
323.7930515900368
 20
197.5973698949822
 30
0.0
 10
328.2190842335773
 20
197.5973698949822
 30
0.0
  0
SPLINE
  5
160
330
1F
100
AcDbEntity
  8
0
  6
Continuous
 62
     7
370
    15
100
AcDbSpline
210
0.0
220
0.0
230
1.0
 70
    24
 71
     3
 72
     9
 73
     5
 74
     0
 42
0.00000001
 43
0.00000001
 12
1.0
 22
0.0
 32
0.0
 13
1.0
 23
0.0
 33
0.0
 40
0.0
 40
0.0
 40
0.0
 40
0.0
 40
0.5
 40
1.0
 40
1.0
 40
1.0
 40
1.0
 10
328.2190842335774
 20
197.5973698949823
 30
0.0
 10
330.432260265471
 20
193.7640365616489
 30
0.0
 10
334.8586123292581
 20
186.0973698949823
 30
0.0
 10
339.2849643930452
 20
178.4307032283156
 30
0.0
 10
341.4981404249388
 20
174.5973698949822
 30
0.0
  0
SPLINE
  5
161
330
1F
100
AcDbEntity
  8
0
  6
Continuous
 62
     7
370
    15
100
AcDbSpline
210
0.0
220
0.0
230
1.0
 70
    24
 71
     3
 72
     9
 73
     5
 74
     0
 42
0.00000001
 43
0.00000001
 12
1.0
 22
0.0
 32
0.0
 13
1.0
 23
0.0
 33
0.0
 40
0.0
 40
0.0
 40
0.0
 40
0.0
 40
0.5
 40
1.0
 40
1.0
 40
1.0
 40
1.0
 10
341.4981404249388
 20
174.5973698949822
 30
0.0
 10
339.2849643930452
 20
170.7640365616489
 30
0.0
 10
334.8586123292581
 20
163.0973698949822
 30
0.0
 10
330.432260265471
 20
155.4307032283155
 30
0.0
 10
328.2190842335774
 20
151.5973698949822
 30
0.0
  0
SPLINE
  5
162
330
1F
100
AcDbEntity
  8
0
  6
Continuous
 62
     7
370
    15
100
AcDbSpline
210
0.0
220
0.0
230
1.0
 70
    24
 71
     3
 72
    10
 73
     6
 74
     0
 42
0.00000001
 43
0.00000001
 12
1.0
 22
0.0
 32
0.0
 13
1.0
 23
0.0
 33
0.0
 40
0.0
 40
0.0
 40
0.0
 40
0.0
 40
0.5
 40
0.5
 40
1.0
 40
1.0
 40
1.0
 40
1.0
 10
328.2190842335773
 20
151.5973698949822
 30
0.0
 10
323.7930515900368
 20
151.5973698949822
 30
0.0
 10
319.3662879070229
 20
151.5973698949822
 30
0.0
 10
310.5135489050439
 20
151.5973698949822
 30
0.0
 10
306.0870304150936
 20
151.5973698949822
 30
0.0
 10
301.6609718508547
 20
151.5973698949822
 30
0.0
  0
SPLINE
  5
163
330
1F
100
AcDbEntity
  8
0
  6
Continuous
 62
     7
370
    15
100
AcDbSpline
210
0.0
220
0.0
230
1.0
 70
    24
 71
     3
 72
     9
 73
     5
 74
     0
 42
0.00000001
 43
0.00000001
 12
1.0
 22
0.0
 32
0.0
 13
1.0
 23
0.0
 33
0.0
 40
0.0
 40
0.0
 40
0.0
 40
0.0
 40
0.5
 40
1.0
 40
1.0
 40
1.0
 40
1.0
 10
288.3819156594933
 20
174.5973698949822
 30
0.0
 10
290.5950916913869
 20
170.7640365616489
 30
0.0
 10
295.0214437551739
 20
163.0973698949822
 30
0.0
 10
299.4477958189611
 20
155.4307032283155
 30
0.0
 10
301.6609718508546
 20
151.5973698949822
 30
0.0
  0
CIRCLE
  5
164
330
1F
100
AcDbEntity
  8
0
  6
Continuous
 62
     7
370
    15
100
AcDbCircle
 10
314.9400280422
 20
174.597369895
 30
0.0
 40
16.60000000000002
  0
CIRCLE
  5
165
330
1F
100
AcDbEntity
  8
0
  6
Continuous
 62
     7
370
    15
100
AcDbCircle
 10
314.9400280422
 20
174.597369895
 30
0.0
 40
12.0
  0
LINE
  5
166
330
1F
100
AcDbEntity
  8
0
  6
Continuous
 62
     7
370
    15
100
AcDbLine
 10
303.1208619109
 20
267.5973721004
 30
0.0
 11
302.440027856
 21
241.5973715639
 31
0.0
  0
LINE
  5
167
330
1F
100
AcDbEntity
  8
0
  6
Continuous
 62
     7
370
    15
100
AcDbLine
 10
303.1208619109
 20
267.5973721004
 30
0.0
 11
326.7591941735
 21
267.5973721004
 31
0.0
  0
LINE
  5
168
330
1F
100
AcDbEntity
  8
0
  6
Continuous
 62
     7
370
    15
100
AcDbLine
 10
326.7591941735
 20
267.5973721004
 30
0.0
 11
327.4400282285
 21
241.5973715639
 31
0.0
  0
LINE
  5
169
330
1F
100
AcDbEntity
  8
0
  6
Continuous
 62
     7
370
    15
100
AcDbLine
 10
318.4400281502
 20
241.5973715639
 30
0.0
 11
327.4400282285
 21
241.5973715639
 31
0.0
  0
LINE
  5
16A
330
1F
100
AcDbEntity
  8
0
  6
Continuous
 62
     7
370
    15
100
AcDbLine
 10
311.4400279342
 20
241.5973715639
 30
0.0
 11
302.440027856
 21
241.5973715639
 31
0.0
  0
LINE
  5
16B
330
1F
100
AcDbEntity
  8
0
  6
Continuous
 62
     7
370
    15
100
AcDbLine
 10
318.4400281502
 20
241.5973715639
 30
0.0
 11
318.4400281502
 21
197.5973699397
 31
0.0
  0
LINE
  5
16C
330
1F
100
AcDbEntity
  8
0
  6
Continuous
 62
     7
370
    15
100
AcDbLine
 10
318.4400281502
 20
241.5973715639
 30
0.0
 11
314.9400280422
 21
241.5973715639
 31
0.0
  0
LINE
  5
16D
330
1F
100
AcDbEntity
  8
0
  6
Continuous
 62
     7
370
    15
100
AcDbLine
 10
314.9400280422
 20
241.5973715639
 30
0.0
 11
311.4400279342
 21
241.5973715639
 31
0.0
  0
LINE
  5
16E
330
1F
100
AcDbEntity
  8
0
  6
Continuous
 62
     7
370
    15
100
AcDbLine
 10
311.4400279342
 20
241.5973715639
 30
0.0
 11
311.4400279342
 21
197.5973699397
 31
0.0
  0
SPLINE
  5
16F
330
1F
100
AcDbEntity
  8
0
  6
Continuous
 62
     7
370
    15
100
AcDbSpline
210
0.0
220
0.0
230
1.0
 70
     8
 71
     3
 72
    16
 73
    12
 74
     0
 42
0.00000001
 43
0.00000001
 12
1.0
 22
0.0
 32
0.0
 13
1.0
 23
0.0
 33
0.0
 40
0.0
 40
0.0
 40
0.0
 40
0.0
 40
0.2499999999999999
 40
0.2499999999999999
 40
0.4999999999999999
 40
0.4999999999999999
 40
0.7499999999999998
 40
0.7499999999999998
 40
0.8749999999999999
 40
0.8749999999999999
 40
1.0
 40
1.0
 40
1.0
 40
1.0
 10
311.4400280422161
 20
214.7171877641726
 30
0.0
 10
310.9500835148361
 20
214.4139677771712
 30
0.0
 10
310.4595082069009
 20
214.1190156815445
 30
0.0
 10
309.505624285765
 20
213.5730173614996
 30
0.0
 10
309.0396444856877
 20
213.3200546313777
 30
0.0
 10
308.1284704594345
 20
212.8688035849312
 30
0.0
 10
307.6808440826474
 20
212.6698174896902
 30
0.0
 10
307.0499113390191
 20
212.4416890531188
 30
0.0
 10
306.8453984217142
 20
212.3769170686164
 30
0.0
 10
306.4481323973695
 20
212.274249600081
 30
0.0
 10
306.2541377494339
 20
212.2362117480959
 30
0.0
 10
306.069434830524
 20
212.2152022199605
 30
0.0
  0
ELLIPSE
  5
170
330
1F
100
AcDbEntity
  8
0
  6
Continuous
 62
     7
370
    15
100
AcDbEllipse
 10
314.9400280422
 20
211.618276866
 30
0.0
 11
11.19100288506763
 21
0.0
 31
0.0
210
0.0
220
0.0
230
1.0
 40
0.0874893018
 41
2.485946252038935
 42
3.893097168254719
  0
ELLIPSE
  5
171
330
1F
100
AcDbEntity
  8
0
  6
Continuous
 62
     7
370
    15
100
AcDbEllipse
 10
314.9400280422
 20
211.618276866
 30
0.0
 11
11.19100288506763
 21
0.0
 31
0.0
210
0.0
220
0.0
230
1.0
 40
0.0874893018
 41
5.531680792514845
 42
6.93883170873043
  0
SPLINE
  5
172
330
1F
100
AcDbEntity
  8
0
  6
Continuous
 62
     7
370
    15
100
AcDbSpline
210
0.0
220
0.0
230
1.0
 70
     8
 71
     3
 72
    16
 73
    12
 74
     0
 42
0.00000001
 43
0.00000001
 12
1.0
 22
0.0
 32
0.0
 13
1.0
 23
0.0
 33
0.0
 40
0.0
 40
0.0
 40
0.0
 40
0.0
 40
0.2499999999999999
 40
0.2499999999999999
 40
0.4999999999999999
 40
0.4999999999999999
 40
0.7499999999999998
 40
0.7499999999999998
 40
0.8749999999999999
 40
0.8749999999999999
 40
1.0
 40
1.0
 40
1.0
 40
1.0
 10
318.4400280422161
 20
214.7171877641726
 30
0.0
 10
318.9299725695959
 20
214.4139677771712
 30
0.0
 10
319.4205478775312
 20
214.1190156815445
 30
0.0
 10
320.3744317986671
 20
213.5730173614996
 30
0.0
 10
320.8404115987443
 20
213.3200546313777
 30
0.0
 10
321.7515856249975
 20
212.8688035849312
 30
0.0
 10
322.1992120017847
 20
212.6698174896902
 30
0.0
 10
322.830144745413
 20
212.4416890531188
 30
0.0
 10
323.034657662718
 20
212.3769170686164
 30
0.0
 10
323.4319236870626
 20
212.274249600081
 30
0.0
 10
323.6259183349982
 20
212.2362117480959
 30
0.0
 10
323.810621253908
 20
212.2152022199605
 30
0.0
  0
ELLIPSE
  5
173
330
1F
100
AcDbEntity
  8
0
  6
Continuous
 62
     7
370
    15
100
AcDbEllipse
 10
314.9400280422
 20
208.3337120074
 30
0.0
 11
30.99999999999994
 21
0.0
 31
0.0
210
0.0
220
0.0
230
1.0
 40
0.0874886635
 41
1.683940804559624
 42
1.837724071741864
  0
ELLIPSE
  5
174
330
1F
100
AcDbEntity
  8
0
  6
Continuous
 62
     7
370
    15
100
AcDbEllipse
 10
314.9400280422
 20
208.3337120074
 30
0.0
 11
30.99999999999994
 21
0.0
 31
0.0
210
0.0
220
0.0
230
1.0
 40
0.0874886635
 41
1.303868581847924
 42
1.457651849030166
  0
LINE
  5
175
330
1F
100
AcDbEntity
  8
0
  6
Continuous
 62
     7
370
    15
100
AcDbLine
 10
281.376637668
 20
231.5973699248
 30
0.0
 11
302.8766374669
 21
231.5973699248
 31
0.0
  0
LINE
  5
176
330
1F
100
AcDbEntity
  8
0
  6
Continuous
 62
     7
370
    15
100
AcDbLine
 10
281.376637668
 20
231.5973699248
 30
0.0
 11
280.9400261945
 21
241.5973715639
 31
0.0
  0
LINE
  5
177
330
1F
100
AcDbEntity
  8
0
  6
Continuous
 62
     7
370
    15
100
AcDbLine
 10
280.9400261945
 20
241.5973715639
 30
0.0
 11
302.440027856
 21
241.5973715639
 31
0.0
  0
LINE
  5
178
330
1F
100
AcDbEntity
  8
0
  6
Continuous
 62
     7
370
    15
100
AcDbLine
 10
327.4400282285
 20
241.5973715639
 30
0.0
 11
348.94002989
 21
241.5973715639
 31
0.0
  0
LINE
  5
179
330
1F
100
AcDbEntity
  8
0
  6
Continuous
 62
     7
370
    15
100
AcDbLine
 10
348.5034184164
 20
231.5973699248
 30
0.0
 11
348.94002989
 21
241.5973715639
 31
0.0
  0
LINE
  5
17A
330
1F
100
AcDbEntity
  8
0
  6
Continuous
 62
     7
370
    15
100
AcDbLine
 10
348.5034184164
 20
231.5973699248
 30
0.0
 11
327.0034186176
 21
231.5973699248
 31
0.0
  0
SPLINE
  5
17B
330
1F
100
AcDbEntity
  8
0
  6
Continuous
 62
     7
370
    15
100
AcDbSpline
210
0.0
220
0.0
230
1.0
 70
    24
 71
     3
 72
     8
 73
     4
 74
     0
 42
0.00000001
 43
0.00000001
 12
1.0
 22
0.0
 32
0.0
 13
1.0
 23
0.0
 33
0.0
 40
0.0
 40
0.0
 40
0.0
 40
0.0
 40
1.0
 40
1.0
 40
1.0
 40
1.0
 10
280.9400280422161
 20
241.5973698949822
 30
0.0
 10
280.9400280422161
 20
244.9309931871452
 30
0.0
 10
280.9400280422161
 20
248.2643943774255
 30
0.0
 10
280.9400280422161
 20
251.5973698949822
 30
0.0
  0
LINE
  5
17C
330
1F
100
AcDbEntity
  8
0
  6
Continuous
 62
     7
370
    15
100
AcDbLine
 10
280.9400261945
 20
251.5973694777
 30
0.0
 11
302.7018868929
 21
251.5973694777
 31
0.0
  0
LINE
  5
17D
330
1F
100
AcDbEntity
  8
0
  6
Continuous
 62
     7
370
    15
100
AcDbLine
 10
327.1781691915
 20
251.5973694777
 30
0.0
 11
348.94002989
 21
251.5973694777
 31
0.0
  0
SPLINE
  5
17E
330
1F
100
AcDbEntity
  8
0
  6
Continuous
 62
     7
370
    15
100
AcDbSpline
210
0.0
220
0.0
230
1.0
 70
    24
 71
     3
 72
     8
 73
     4
 74
     0
 42
0.00000001
 43
0.00000001
 12
1.0
 22
0.0
 32
0.0
 13
1.0
 23
0.0
 33
0.0
 40
0.0
 40
0.0
 40
0.0
 40
0.0
 40
1.0
 40
1.0
 40
1.0
 40
1.0
 10
348.940028042216
 20
251.5973698949822
 30
0.0
 10
348.940028042216
 20
248.2643943774255
 30
0.0
 10
348.940028042216
 20
244.9309931871452
 30
0.0
 10
348.940028042216
 20
241.5973698949822
 30
0.0
  0
SPLINE
  5
17F
330
1F
100
AcDbEntity
  8
0
  6
Continuous
 62
     7
370
    15
100
AcDbSpline
210
0.0
220
0.0
230
1.0
 70
    24
 71
     3
 72
    17
 73
    13
 74
     0
 42
0.00000001
 43
0.00000001
 12
1.0
 22
0.0
 32
0.0
 13
1.0
 23
0.0
 33
0.0
 40
0.0
 40
0.0
 40
0.0
 40
0.0
 40
0.0350412006293999
 40
0.1515230868442423
 40
0.2680356689451018
 40
0.3845424774660121
 40
0.5010163014714697
 40
0.6175506113599107
 40
0.734126743378417
 40
0.8506997043845641
 40
0.9672296613542734
 40
0.9999999999999999
 40
0.9999999999999999
 40
0.9999999999999999
 40
0.9999999999999999
 10
280.9400261944721
 20
251.5973694777497
 30
0.0
 10
280.9400261944721
 20
251.6320853102291
 30
0.0
 10
280.9400261944721
 20
251.7822014593669
 30
0.0
 10
280.9400261944721
 20
252.0289106747032
 30
0.0
 10
280.9400261944721
 20
252.3160964994607
 30
0.0
 10
280.9400261944721
 20
252.5653485697974
 30
0.0
 10
280.9400261944721
 20
252.7750994725581
 30
0.0
 10
280.9400261944721
 20
252.9426893528669
 30
0.0
 10
280.9400261944721
 20
253.0680160893741
 30
0.0
 10
280.940026194472
 20
253.1465886805742
 30
0.0
 10
280.9400261944721
 20
253.1800307862756
 30
0.0
 10
280.9400261944721
 20
253.1756184217454
 30
0.0
 10
280.9400261944721
 20
253.1746499395379
 30
0.0
  0
LINE
  5
180
330
1F
100
AcDbEntity
  8
0
  6
Continuous
 62
     7
370
    15
100
AcDbLine
 10
283.9967144287
 20
254.9430154419
 30
0.0
 11
302.7894964075
 21
254.9430154419
 31
0.0
  0
SPLINE
  5
181
330
1F
100
AcDbEntity
  8
0
  6
Continuous
 62
     7
370
    15
100
AcDbSpline
210
0.0
220
0.0
230
1.0
 70
    24
 71
     3
 72
    18
 73
    14
 74
     0
 42
0.00000001
 43
0.00000001
 12
1.0
 22
0.0
 32
0.0
 13
1.0
 23
0.0
 33
0.0
 40
0.0
 40
0.0
 40
0.0
 40
0.0
 40
0.0120671916109594
 40
0.1283962065062882
 40
0.2447682773300247
 40
0.3611432501374288
 40
0.4774763045567703
 40
0.5749505315473948
 40
0.6724524307648343
 40
0.7699678614823752
 40
0.8674777599537963
 40
0.9649588719233434
 40
0.9999999999999999
 40
0.9999999999999999
 40
0.9999999999999999
 40
0.9999999999999999
 10
348.94002988996
 20
253.1761177039155
 30
0.0
 10
348.94002988996
 20
253.1768102105265
 30
0.0
 10
348.94002988996
 20
253.1841785547687
 30
0.0
 10
348.94002988996
 20
253.1550666021012
 30
0.0
 10
348.94002988996
 20
253.0862113048736
 30
0.0
 10
348.94002988996
 20
252.9686755697814
 30
0.0
 10
348.94002988996
 20
252.8178661057291
 30
0.0
 10
348.94002988996
 20
252.6408224051522
 30
0.0
 10
348.94002988996
 20
252.4462621651894
 30
0.0
 10
348.94002988996
 20
252.2246441063665
 30
0.0
 10
348.94002988996
 20
251.9769476187091
 30
0.0
 10
348.94002988996
 20
251.7633914667215
 30
0.0
 10
348.94002988996
 20
251.6320882700745
 30
0.0
 10
348.94002988996
 20
251.5973694777497
 30
0.0
  0
LINE
  5
182
330
1F
100
AcDbEntity
  8
0
  6
Continuous
 62
     7
370
    15
100
AcDbLine
 10
327.0905596769
 20
254.9430154419
 30
0.0
 11
345.8833416558
 21
254.9430154419
 31
0.0
  0
SPLINE
  5
183
330
1F
100
AcDbEntity
  8
0
  6
Continuous
 62
     7
370
    15
100
AcDbSpline
210
0.0
220
0.0
230
1.0
 70
    24
 71
     3
 72
     8
 73
     4
 74
     0
 42
0.00000001
 43
0.00000001
 12
1.0
 22
0.0
 32
0.0
 13
1.0
 23
0.0
 33
0.0
 40
0.0
 40
0.0
 40
0.0
 40
0.0
 40
1.0
 40
1.0
 40
1.0
 40
1.0
 10
286.9400280422161
 20
230.1066638843267
 30
0.0
 10
285.0894305449852
 20
230.6025299892247
 30
0.0
 10
283.2343578682002
 20
231.0995952148703
 30
0.0
 10
281.3766374713011
 20
231.5973698949822
 30
0.0
  0
LINE
  5
184
330
1F
100
AcDbEntity
  8
0
  6
Continuous
 62
     7
370
    15
100
AcDbLine
 10
286.9400271779
 20
230.1066652095
 30
0.0
 11
302.941722945
 21
230.1066652095
 31
0.0
  0
SPLINE
  5
185
330
1F
100
AcDbEntity
  8
0
  6
Continuous
 62
     7
370
    15
100
AcDbSpline
210
0.0
220
0.0
230
1.0
 70
    24
 71
     3
 72
     8
 73
     4
 74
     0
 42
0.00000001
 43
0.00000001
 12
1.0
 22
0.0
 32
0.0
 13
1.0
 23
0.0
 33
0.0
 40
0.0
 40
0.0
 40
0.0
 40
0.0
 40
1.0
 40
1.0
 40
1.0
 40
1.0
 10
342.9400280422159
 20
230.1066638843267
 30
0.0
 10
344.7906255394469
 20
230.6025299892247
 30
0.0
 10
346.6456982162318
 20
231.0995952148703
 30
0.0
 10
348.5034186131309
 20
231.5973698949822
 30
0.0
  0
LINE
  5
186
330
1F
100
AcDbEntity
  8
0
  6
Continuous
 62
     7
370
    15
100
AcDbLine
 10
342.9400289065
 20
230.1066652095
 30
0.0
 11
326.9383331394
 21
230.1066652095
 31
0.0
  0
LWPOLYLINE
  5
187
330
1F
100
AcDbEntity
  8
0
  6
Continuous
 62
     7
370
    15
100
AcDbPolyline
 90
       12
 70
   128
 43
0.0
 10
291.7808817333
 20
180.487589833
 10
291.4316394931
 20
181.2365426837
 10
290.9015660739
 20
182.3732866129
 10
290.3885619348
 20
183.473428168
 10
289.8929902917
 20
184.5361864349
 10
289.4152031845
 20
185.5608051798
 10
288.9555377519
 20
186.5465589023
 10
288.5143236822
 20
187.4927463165
 10
288.0918720371
 20
188.3986968702
 10
287.688484565
 20
189.2637660882
 10
287.3044443882
 20
190.0873402289
 10
286.9400271779
 20
190.8688344216
  0
LINE
  5
188
330
1F
100
AcDbEntity
  8
0
  6
Continuous
 62
     7
370
    15
100
AcDbLine
 10
286.9400271779
 20
190.8688344216
 30
0.0
 11
286.9400271779
 21
230.1066652095
 31
0.0
  0
LINE
  5
189
330
1F
100
AcDbEntity
  8
0
  6
Continuous
 62
     7
370
    15
100
AcDbLine
 10
342.9400289065
 20
190.8688344216
 30
0.0
 11
342.9400289065
 21
230.1066652095
 31
0.0
  0
LWPOLYLINE
  5
18A
330
1F
100
AcDbEntity
  8
0
  6
Continuous
 62
     7
370
    15
100
AcDbPolyline
 90
       12
 70
   128
 43
0.0
 10
338.0991743511
 20
180.487589833
 10
338.4484165913
 20
181.2365426837
 10
338.9784900105
 20
182.3732866129
 10
339.4914941496
 20
183.473428168
 10
339.9870657927
 20
184.5361864349
 10
340.4648528999
 20
185.5608051798
 10
340.9245183325
 20
186.5465589023
 10
341.3657324022
 20
187.4927463165
 10
341.7881840474
 20
188.3986968702
 10
342.1915715194
 20
189.2637660882
 10
342.5756116963
 20
190.0873402289
 10
342.9400289065
 20
190.8688344216
  0
LINE
  5
18B
330
1F
100
AcDbEntity
  8
0
  6
Continuous
 62
     7
370
    15
100
AcDbLine
 10
342.1900273866
 20
263.8899631953
 30
0.0
 11
326.85627617
 21
263.8899631953
 31
0.0
  0
LINE
  5
18C
330
1F
100
AcDbEntity
  8
0
  6
Continuous
 62
     7
370
    15
100
AcDbLine
 10
303.0237799144
 20
263.8899631953
 30
0.0
 11
287.6900286979
 21
263.8899631953
 31
0.0
  0
LINE
  5
18D
330
1F
100
AcDbEntity
  8
0
  6
Continuous
 62
     7
370
    15
100
AcDbLine
 10
342.1900273866
 20
282.5973726964
 30
0.0
 11
287.6900286979
 21
282.5973726964
 31
0.0
  0
LINE
  5
18E
330
1F
100
AcDbEntity
  8
0
  6
Continuous
 62
     7
370
    15
100
AcDbLine
 10
298.6489200598
 20
301.5973739481
 30
0.0
 11
304.7110970697
 21
301.5973739481
 31
0.0
  0
LINE
  5
18F
330
1F
100
AcDbEntity
  8
0
  6
Continuous
 62
     7
370
    15
100
AcDbLine
 10
304.7110970697
 20
282.5973726964
 30
0.0
 11
304.7110970697
 21
301.5973739481
 31
0.0
  0
LINE
  5
190
330
1F
100
AcDbEntity
  8
0
  6
Continuous
 62
     7
370
    15
100
AcDbLine
 10
298.6489200598
 20
282.5973726964
 30
0.0
 11
298.6489200598
 21
301.5973739481
 31
0.0
  0
LINE
  5
191
330
1F
100
AcDbEntity
  8
0
  6
Continuous
 62
     7
370
    15
100
AcDbLine
 10
298.6489200598
 20
307.5973712063
 30
0.0
 11
298.6489200598
 21
310.597377286
 31
0.0
  0
LINE
  5
192
330
1F
100
AcDbEntity
  8
0
  6
Continuous
 62
     7
370
    15
100
AcDbLine
 10
304.7110970697
 20
310.597377286
 30
0.0
 11
298.6489200598
 21
310.597377286
 31
0.0
  0
LINE
  5
193
330
1F
100
AcDbEntity
  8
0
  6
Continuous
 62
     7
370
    15
100
AcDbLine
 10
304.7110970697
 20
307.5973712063
 30
0.0
 11
304.7110970697
 21
310.597377286
 31
0.0
  0
LINE
  5
194
330
1F
100
AcDbEntity
  8
0
  6
Continuous
 62
     7
370
    15
100
AcDbLine
 10
304.7110970697
 20
307.5973712063
 30
0.0
 11
298.6489200598
 21
307.5973712063
 31
0.0
  0
LINE
  5
195
330
1F
100
AcDbEntity
  8
0
  6
Continuous
 62
     7
370
    15
100
AcDbLine
 10
300.1635942242
 20
313.5973684645
 30
0.0
 11
306.2257721654
 21
313.5973684645
 31
0.0
  0
SPLINE
  5
196
330
1F
100
AcDbEntity
  8
0
  6
Continuous
 62
     7
370
    15
100
AcDbSpline
210
0.0
220
0.0
230
1.0
 70
     8
 71
     3
 72
     8
 73
     4
 74
     0
 42
0.00000001
 43
0.00000001
 12
1.0
 22
0.0
 32
0.0
 13
1.0
 23
0.0
 33
0.0
 40
0.0
 40
0.0
 40
0.0
 40
0.0
 40
0.00426344474639
 40
0.00426344474639
 40
0.00426344474639
 40
0.00426344474639
 10
306.2257721329372
 20
313.5973698949822
 30
0.0
 10
305.7205699381207
 20
312.5979974346511
 30
0.0
 10
305.2157132635533
 20
311.5979260870816
 30
0.0
 10
304.7110971590962
 20
310.5973698949822
 30
0.0
  0
SPLINE
  5
197
330
1F
100
AcDbEntity
  8
0
  6
Continuous
 62
     7
370
    15
100
AcDbSpline
210
0.0
220
0.0
230
1.0
 70
     8
 71
     3
 72
     8
 73
     4
 74
     0
 42
0.00000001
 43
0.00000001
 12
1.0
 22
0.0
 32
0.0
 13
1.0
 23
0.0
 33
0.0
 40
0.0
 40
0.0
 40
0.0
 40
0.0
 40
0.00426344474639
 40
0.00426344474639
 40
0.00426344474639
 40
0.00426344474639
 10
298.6489193326052
 20
310.5973698949822
 30
0.0
 10
299.1535354370622
 20
311.5979260870816
 30
0.0
 10
299.6583921116297
 20
312.5979974346511
 30
0.0
 10
300.1635943064461
 20
313.5973698949822
 30
0.0
  0
LINE
  5
198
330
1F
100
AcDbEntity
  8
0
  6
Continuous
 62
     7
370
    15
100
AcDbLine
 10
306.3521666086
 20
301.5973739481
 30
0.0
 11
306.3521666086
 21
307.5973712063
 31
0.0
  0
LINE
  5
199
330
1F
100
AcDbEntity
  8
0
  6
Continuous
 62
     7
370
    15
100
AcDbLine
 10
306.2257721654
 20
313.5973684645
 30
0.0
 11
309.1428951925
 21
313.5973684645
 31
0.0
  0
LINE
  5
19A
330
1F
100
AcDbEntity
  8
0
  6
Continuous
 62
     7
370
    15
100
AcDbLine
 10
308.6472448527
 20
291.3037635541
 30
0.0
 11
309.1428951925
 21
313.5973684645
 31
0.0
  0
SPLINE
  5
19B
330
1F
100
AcDbEntity
  8
0
  6
Continuous
 62
     7
370
    15
100
AcDbSpline
210
0.0
220
0.0
230
1.0
 70
     8
 71
     3
 72
     8
 73
     4
 74
     0
 42
0.00000001
 43
0.00000001
 12
1.0
 22
0.0
 32
0.0
 13
1.0
 23
0.0
 33
0.0
 40
0.0
 40
0.0
 40
0.0
 40
0.0
 40
1.0
 40
1.0
 40
1.0
 40
1.0
 10
306.0994068848778
 20
282.5973698949822
 30
0.0
 10
306.9468579690852
 20
285.5016419656248
 30
0.0
 10
307.7956415494536
 20
288.4043542707969
 30
0.0
 10
308.6472446303663
 20
291.3037661840262
 30
0.0
  0
LINE
  5
19C
330
1F
100
AcDbEntity
  8
0
  6
Continuous
 62
     7
370
    15
100
AcDbLine
 10
304.7110970697
 20
301.5973739481
 30
0.0
 11
306.3521666086
 21
301.5973739481
 31
0.0
  0
LINE
  5
19D
330
1F
100
AcDbEntity
  8
0
  6
Continuous
 62
     7
370
    15
100
AcDbLine
 10
306.3521666086
 20
307.5973712063
 30
0.0
 11
304.7110970697
 21
307.5973712063
 31
0.0
  0
LINE
  5
19E
330
1F
100
AcDbEntity
  8
0
  6
Continuous
 62
     7
370
    15
100
AcDbLine
 10
333.5877732939
 20
291.3037635541
 30
0.0
 11
308.6472448527
 21
291.3037635541
 31
0.0
  0
SPLINE
  5
19F
330
1F
100
AcDbEntity
  8
0
  6
Continuous
 62
     7
370
    15
100
AcDbSpline
210
0.0
220
0.0
230
1.0
 70
     8
 71
     3
 72
     8
 73
     4
 74
     0
 42
0.00000001
 43
0.00000001
 12
1.0
 22
0.0
 32
0.0
 13
1.0
 23
0.0
 33
0.0
 40
0.0
 40
0.0
 40
0.0
 40
0.0
 40
1.0
 40
1.0
 40
1.0
 40
1.0
 10
333.5877726924065
 20
291.3037661840262
 30
0.0
 10
335.2909699373389
 20
288.4043694502545
 30
0.0
 10
336.9885464587239
 20
285.5016412052352
 30
0.0
 10
338.6834481833835
 20
282.5973698949822
 30
0.0
  0
LINE
  5
1A0
330
1F
100
AcDbEntity
  8
0
  6
Continuous
 62
     7
370
    15
100
AcDbLine
 10
300.2899886674
 20
307.5973712063
 30
0.0
 11
300.2899886674
 21
301.5973739481
 31
0.0
  0
LWPOLYLINE
  5
1A1
330
1F
100
AcDbEntity
  8
0
  6
Continuous
 62
     7
370
    15
100
AcDbPolyline
 90
        3
 70
   128
 43
0.0
 10
332.5964716828
 20
313.5973684645
 10
333.4564270085
 20
294.2600868797
 10
333.5877732939
 20
291.3037635541
  0
LINE
  5
1A2
330
1F
100
AcDbEntity
  8
0
  6
Continuous
 62
     7
370
    15
100
AcDbLine
 10
332.5964716828
 20
313.5973684645
 30
0.0
 11
309.1428951925
 21
313.5973684645
 31
0.0
  0
LINE
  5
1A3
330
1F
100
AcDbEntity
  8
0
  6
Continuous
 62
     7
370
    15
100
AcDbLine
 10
298.6489200598
 20
291.3037635541
 30
0.0
 11
295.9666682041
 21
291.3037635541
 31
0.0
  0
LINE
  5
1A4
330
1F
100
AcDbEntity
  8
0
  6
Continuous
 62
     7
370
    15
100
AcDbLine
 10
300.1607853553
 20
313.5973684645
 30
0.0
 11
296.9400288171
 21
313.5973684645
 31
0.0
  0
LINE
  5
1A5
330
1F
100
AcDbEntity
  8
0
  6
Continuous
 62
     7
370
    15
100
AcDbLine
 10
344.440028221
 20
215.5089400864
 30
0.0
 11
342.9400289065
 21
215.5089400864
 31
0.0
  0
LINE
  5
1A6
330
1F
100
AcDbEntity
  8
0
  6
Continuous
 62
     7
370
    15
100
AcDbLine
 10
344.440028221
 20
215.6333796835
 30
0.0
 11
344.440028221
 21
215.5089400864
 31
0.0
  0
LINE
  5
1A7
330
1F
100
AcDbEntity
  8
0
  6
Continuous
 62
     7
370
    15
100
AcDbLine
 10
344.440028221
 20
219.6244955218
 30
0.0
 11
344.440028221
 21
215.6333796835
 31
0.0
  0
LWPOLYLINE
  5
1A8
330
1F
100
AcDbEntity
  8
0
  6
Continuous
 62
     7
370
    15
100
AcDbPolyline
 90
       19
 70
   128
 43
0.0
 10
307.2618950723
 20
319.5973657227
 10
307.1184364712
 20
319.4659076786
 10
306.982670129
 20
319.341512785
 10
306.8547296903
 20
319.2242704487
 10
306.7347427464
 20
319.1143296814
 10
306.6228257126
 20
319.0117649889
 10
306.519088485
 20
318.9167104816
 10
306.423633509
 20
318.8292406654
 10
306.3365557796
 20
318.7494598484
 10
306.2579391158
 20
318.677412734
 10
306.1878617487
 20
318.6132036304
 10
306.1263925961
 20
318.5568772411
 10
306.073592194
 20
318.5084931707
 10
306.0295117653
 20
318.4680961227
 10
305.9941960132
 20
318.4357308006
 10
305.9676784656
 20
318.4114419079
 10
305.9499851993
 20
318.3952294445
 10
305.9411348409
 20
318.3871232128
 10
305.9400284296
 20
318.3860950327
  0
LWPOLYLINE
  5
1A9
330
1F
100
AcDbEntity
  8
0
  6
Continuous
 62
     7
370
    15
100
AcDbPolyline
 90
       10
 70
   128
 43
0.0
 10
307.2618950723
 20
319.5973657227
 10
307.3879421322
 20
322.4843166924
 10
307.5192055299
 20
325.4907600737
 10
307.6555953926
 20
328.6145948029
 10
307.7970171912
 20
331.8536751127
 10
307.9433731368
 20
335.2057807302
 10
308.094562181
 20
338.6685870743
 10
308.2504795498
 20
342.2396801567
 10
308.4110181412
 20
345.9166161871
 10
308.5760671279
 20
349.696861968
  0
ELLIPSE
  5
1AA
330
1F
100
AcDbEntity
  8
0
  6
Continuous
 62
     7
370
    15
100
AcDbEllipse
 10
314.9400280422
 20
495.4555280178
 30
0.0
 11
0.0
 21
206.1338899358803
 31
0.0
210
0.0
220
0.0
230
1.0
 40
0.0436609429
 41
2.356194490192345
 42
2.592744264804702
  0
ELLIPSE
  5
1AB
330
1F
100
AcDbEntity
  8
0
  6
Continuous
 62
     7
370
    15
100
AcDbEllipse
 10
314.9400280422
 20
326.6330825228
 30
0.0
 11
9.0
 21
0.0
 31
0.0
210
0.0
220
0.0
230
1.0
 40
0.916331174
 41
4.163540591599618
 42
5.261237369169788
  0
ELLIPSE
  5
1AC
330
1F
100
AcDbEntity
  8
0
  6
Continuous
 62
     7
370
    15
100
AcDbEllipse
 10
314.9400280422
 20
495.4555280178
 30
0.0
 11
0.0
 21
206.1338899358803
 31
0.0
210
0.0
220
0.0
230
1.0
 40
0.0436609429
 41
3.690441042375117
 42
3.926990816987401
  0
LWPOLYLINE
  5
1AD
330
1F
100
AcDbEntity
  8
0
  6
Continuous
 62
     7
370
    15
100
AcDbPolyline
 90
       10
 70
   128
 43
0.0
 10
321.3039889565
 20
349.696861968
 10
321.4690379432
 20
345.9166161871
 10
321.6295765346
 20
342.2396801567
 10
321.7854939035
 20
338.6685870743
 10
321.9366829476
 20
335.2057807302
 10
322.0830388932
 20
331.8536751127
 10
322.2244606918
 20
328.6145948029
 10
322.3608505546
 20
325.4907600737
 10
322.4921139522
 20
322.4843166924
 10
322.6181610121
 20
319.5973657227
  0
LWPOLYLINE
  5
1AE
330
1F
100
AcDbEntity
  8
0
  6
Continuous
 62
     7
370
    15
100
AcDbPolyline
 90
       19
 70
   128
 43
0.0
 10
323.9400276548
 20
318.3860950327
 10
323.9389212436
 20
318.3871232128
 10
323.9300708851
 20
318.3952294445
 10
323.9123776189
 20
318.4114419079
 10
323.8858600712
 20
318.4357308006
 10
323.8505443192
 20
318.4680961227
 10
323.8064638904
 20
318.5084931707
 10
323.7536634883
 20
318.5568772411
 10
323.6921943358
 20
318.6132036304
 10
323.6221169687
 20
318.677412734
 10
323.5435003048
 20
318.7494598484
 10
323.4564225754
 20
318.8292406654
 10
323.3609675995
 20
318.9167104816
 10
323.2572303719
 20
319.0117649889
 10
323.1453133381
 20
319.1143296814
 10
323.0253263942
 20
319.2242704487
 10
322.8973859555
 20
319.341512785
 10
322.7616196132
 20
319.4659076786
 10
322.6181610121
 20
319.5973657227
  0
LINE
  5
1AF
330
1F
100
AcDbEntity
  8
0
  6
Continuous
 62
     7
370
    15
100
AcDbLine
 10
310.2446819289
 20
319.5973657227
 30
0.0
 11
319.6353741555
 21
319.5973657227
 31
0.0
  0
LINE
  5
1B0
330
1F
100
AcDbEntity
  8
0
  6
Continuous
 62
     7
370
    15
100
AcDbLine
 10
344.440028221
 20
219.7489388442
 30
0.0
 11
342.9400289065
 21
219.7489388442
 31
0.0
  0
LINE
  5
1B1
330
1F
100
AcDbEntity
  8
0
  6
Continuous
 62
     7
370
    15
100
AcDbLine
 10
344.440028221
 20
219.8389381325
 30
0.0
 11
344.440028221
 21
219.7489388442
 31
0.0
  0
LINE
  5
1B2
330
1F
100
AcDbEntity
  8
0
  6
Continuous
 62
     7
370
    15
100
AcDbLine
 10
344.440028221
 20
221.2589368379
 30
0.0
 11
344.440028221
 21
219.8389381325
 31
0.0
  0
LINE
  5
1B3
330
1F
100
AcDbEntity
  8
0
  6
Continuous
 62
     7
370
    15
100
AcDbLine
 10
344.440028221
 20
224.058939532
 30
0.0
 11
344.440028221
 21
222.6389371014
 31
0.0
  0
LINE
  5
1B4
330
1F
100
AcDbEntity
  8
0
  6
Continuous
 62
     7
370
    15
100
AcDbLine
 10
344.440028221
 20
221.3489398515
 30
0.0
 11
342.9400289065
 21
221.3489398515
 31
0.0
  0
LINE
  5
1B5
330
1F
100
AcDbEntity
  8
0
  6
Continuous
 62
     7
370
    15
100
AcDbLine
 10
344.440028221
 20
221.3489398515
 30
0.0
 11
344.440028221
 21
221.2589368379
 31
0.0
  0
LINE
  5
1B6
330
1F
100
AcDbEntity
  8
0
  6
Continuous
 62
     7
370
    15
100
AcDbLine
 10
344.440028221
 20
224.1489388204
 30
0.0
 11
342.9400289065
 21
224.1489388204
 31
0.0
  0
LINE
  5
1B7
330
1F
100
AcDbEntity
  8
0
  6
Continuous
 62
     7
370
    15
100
AcDbLine
 10
344.440028221
 20
224.1489388204
 30
0.0
 11
344.440028221
 21
224.058939532
 31
0.0
  0
LINE
  5
1B8
330
1F
100
AcDbEntity
  8
0
  6
Continuous
 62
     7
370
    15
100
AcDbLine
 10
344.440028221
 20
222.548937813
 30
0.0
 11
342.9400289065
 21
222.548937813
 31
0.0
  0
LINE
  5
1B9
330
1F
100
AcDbEntity
  8
0
  6
Continuous
 62
     7
370
    15
100
AcDbLine
 10
344.440028221
 20
222.6389371014
 30
0.0
 11
344.440028221
 21
222.548937813
 31
0.0
  0
LINE
  5
1BA
330
1F
100
AcDbEntity
  8
0
  6
Continuous
 62
     7
370
    15
100
AcDbLine
 10
344.440028221
 20
219.6244955218
 30
0.0
 11
344.440028221
 21
219.7489388442
 31
0.0
  0
LINE
  5
1BB
330
1F
100
AcDbEntity
  8
0
  6
Continuous
 62
     7
370
    15
100
AcDbLine
 10
308.5760671279
 20
349.696861968
 30
0.0
 11
308.7900282449
 21
354.5973770475
 31
0.0
  0
LINE
  5
1BC
330
1F
100
AcDbEntity
  8
0
  6
Continuous
 62
     7
370
    15
100
AcDbLine
 10
308.7900282449
 20
354.5973770475
 30
0.0
 11
321.0900278396
 21
354.5973770475
 31
0.0
  0
LINE
  5
1BD
330
1F
100
AcDbEntity
  8
0
  6
Continuous
 62
     7
370
    15
100
AcDbLine
 10
321.3039889565
 20
349.696861968
 30
0.0
 11
321.0900278396
 21
354.5973770475
 31
0.0
  0
LINE
  5
1BE
330
1F
100
AcDbEntity
  8
0
  6
Continuous
 62
     7
370
    15
100
AcDbLine
 10
344.440028221
 20
222.4933788335
 30
0.0
 11
344.440028221
 21
222.548937813
 31
0.0
  0
LINE
  5
1BF
330
1F
100
AcDbEntity
  8
0
  6
Continuous
 62
     7
370
    15
100
AcDbLine
 10
344.440028221
 20
222.4933788335
 30
0.0
 11
344.440028221
 21
221.3489398515
 31
0.0
  0
SPLINE
  5
1C0
330
1F
100
AcDbEntity
  8
0
  6
Continuous
 62
     7
370
    15
100
AcDbSpline
210
0.0
220
0.0
230
1.0
 70
     8
 71
     3
 72
     8
 73
     4
 74
     0
 42
0.00000001
 43
0.00000001
 12
1.0
 22
0.0
 32
0.0
 13
1.0
 23
0.0
 33
0.0
 40
0.0
 40
0.0
 40
0.0
 40
0.0
 40
0.00426344474639
 40
0.00426344474639
 40
0.00426344474639
 40
0.00426344474639
 10
341.4600676349467
 20
310.5973698949822
 30
0.0
 10
340.4508354260326
 20
311.5979260870816
 30
0.0
 10
339.4411220768977
 20
312.5979974346511
 30
0.0
 10
338.4307176872647
 20
313.5973698949822
 30
0.0
  0
LINE
  5
1C1
330
1F
100
AcDbEntity
  8
0
  6
Continuous
 62
     7
370
    15
100
AcDbLine
 10
341.4600679285
 20
307.5973712063
 30
0.0
 11
341.4600679285
 21
310.597377286
 31
0.0
  0
LINE
  5
1C2
330
1F
100
AcDbEntity
  8
0
  6
Continuous
 62
     7
370
    15
100
AcDbLine
 10
341.4600679285
 20
307.5973712063
 30
0.0
 11
338.1779288507
 21
307.5973712063
 31
0.0
  0
LINE
  5
1C3
330
1F
100
AcDbEntity
  8
0
  6
Continuous
 62
     7
370
    15
100
AcDbLine
 10
338.1779288507
 20
307.5973712063
 30
0.0
 11
338.1779288507
 21
301.5973739481
 31
0.0
  0
LINE
  5
1C4
330
1F
100
AcDbEntity
  8
0
  6
Continuous
 62
     7
370
    15
100
AcDbLine
 10
338.1779288507
 20
301.5973739481
 30
0.0
 11
341.4600679285
 21
301.5973739481
 31
0.0
  0
LINE
  5
1C5
330
1F
100
AcDbEntity
  8
0
  6
Continuous
 62
     7
370
    15
100
AcDbLine
 10
341.4600679285
 20
282.5973726964
 30
0.0
 11
341.4600679285
 21
301.5973739481
 31
0.0
  0
LINE
  5
1C6
330
1F
100
AcDbEntity
  8
0
  6
Continuous
 62
     7
370
    15
100
AcDbLine
 10
332.5964716828
 20
313.5973684645
 30
0.0
 11
338.4307177371
 21
313.5973684645
 31
0.0
  0
LINE
  5
1C7
330
1F
100
AcDbEntity
  8
0
  6
Continuous
 62
     7
370
    15
100
AcDbLine
 10
341.6900282359
 20
310.597377286
 30
0.0
 11
341.4600679285
 21
310.597377286
 31
0.0
  0
LINE
  5
1C8
330
1F
100
AcDbEntity
  8
0
  6
Continuous
 62
     7
370
    15
100
AcDbLine
 10
338.4307177371
 20
313.5973684645
 30
0.0
 11
338.6900277442
 21
313.5973684645
 31
0.0
  0
LINE
  5
1C9
330
1F
100
AcDbEntity
  8
0
  6
Continuous
 62
     7
370
    15
100
AcDbLine
 10
341.6900282359
 20
307.5973712063
 30
0.0
 11
341.4600679285
 21
307.5973712063
 31
0.0
  0
LINE
  5
1CA
330
1F
100
AcDbEntity
  8
0
  6
Continuous
 62
     7
370
    15
100
AcDbLine
 10
341.4600679285
 20
301.5973739481
 30
0.0
 11
341.6900282359
 21
301.5973739481
 31
0.0
  0
LINE
  5
1CB
330
1F
100
AcDbEntity
  8
0
  6
Continuous
 62
     7
370
    15
100
AcDbLine
 10
286.9400271779
 20
190.8688344216
 30
0.0
 11
286.9400271779
 21
174.597369895
 31
0.0
  0
LINE
  5
1CC
330
1F
100
AcDbEntity
  8
0
  6
Continuous
 62
     7
370
    15
100
AcDbLine
 10
286.9400271779
 20
174.597369895
 30
0.0
 11
286.9400271779
 21
163.5973699546
 31
0.0
  0
LINE
  5
1CD
330
1F
100
AcDbEntity
  8
0
  6
Continuous
 62
     8
370
     0
100
AcDbLine
 10
311.4400279342
 20
212.2152023172
 30
0.0
 11
306.0694347701
 21
212.2152023172
 31
0.0
  0
LINE
  5
1CE
330
1F
100
AcDbEntity
  8
0
  6
Continuous
 62
     8
370
     0
100
AcDbLine
 10
318.4400281502
 20
212.2152023172
 30
0.0
 11
323.8106213144
 21
212.2152023172
 31
0.0
  0
LINE
  5
1CF
330
1F
100
AcDbEntity
  8
0
  6
Continuous
 62
     8
370
     0
100
AcDbLine
 10
344.440028221
 20
215.6333796835
 30
0.0
 11
342.9400289065
 21
215.6333796835
 31
0.0
  0
LINE
  5
1D0
330
1F
100
AcDbEntity
  8
0
  6
Continuous
 62
     8
370
     0
100
AcDbLine
 10
344.440028221
 20
219.6244955218
 30
0.0
 11
342.9400289065
 21
219.6244955218
 31
0.0
  0
LINE
  5
1D1
330
1F
100
AcDbEntity
  8
0
  6
Continuous
 62
     8
370
     0
100
AcDbLine
 10
344.440028221
 20
219.8389381325
 30
0.0
 11
342.9400289065
 21
219.8389381325
 31
0.0
  0
LINE
  5
1D2
330
1F
100
AcDbEntity
  8
0
  6
Continuous
 62
     8
370
     0
100
AcDbLine
 10
344.440028221
 20
221.2589368379
 30
0.0
 11
342.9400289065
 21
221.2589368379
 31
0.0
  0
LINE
  5
1D3
330
1F
100
AcDbEntity
  8
0
  6
Continuous
 62
     8
370
     0
100
AcDbLine
 10
344.440028221
 20
222.6389371014
 30
0.0
 11
342.9400289065
 21
222.6389371014
 31
0.0
  0
LINE
  5
1D4
330
1F
100
AcDbEntity
  8
0
  6
Continuous
 62
     8
370
     0
100
AcDbLine
 10
344.440028221
 20
224.058939532
 30
0.0
 11
342.9400289065
 21
224.058939532
 31
0.0
  0
LINE
  5
1D5
330
1F
100
AcDbEntity
  8
0
  6
Continuous
 62
     8
370
     0
100
AcDbLine
 10
344.440028221
 20
222.4933788335
 30
0.0
 11
342.9400289065
 21
222.4933788335
 31
0.0
  0
LINE
  5
1D6
330
1F
100
AcDbEntity
  8
0
  6
Continuous
 62
     8
370
     0
100
AcDbLine
 10
286.9400271779
 20
174.597369895
 30
0.0
 11
288.3819156891
 21
174.597369895
 31
0.0
  0
INSERT
  5
1E2
330
1F
100
AcDbEntity
  8
FORMAT
100
AcDbBlockReference
  2
SW_CENTERMARKSYMBOL_0
 10
314.9400280422
 20
174.597369895
 30
0.0
  0
ARC
  5
1E3
330
1F
100
AcDbEntity
  8
0
  6
Continuous
 62
     7
370
    15
100
AcDbCircle
 10
74.2265207797
 20
70.820781797
 30
0.0
 40
3.999999999999986
100
AcDbArc
 50
57.0578651433
 51
90.0
  0
ARC
  5
1E4
330
1F
100
AcDbEntity
  8
0
  6
Continuous
 62
     7
370
    15
100
AcDbCircle
 10
137.5402292787
 20
70.820781797
 30
0.0
 40
3.999999999999986
100
AcDbArc
 50
90.0
 51
122.9421348567
  0
ARC
  5
1E5
330
1F
100
AcDbEntity
  8
0
  6
Continuous
 62
     7
370
    15
100
AcDbCircle
 10
137.5402292787
 20
32.820781797
 30
0.0
 40
3.999999999999996
100
AcDbArc
 50
237.0578651434
 51
270.0
  0
ARC
  5
1E6
330
1F
100
AcDbEntity
  8
0
  6
Continuous
 62
     7
370
    15
100
AcDbCircle
 10
74.2265207797
 20
32.820781797
 30
0.0
 40
3.999999999999996
100
AcDbArc
 50
270.0
 51
302.9421348566
  0
LINE
  5
1E7
330
1F
100
AcDbEntity
  8
0
  6
Continuous
 62
     7
370
    15
100
AcDbLine
 10
48.9052573546
 20
78.3788941501
 30
0.0
 11
48.3833739861
 21
68.4207815377
 31
0.0
  0
LINE
  5
1E8
330
1F
100
AcDbEntity
  8
0
  6
Continuous
 62
     7
370
    15
100
AcDbLine
 10
48.3833739861
 20
35.2207820562
 30
0.0
 11
48.9052573546
 21
25.2626694439
 31
0.0
  0
LINE
  5
1E9
330
1F
100
AcDbEntity
  8
0
  6
Continuous
 62
     7
370
    15
100
AcDbLine
 10
162.8614927038
 20
25.2626694439
 30
0.0
 11
163.3833760723
 21
35.2207820562
 31
0.0
  0
LINE
  5
1EA
330
1F
100
AcDbEntity
  8
0
  6
Continuous
 62
     7
370
    15
100
AcDbLine
 10
163.3833760723
 20
68.4207815377
 30
0.0
 11
162.8614927038
 21
78.3788941501
 31
0.0
  0
LINE
  5
1EB
330
1F
100
AcDbEntity
  8
0
  6
Continuous
 62
     7
370
    15
100
AcDbLine
 10
138.3833738371
 20
74.8207818417
 30
0.0
 11
137.5402288838
 21
74.8207818417
 31
0.0
  0
LINE
  5
1EC
330
1F
100
AcDbEntity
  8
0
  6
Continuous
 62
     7
370
    15
100
AcDbLine
 10
74.2265211745
 20
74.8207818417
 30
0.0
 11
73.3833762213
 21
74.8207818417
 31
0.0
  0
LINE
  5
1ED
330
1F
100
AcDbEntity
  8
0
  6
Continuous
 62
     7
370
    15
100
AcDbLine
 10
137.5402288838
 20
28.8207817523
 30
0.0
 11
138.3833738371
 21
28.8207817523
 31
0.0
  0
LINE
  5
1EE
330
1F
100
AcDbEntity
  8
0
  6
Continuous
 62
     7
370
    15
100
AcDbLine
 10
73.3833762213
 20
28.8207817523
 30
0.0
 11
74.2265211745
 21
28.8207817523
 31
0.0
  0
LINE
  5
1EF
330
1F
100
AcDbEntity
  8
0
  6
Continuous
 62
     7
370
    15
100
AcDbLine
 10
73.3833762213
 20
74.8207818417
 30
0.0
 11
69.8252620502
 21
78.3788941501
 31
0.0
  0
LINE
  5
1F0
330
1F
100
AcDbEntity
  8
0
  6
Continuous
 62
     7
370
    15
100
AcDbLine
 10
141.9414880081
 20
78.3788941501
 30
0.0
 11
138.3833738371
 21
74.8207818417
 31
0.0
  0
LINE
  5
1F1
330
1F
100
AcDbEntity
  8
0
  6
Continuous
 62
     7
370
    15
100
AcDbLine
 10
69.8252620502
 20
25.2626694439
 30
0.0
 11
73.3833762213
 21
28.8207817523
 31
0.0
  0
LINE
  5
1F2
330
1F
100
AcDbEntity
  8
0
  6
Continuous
 62
     7
370
    15
100
AcDbLine
 10
138.3833738371
 20
28.8207817523
 30
0.0
 11
141.9414880081
 21
25.2626694439
 31
0.0
  0
LINE
  5
1F3
330
1F
100
AcDbEntity
  8
0
  6
Continuous
 62
     7
370
    15
100
AcDbLine
 10
132.8833757295
 20
77.1190028338
 30
0.0
 11
132.8833757295
 21
79.8207826612
 31
0.0
  0
LINE
  5
1F4
330
1F
100
AcDbEntity
  8
0
  6
Continuous
 62
     7
370
    15
100
AcDbLine
 10
113.5615079991
 20
47.1254356837
 30
0.0
 11
113.5615079991
 21
56.5161279103
 31
0.0
  0
ARC
  5
1F5
330
1F
100
AcDbEntity
  8
0
  6
Continuous
 62
     7
370
    15
100
AcDbCircle
 10
105.8833750292
 20
51.820781797
 30
0.0
 40
9.000000000000007
100
AcDbArc
 50
315.0
 51
328.5533037301
  0
LINE
  5
1F6
330
1F
100
AcDbEntity
  8
0
  6
Continuous
 62
     7
370
    15
100
AcDbLine
 10
112.2473359435
 20
45.4568208827
 30
0.0
 11
112.0333748265
 21
45.6707819996
 31
0.0
  0
LINE
  5
1F7
330
1F
100
AcDbEntity
  8
0
  6
Continuous
 62
     7
370
    15
100
AcDbLine
 10
112.0333748265
 20
45.6707819996
 30
0.0
 11
112.0333748265
 21
57.9707815943
 31
0.0
  0
LINE
  5
1F8
330
1F
100
AcDbEntity
  8
0
  6
Continuous
 62
     7
370
    15
100
AcDbLine
 10
112.2473359435
 20
58.1847427113
 30
0.0
 11
112.0333748265
 21
57.9707815943
 31
0.0
  0
ARC
  5
1F9
330
1F
100
AcDbEntity
  8
0
  6
Continuous
 62
     7
370
    15
100
AcDbCircle
 10
105.8833750292
 20
51.820781797
 30
0.0
 40
9.000000000000002
100
AcDbArc
 50
31.4466962699
 51
45.0
  0
LINE
  5
1FA
330
1F
100
AcDbEntity
  8
0
  6
Continuous
 62
     7
370
    15
100
AcDbLine
 10
98.2052420593
 20
56.5161279103
 30
0.0
 11
98.2052420593
 21
47.1254356837
 31
0.0
  0
ARC
  5
1FB
330
1F
100
AcDbEntity
  8
0
  6
Continuous
 62
     7
370
    15
100
AcDbCircle
 10
105.8833750292
 20
51.820781797
 30
0.0
 40
9.000000000000002
100
AcDbArc
 50
135.0
 51
148.5533037301
  0
LINE
  5
1FC
330
1F
100
AcDbEntity
  8
0
  6
Continuous
 62
     7
370
    15
100
AcDbLine
 10
99.5194141149
 20
58.1847427113
 30
0.0
 11
99.7333752318
 21
57.9707815943
 31
0.0
  0
LINE
  5
1FD
330
1F
100
AcDbEntity
  8
0
  6
Continuous
 62
     7
370
    15
100
AcDbLine
 10
99.7333752318
 20
57.9707815943
 30
0.0
 11
99.7333752318
 21
45.6707819996
 31
0.0
  0
LINE
  5
1FE
330
1F
100
AcDbEntity
  8
0
  6
Continuous
 62
     7
370
    15
100
AcDbLine
 10
99.5194141149
 20
45.4568208827
 30
0.0
 11
99.7333752318
 21
45.6707819996
 31
0.0
  0
ARC
  5
1FF
330
1F
100
AcDbEntity
  8
0
  6
Continuous
 62
     7
370
    15
100
AcDbCircle
 10
105.8833750292
 20
51.820781797
 30
0.0
 40
8.999999999999996
100
AcDbArc
 50
211.4466962699
 51
225.0
  0
LINE
  5
200
330
1F
100
AcDbEntity
  8
0
  6
Continuous
 62
     7
370
    15
100
AcDbLine
 10
99.7333752318
 20
45.6707819996
 30
0.0
 11
112.0333748265
 21
45.6707819996
 31
0.0
  0
LINE
  5
201
330
1F
100
AcDbEntity
  8
0
  6
Continuous
 62
     7
370
    15
100
AcDbLine
 10
112.0333748265
 20
57.9707815943
 30
0.0
 11
99.7333752318
 21
57.9707815943
 31
0.0
  0
LINE
  5
202
330
1F
100
AcDbEntity
  8
0
  6
Continuous
 62
     7
370
    15
100
AcDbLine
 10
110.5787211425
 20
59.4989147669
 30
0.0
 11
101.1880289159
 21
59.4989147669
 31
0.0
  0
ARC
  5
203
330
1F
100
AcDbEntity
  8
0
  6
Continuous
 62
     7
370
    15
100
AcDbCircle
 10
105.8833750292
 20
51.820781797
 30
0.0
 40
9.000000000000002
100
AcDbArc
 50
45.0
 51
58.5533037301
  0
ARC
  5
204
330
1F
100
AcDbEntity
  8
0
  6
Continuous
 62
     7
370
    15
100
AcDbCircle
 10
105.8833750292
 20
51.820781797
 30
0.0
 40
9.0
100
AcDbArc
 50
121.4466962699
 51
135.0
  0
LINE
  5
205
330
1F
100
AcDbEntity
  8
0
  6
Continuous
 62
     7
370
    15
100
AcDbLine
 10
101.1880289159
 20
44.1426488271
 30
0.0
 11
110.5787211425
 21
44.1426488271
 31
0.0
  0
ARC
  5
206
330
1F
100
AcDbEntity
  8
0
  6
Continuous
 62
     7
370
    15
100
AcDbCircle
 10
105.8833750292
 20
51.820781797
 30
0.0
 40
9.0
100
AcDbArc
 50
225.0
 51
238.5533037301
  0
ARC
  5
207
330
1F
100
AcDbEntity
  8
0
  6
Continuous
 62
     7
370
    15
100
AcDbCircle
 10
105.8833750292
 20
51.820781797
 30
0.0
 40
9.000000000000007
100
AcDbArc
 50
301.4466962699
 51
315.0
  0
ARC
  5
208
330
1F
100
AcDbEntity
  8
0
  6
Continuous
 62
     7
370
    15
100
AcDbCircle
 10
105.8833750292
 20
51.820781797
 30
0.0
 40
9.0
100
AcDbArc
 50
58.5533037301
 51
121.4466962699
  0
ARC
  5
209
330
1F
100
AcDbEntity
  8
0
  6
Continuous
 62
     7
370
    15
100
AcDbCircle
 10
105.8833750292
 20
51.820781797
 30
0.0
 40
9.000000000000002
100
AcDbArc
 50
328.5533037301
 51
31.4466962699
  0
ARC
  5
20A
330
1F
100
AcDbEntity
  8
0
  6
Continuous
 62
     7
370
    15
100
AcDbCircle
 10
105.8833750292
 20
51.820781797
 30
0.0
 40
9.000000000000002
100
AcDbArc
 50
148.5533037301
 51
211.4466962699
  0
ARC
  5
20B
330
1F
100
AcDbEntity
  8
0
  6
Continuous
 62
     7
370
    15
100
AcDbCircle
 10
105.8833750292
 20
51.820781797
 30
0.0
 40
9.0
100
AcDbArc
 50
238.5533037301
 51
301.4466962699
  0
ARC
  5
20C
330
1F
100
AcDbEntity
  8
0
  6
Continuous
 62
     7
370
    15
100
AcDbCircle
 10
105.8833750292
 20
51.820781797
 30
0.0
 40
23.74999999999999
100
AcDbArc
 50
261.525546637
 51
278.474453363
  0
LINE
  5
20D
330
1F
100
AcDbEntity
  8
0
  6
Continuous
 62
     7
370
    15
100
AcDbLine
 10
102.3833749211
 20
34.1643381564
 30
0.0
 11
102.3833749211
 21
28.3300921021
 31
0.0
  0
ARC
  5
20E
330
1F
100
AcDbEntity
  8
0
  6
Continuous
 62
     7
370
    15
100
AcDbCircle
 10
105.8833750292
 20
51.820781797
 30
0.0
 40
18.0
100
AcDbArc
 50
161.2122714176
 51
258.7877285824
  0
LINE
  5
20F
330
1F
100
AcDbEntity
  8
0
  6
Continuous
 62
     7
370
    15
100
AcDbLine
 10
83.7898405596
 20
60.5350376738
 30
0.0
 11
88.8424462034
 21
57.6179146467
 31
0.0
  0
ARC
  5
210
330
1F
100
AcDbEntity
  8
0
  6
Continuous
 62
     7
370
    15
100
AcDbCircle
 10
105.8833750292
 20
51.820781797
 30
0.0
 40
23.74999999999999
100
AcDbArc
 50
141.525546637
 51
158.474453363
  0
LINE
  5
211
330
1F
100
AcDbEntity
  8
0
  6
Continuous
 62
     7
370
    15
100
AcDbLine
 10
92.3424467771
 20
63.6800925879
 30
0.0
 11
87.2898402019
 21
66.597215615
 31
0.0
  0
ARC
  5
212
330
1F
100
AcDbEntity
  8
0
  6
Continuous
 62
     7
370
    15
100
AcDbCircle
 10
105.8833750292
 20
51.820781797
 30
0.0
 40
18.0
100
AcDbArc
 50
41.2122714176
 51
138.7877285824
  0
LINE
  5
213
330
1F
100
AcDbEntity
  8
0
  6
Continuous
 62
     7
370
    15
100
AcDbLine
 10
124.4769098564
 20
66.597215615
 30
0.0
 11
119.4243032812
 21
63.6800925879
 31
0.0
  0
ARC
  5
214
330
1F
100
AcDbEntity
  8
0
  6
Continuous
 62
     7
370
    15
100
AcDbCircle
 10
105.8833750292
 20
51.820781797
 30
0.0
 40
23.75
100
AcDbArc
 50
21.525546637
 51
38.474453363
  0
LINE
  5
215
330
1F
100
AcDbEntity
  8
0
  6
Continuous
 62
     7
370
    15
100
AcDbLine
 10
122.9243038549
 20
57.6179146467
 30
0.0
 11
127.9769094988
 21
60.5350376738
 31
0.0
  0
ARC
  5
216
330
1F
100
AcDbEntity
  8
0
  6
Continuous
 62
     7
370
    15
100
AcDbCircle
 10
105.8833750292
 20
51.820781797
 30
0.0
 40
18.00000000000001
100
AcDbArc
 50
281.2122714176
 51
18.7877285823
  0
LINE
  5
217
330
1F
100
AcDbEntity
  8
0
  6
Continuous
 62
     7
370
    15
100
AcDbLine
 10
109.3833751372
 20
28.3300921021
 30
0.0
 11
109.3833751372
 21
34.1643381564
 31
0.0
  0
SPLINE
  5
218
330
1F
100
AcDbEntity
  8
0
  6
Continuous
 62
     7
370
    15
100
AcDbSpline
210
0.0
220
0.0
230
1.0
 70
    24
 71
     3
 72
     8
 73
     4
 74
     0
 42
0.00000001
 43
0.00000001
 12
1.0
 22
0.0
 32
0.0
 13
1.0
 23
0.0
 33
0.0
 40
0.0
 40
0.0
 40
0.0
 40
0.0
 40
0.00426344474639
 40
0.00426344474639
 40
0.00426344474639
 40
0.00426344474639
 10
124.4769090141998
 20
66.59721553273616
 30
0.0
 10
125.3519448837173
 20
67.10241772755263
 30
0.0
 10
126.2263822946084
 20
67.6072744021201
 30
0.0
 10
127.1004030258454
 20
68.1118905065771
 30
0.0
  0
ARC
  5
219
330
1F
100
AcDbEntity
  8
0
  6
Continuous
 62
     7
370
    15
100
AcDbCircle
 10
105.8833750292
 20
51.820781797
 30
0.0
 40
26.75000000000001
100
AcDbArc
 50
22.4817997988
 51
37.5182002012
  0
SPLINE
  5
21A
330
1F
100
AcDbEntity
  8
0
  6
Continuous
 62
     7
370
    15
100
AcDbSpline
210
0.0
220
0.0
230
1.0
 70
    24
 71
     3
 72
     8
 73
     4
 74
     0
 42
0.00000001
 43
0.00000001
 12
1.0
 22
0.0
 32
0.0
 13
1.0
 23
0.0
 33
0.0
 40
0.0
 40
0.0
 40
0.0
 40
0.0
 40
0.00426344474639
 40
0.00426344474639
 40
0.00426344474639
 40
0.00426344474639
 10
130.6004030258454
 20
62.049712680086
 30
0.0
 10
129.7263822946084
 20
61.545096575629
 30
0.0
 10
128.8519448837173
 20
61.04023990106155
 30
0.0
 10
127.9769090141998
 20
60.53503770624506
 30
0.0
  0
ARC
  5
21B
330
1F
100
AcDbEntity
  8
0
  6
Continuous
 62
     7
370
    15
100
AcDbCircle
 10
105.8833750292
 20
51.820781797
 30
0.0
 40
18.97335975884889
100
AcDbArc
 50
40.6301856582
 51
139.3698143418
  0
SPLINE
  5
21C
330
1F
100
AcDbEntity
  8
0
  6
Continuous
 62
     7
370
    15
100
AcDbSpline
210
0.0
220
0.0
230
1.0
 70
    24
 71
     3
 72
     8
 73
     4
 74
     0
 42
0.00000001
 43
0.00000001
 12
1.0
 22
0.0
 32
0.0
 13
1.0
 23
0.0
 33
0.0
 40
0.0
 40
0.0
 40
0.0
 40
0.0
 40
0.00426344474639
 40
0.00426344474639
 40
0.00426344474639
 40
0.00426344474639
 10
83.78984104414322
 20
60.53503770624521
 30
0.0
 10
82.91480517462574
 20
61.04023990106171
 30
0.0
 10
82.04036776373465
 20
61.54509657562916
 30
0.0
 10
81.16634703249764
 20
62.04971268008617
 30
0.0
  0
ARC
  5
21D
330
1F
100
AcDbEntity
  8
0
  6
Continuous
 62
     7
370
    15
100
AcDbCircle
 10
105.8833750292
 20
51.820781797
 30
0.0
 40
26.75
100
AcDbArc
 50
142.4817997988
 51
157.5182002012
  0
SPLINE
  5
21E
330
1F
100
AcDbEntity
  8
0
  6
Continuous
 62
     7
370
    15
100
AcDbSpline
210
0.0
220
0.0
230
1.0
 70
    24
 71
     3
 72
     8
 73
     4
 74
     0
 42
0.00000001
 43
0.00000001
 12
1.0
 22
0.0
 32
0.0
 13
1.0
 23
0.0
 33
0.0
 40
0.0
 40
0.0
 40
0.0
 40
0.0
 40
0.00426344474639
 40
0.00426344474639
 40
0.00426344474639
 40
0.00426344474639
 10
84.66634703249764
 20
68.11189050657724
 30
0.0
 10
85.54036776373465
 20
67.60727440212024
 30
0.0
 10
86.41480517462574
 20
67.10241772755278
 30
0.0
 10
87.28984104414323
 20
66.59721553273629
 30
0.0
  0
ARC
  5
21F
330
1F
100
AcDbEntity
  8
0
  6
Continuous
 62
     7
370
    15
100
AcDbCircle
 10
105.8833750292
 20
51.820781797
 30
0.0
 40
18.97335975884888
100
AcDbArc
 50
160.6301856582
 51
259.3698143418
  0
ARC
  5
220
330
1F
100
AcDbEntity
  8
0
  6
Continuous
 62
     7
370
    15
100
AcDbCircle
 10
105.8833750292
 20
51.820781797
 30
0.0
 40
18.97335975884889
100
AcDbArc
 50
280.6301856582
 51
19.3698143418
  0
ARC
  5
221
330
1F
100
AcDbEntity
  8
0
  6
Continuous
 62
     7
370
    15
100
AcDbCircle
 10
105.8833750292
 20
51.820781797
 30
0.0
 40
26.75
100
AcDbArc
 50
262.4817997988
 51
277.5182002012
  0
SPLINE
  5
222
330
1F
100
AcDbEntity
  8
0
  6
Continuous
 62
     7
370
    15
100
AcDbSpline
210
0.0
220
0.0
230
1.0
 70
    24
 71
     3
 72
     8
 73
     4
 74
     0
 42
0.00000001
 43
0.00000001
 12
1.0
 22
0.0
 32
0.0
 13
1.0
 23
0.0
 33
0.0
 40
0.0
 40
0.0
 40
0.0
 40
0.0
 40
0.00426344474639
 40
0.00426344474639
 40
0.00426344474639
 40
0.00426344474639
 10
102.3833750291712
 20
25.30074220423578
 30
0.0
 10
102.3833750291712
 20
26.30997441314978
 30
0.0
 10
102.3833750291712
 20
27.31968776228469
 30
0.0
 10
102.3833750291712
 20
28.33009215191768
 30
0.0
  0
SPLINE
  5
223
330
1F
100
AcDbEntity
  8
0
  6
Continuous
 62
     7
370
    15
100
AcDbSpline
210
0.0
220
0.0
230
1.0
 70
    24
 71
     3
 72
     8
 73
     4
 74
     0
 42
0.00000001
 43
0.00000001
 12
1.0
 22
0.0
 32
0.0
 13
1.0
 23
0.0
 33
0.0
 40
0.0
 40
0.0
 40
0.0
 40
0.0
 40
0.00426344474639
 40
0.00426344474639
 40
0.00426344474639
 40
0.00426344474639
 10
109.3833750291712
 20
28.3300921519176
 30
0.0
 10
109.3833750291712
 20
27.31968776228462
 30
0.0
 10
109.3833750291712
 20
26.30997441314971
 30
0.0
 10
109.3833750291712
 20
25.30074220423571
 30
0.0
  0
ARC
  5
224
330
1F
100
AcDbEntity
  8
0
  6
Continuous
 62
     7
370
    15
100
AcDbCircle
 10
105.8833750292
 20
51.820781797
 30
0.0
 40
24.00000000000001
100
AcDbArc
 50
38.3855386471
 51
141.6144613529
  0
ARC
  5
225
330
1F
100
AcDbEntity
  8
0
  6
Continuous
 62
     7
370
    15
100
AcDbCircle
 10
105.8833750292
 20
51.820781797
 30
0.0
 40
24.00000000000001
100
AcDbArc
 50
158.3855386471
 51
261.6144613529
  0
ARC
  5
226
330
1F
100
AcDbEntity
  8
0
  6
Continuous
 62
     7
370
    15
100
AcDbCircle
 10
105.8833750292
 20
51.820781797
 30
0.0
 40
24.00000000000003
100
AcDbArc
 50
278.3855386471
 51
21.6144613529
  0
CIRCLE
  5
227
330
1F
100
AcDbEntity
  8
0
  6
Continuous
 62
     7
370
    15
100
AcDbCircle
 10
105.8833750292
 20
51.820781797
 30
0.0
 40
27.24999999999999
  0
LINE
  5
228
330
1F
100
AcDbEntity
  8
0
  6
Continuous
 62
     7
370
    15
100
AcDbLine
 10
143.3833765193
 20
63.6399479283
 30
0.0
 11
130.4367820128
 21
63.6399479283
 31
0.0
  0
SPLINE
  5
229
330
1F
100
AcDbEntity
  8
0
  6
Continuous
 62
     7
370
    15
100
AcDbSpline
210
0.0
220
0.0
230
1.0
 70
     8
 71
     3
 72
    14
 73
    10
 74
     0
 42
0.00000001
 43
0.00000001
 12
1.0
 22
0.0
 32
0.0
 13
1.0
 23
0.0
 33
0.0
 40
0.0
 40
0.0
 40
0.0
 40
0.0
 40
0.25
 40
0.25
 40
0.5
 40
0.5
 40
0.75
 40
0.75
 40
1.0
 40
1.0
 40
1.0
 40
1.0
 10
134.3412950258596
 20
63.97131377825637
 30
0.0
 10
134.2739652852338
 20
63.94943721049739
 30
0.0
 10
134.1366662416448
 20
63.92803028274817
 30
0.0
 10
133.7286725354369
 20
63.88611179017551
 30
0.0
 10
133.4579557042627
 20
63.86560037414934
 30
0.0
 10
132.7789161347586
 20
63.82550116484067
 30
0.0
 10
132.3792100205497
 20
63.80643214047932
 30
0.0
 10
131.4687559051974
 20
63.77027391641546
 30
0.0
 10
130.9575692948791
 20
63.75316261622313
 30
0.0
 10
130.3898137072294
 20
63.73702966777649
 30
0.0
  0
SPLINE
  5
22A
330
1F
100
AcDbEntity
  8
0
  6
Continuous
 62
     7
370
    15
100
AcDbSpline
210
0.0
220
0.0
230
1.0
 70
     8
 71
     3
 72
     8
 73
     4
 74
     0
 42
0.00000001
 43
0.00000001
 12
1.0
 22
0.0
 32
0.0
 13
1.0
 23
0.0
 33
0.0
 40
0.0
 40
0.0
 40
0.0
 40
0.0
 40
1.0
 40
1.0
 40
1.0
 40
1.0
 10
140.5232205604538
 20
64.05892258127449
 30
0.0
 10
138.4676998624235
 20
64.02947290025521
 30
0.0
 10
136.4080558520173
 20
64.00022188833717
 30
0.0
 10
134.3412950258596
 20
63.97131377825637
 30
0.0
  0
LINE
  5
22B
330
1F
100
AcDbEntity
  8
0
  6
Continuous
 62
     7
370
    15
100
AcDbLine
 10
140.7079363569
 20
64.3207819832
 30
0.0
 11
140.5232215627
 21
64.0589229462
 31
0.0
  0
LINE
  5
22C
330
1F
100
AcDbEntity
  8
0
  6
Continuous
 62
     7
370
    15
100
AcDbLine
 10
143.3833765193
 20
64.3207819832
 30
0.0
 11
140.7079363569
 21
64.3207819832
 31
0.0
  0
ARC
  5
22D
330
1F
100
AcDbEntity
  8
0
  6
Continuous
 62
     7
370
    15
100
AcDbCircle
 10
143.3833750292
 20
51.820781797
 30
0.0
 40
11.81916603920114
100
AcDbArc
 50
270.0
 51
90.0
  0
ARC
  5
22E
330
1F
100
AcDbEntity
  8
0
  6
Continuous
 62
     7
370
    15
100
AcDbCircle
 10
143.3833750292
 20
51.820781797
 30
0.0
 40
12.50000000000003
100
AcDbArc
 50
16.2602047083
 51
90.0
  0
ARC
  5
22F
330
1F
100
AcDbEntity
  8
0
  6
Continuous
 62
     7
370
    15
100
AcDbCircle
 10
143.3833750292
 20
51.820781797
 30
0.0
 40
12.5
100
AcDbArc
 50
0.0
 51
16.2602047083
  0
ARC
  5
230
330
1F
100
AcDbEntity
  8
0
  6
Continuous
 62
     7
370
    15
100
AcDbCircle
 10
143.3833750292
 20
51.820781797
 30
0.0
 40
12.5
100
AcDbArc
 50
343.7397952917
 51
0.0
  0
ARC
  5
231
330
1F
100
AcDbEntity
  8
0
  6
Continuous
 62
     7
370
    15
100
AcDbCircle
 10
143.3833750292
 20
51.820781797
 30
0.0
 40
12.50000000000003
100
AcDbArc
 50
270.0
 51
343.7397952917
  0
ARC
  5
232
330
1F
100
AcDbEntity
  8
0
  6
Continuous
 62
     7
370
    15
100
AcDbCircle
 10
68.3833750292
 20
51.820781797
 30
0.0
 40
11.81916603920114
100
AcDbArc
 50
90.0
 51
270.0
  0
ARC
  5
233
330
1F
100
AcDbEntity
  8
0
  6
Continuous
 62
     7
370
    15
100
AcDbCircle
 10
68.3833750292
 20
51.820781797
 30
0.0
 40
12.50000000000001
100
AcDbArc
 50
196.2602047083
 51
270.0
  0
ARC
  5
234
330
1F
100
AcDbEntity
  8
0
  6
Continuous
 62
     7
370
    15
100
AcDbCircle
 10
68.3833750292
 20
51.820781797
 30
0.0
 40
12.5
100
AcDbArc
 50
180.0
 51
196.2602047083
  0
ARC
  5
235
330
1F
100
AcDbEntity
  8
0
  6
Continuous
 62
     7
370
    15
100
AcDbCircle
 10
68.3833750292
 20
51.820781797
 30
0.0
 40
12.49999999999999
100
AcDbArc
 50
163.7397952917
 51
180.0
  0
ARC
  5
236
330
1F
100
AcDbEntity
  8
0
  6
Continuous
 62
     7
370
    15
100
AcDbCircle
 10
68.3833750292
 20
51.820781797
 30
0.0
 40
12.50000000000001
100
AcDbArc
 50
90.0
 51
163.7397952917
  0
SPLINE
  5
237
330
1F
100
AcDbEntity
  8
0
  6
Continuous
 62
     7
370
    15
100
AcDbSpline
210
0.0
220
0.0
230
1.0
 70
     8
 71
     3
 72
    14
 73
    10
 74
     0
 42
0.00000001
 43
0.00000001
 12
1.0
 22
0.0
 32
0.0
 13
1.0
 23
0.0
 33
0.0
 40
0.0
 40
0.0
 40
0.0
 40
0.0
 40
0.25
 40
0.25
 40
0.5
 40
0.5
 40
0.75
 40
0.75
 40
1.0
 40
1.0
 40
1.0
 40
1.0
 10
81.37693635111357
 20
63.73702966777649
 30
0.0
 10
80.80919546529942
 20
63.75316219846598
 30
0.0
 10
80.29825046277466
 20
63.77026649113131
 30
0.0
 10
79.38845622352855
 20
63.80639300425094
 30
0.0
 10
78.98955918595088
 20
63.82541440684571
 30
0.0
 10
78.31044575978275
 20
63.86548780536831
 30
0.0
 10
78.03856871512306
 20
63.88606758297149
 30
0.0
 10
77.63011302540647
 20
63.92802103037691
 30
0.0
 10
77.49278420395315
 20
63.94943739542576
 30
0.0
 10
77.42545503248333
 20
63.97131377825637
 30
0.0
  0
LINE
  5
238
330
1F
100
AcDbEntity
  8
0
  6
Continuous
 62
     7
370
    15
100
AcDbLine
 10
81.3299680456
 20
63.6399479283
 30
0.0
 11
68.3833735391
 21
63.6399479283
 31
0.0
  0
LINE
  5
239
330
1F
100
AcDbEntity
  8
0
  6
Continuous
 62
     7
370
    15
100
AcDbLine
 10
71.0588137015
 20
64.3207819832
 30
0.0
 11
68.3833735391
 21
64.3207819832
 31
0.0
  0
LINE
  5
23A
330
1F
100
AcDbEntity
  8
0
  6
Continuous
 62
     7
370
    15
100
AcDbLine
 10
71.2435284956
 20
64.0589229462
 30
0.0
 11
71.0588137015
 21
64.3207819832
 31
0.0
  0
SPLINE
  5
23B
330
1F
100
AcDbEntity
  8
0
  6
Continuous
 62
     7
370
    15
100
AcDbSpline
210
0.0
220
0.0
230
1.0
 70
     8
 71
     3
 72
     8
 73
     4
 74
     0
 42
0.00000001
 43
0.00000001
 12
1.0
 22
0.0
 32
0.0
 13
1.0
 23
0.0
 33
0.0
 40
0.0
 40
0.0
 40
0.0
 40
0.0
 40
1.0
 40
1.0
 40
1.0
 40
1.0
 10
77.42545503248331
 20
63.97131377825637
 30
0.0
 10
75.35869420632568
 20
64.00022188833717
 30
0.0
 10
73.29905019591942
 20
64.02947290025521
 30
0.0
 10
71.24352949788916
 20
64.05892258127449
 30
0.0
  0
SPLINE
  5
23C
330
1F
100
AcDbEntity
  8
0
  6
Continuous
 62
     7
370
    15
100
AcDbSpline
210
0.0
220
0.0
230
1.0
 70
     8
 71
     3
 72
    14
 73
    10
 74
     0
 42
0.00000001
 43
0.00000001
 12
1.0
 22
0.0
 32
0.0
 13
1.0
 23
0.0
 33
0.0
 40
0.0
 40
0.0
 40
0.0
 40
0.0
 40
0.25
 40
0.25
 40
0.5
 40
0.5
 40
0.75
 40
0.75
 40
1.0
 40
1.0
 40
1.0
 40
1.0
 10
130.3898137072294
 20
39.90453392615624
 30
0.0
 10
130.9575545930435
 20
39.88840139546674
 30
0.0
 10
131.4684995955683
 20
39.87129710280142
 30
0.0
 10
132.3782938348144
 20
39.83517058968179
 30
0.0
 10
132.7771908723921
 20
39.81614918708702
 30
0.0
 10
133.4563042985602
 20
39.77607578856442
 30
0.0
 10
133.7281813432199
 20
39.75549601096124
 30
0.0
 10
134.1366370329364
 20
39.71354256355582
 30
0.0
 10
134.2739658543898
 20
39.69212619850697
 30
0.0
 10
134.3412950258596
 20
39.67024981567637
 30
0.0
  0
LINE
  5
23D
330
1F
100
AcDbEntity
  8
0
  6
Continuous
 62
     7
370
    15
100
AcDbLine
 10
130.4367820128
 20
40.0016156656
 30
0.0
 11
143.3833765193
 21
40.0016156656
 31
0.0
  0
LINE
  5
23E
330
1F
100
AcDbEntity
  8
0
  6
Continuous
 62
     7
370
    15
100
AcDbLine
 10
140.7079363569
 20
39.3207816107
 30
0.0
 11
143.3833765193
 21
39.3207816107
 31
0.0
  0
LINE
  5
23F
330
1F
100
AcDbEntity
  8
0
  6
Continuous
 62
     7
370
    15
100
AcDbLine
 10
140.5232215627
 20
39.5826406477
 30
0.0
 11
140.7079363569
 21
39.3207816107
 31
0.0
  0
SPLINE
  5
240
330
1F
100
AcDbEntity
  8
0
  6
Continuous
 62
     7
370
    15
100
AcDbSpline
210
0.0
220
0.0
230
1.0
 70
     8
 71
     3
 72
     8
 73
     4
 74
     0
 42
0.00000001
 43
0.00000001
 12
1.0
 22
0.0
 32
0.0
 13
1.0
 23
0.0
 33
0.0
 40
0.0
 40
0.0
 40
0.0
 40
0.0
 40
1.0
 40
1.0
 40
1.0
 40
1.0
 10
134.3412950258596
 20
39.67024981567637
 30
0.0
 10
136.4080558520173
 20
39.64134170559556
 30
0.0
 10
138.4676998624235
 20
39.61209069367753
 30
0.0
 10
140.5232205604538
 20
39.58264101265824
 30
0.0
  0
LINE
  5
241
330
1F
100
AcDbEntity
  8
0
  6
Continuous
 62
     7
370
    15
100
AcDbLine
 10
68.3833735391
 20
40.0016156656
 30
0.0
 11
81.3299680456
 21
40.0016156656
 31
0.0
  0
SPLINE
  5
242
330
1F
100
AcDbEntity
  8
0
  6
Continuous
 62
     7
370
    15
100
AcDbSpline
210
0.0
220
0.0
230
1.0
 70
     8
 71
     3
 72
    14
 73
    10
 74
     0
 42
0.00000001
 43
0.00000001
 12
1.0
 22
0.0
 32
0.0
 13
1.0
 23
0.0
 33
0.0
 40
0.0
 40
0.0
 40
0.0
 40
0.0
 40
0.25
 40
0.25
 40
0.5
 40
0.5
 40
0.75
 40
0.75
 40
1.0
 40
1.0
 40
1.0
 40
1.0
 10
77.42545503248331
 20
39.67024981567637
 30
0.0
 10
77.4927847731091
 20
39.69212638343533
 30
0.0
 10
77.63008381669812
 20
39.71353331118456
 30
0.0
 10
78.0380775229061
 20
39.75545180375723
 30
0.0
 10
78.30879435408022
 20
39.77596321978339
 30
0.0
 10
78.98783392358429
 20
39.81606242909204
 30
0.0
 10
79.38754003779323
 20
39.83513145345341
 30
0.0
 10
80.29799415314552
 20
39.87128967751727
 30
0.0
 10
80.80918076346383
 20
39.8884009777096
 30
0.0
 10
81.37693635111357
 20
39.90453392615624
 30
0.0
  0
SPLINE
  5
243
330
1F
100
AcDbEntity
  8
0
  6
Continuous
 62
     7
370
    15
100
AcDbSpline
210
0.0
220
0.0
230
1.0
 70
     8
 71
     3
 72
     8
 73
     4
 74
     0
 42
0.00000001
 43
0.00000001
 12
1.0
 22
0.0
 32
0.0
 13
1.0
 23
0.0
 33
0.0
 40
0.0
 40
0.0
 40
0.0
 40
0.0
 40
1.0
 40
1.0
 40
1.0
 40
1.0
 10
71.24352949788916
 20
39.58264101265824
 30
0.0
 10
73.29905019591942
 20
39.61209069367753
 30
0.0
 10
75.35869420632568
 20
39.64134170559556
 30
0.0
 10
77.42545503248331
 20
39.67024981567637
 30
0.0
  0
LINE
  5
244
330
1F
100
AcDbEntity
  8
0
  6
Continuous
 62
     7
370
    15
100
AcDbLine
 10
71.0588137015
 20
39.3207816107
 30
0.0
 11
71.2435284956
 21
39.5826406477
 31
0.0
  0
LINE
  5
245
330
1F
100
AcDbEntity
  8
0
  6
Continuous
 62
     7
370
    15
100
AcDbLine
 10
68.3833735391
 20
39.3207816107
 30
0.0
 11
71.0588137015
 21
39.3207816107
 31
0.0
  0
ARC
  5
246
330
1F
100
AcDbEntity
  8
0
  6
Continuous
 62
     7
370
    15
100
AcDbCircle
 10
105.8833750292
 20
51.820781797
 30
0.0
 40
30.94331329974627
100
AcDbArc
 50
23.1207795216
 51
156.8792204784
  0
ARC
  5
247
330
1F
100
AcDbEntity
  8
0
  6
Continuous
 62
     7
370
    15
100
AcDbCircle
 10
105.8833750292
 20
51.820781797
 30
0.0
 40
30.94331329974626
100
AcDbArc
 50
203.1207795216
 51
336.8792204784
  0
ARC
  5
248
330
1F
100
AcDbEntity
  8
0
  6
Continuous
 62
     7
370
    15
100
AcDbCircle
 10
105.8833750292
 20
51.820781797
 30
0.0
 40
36.73814078430814
100
AcDbArc
 50
112.2608601122
 51
160.5418569914
  0
SPLINE
  5
249
330
1F
100
AcDbEntity
  8
0
  6
Continuous
 62
     7
370
    15
100
AcDbSpline
210
0.0
220
0.0
230
1.0
 70
    24
 71
     3
 72
    18
 73
    14
 74
     0
 42
0.00000001
 43
0.00000001
 12
1.0
 22
0.0
 32
0.0
 13
1.0
 23
0.0
 33
0.0
 40
0.0
 40
0.0
 40
0.0
 40
0.0
 40
0.1249999999999999
 40
0.1249999999999999
 40
0.2499999999999999
 40
0.2499999999999999
 40
0.5
 40
0.5
 40
0.625
 40
0.625
 40
0.7500000000000001
 40
0.7500000000000001
 40
1.0
 40
1.0
 40
1.0
 40
1.0
 10
91.96608404681271
 20
85.82078179696637
 30
0.0
 10
93.11531517044553
 20
85.82078179696637
 30
0.0
 10
94.26998945223365
 20
85.82078179696637
 30
0.0
 10
96.57925553527642
 20
85.82078179696636
 30
0.0
 10
97.73557972720121
 20
85.82078179696636
 30
0.0
 10
101.2100632834938
 20
85.82078179696637
 30
0.0
 10
103.5337917805236
 20
85.82078179696637
 30
0.0
 10
107.0314438906796
 20
85.82078179696637
 30
0.0
 10
108.1993242129949
 20
85.82078179696636
 30
0.0
 10
110.5390557048231
 20
85.82078179696637
 30
0.0
 10
111.7138662759295
 20
85.82078179696636
 30
0.0
 10
115.2228548404185
 20
85.82078179696637
 30
0.0
 10
117.5258386842772
 20
85.82078179696637
 30
0.0
 10
119.8006660115302
 20
85.82078179696637
 30
0.0
  0
ARC
  5
24A
330
1F
100
AcDbEntity
  8
0
  6
Continuous
 62
     7
370
    15
100
AcDbCircle
 10
105.8833750292
 20
51.820781797
 30
0.0
 40
36.73814078430814
100
AcDbArc
 50
19.4581430086
 51
67.7391398878
  0
ARC
  5
24B
330
1F
100
AcDbEntity
  8
0
  6
Continuous
 62
     7
370
    15
100
AcDbCircle
 10
105.8833750292
 20
51.820781797
 30
0.0
 40
36.73814078430815
100
AcDbArc
 50
292.2608601122
 51
340.5418569914
  0
SPLINE
  5
24C
330
1F
100
AcDbEntity
  8
0
  6
Continuous
 62
     7
370
    15
100
AcDbSpline
210
0.0
220
0.0
230
1.0
 70
    24
 71
     3
 72
    18
 73
    14
 74
     0
 42
0.00000001
 43
0.00000001
 12
1.0
 22
0.0
 32
0.0
 13
1.0
 23
0.0
 33
0.0
 40
0.0
 40
0.0
 40
0.0
 40
0.0
 40
0.125
 40
0.125
 40
0.25
 40
0.25
 40
0.4999999999999999
 40
0.4999999999999999
 40
0.6249999999999999
 40
0.6249999999999999
 40
0.7499999999999999
 40
0.7499999999999999
 40
1.0
 40
1.0
 40
1.0
 40
1.0
 10
91.96608404681271
 20
17.82078179696635
 30
0.0
 10
93.11531517044553
 20
17.82078179696635
 30
0.0
 10
94.26998945223365
 20
17.82078179696635
 30
0.0
 10
96.57925553527642
 20
17.82078179696635
 30
0.0
 10
97.73557972720121
 20
17.82078179696635
 30
0.0
 10
101.2100632834938
 20
17.82078179696635
 30
0.0
 10
103.5337917805236
 20
17.82078179696635
 30
0.0
 10
107.0314438906796
 20
17.82078179696635
 30
0.0
 10
108.1993242129949
 20
17.82078179696635
 30
0.0
 10
110.5390557048231
 20
17.82078179696634
 30
0.0
 10
111.7138662759295
 20
17.82078179696635
 30
0.0
 10
115.2228548404185
 20
17.82078179696634
 30
0.0
 10
117.5258386842772
 20
17.82078179696634
 30
0.0
 10
119.8006660115302
 20
17.82078179696635
 30
0.0
  0
ARC
  5
24D
330
1F
100
AcDbEntity
  8
0
  6
Continuous
 62
     7
370
    15
100
AcDbCircle
 10
105.8833750292
 20
51.820781797
 30
0.0
 40
36.73814078430814
100
AcDbArc
 50
199.4581430086
 51
247.7391398878
  0
ARC
  5
24E
330
1F
100
AcDbEntity
  8
0
  6
Continuous
 62
     7
370
    15
100
AcDbCircle
 10
105.8833750292
 20
51.820781797
 30
0.0
 40
37.0
100
AcDbArc
 50
113.231456505
 51
160.2548018994
  0
SPLINE
  5
24F
330
1F
100
AcDbEntity
  8
0
  6
Continuous
 62
     7
370
    15
100
AcDbSpline
210
0.0
220
0.0
230
1.0
 70
    24
 71
     3
 72
     8
 73
     4
 74
     0
 42
0.00000001
 43
0.00000001
 12
1.0
 22
0.0
 32
0.0
 13
1.0
 23
0.0
 33
0.0
 40
0.0
 40
0.0
 40
0.0
 40
0.0
 40
1.0
 40
1.0
 40
1.0
 40
1.0
 10
91.28885550984506
 20
85.82078179696637
 30
0.0
 10
91.51016309892363
 20
85.82078179696637
 30
0.0
 10
91.7356946684985
 20
85.82078179696637
 30
0.0
 10
91.96608404681271
 20
85.82078179696637
 30
0.0
  0
ARC
  5
250
330
1F
100
AcDbEntity
  8
0
  6
Continuous
 62
     7
370
    15
100
AcDbCircle
 10
105.8833750292
 20
51.820781797
 30
0.0
 40
37.00000000000001
100
AcDbArc
 50
19.7451981006
 51
66.768543495
  0
SPLINE
  5
251
330
1F
100
AcDbEntity
  8
0
  6
Continuous
 62
     7
370
    15
100
AcDbSpline
210
0.0
220
0.0
230
1.0
 70
    24
 71
     3
 72
     8
 73
     4
 74
     0
 42
0.00000001
 43
0.00000001
 12
1.0
 22
0.0
 32
0.0
 13
1.0
 23
0.0
 33
0.0
 40
0.0
 40
0.0
 40
0.0
 40
0.0
 40
1.0
 40
1.0
 40
1.0
 40
1.0
 10
119.8006660115302
 20
85.82078179696637
 30
0.0
 10
120.0310553898444
 20
85.82078179696637
 30
0.0
 10
120.2565869594193
 20
85.82078179696637
 30
0.0
 10
120.4778945484979
 20
85.82078179696637
 30
0.0
  0
ARC
  5
252
330
1F
100
AcDbEntity
  8
0
  6
Continuous
 62
     7
370
    15
100
AcDbCircle
 10
105.8833750292
 20
51.820781797
 30
0.0
 40
37.00000000000001
100
AcDbArc
 50
293.231456505
 51
340.2548018994
  0
SPLINE
  5
253
330
1F
100
AcDbEntity
  8
0
  6
Continuous
 62
     7
370
    15
100
AcDbSpline
210
0.0
220
0.0
230
1.0
 70
    24
 71
     3
 72
     8
 73
     4
 74
     0
 42
0.00000001
 43
0.00000001
 12
1.0
 22
0.0
 32
0.0
 13
1.0
 23
0.0
 33
0.0
 40
0.0
 40
0.0
 40
0.0
 40
0.0
 40
1.0
 40
1.0
 40
1.0
 40
1.0
 10
120.4778945484979
 20
17.82078179696635
 30
0.0
 10
120.2565869594193
 20
17.82078179696635
 30
0.0
 10
120.0310553898444
 20
17.82078179696635
 30
0.0
 10
119.8006660115302
 20
17.82078179696635
 30
0.0
  0
ARC
  5
254
330
1F
100
AcDbEntity
  8
0
  6
Continuous
 62
     7
370
    15
100
AcDbCircle
 10
105.8833750292
 20
51.820781797
 30
0.0
 40
37.0
100
AcDbArc
 50
199.7451981006
 51
246.768543495
  0
SPLINE
  5
255
330
1F
100
AcDbEntity
  8
0
  6
Continuous
 62
     7
370
    15
100
AcDbSpline
210
0.0
220
0.0
230
1.0
 70
    24
 71
     3
 72
     8
 73
     4
 74
     0
 42
0.00000001
 43
0.00000001
 12
1.0
 22
0.0
 32
0.0
 13
1.0
 23
0.0
 33
0.0
 40
0.0
 40
0.0
 40
0.0
 40
0.0
 40
1.0
 40
1.0
 40
1.0
 40
1.0
 10
91.96608404681272
 20
17.82078179696635
 30
0.0
 10
91.73569466849851
 20
17.82078179696635
 30
0.0
 10
91.51016309892363
 20
17.82078179696635
 30
0.0
 10
91.28885550984505
 20
17.82078179696635
 30
0.0
  0
LINE
  5
256
330
1F
100
AcDbEntity
  8
0
  6
Continuous
 62
     7
370
    15
100
AcDbLine
 10
55.8833742841
 20
51.820781797
 30
0.0
 11
55.8833742841
 21
55.320781905
 31
0.0
  0
LINE
  5
257
330
1F
100
AcDbEntity
  8
0
  6
Continuous
 62
     7
370
    15
100
AcDbLine
 10
55.8833742841
 20
55.320781905
 30
0.0
 11
56.3833752974
 21
55.320781905
 31
0.0
  0
LINE
  5
258
330
1F
100
AcDbEntity
  8
0
  6
Continuous
 62
     7
370
    15
100
AcDbLine
 10
155.8833757742
 20
55.320781905
 30
0.0
 11
155.383374761
 21
55.320781905
 31
0.0
  0
LINE
  5
259
330
1F
100
AcDbEntity
  8
0
  6
Continuous
 62
     7
370
    15
100
AcDbLine
 10
155.8833757742
 20
55.320781905
 30
0.0
 11
155.8833757742
 21
51.820781797
 31
0.0
  0
LINE
  5
25A
330
1F
100
AcDbEntity
  8
0
  6
Continuous
 62
     7
370
    15
100
AcDbLine
 10
155.8833757742
 20
51.820781797
 30
0.0
 11
155.8833757742
 21
48.3207816889
 31
0.0
  0
LINE
  5
25B
330
1F
100
AcDbEntity
  8
0
  6
Continuous
 62
     7
370
    15
100
AcDbLine
 10
155.8833757742
 20
48.3207816889
 30
0.0
 11
155.383374761
 21
48.3207816889
 31
0.0
  0
LINE
  5
25C
330
1F
100
AcDbEntity
  8
0
  6
Continuous
 62
     7
370
    15
100
AcDbLine
 10
55.8833742841
 20
48.3207816889
 30
0.0
 11
56.3833752974
 21
48.3207816889
 31
0.0
  0
LINE
  5
25D
330
1F
100
AcDbEntity
  8
0
  6
Continuous
 62
     7
370
    15
100
AcDbLine
 10
55.8833742841
 20
48.3207816889
 30
0.0
 11
55.8833742841
 21
51.820781797
 31
0.0
  0
SPLINE
  5
25E
330
1F
100
AcDbEntity
  8
0
  6
Continuous
 62
     7
370
    15
100
AcDbSpline
210
0.0
220
0.0
230
1.0
 70
     8
 71
     3
 72
     9
 73
     5
 74
     0
 42
0.00000001
 43
0.00000001
 12
1.0
 22
0.0
 32
0.0
 13
1.0
 23
0.0
 33
0.0
 40
0.0
 40
0.0
 40
0.0
 40
0.0
 40
0.5
 40
1.0
 40
1.0
 40
1.0
 40
1.0
 10
48.90525758500085
 20
65.09983798832779
 30
0.0
 10
48.78926994400687
 20
67.31301402022135
 30
0.0
 10
48.64829968915888
 20
71.73936608400845
 30
0.0
 10
48.78926994400685
 20
76.16571814779557
 30
0.0
 10
48.90525758500085
 20
78.37889417968913
 30
0.0
  0
LINE
  5
25F
330
1F
100
AcDbEntity
  8
0
  6
Continuous
 62
     7
370
    15
100
AcDbLine
 10
69.8252620502
 20
78.3788941501
 30
0.0
 11
48.9052573546
 21
78.3788941501
 31
0.0
  0
SPLINE
  5
260
330
1F
100
AcDbEntity
  8
0
  6
Continuous
 62
     7
370
    15
100
AcDbSpline
210
0.0
220
0.0
230
1.0
 70
     8
 71
     3
 72
    14
 73
    10
 74
     0
 42
0.00000001
 43
0.00000001
 12
1.0
 22
0.0
 32
0.0
 13
1.0
 23
0.0
 33
0.0
 40
0.0
 40
0.0
 40
0.0
 40
0.0
 40
0.5000000000000001
 40
0.5000000000000001
 40
0.75
 40
0.75
 40
0.8750000000000001
 40
0.8750000000000001
 40
1.0
 40
1.0
 40
1.0
 40
1.0
 10
69.82526264644875
 20
78.37889417968913
 30
0.0
 10
70.8664370777165
 20
77.33771974842135
 30
0.0
 10
71.75116360104039
 20
76.27298163811535
 30
0.0
 10
72.69709922781671
 20
74.61846626332863
 30
0.0
 10
72.9482111930683
 20
74.0572915550769
 30
0.0
 10
73.2061184248545
 20
73.19764213688161
 30
0.0
 10
73.27227625138354
 20
72.90810842416188
 30
0.0
 10
73.3612274864161
 20
72.32250959001608
 30
0.0
 10
73.38337502917145
 20
72.03012255807981
 30
0.0
 10
73.38337502917145
 20
71.7393660840085
 30
0.0
  0
SPLINE
  5
261
330
1F
100
AcDbEntity
  8
0
  6
Continuous
 62
     7
370
    15
100
AcDbSpline
210
0.0
220
0.0
230
1.0
 70
     8
 71
     3
 72
    12
 73
     8
 74
     0
 42
0.00000001
 43
0.00000001
 12
1.0
 22
0.0
 32
0.0
 13
1.0
 23
0.0
 33
0.0
 40
0.0
 40
0.0
 40
0.0
 40
0.0
 40
0.5000000000000004
 40
0.5000000000000004
 40
0.7500000000000002
 40
0.7500000000000002
 40
1.0
 40
1.0
 40
1.0
 40
1.0
 10
73.38337502917145
 20
71.7393660840085
 30
0.0
 10
73.38337502917145
 20
70.5844859395187
 30
0.0
 10
73.03020248007788
 20
69.44924348496917
 30
0.0
 10
72.07553127810542
 20
67.77000649088971
 30
0.0
 10
71.69230654043285
 20
67.22225505395892
 30
0.0
 10
70.8272971498792
 20
66.14737579234905
 30
0.0
 10
70.34524693897423
 20
65.6198222808533
 30
0.0
 10
69.82526264644872
 20
65.09983798832779
 30
0.0
  0
LINE
  5
262
330
1F
100
AcDbEntity
  8
0
  6
Continuous
 62
     7
370
    15
100
AcDbLine
 10
69.8252620502
 20
65.0998379735
 30
0.0
 11
48.9052573546
 21
65.0998379735
 31
0.0
  0
SPLINE
  5
263
330
1F
100
AcDbEntity
  8
0
  6
Continuous
 62
     7
370
    15
100
AcDbSpline
210
0.0
220
0.0
230
1.0
 70
     8
 71
     3
 72
    12
 73
     8
 74
     0
 42
0.00000001
 43
0.00000001
 12
1.0
 22
0.0
 32
0.0
 13
1.0
 23
0.0
 33
0.0
 40
0.0
 40
0.0
 40
0.0
 40
0.0
 40
0.5000000000000004
 40
0.5000000000000004
 40
0.7500000000000002
 40
0.7500000000000002
 40
1.0
 40
1.0
 40
1.0
 40
1.0
 10
138.3833750291715
 20
71.7393660840085
 30
0.0
 10
138.3833750291715
 20
70.5844859395187
 30
0.0
 10
138.736547578265
 20
69.44924348496917
 30
0.0
 10
139.6912187802375
 20
67.77000649088971
 30
0.0
 10
140.0744435179101
 20
67.22225505395892
 30
0.0
 10
140.9394529084637
 20
66.14737579234905
 30
0.0
 10
141.4215031193687
 20
65.6198222808533
 30
0.0
 10
141.9414874118942
 20
65.09983798832779
 30
0.0
  0
SPLINE
  5
264
330
1F
100
AcDbEntity
  8
0
  6
Continuous
 62
     7
370
    15
100
AcDbSpline
210
0.0
220
0.0
230
1.0
 70
     8
 71
     3
 72
    14
 73
    10
 74
     0
 42
0.00000001
 43
0.00000001
 12
1.0
 22
0.0
 32
0.0
 13
1.0
 23
0.0
 33
0.0
 40
0.0
 40
0.0
 40
0.0
 40
0.0
 40
0.5000000000000001
 40
0.5000000000000001
 40
0.75
 40
0.75
 40
0.8750000000000001
 40
0.8750000000000001
 40
1.0
 40
1.0
 40
1.0
 40
1.0
 10
141.9414874118942
 20
78.37889417968913
 30
0.0
 10
140.9003129806264
 20
77.33771974842135
 30
0.0
 10
140.0155864573025
 20
76.27298163811535
 30
0.0
 10
139.0696508305262
 20
74.61846626332863
 30
0.0
 10
138.8185388652746
 20
74.0572915550769
 30
0.0
 10
138.5606316334884
 20
73.19764213688161
 30
0.0
 10
138.4944738069594
 20
72.90810842416188
 30
0.0
 10
138.4055225719268
 20
72.32250959001608
 30
0.0
 10
138.3833750291715
 20
72.03012255807981
 30
0.0
 10
138.3833750291715
 20
71.7393660840085
 30
0.0
  0
LINE
  5
265
330
1F
100
AcDbEntity
  8
0
  6
Continuous
 62
     7
370
    15
100
AcDbLine
 10
141.9414880081
 20
78.3788941501
 30
0.0
 11
162.8614927038
 21
78.3788941501
 31
0.0
  0
SPLINE
  5
266
330
1F
100
AcDbEntity
  8
0
  6
Continuous
 62
     7
370
    15
100
AcDbSpline
210
0.0
220
0.0
230
1.0
 70
     8
 71
     3
 72
     9
 73
     5
 74
     0
 42
0.00000001
 43
0.00000001
 12
1.0
 22
0.0
 32
0.0
 13
1.0
 23
0.0
 33
0.0
 40
0.0
 40
0.0
 40
0.0
 40
0.0
 40
0.5
 40
1.0
 40
1.0
 40
1.0
 40
1.0
 10
162.8614924733421
 20
65.09983798832779
 30
0.0
 10
162.9774801143361
 20
67.31301402022135
 30
0.0
 10
163.118450369184
 20
71.73936608400845
 30
0.0
 10
162.9774801143361
 20
76.16571814779557
 30
0.0
 10
162.8614924733421
 20
78.37889417968913
 30
0.0
  0
LINE
  5
267
330
1F
100
AcDbEntity
  8
0
  6
Continuous
 62
     7
370
    15
100
AcDbLine
 10
141.9414880081
 20
65.0998379735
 30
0.0
 11
162.8614927038
 21
65.0998379735
 31
0.0
  0
SPLINE
  5
268
330
1F
100
AcDbEntity
  8
0
  6
Continuous
 62
     7
370
    15
100
AcDbSpline
210
0.0
220
0.0
230
1.0
 70
     8
 71
     3
 72
    10
 73
     6
 74
     0
 42
0.00000001
 43
0.00000001
 12
1.0
 22
0.0
 32
0.0
 13
1.0
 23
0.0
 33
0.0
 40
0.0
 40
0.0
 40
0.0
 40
0.0
 40
0.5
 40
0.5
 40
1.0
 40
1.0
 40
1.0
 40
1.0
 10
48.90525758500085
 20
65.0998379883277
 30
0.0
 10
48.78927763483664
 20
60.67377942408887
 30
0.0
 10
48.7187859223785
 20
56.24726093413847
 30
0.0
 10
48.71878371081466
 20
47.39452193215953
 30
0.0
 10
48.78927831405976
 20
42.96775824914556
 30
0.0
 10
48.90525758500085
 20
38.54172560560504
 30
0.0
  0
SPLINE
  5
269
330
1F
100
AcDbEntity
  8
0
  6
Continuous
 62
     7
370
    15
100
AcDbSpline
210
0.0
220
0.0
230
1.0
 70
     8
 71
     3
 72
     9
 73
     5
 74
     0
 42
0.00000001
 43
0.00000001
 12
1.0
 22
0.0
 32
0.0
 13
1.0
 23
0.0
 33
0.0
 40
0.0
 40
0.0
 40
0.0
 40
0.0
 40
0.5
 40
1.0
 40
1.0
 40
1.0
 40
1.0
 10
48.90525758500085
 20
38.54172560560497
 30
0.0
 10
48.78926994400687
 20
36.32854957371141
 30
0.0
 10
48.64829968915888
 20
31.90219750992429
 30
0.0
 10
48.78926994400685
 20
27.47584544613717
 30
0.0
 10
48.90525758500085
 20
25.26266941424362
 30
0.0
  0
LINE
  5
26A
330
1F
100
AcDbEntity
  8
0
  6
Continuous
 62
     7
370
    15
100
AcDbLine
 10
48.3833739861
 20
68.4207815377
 30
0.0
 11
48.3833739861
 21
35.2207820562
 31
0.0
  0
SPLINE
  5
26B
330
1F
100
AcDbEntity
  8
0
  6
Continuous
 62
     7
370
    15
100
AcDbSpline
210
0.0
220
0.0
230
1.0
 70
     8
 71
     3
 72
     9
 73
     5
 74
     0
 42
0.00000001
 43
0.00000001
 12
1.0
 22
0.0
 32
0.0
 13
1.0
 23
0.0
 33
0.0
 40
0.0
 40
0.0
 40
0.0
 40
0.0
 40
0.5
 40
1.0
 40
1.0
 40
1.0
 40
1.0
 10
162.8614924733421
 20
38.54172560560497
 30
0.0
 10
162.9774801143361
 20
36.32854957371141
 30
0.0
 10
163.118450369184
 20
31.90219750992429
 30
0.0
 10
162.9774801143361
 20
27.47584544613717
 30
0.0
 10
162.8614924733421
 20
25.26266941424362
 30
0.0
  0
SPLINE
  5
26C
330
1F
100
AcDbEntity
  8
0
  6
Continuous
 62
     7
370
    15
100
AcDbSpline
210
0.0
220
0.0
230
1.0
 70
     8
 71
     3
 72
    10
 73
     6
 74
     0
 42
0.00000001
 43
0.00000001
 12
1.0
 22
0.0
 32
0.0
 13
1.0
 23
0.0
 33
0.0
 40
0.0
 40
0.0
 40
0.0
 40
0.0
 40
0.5
 40
0.5
 40
1.0
 40
1.0
 40
1.0
 40
1.0
 10
162.8614924733421
 20
38.54172560560505
 30
0.0
 10
162.9774724235063
 20
42.96778416984387
 30
0.0
 10
163.0479641359644
 20
47.39430265979428
 30
0.0
 10
163.0479663475283
 20
56.24704166177322
 30
0.0
 10
162.9774717442832
 20
60.67380534478719
 30
0.0
 10
162.8614924733421
 20
65.0998379883277
 30
0.0
  0
LINE
  5
26D
330
1F
100
AcDbEntity
  8
0
  6
Continuous
 62
     7
370
    15
100
AcDbLine
 10
163.3833760723
 20
35.2207820562
 30
0.0
 11
163.3833760723
 21
68.4207815377
 31
0.0
  0
LINE
  5
26E
330
1F
100
AcDbEntity
  8
0
  6
Continuous
 62
     7
370
    15
100
AcDbLine
 10
69.8252620502
 20
65.0998379735
 30
0.0
 11
70.2034758731
 21
64.3207819832
 31
0.0
  0
LINE
  5
26F
330
1F
100
AcDbEntity
  8
0
  6
Continuous
 62
     7
370
    15
100
AcDbLine
 10
73.3833762213
 20
69.50552088
 30
0.0
 11
73.3833762213
 21
71.7393669931
 31
0.0
  0
LINE
  5
270
330
1F
100
AcDbEntity
  8
0
  6
Continuous
 62
     7
370
    15
100
AcDbLine
 10
138.3833738371
 20
69.50552088
 30
0.0
 11
138.3833738371
 21
71.7393669931
 31
0.0
  0
LINE
  5
271
330
1F
100
AcDbEntity
  8
0
  6
Continuous
 62
     7
370
    15
100
AcDbLine
 10
141.9414880081
 20
65.0998379735
 30
0.0
 11
141.5632741853
 21
64.3207819832
 31
0.0
  0
LINE
  5
272
330
1F
100
AcDbEntity
  8
0
  6
Continuous
 62
     7
370
    15
100
AcDbLine
 10
141.9414880081
 20
38.5417256204
 30
0.0
 11
162.8614927038
 21
38.5417256204
 31
0.0
  0
LINE
  5
273
330
1F
100
AcDbEntity
  8
0
  6
Continuous
 62
     7
370
    15
100
AcDbLine
 10
141.9414880081
 20
38.5417256204
 30
0.0
 11
141.5632741853
 21
39.3207816107
 31
0.0
  0
LINE
  5
274
330
1F
100
AcDbEntity
  8
0
  6
Continuous
 62
     7
370
    15
100
AcDbLine
 10
69.8252620502
 20
38.5417256204
 30
0.0
 11
70.2034758731
 21
39.3207816107
 31
0.0
  0
LINE
  5
275
330
1F
100
AcDbEntity
  8
0
  6
Continuous
 62
     7
370
    15
100
AcDbLine
 10
69.8252620502
 20
38.5417256204
 30
0.0
 11
48.9052573546
 21
38.5417256204
 31
0.0
  0
LINE
  5
276
330
1F
100
AcDbEntity
  8
0
  6
Continuous
 62
     7
370
    15
100
AcDbLine
 10
73.3833762213
 20
34.1360427139
 30
0.0
 11
73.3833762213
 21
31.9021966008
 31
0.0
  0
SPLINE
  5
277
330
1F
100
AcDbEntity
  8
0
  6
Continuous
 62
     7
370
    15
100
AcDbSpline
210
0.0
220
0.0
230
1.0
 70
     8
 71
     3
 72
    12
 73
     8
 74
     0
 42
0.00000001
 43
0.00000001
 12
1.0
 22
0.0
 32
0.0
 13
1.0
 23
0.0
 33
0.0
 40
0.0
 40
0.0
 40
0.0
 40
0.0
 40
0.5000000000000004
 40
0.5000000000000004
 40
0.7500000000000002
 40
0.7500000000000002
 40
1.0
 40
1.0
 40
1.0
 40
1.0
 10
73.38337502917145
 20
31.90219750992426
 30
0.0
 10
73.38337502917145
 20
33.05707765441405
 30
0.0
 10
73.03020248007788
 20
34.19232010896357
 30
0.0
 10
72.07553127810542
 20
35.87155710304305
 30
0.0
 10
71.69230654043285
 20
36.41930853997383
 30
0.0
 10
70.8272971498792
 20
37.49418780158368
 30
0.0
 10
70.34524693897423
 20
38.02174131307945
 30
0.0
 10
69.82526264644872
 20
38.54172560560496
 30
0.0
  0
SPLINE
  5
278
330
1F
100
AcDbEntity
  8
0
  6
Continuous
 62
     7
370
    15
100
AcDbSpline
210
0.0
220
0.0
230
1.0
 70
     8
 71
     3
 72
    12
 73
     8
 74
     0
 42
0.00000001
 43
0.00000001
 12
1.0
 22
0.0
 32
0.0
 13
1.0
 23
0.0
 33
0.0
 40
0.0
 40
0.0
 40
0.0
 40
0.0
 40
0.5000000000000004
 40
0.5000000000000004
 40
0.7500000000000002
 40
0.7500000000000002
 40
1.0
 40
1.0
 40
1.0
 40
1.0
 10
138.3833750291715
 20
31.90219750992426
 30
0.0
 10
138.3833750291715
 20
33.05707765441405
 30
0.0
 10
138.736547578265
 20
34.19232010896357
 30
0.0
 10
139.6912187802375
 20
35.87155710304305
 30
0.0
 10
140.0744435179101
 20
36.41930853997383
 30
0.0
 10
140.9394529084637
 20
37.49418780158368
 30
0.0
 10
141.4215031193687
 20
38.02174131307945
 30
0.0
 10
141.9414874118942
 20
38.54172560560496
 30
0.0
  0
LINE
  5
279
330
1F
100
AcDbEntity
  8
0
  6
Continuous
 62
     7
370
    15
100
AcDbLine
 10
138.3833738371
 20
34.1360427139
 30
0.0
 11
138.3833738371
 21
31.9021966008
 31
0.0
  0
LINE
  5
27A
330
1F
100
AcDbEntity
  8
0
  6
Continuous
 62
     7
370
    15
100
AcDbLine
 10
141.9414880081
 20
25.2626694439
 30
0.0
 11
162.8614927038
 21
25.2626694439
 31
0.0
  0
SPLINE
  5
27B
330
1F
100
AcDbEntity
  8
0
  6
Continuous
 62
     7
370
    15
100
AcDbSpline
210
0.0
220
0.0
230
1.0
 70
     8
 71
     3
 72
    14
 73
    10
 74
     0
 42
0.00000001
 43
0.00000001
 12
1.0
 22
0.0
 32
0.0
 13
1.0
 23
0.0
 33
0.0
 40
0.0
 40
0.0
 40
0.0
 40
0.0
 40
0.5000000000000001
 40
0.5000000000000001
 40
0.75
 40
0.75
 40
0.8750000000000001
 40
0.8750000000000001
 40
1.0
 40
1.0
 40
1.0
 40
1.0
 10
141.9414874118942
 20
25.26266941424362
 30
0.0
 10
140.9003129806264
 20
26.3038438455114
 30
0.0
 10
140.0155864573025
 20
27.36858195581739
 30
0.0
 10
139.0696508305262
 20
29.02309733060411
 30
0.0
 10
138.8185388652746
 20
29.58427203885585
 30
0.0
 10
138.5606316334884
 20
30.44392145705114
 30
0.0
 10
138.4944738069594
 20
30.73345516977087
 30
0.0
 10
138.4055225719268
 20
31.31905400391666
 30
0.0
 10
138.3833750291715
 20
31.61144103585293
 30
0.0
 10
138.3833750291715
 20
31.90219750992426
 30
0.0
  0
SPLINE
  5
27C
330
1F
100
AcDbEntity
  8
0
  6
Continuous
 62
     7
370
    15
100
AcDbSpline
210
0.0
220
0.0
230
1.0
 70
     8
 71
     3
 72
    14
 73
    10
 74
     0
 42
0.00000001
 43
0.00000001
 12
1.0
 22
0.0
 32
0.0
 13
1.0
 23
0.0
 33
0.0
 40
0.0
 40
0.0
 40
0.0
 40
0.0
 40
0.5000000000000001
 40
0.5000000000000001
 40
0.75
 40
0.75
 40
0.8750000000000001
 40
0.8750000000000001
 40
1.0
 40
1.0
 40
1.0
 40
1.0
 10
69.82526264644875
 20
25.26266941424362
 30
0.0
 10
70.8664370777165
 20
26.3038438455114
 30
0.0
 10
71.75116360104039
 20
27.36858195581739
 30
0.0
 10
72.69709922781671
 20
29.02309733060411
 30
0.0
 10
72.9482111930683
 20
29.58427203885585
 30
0.0
 10
73.2061184248545
 20
30.44392145705114
 30
0.0
 10
73.27227625138354
 20
30.73345516977087
 30
0.0
 10
73.3612274864161
 20
31.31905400391666
 30
0.0
 10
73.38337502917145
 20
31.61144103585293
 30
0.0
 10
73.38337502917145
 20
31.90219750992426
 30
0.0
  0
LINE
  5
27D
330
1F
100
AcDbEntity
  8
0
  6
Continuous
 62
     7
370
    15
100
AcDbLine
 10
69.8252620502
 20
25.2626694439
 30
0.0
 11
48.9052573546
 21
25.2626694439
 31
0.0
  0
LINE
  5
27E
330
1F
100
AcDbEntity
  8
0
  6
Continuous
 62
     7
370
    15
100
AcDbLine
 10
138.3833738371
 20
71.7393669931
 30
0.0
 11
138.3833738371
 21
74.8207818417
 31
0.0
  0
LINE
  5
27F
330
1F
100
AcDbEntity
  8
0
  6
Continuous
 62
     7
370
    15
100
AcDbLine
 10
73.3833762213
 20
71.7393669931
 30
0.0
 11
73.3833762213
 21
74.8207818417
 31
0.0
  0
LINE
  5
280
330
1F
100
AcDbEntity
  8
0
  6
Continuous
 62
     7
370
    15
100
AcDbLine
 10
138.3833738371
 20
31.9021966008
 30
0.0
 11
138.3833738371
 21
28.8207817523
 31
0.0
  0
LINE
  5
281
330
1F
100
AcDbEntity
  8
0
  6
Continuous
 62
     7
370
    15
100
AcDbLine
 10
73.3833762213
 20
31.9021966008
 30
0.0
 11
73.3833762213
 21
28.8207817523
 31
0.0
  0
LINE
  5
282
330
1F
100
AcDbEntity
  8
0
  6
Continuous
 62
     7
370
    15
100
AcDbLine
 10
132.8833757295
 20
79.8207826612
 30
0.0
 11
130.0701482548
 21
79.8207826612
 31
0.0
  0
LINE
  5
283
330
1F
100
AcDbEntity
  8
0
  6
Continuous
 62
     8
370
     0
100
AcDbLine
 10
143.3833765193
 20
63.6399479283
 30
0.0
 11
143.3833765193
 21
64.3207819832
 31
0.0
  0
LINE
  5
284
330
1F
100
AcDbEntity
  8
0
  6
Continuous
 62
     8
370
     0
100
AcDbLine
 10
143.3833765193
 20
40.0016156656
 30
0.0
 11
143.3833765193
 21
39.3207816107
 31
0.0
  0
LINE
  5
285
330
1F
100
AcDbEntity
  8
0
  6
Continuous
 62
     8
370
     0
100
AcDbLine
 10
68.3833735391
 20
63.6399479283
 30
0.0
 11
68.3833735391
 21
64.3207819832
 31
0.0
  0
LINE
  5
286
330
1F
100
AcDbEntity
  8
0
  6
Continuous
 62
     8
370
     0
100
AcDbLine
 10
68.3833735391
 20
40.0016156656
 30
0.0
 11
68.3833735391
 21
39.3207816107
 31
0.0
  0
LINE
  5
287
330
1F
100
AcDbEntity
  8
0
  6
Continuous
 62
     8
370
     0
100
AcDbLine
 10
74.2265211745
 20
70.9739427713
 30
0.0
 11
74.2265211745
 21
74.8207818417
 31
0.0
  0
LINE
  5
288
330
1F
100
AcDbEntity
  8
0
  6
Continuous
 62
     8
370
     0
100
AcDbLine
 10
137.5402288838
 20
70.9739427713
 30
0.0
 11
137.5402288838
 21
74.8207818417
 31
0.0
  0
LINE
  5
289
330
1F
100
AcDbEntity
  8
0
  6
Continuous
 62
     8
370
     0
100
AcDbLine
 10
137.5402288838
 20
32.6676208226
 30
0.0
 11
137.5402288838
 21
28.8207817523
 31
0.0
  0
LINE
  5
28A
330
1F
100
AcDbEntity
  8
0
  6
Continuous
 62
     8
370
     0
100
AcDbLine
 10
74.2265211745
 20
32.6676208226
 30
0.0
 11
74.2265211745
 21
28.8207817523
 31
0.0
  0
INSERT
  5
296
330
1F
100
AcDbEntity
  8
FORMAT
100
AcDbBlockReference
  2
SW_CENTERMARKSYMBOL_1
 10
105.8833750292
 20
51.820781797
 30
0.0
  0
ENDSEC
  0
SECTION
  2
OBJECTS
  0
DICTIONARY
  5
C
330
0
100
AcDbDictionary
281
     1
  3
ACAD_GROUP
350
D
  3
ACAD_LAYOUT
350
1A
  3
ACAD_MLINESTYLE
350
17
  3
ACAD_PLOTSETTINGS
350
19
  3
ACAD_PLOTSTYLENAME
350
E
  0
DICTIONARY
  5
D
102
{ACAD_REACTORS
330
C
102
}
330
C
100
AcDbDictionary
281
     1
  0
DICTIONARY
  5
1A
102
{ACAD_REACTORS
330
C
102
}
330
C
100
AcDbDictionary
281
     1
  3
Layout1
350
1E
  3
Layout2
350
26
  3
Model
350
22
  0
DICTIONARY
  5
17
102
{ACAD_REACTORS
330
C
102
}
330
C
100
AcDbDictionary
281
     1
  3
Standard
350
18
  0
DICTIONARY
  5
19
102
{ACAD_REACTORS
330
C
102
}
330
C
100
AcDbDictionary
281
     1
  0
ACDBDICTIONARYWDFLT
  5
E
102
{ACAD_REACTORS
330
C
102
}
330
C
100
AcDbDictionary
281
     1
  3
Normal
350
F
100
AcDbDictionaryWithDefault
340
F
  0
LAYOUT
  5
1E
102
{ACAD_REACTORS
330
1A
102
}
330
1A
100
AcDbPlotSettings
  1

  2
none_device
  4

  6

 40
0.0
 41
0.0
 42
0.0
 43
0.0
 44
0.0
 45
0.0
 46
0.0
 47
0.0
 48
0.0
 49
0.0
140
0.0
141
0.0
142
1.0
143
1.0
 70
   688
 72
     0
 73
     0
 74
     5
  7

 75
    16
147
1.0
148
0.0
149
0.0
100
AcDbLayout
  1
Layout1
 70
     1
 71
     1
 10
0.0
 20
0.0
 11
420.0
 21
297.0
 12
0.0
 22
0.0
 32
0.0
 14
1.0000000000E+20
 24
1.0000000000E+20
 34
1.0000000000E+20
 15
-1.0000000000E+20
 25
-1.0000000000E+20
 35
-1.0000000000E+20
146
0.0
 13
0.0
 23
0.0
 33
0.0
 16
1.0
 26
0.0
 36
0.0
 17
0.0
 27
1.0
 37
0.0
 76
     0
330
1B
  0
LAYOUT
  5
26
102
{ACAD_REACTORS
330
1A
102
}
330
1A
100
AcDbPlotSettings
  1

  2
none_device
  4

  6

 40
0.0
 41
0.0
 42
0.0
 43
0.0
 44
0.0
 45
0.0
 46
0.0
 47
0.0
 48
0.0
 49
0.0
140
0.0
141
0.0
142
1.0
143
1.0
 70
   688
 72
     0
 73
     0
 74
     5
  7

 75
    16
147
1.0
148
0.0
149
0.0
100
AcDbLayout
  1
Layout2
 70
     1
 71
     2
 10
0.0
 20
0.0
 11
0.0
 21
0.0
 12
0.0
 22
0.0
 32
0.0
 14
0.0
 24
0.0
 34
0.0
 15
0.0
 25
0.0
 35
0.0
146
0.0
 13
0.0
 23
0.0
 33
0.0
 16
1.0
 26
0.0
 36
0.0
 17
0.0
 27
1.0
 37
0.0
 76
     0
330
23
  0
LAYOUT
  5
22
102
{ACAD_REACTORS
330
1A
102
}
330
1A
100
AcDbPlotSettings
  1

  2
none_device
  4

  6

 40
0.0
 41
0.0
 42
0.0
 43
0.0
 44
0.0
 45
0.0
 46
0.0
 47
0.0
 48
0.0
 49
0.0
140
0.0
141
0.0
142
1.0
143
1.0
 70
  1712
 72
     0
 73
     0
 74
     0
  7

 75
     0
147
1.0
148
0.0
149
0.0
100
AcDbLayout
  1
Model
 70
     1
 71
     0
 10
0.0
 20
0.0
 11
420.0
 21
297.0
 12
0.0
 22
0.0
 32
0.0
 14
0.0
 24
0.0
 34
0.0
 15
420.0
 25
297.0
 35
0.0
146
0.0
 13
0.0
 23
0.0
 33
0.0
 16
1.0
 26
0.0
 36
0.0
 17
0.0
 27
1.0
 37
0.0
 76
     0
330
1F
331
29
  0
MLINESTYLE
  5
18
102
{ACAD_REACTORS
330
17
102
}
330
17
100
AcDbMlineStyle
  2
Standard
 70
     0
  3

 62
   256
 51
90.0
 52
90.0
 71
     2
 49
0.5
 62
   256
  6
BYLAYER
 49
-0.5
 62
   256
  6
BYLAYER
  0
ACDBPLACEHOLDER
  5
F
102
{ACAD_REACTORS
330
E
102
}
330
E
  0
ENDSEC
  0
EOF
