  0
SECTION
  2
HEADER
  9
$ACADVER
  1
AC1015
  9
$ACADMAINTVER
 70
     6
  9
$DWGCODEPAGE
  3
ANSI_1252
  9
$INSBASE
 10
0.0
 20
0.0
 30
0.0
  9
$EXTMIN
 10
0.0
 20
0.0
 30
0.0
  9
$EXTMAX
 10
594.0
 20
420.0
 30
0.0
  9
$LIMMIN
 10
0.0
 20
0.0
  9
$LIMMAX
 10
594.0
 20
420.0
  9
$ORTHOMODE
 70
     0
  9
$REGENMODE
 70
     1
  9
$FILLMODE
 70
     1
  9
$QTEXTMODE
 70
     0
  9
$MIRRTEXT
 70
     1
  9
$LTSCALE
 40
1.0
  9
$ATTMODE
 70
     1
  9
$TEXTSIZE
 40
3.5
  9
$TRACEWID
 40
1.0
  9
$TEXTSTYLE
  7
Standard
  9
$CLAYER
  8
0
  9
$CELTYPE
  6
ByLayer
  9
$CECOLOR
 62
   256
  9
$CELTSCALE
 40
1.0
  9
$DISPSILH
 70
     0
  9
$DIMSCALE
 40
1.0
  9
$DIMASZ
 40
3.302
  9
$DIMEXO
 40
1.0
  9
$DIMDLI
 40
3.75
  9
$DIMRND
 40
0.0
  9
$DIMDLE
 40
0.0
  9
$DIMEXE
 40
1.0
  9
$DIMTP
 40
0.0
  9
$DIMTM
 40
0.0
  9
$DIMTXT
 40
3.5
  9
$DIMCEN
 40
2.5
  9
$DIMTSZ
 40
0.0
  9
$DIMTOL
 70
     0
  9
$DIMLIM
 70
     0
  9
$DIMTIH
 70
     1
  9
$DIMTOH
 70
     1
  9
$DIMSE1
 70
     0
  9
$DIMSE2
 70
     0
  9
$DIMTAD
 70
     1
  9
$DIMZIN
 70
     0
  9
$DIMBLK
  1

  9
$DIMASO
 70
     1
  9
$DIMSHO
 70
     1
  9
$DIMPOST
  1

  9
$DIMAPOST
  1

  9
$DIMALT
 70
     0
  9
$DIMALTD
 70
     3
  9
$DIMALTF
 40
0.0393700787
  9
$DIMLFAC
 40
2.5
  9
$DIMTOFL
 70
     1
  9
$DIMTVP
 40
0.0
  9
$DIMTIX
 70
     0
  9
$DIMSOXD
 70
     0
  9
$DIMSAH
 70
     0
  9
$DIMBLK1
  1

  9
$DIMBLK2
  1

  9
$DIMSTYLE
  2
ISO-25
  9
$DIMCLRD
 70
     0
  9
$DIMCLRE
 70
     0
  9
$DIMCLRT
 70
     0
  9
$DIMTFAC
 40
1.0
  9
$DIMGAP
 40
1.524
  9
$DIMJUST
 70
     0
  9
$DIMSD1
 70
     0
  9
$DIMSD2
 70
     0
  9
$DIMTOLJ
 70
     0
  9
$DIMTZIN
 70
     0
  9
$DIMALTZ
 70
     0
  9
$DIMALTTZ
 70
     0
  9
$DIMUPT
 70
     0
  9
$DIMDEC
 70
     2
  9
$DIMTDEC
 70
     2
  9
$DIMALTU
 70
     2
  9
$DIMALTTD
 70
     3
  9
$DIMTXSTY
  7
Standard
  9
$DIMAUNIT
 70
     0
  9
$DIMADEC
 70
     2
  9
$DIMALTRND
 40
0.0
  9
$DIMAZIN
 70
     0
  9
$DIMDSEP
 70
    44
  9
$DIMATFIT
 70
     3
  9
$DIMFRAC
 70
     0
  9
$DIMLDRBLK
  1

  9
$DIMLUNIT
 70
     2
  9
$DIMLWD
 70
    -2
  9
$DIMLWE
 70
    -2
  9
$DIMTMOVE
 70
     0
  9
$LUNITS
 70
     2
  9
$LUPREC
 70
     2
  9
$SKETCHINC
 40
1.0
  9
$FILLETRAD
 40
10.0
  9
$AUNITS
 70
     0
  9
$AUPREC
 70
     2
  9
$MENU
  1
.
  9
$ELEVATION
 40
0.0
  9
$PELEVATION
 40
0.0
  9
$THICKNESS
 40
0.0
  9
$LIMCHECK
 70
     0
  9
$CHAMFERA
 40
10.0
  9
$CHAMFERB
 40
10.0
  9
$CHAMFERC
 40
20.0
  9
$CHAMFERD
 40
0.0
  9
$SKPOLY
 70
     0
  9
$TDCREATE
 40
2456808.626174016
  9
$TDUCREATE
 40
2456808.292840683
  9
$TDUPDATE
 40
2456808.626175533
  9
$TDUUPDATE
 40
2456808.292842199
  9
$TDINDWG
 40
0.0000000116
  9
$TDUSRTIMER
 40
0.0000000116
  9
$USRTIMER
 70
     1
  9
$ANGBASE
 50
0.0
  9
$ANGDIR
 70
     0
  9
$PDMODE
 70
     0
  9
$PDSIZE
 40
-1.0
  9
$PLINEWID
 40
0.0
  9
$SPLFRAME
 70
     0
  9
$SPLINETYPE
 70
     6
  9
$SPLINESEGS
 70
     8
  9
$HANDSEED
  5
39E
  9
$SURFTAB1
 70
     6
  9
$SURFTAB2
 70
     6
  9
$SURFTYPE
 70
     6
  9
$SURFU
 70
     6
  9
$SURFV
 70
     6
  9
$UCSBASE
  2

  9
$UCSNAME
  2

  9
$UCSORG
 10
0.0
 20
0.0
 30
0.0
  9
$UCSXDIR
 10
1.0
 20
0.0
 30
0.0
  9
$UCSYDIR
 10
0.0
 20
1.0
 30
0.0
  9
$UCSORTHOREF
  2

  9
$UCSORTHOVIEW
 70
     0
  9
$UCSORGTOP
 10
0.0
 20
0.0
 30
0.0
  9
$UCSORGBOTTOM
 10
0.0
 20
0.0
 30
0.0
  9
$UCSORGLEFT
 10
0.0
 20
0.0
 30
0.0
  9
$UCSORGRIGHT
 10
0.0
 20
0.0
 30
0.0
  9
$UCSORGFRONT
 10
0.0
 20
0.0
 30
0.0
  9
$UCSORGBACK
 10
0.0
 20
0.0
 30
0.0
  9
$PUCSBASE
  2

  9
$PUCSNAME
  2

  9
$PUCSORG
 10
0.0
 20
0.0
 30
0.0
  9
$PUCSXDIR
 10
1.0
 20
0.0
 30
0.0
  9
$PUCSYDIR
 10
0.0
 20
1.0
 30
0.0
  9
$PUCSORTHOREF
  2

  9
$PUCSORTHOVIEW
 70
     0
  9
$PUCSORGTOP
 10
0.0
 20
0.0
 30
0.0
  9
$PUCSORGBOTTOM
 10
0.0
 20
0.0
 30
0.0
  9
$PUCSORGLEFT
 10
0.0
 20
0.0
 30
0.0
  9
$PUCSORGRIGHT
 10
0.0
 20
0.0
 30
0.0
  9
$PUCSORGFRONT
 10
0.0
 20
0.0
 30
0.0
  9
$PUCSORGBACK
 10
0.0
 20
0.0
 30
0.0
  9
$USERI1
 70
     0
  9
$USERI2
 70
     0
  9
$USERI3
 70
     0
  9
$USERI4
 70
     0
  9
$USERI5
 70
     0
  9
$USERR1
 40
0.0
  9
$USERR2
 40
0.0
  9
$USERR3
 40
0.0
  9
$USERR4
 40
0.0
  9
$USERR5
 40
0.0
  9
$WORLDVIEW
 70
     1
  9
$SHADEDGE
 70
     3
  9
$SHADEDIF
 70
    70
  9
$TILEMODE
 70
     1
  9
$MAXACTVP
 70
    64
  9
$PINSBASE
 10
0.0
 20
0.0
 30
0.0
  9
$PLIMCHECK
 70
     0
  9
$PEXTMIN
 10
1.0000000000E+20
 20
1.0000000000E+20
 30
1.0000000000E+20
  9
$PEXTMAX
 10
-1.0000000000E+20
 20
-1.0000000000E+20
 30
-1.0000000000E+20
  9
$PLIMMIN
 10
0.0
 20
0.0
  9
$PLIMMAX
 10
420.0
 20
297.0
  9
$UNITMODE
 70
     0
  9
$VISRETAIN
 70
     1
  9
$PLINEGEN
 70
     0
  9
$PSLTSCALE
 70
     1
  9
$TREEDEPTH
 70
  3020
  9
$CMLSTYLE
  2
Standard
  9
$CMLJUST
 70
     0
  9
$CMLSCALE
 40
20.0
  9
$PROXYGRAPHICS
 70
     1
  9
$MEASUREMENT
 70
     1
  9
$CELWEIGHT
370
    -1
  9
$ENDCAPS
280
     0
  9
$JOINSTYLE
280
     0
  9
$LWDISPLAY
290
     1
  9
$INSUNITS
 70
     4
  9
$HYPERLINKBASE
  1

  9
$STYLESHEET
  1

  9
$XEDIT
290
     1
  9
$CEPSNTYPE
380
     0
  9
$PSTYLEMODE
290
     1
  9
$FINGERPRINTGUID
  2
{7C1F0656-CD4D-4B16-B1C3-23C89B4ED130}
  9
$VERSIONGUID
  2
{FAEB1C32-E019-11D5-929B-00C0DF256EC4}
  9
$EXTNAMES
290
     1
  9
$PSVPSCALE
 40
0.0
  9
$OLESTARTUP
290
     0
  0
ENDSEC
  0
SECTION
  2
CLASSES
  0
CLASS
  1
ACDBDICTIONARYWDFLT
  2
AcDbDictionaryWithDefault
  3
ObjectDBX Classes
 90
        0
280
     0
281
     0
  0
CLASS
  1
VISUALSTYLE
  2
AcDbVisualStyle
  3
ObjectDBX Classes
 90
     4095
280
     0
281
     0
  0
CLASS
  1
MATERIAL
  2
AcDbMaterial
  3
ObjectDBX Classes
 90
     1153
280
     0
281
     0
  0
CLASS
  1
ACDBPLACEHOLDER
  2
AcDbPlaceHolder
  3
ObjectDBX Classes
 90
        0
280
     0
281
     0
  0
CLASS
  1
LAYOUT
  2
AcDbLayout
  3
ObjectDBX Classes
 90
        0
280
     0
281
     0
  0
ENDSEC
  0
SECTION
  2
TABLES
  0
TABLE
  2
VPORT
  5
8
330
0
100
AcDbSymbolTable
 70
     1
  0
VPORT
  5
29
330
8
100
AcDbSymbolTableRecord
100
AcDbViewportTableRecord
  2
*Active
 70
     0
 10
0.0
 20
0.0
 11
1.0
 21
1.0
 12
297.0
 22
210.0
 13
0.0
 23
0.0
 14
10.0
 24
10.0
 15
10.0
 25
10.0
 16
0.0
 26
0.0
 36
1.0
 17
0.0
 27
0.0
 37
0.0
 40
420.0
 41
1.4142857143
 42
50.0
 43
0.0
 44
0.0
 50
0.0
 51
0.0
 71
     0
 72
  2000
 73
     1
 74
     3
 75
     0
 76
     0
 77
     0
 78
     0
281
     0
 65
     1
110
0.0
120
0.0
130
0.0
111
1.0
121
0.0
131
0.0
112
0.0
122
1.0
132
0.0
 79
     0
146
0.0
  0
ENDTAB
  0
TABLE
  2
LTYPE
  5
5
330
0
100
AcDbSymbolTable
 70
     6
  0
LTYPE
  5
14
330
5
100
AcDbSymbolTableRecord
100
AcDbLinetypeTableRecord
  2
ByBlock
 70
     0
  3

 72
    65
 73
     0
 40
0.0
  0
LTYPE
  5
15
330
5
100
AcDbSymbolTableRecord
100
AcDbLinetypeTableRecord
  2
ByLayer
 70
     0
  3

 72
    65
 73
     0
 40
0.0
  0
LTYPE
  5
16
330
5
100
AcDbSymbolTableRecord
100
AcDbLinetypeTableRecord
  2
Continuous
 70
     0
  3
Solid line
 72
    65
 73
     0
 40
0.0
  0
LTYPE
  5
3F
330
5
100
AcDbSymbolTableRecord
100
AcDbLinetypeTableRecord
  2
HIDDEN
 70
     0
  3
Hidden __ __ __ __ __ __ __ __ __ __ __ __ __ __
 72
    65
 73
     2
 40
1.905
 49
1.27
 74
     0
 49
-0.635
 74
     0
  0
LTYPE
  5
40
330
5
100
AcDbSymbolTableRecord
100
AcDbLinetypeTableRecord
  2
PHANTOM
 70
     0
  3
Phantom ______  __  __  ______  __  __  ______
 72
    65
 73
     6
 40
12.7
 49
6.35
 74
     0
 49
-1.27
 74
     0
 49
1.27
 74
     0
 49
-1.27
 74
     0
 49
1.27
 74
     0
 49
-1.27
 74
     0
  0
LTYPE
  5
41
330
5
100
AcDbSymbolTableRecord
100
AcDbLinetypeTableRecord
  2
CENTER
 70
     0
  3
Center ____ _ ____ _ ____ _ ____ _ ____ _ ____
 72
    65
 73
     4
 40
10.16
 49
6.35
 74
     0
 49
-1.27
 74
     0
 49
1.27
 74
     0
 49
-1.27
 74
     0
  0
LTYPE
  5
42
330
5
100
AcDbSymbolTableRecord
100
AcDbLinetypeTableRecord
  2
CENTERX2
 70
     0
  3
Center (2x) ________  __  ________  __  _____
 72
    65
 73
     4
 40
20.32
 49
12.7
 74
     0
 49
-2.54
 74
     0
 49
2.54
 74
     0
 49
-2.54
 74
     0
  0
LTYPE
  5
43
330
5
100
AcDbSymbolTableRecord
100
AcDbLinetypeTableRecord
  2
DOT2
 70
     0
  3
Dot (.5x) ........................................
 72
    65
 73
     2
 40
0.635
 49
0.0
 74
     0
 49
-0.635
 74
     0
  0
ENDTAB
  0
TABLE
  2
LAYER
  5
2
330
0
100
AcDbSymbolTable
 70
     3
  0
LAYER
  5
10
330
2
100
AcDbSymbolTableRecord
100
AcDbLayerTableRecord
  2
0
 70
     0
 62
     7
  6
Continuous
370
    -3
390
F
  0
LAYER
  5
44
330
2
100
AcDbSymbolTableRecord
100
AcDbLayerTableRecord
  2
FORMAT
 70
     0
 62
     7
  6
Continuous
370
    -3
390
F
  0
LAYER
  5
45
330
2
100
AcDbSymbolTableRecord
100
AcDbLayerTableRecord
  2
PROTOTYPE
 70
     0
 62
    -7
  6
Continuous
370
    -3
390
F
  0
ENDTAB
  0
TABLE
  2
STYLE
  5
3
330
0
100
AcDbSymbolTable
 70
     2
  0
STYLE
  5
11
330
3
100
AcDbSymbolTableRecord
100
AcDbTextStyleTableRecord
  2
Standard
 70
     0
 40
0.0
 41
1.0
 50
0.0
 71
     0
 42
3.5
  3
txt
  4

  0
STYLE
  5
78
330
3
100
AcDbSymbolTableRecord
100
AcDbTextStyleTableRecord
  2
SLDTEXTSTYLE0
 70
     0
 40
0.0
 41
0.605
 50
0.0
 71
     0
 42
0.2
  3
TXT
  4

  0
ENDTAB
  0
TABLE
  2
VIEW
  5
6
330
0
100
AcDbSymbolTable
 70
     0
  0
ENDTAB
  0
TABLE
  2
UCS
  5
7
330
0
100
AcDbSymbolTable
 70
     0
  0
ENDTAB
  0
TABLE
  2
APPID
  5
9
330
0
100
AcDbSymbolTable
 70
     1
  0
APPID
  5
12
330
9
100
AcDbSymbolTableRecord
100
AcDbRegAppTableRecord
  2
ACAD
 70
     0
  0
ENDTAB
  0
TABLE
  2
DIMSTYLE
  5
A
330
0
100
AcDbSymbolTable
 70
     1
100
AcDbDimStyleTable
  0
DIMSTYLE
105
27
330
A
100
AcDbSymbolTableRecord
100
AcDbDimStyleTableRecord
  2
ISO-25
 70
     0
 41
2.5
 42
0.625
 43
3.75
 44
1.25
 73
     0
 74
     0
 77
     1
 78
     8
140
2.5
141
2.5
143
0.0393700787
147
0.625
171
     3
172
     1
178
     0
271
     2
272
     2
274
     3
278
    44
283
     0
284
     8
340
11
  0
ENDTAB
  0
TABLE
  2
BLOCK_RECORD
  5
1
330
0
100
AcDbSymbolTable
 70
     3
  0
BLOCK_RECORD
  5
1F
330
1
100
AcDbSymbolTableRecord
100
AcDbBlockTableRecord
  2
*Model_Space
340
22
  0
BLOCK_RECORD
  5
1B
330
1
100
AcDbSymbolTableRecord
100
AcDbBlockTableRecord
  2
*Paper_Space
340
1E
  0
BLOCK_RECORD
  5
23
330
1
100
AcDbSymbolTableRecord
100
AcDbBlockTableRecord
  2
*Paper_Space0
340
26
  0
BLOCK_RECORD
  5
2EB
330
1
100
AcDbSymbolTableRecord
100
AcDbBlockTableRecord
  2
SW_CENTERMARKSYMBOL_0
340
0
102
{BLKREFS
331
2F6
102
}
  0
BLOCK_RECORD
  5
392
330
1
100
AcDbSymbolTableRecord
100
AcDbBlockTableRecord
  2
SW_CENTERMARKSYMBOL_1
340
0
102
{BLKREFS
331
39D
102
}
  0
ENDTAB
  0
ENDSEC
  0
SECTION
  2
BLOCKS
  0
BLOCK
  5
20
330
1F
100
AcDbEntity
  8
0
100
AcDbBlockBegin
  2
*Model_Space
 70
     0
 10
0.0
 20
0.0
 30
0.0
  3
*Model_Space
  1

  0
ENDBLK
  5
21
330
1F
100
AcDbEntity
  8
0
100
AcDbBlockEnd
  0
BLOCK
  5
1C
330
1B
100
AcDbEntity
 67
     1
  8
0
100
AcDbBlockBegin
  2
*Paper_Space
 70
     0
 10
0.0
 20
0.0
 30
0.0
  3
*Paper_Space
  1

  0
ENDBLK
  5
1D
330
1B
100
AcDbEntity
 67
     1
  8
0
100
AcDbBlockEnd
  0
BLOCK
  5
24
330
23
100
AcDbEntity
  8
0
100
AcDbBlockBegin
  2
*Paper_Space0
 70
     0
 10
0.0
 20
0.0
 30
0.0
  3
*Paper_Space0
  1

  0
ENDBLK
  5
25
330
23
100
AcDbEntity
  8
0
100
AcDbBlockEnd
  0
BLOCK
  5
2EC
330
2EB
100
AcDbEntity
  8
0
100
AcDbBlockBegin
  2
SW_CENTERMARKSYMBOL_0
 70
     0
 10
0.0
 20
0.0
 30
0.0
  3
SW_CENTERMARKSYMBOL_0
  1

  0
LINE
  5
2EE
330
2EB
100
AcDbEntity
  8
FORMAT
 62
     0
100
AcDbLine
 10
0.0
 20
0.0
 30
0.0
 11
0.0
 21
1.0
 31
0.0
  0
LINE
  5
2EF
330
2EB
100
AcDbEntity
  8
FORMAT
 62
     0
100
AcDbLine
 10
0.0
 20
0.0
 30
0.0
 11
-1.0
 21
0.0
 31
0.0
  0
LINE
  5
2F0
330
2EB
100
AcDbEntity
  8
FORMAT
 62
     0
100
AcDbLine
 10
0.0
 20
0.0
 30
0.0
 11
0.0
 21
-1.0
 31
0.0
  0
LINE
  5
2F1
330
2EB
100
AcDbEntity
  8
FORMAT
 62
     0
100
AcDbLine
 10
0.0
 20
0.0
 30
0.0
 11
1.0
 21
0.0
 31
0.0
  0
LINE
  5
2F2
330
2EB
100
AcDbEntity
  8
FORMAT
 62
     0
100
AcDbLine
 10
0.0
 20
2.0
 30
0.0
 11
0.0
 21
154.2454146312
 31
0.0
  0
LINE
  5
2F3
330
2EB
100
AcDbEntity
  8
FORMAT
 62
     0
100
AcDbLine
 10
-2.0
 20
0.0
 30
0.0
 11
-41.0
 21
0.0
 31
0.0
  0
LINE
  5
2F4
330
2EB
100
AcDbEntity
  8
FORMAT
 62
     0
100
AcDbLine
 10
0.0
 20
-2.0
 30
0.0
 11
0.0
 21
-41.0
 31
0.0
  0
LINE
  5
2F5
330
2EB
100
AcDbEntity
  8
FORMAT
 62
     0
100
AcDbLine
 10
2.0
 20
0.0
 30
0.0
 11
41.0
 21
0.0
 31
0.0
  0
ENDBLK
  5
2ED
330
2EB
100
AcDbEntity
  8
0
100
AcDbBlockEnd
  0
BLOCK
  5
393
330
392
100
AcDbEntity
  8
0
100
AcDbBlockBegin
  2
SW_CENTERMARKSYMBOL_1
 70
     0
 10
0.0
 20
0.0
 30
0.0
  3
SW_CENTERMARKSYMBOL_1
  1

  0
LINE
  5
395
330
392
100
AcDbEntity
  8
FORMAT
 62
     0
100
AcDbLine
 10
0.0
 20
0.0
 30
0.0
 11
0.0
 21
1.0
 31
0.0
  0
LINE
  5
396
330
392
100
AcDbEntity
  8
FORMAT
 62
     0
100
AcDbLine
 10
0.0
 20
0.0
 30
0.0
 11
-1.0
 21
0.0
 31
0.0
  0
LINE
  5
397
330
392
100
AcDbEntity
  8
FORMAT
 62
     0
100
AcDbLine
 10
0.0
 20
0.0
 30
0.0
 11
0.0
 21
-1.0
 31
0.0
  0
LINE
  5
398
330
392
100
AcDbEntity
  8
FORMAT
 62
     0
100
AcDbLine
 10
0.0
 20
0.0
 30
0.0
 11
1.0
 21
0.0
 31
0.0
  0
LINE
  5
399
330
392
100
AcDbEntity
  8
FORMAT
 62
     0
100
AcDbLine
 10
0.0
 20
2.0
 30
0.0
 11
0.0
 21
45.6453900862
 31
0.0
  0
LINE
  5
39A
330
392
100
AcDbEntity
  8
FORMAT
 62
     0
100
AcDbLine
 10
-2.0
 20
0.0
 30
0.0
 11
-45.6453900862
 21
0.0
 31
0.0
  0
LINE
  5
39B
330
392
100
AcDbEntity
  8
FORMAT
 62
     0
100
AcDbLine
 10
0.0
 20
-2.0
 30
0.0
 11
0.0
 21
-45.6453900862
 31
0.0
  0
LINE
  5
39C
330
392
100
AcDbEntity
  8
FORMAT
 62
     0
100
AcDbLine
 10
2.0
 20
0.0
 30
0.0
 11
45.6453900862
 21
0.0
 31
0.0
  0
ENDBLK
  5
394
330
392
100
AcDbEntity
  8
0
100
AcDbBlockEnd
  0
ENDSEC
  0
SECTION
  2
ENTITIES
  0
LINE
  5
46
330
1F
100
AcDbEntity
  8
FORMAT
370
    30
100
AcDbLine
 10
13.0
 20
12.8671069427
 30
0.0
 11
581.0
 21
12.8671069427
 31
0.0
  0
LINE
  5
47
330
1F
100
AcDbEntity
  8
FORMAT
370
    30
100
AcDbLine
 10
13.0
 20
12.8671069427
 30
0.0
 11
13.0
 21
406.8671069427
 31
0.0
  0
LINE
  5
48
330
1F
100
AcDbEntity
  8
0
  6
Continuous
 62
     7
370
    30
100
AcDbLine
 10
322.84
 20
412.8671069427
 30
0.0
 11
322.84
 21
406.8671069427
 31
0.0
  0
LINE
  5
49
330
1F
100
AcDbEntity
  8
FORMAT
370
    30
100
AcDbLine
 10
581.0
 20
12.8671069427
 30
0.0
 11
581.0
 21
412.8671069427
 31
0.0
  0
LINE
  5
4A
330
1F
100
AcDbEntity
  8
FORMAT
370
    30
100
AcDbLine
 10
581.0
 20
12.8671069427
 30
0.0
 11
581.0
 21
6.8671069427
 31
0.0
  0
LINE
  5
4B
330
1F
100
AcDbEntity
  8
0
  6
Continuous
 62
     7
370
    30
100
AcDbLine
 10
116.28
 20
12.8671069427
 30
0.0
 11
116.28
 21
6.8671069427
 31
0.0
  0
LINE
  5
4C
330
1F
100
AcDbEntity
  8
0
  6
Continuous
 62
     7
370
    30
100
AcDbLine
 10
271.2
 20
412.8671069427
 30
0.0
 11
271.2
 21
406.8671069427
 31
0.0
  0
LINE
  5
4D
330
1F
100
AcDbEntity
  8
0
  6
Continuous
 62
     7
370
    30
100
AcDbLine
 10
477.76
 20
412.8671069427
 30
0.0
 11
477.76
 21
406.8671069427
 31
0.0
  0
LINE
  5
4E
330
1F
100
AcDbEntity
  8
0
  6
Continuous
 62
     7
370
    30
100
AcDbLine
 10
116.28
 20
412.8671069427
 30
0.0
 11
116.28
 21
406.8671069427
 31
0.0
  0
LINE
  5
4F
330
1F
100
AcDbEntity
  8
0
  6
Continuous
 62
     7
370
    30
100
AcDbLine
 10
374.48
 20
412.8671069427
 30
0.0
 11
374.48
 21
406.8671069427
 31
0.0
  0
LINE
  5
50
330
1F
100
AcDbEntity
  8
0
  6
Continuous
 62
     7
370
    30
100
AcDbLine
 10
167.92
 20
12.8671069427
 30
0.0
 11
167.92
 21
6.8671069427
 31
0.0
  0
LINE
  5
51
330
1F
100
AcDbEntity
  8
0
  6
Continuous
 62
     7
370
    30
100
AcDbLine
 10
219.56
 20
12.8671069427
 30
0.0
 11
219.56
 21
6.8671069427
 31
0.0
  0
LINE
  5
52
330
1F
100
AcDbEntity
  8
0
  6
Continuous
 62
     7
370
    30
100
AcDbLine
 10
271.2
 20
12.8671069427
 30
0.0
 11
271.2
 21
6.8671069427
 31
0.0
  0
LINE
  5
53
330
1F
100
AcDbEntity
  8
0
  6
Continuous
 62
     7
370
    30
100
AcDbLine
 10
322.84
 20
12.8671069427
 30
0.0
 11
322.84
 21
6.8671069427
 31
0.0
  0
LINE
  5
54
330
1F
100
AcDbEntity
  8
0
  6
Continuous
 62
     7
370
    30
100
AcDbLine
 10
7.0
 20
62.1171069427
 30
0.0
 11
13.0
 21
62.1171069427
 31
0.0
  0
LINE
  5
55
330
1F
100
AcDbEntity
  8
0
  6
Continuous
 62
     7
370
    30
100
AcDbLine
 10
374.48
 20
12.8671069427
 30
0.0
 11
374.48
 21
6.8671069427
 31
0.0
  0
LINE
  5
56
330
1F
100
AcDbEntity
  8
0
  6
Continuous
 62
     7
370
    30
100
AcDbLine
 10
167.92
 20
412.8671069427
 30
0.0
 11
167.92
 21
406.8671069427
 31
0.0
  0
LINE
  5
57
330
1F
100
AcDbEntity
  8
0
  6
Continuous
 62
     7
370
    30
100
AcDbLine
 10
529.4
 20
412.8671069427
 30
0.0
 11
529.4
 21
406.8671069427
 31
0.0
  0
LINE
  5
58
330
1F
100
AcDbEntity
  8
0
  6
Continuous
 62
     7
370
    30
100
AcDbLine
 10
64.64
 20
412.8671069427
 30
0.0
 11
64.64
 21
406.8671069427
 31
0.0
  0
LINE
  5
59
330
1F
100
AcDbEntity
  8
0
  6
Continuous
 62
     7
370
    30
100
AcDbLine
 10
426.12
 20
412.8671069427
 30
0.0
 11
426.12
 21
406.8671069427
 31
0.0
  0
LINE
  5
5A
330
1F
100
AcDbEntity
  8
0
  6
Continuous
 62
     7
370
    30
100
AcDbLine
 10
426.12
 20
12.8671069427
 30
0.0
 11
426.12
 21
6.8671069427
 31
0.0
  0
LINE
  5
5B
330
1F
100
AcDbEntity
  8
0
  6
Continuous
 62
     7
370
    30
100
AcDbLine
 10
219.56
 20
412.8671069427
 30
0.0
 11
219.56
 21
406.8671069427
 31
0.0
  0
LINE
  5
5C
330
1F
100
AcDbEntity
  8
0
  6
Continuous
 62
     7
370
    30
100
AcDbLine
 10
7.0
 20
308.3671069427
 30
0.0
 11
13.0
 21
308.3671069427
 31
0.0
  0
LINE
  5
5D
330
1F
100
AcDbEntity
  8
0
  6
Continuous
 62
     7
370
    30
100
AcDbLine
 10
64.64
 20
12.8671069427
 30
0.0
 11
64.64
 21
6.8671069427
 31
0.0
  0
LINE
  5
5E
330
1F
100
AcDbEntity
  8
0
  6
Continuous
 62
     7
370
    30
100
AcDbLine
 10
477.76
 20
12.8671069427
 30
0.0
 11
477.76
 21
6.8671069427
 31
0.0
  0
LINE
  5
5F
330
1F
100
AcDbEntity
  8
0
  6
Continuous
 62
     7
370
    30
100
AcDbLine
 10
13.0
 20
12.8671069427
 30
0.0
 11
13.0
 21
6.8671069427
 31
0.0
  0
LINE
  5
60
330
1F
100
AcDbEntity
  8
FORMAT
  6
Continuous
 62
     7
370
    30
100
AcDbLine
 10
581.0
 20
12.8671069427
 30
0.0
 11
587.0
 21
12.8671069427
 31
0.0
  0
LINE
  5
61
330
1F
100
AcDbEntity
  8
0
  6
Continuous
 62
     7
370
    30
100
AcDbLine
 10
529.4
 20
12.8671069427
 30
0.0
 11
529.4
 21
6.8671069427
 31
0.0
  0
LINE
  5
62
330
1F
100
AcDbEntity
  8
0
  6
Continuous
 62
     7
370
    30
100
AcDbLine
 10
7.0
 20
357.6171069427
 30
0.0
 11
13.0
 21
357.6171069427
 31
0.0
  0
LINE
  5
63
330
1F
100
AcDbEntity
  8
0
  6
Continuous
 62
     7
370
    30
100
AcDbLine
 10
581.0
 20
111.3671069427
 30
0.0
 11
587.0
 21
111.3671069427
 31
0.0
  0
LINE
  5
64
330
1F
100
AcDbEntity
  8
0
  6
Continuous
 62
     7
370
    30
100
AcDbLine
 10
581.0
 20
62.1171069427
 30
0.0
 11
587.0
 21
62.1171069427
 31
0.0
  0
LINE
  5
65
330
1F
100
AcDbEntity
  8
0
  6
Continuous
 62
     7
370
    30
100
AcDbLine
 10
7.0
 20
12.8671069427
 30
0.0
 11
13.0
 21
12.8671069427
 31
0.0
  0
LINE
  5
66
330
1F
100
AcDbEntity
  8
0
  6
Continuous
 62
     7
370
    30
100
AcDbLine
 10
581.0
 20
160.6171069427
 30
0.0
 11
587.0
 21
160.6171069427
 31
0.0
  0
LINE
  5
67
330
1F
100
AcDbEntity
  8
0
  6
Continuous
 62
     7
370
    30
100
AcDbLine
 10
581.0
 20
209.8671069427
 30
0.0
 11
587.0
 21
209.8671069427
 31
0.0
  0
LINE
  5
68
330
1F
100
AcDbEntity
  8
0
  6
Continuous
 62
     7
370
    30
100
AcDbLine
 10
7.0
 20
259.1171069427
 30
0.0
 11
13.0
 21
259.1171069427
 31
0.0
  0
LINE
  5
69
330
1F
100
AcDbEntity
  8
0
  6
Continuous
 62
     7
370
    30
100
AcDbLine
 10
7.0
 20
160.6171069427
 30
0.0
 11
13.0
 21
160.6171069427
 31
0.0
  0
LINE
  5
6A
330
1F
100
AcDbEntity
  8
0
  6
Continuous
 62
     7
370
    30
100
AcDbLine
 10
7.0
 20
209.8671069427
 30
0.0
 11
13.0
 21
209.8671069427
 31
0.0
  0
LINE
  5
6B
330
1F
100
AcDbEntity
  8
0
  6
Continuous
 62
     7
370
    30
100
AcDbLine
 10
7.0
 20
111.3671069427
 30
0.0
 11
13.0
 21
111.3671069427
 31
0.0
  0
LINE
  5
6C
330
1F
100
AcDbEntity
  8
0
  6
Continuous
 62
     7
370
    30
100
AcDbLine
 10
7.0
 20
406.8671069427
 30
0.0
 11
581.0
 21
406.8671069427
 31
0.0
  0
LINE
  5
6D
330
1F
100
AcDbEntity
  8
0
  6
Continuous
 62
     7
370
    30
100
AcDbLine
 10
13.0
 20
412.8671069427
 30
0.0
 11
13.0
 21
406.8671069427
 31
0.0
  0
LINE
  5
6E
330
1F
100
AcDbEntity
  8
0
  6
Continuous
 62
     7
370
     0
100
AcDbLine
 10
581.0
 20
296.8671069427
 30
0.0
 11
589.0
 21
296.8671069427
 31
0.0
  0
LINE
  5
6F
330
1F
100
AcDbEntity
  8
0
  6
Continuous
 62
     7
370
     0
100
AcDbLine
 10
383.75
 20
12.8671069427
 30
0.0
 11
383.75
 21
4.8671069427
 31
0.0
  0
LINE
  5
70
330
1F
100
AcDbEntity
  8
0
  6
Continuous
 62
     7
370
     0
100
AcDbLine
 10
186.5
 20
12.8671069427
 30
0.0
 11
186.5
 21
4.8671069427
 31
0.0
  0
LINE
  5
71
330
1F
100
AcDbEntity
  8
0
  6
Continuous
 62
     7
370
     0
100
AcDbLine
 10
383.75
 20
414.8671069427
 30
0.0
 11
383.75
 21
406.8671069427
 31
0.0
  0
LINE
  5
72
330
1F
100
AcDbEntity
  8
0
  6
Continuous
 62
     7
370
     0
100
AcDbLine
 10
186.5
 20
414.8671069427
 30
0.0
 11
186.5
 21
406.8671069427
 31
0.0
  0
LINE
  5
73
330
1F
100
AcDbEntity
  8
0
  6
Continuous
 62
     7
370
    30
100
AcDbLine
 10
581.0
 20
259.1171069427
 30
0.0
 11
587.0
 21
259.1171069427
 31
0.0
  0
LINE
  5
74
330
1F
100
AcDbEntity
  8
0
  6
Continuous
 62
     7
370
    30
100
AcDbLine
 10
581.0
 20
308.3671069427
 30
0.0
 11
587.0
 21
308.3671069427
 31
0.0
  0
LINE
  5
75
330
1F
100
AcDbEntity
  8
0
  6
Continuous
 62
     7
370
    30
100
AcDbLine
 10
581.0
 20
357.6171069427
 30
0.0
 11
587.0
 21
357.6171069427
 31
0.0
  0
LINE
  5
76
330
1F
100
AcDbEntity
  8
0
  6
Continuous
 62
     7
370
    30
100
AcDbLine
 10
581.0
 20
406.8671069427
 30
0.0
 11
587.0
 21
406.8671069427
 31
0.0
  0
LINE
  5
77
330
1F
100
AcDbEntity
  8
0
  6
Continuous
 62
     7
370
     0
100
AcDbLine
 10
5.0
 20
296.8671069427
 30
0.0
 11
13.0
 21
296.8671069427
 31
0.0
  0
MTEXT
  5
79
330
1F
100
AcDbEntity
  8
FORMAT
100
AcDbMText
 10
37.9004191961
 20
10.6375696681
 30
0.0
 40
2.0
 41
0.0
 71
     1
 72
     1
  1
A
  7
SLDTEXTSTYLE0
 73
     1
 44
1.0
  0
MTEXT
  5
7A
330
1F
100
AcDbEntity
  8
FORMAT
100
AcDbMText
 10
582.9767730496
 20
38.8659487504
 30
0.0
 40
2.0
 41
0.0
 71
     1
 72
     1
  1
8
  7
SLDTEXTSTYLE0
 73
     1
 44
1.0
  0
MTEXT
  5
7B
330
1F
100
AcDbEntity
  8
FORMAT
100
AcDbMText
 10
89.5404191961
 20
10.6375696681
 30
0.0
 40
2.0
 41
0.0
 71
     1
 72
     1
  1
B
  7
SLDTEXTSTYLE0
 73
     1
 44
1.0
  0
MTEXT
  5
7C
330
1F
100
AcDbEntity
  8
FORMAT
100
AcDbMText
 10
141.1804191961
 20
10.6375696681
 30
0.0
 40
2.0
 41
0.0
 71
     1
 72
     1
  1
C
  7
SLDTEXTSTYLE0
 73
     1
 44
1.0
  0
MTEXT
  5
7D
330
1F
100
AcDbEntity
  8
FORMAT
100
AcDbMText
 10
192.8204191961
 20
10.6375696681
 30
0.0
 40
2.0
 41
0.0
 71
     1
 72
     1
  1
D
  7
SLDTEXTSTYLE0
 73
     1
 44
1.0
  0
MTEXT
  5
7E
330
1F
100
AcDbEntity
  8
FORMAT
100
AcDbMText
 10
244.4604191961
 20
10.6375696681
 30
0.0
 40
2.0
 41
0.0
 71
     1
 72
     1
  1
E
  7
SLDTEXTSTYLE0
 73
     1
 44
1.0
  0
MTEXT
  5
7F
330
1F
100
AcDbEntity
  8
FORMAT
100
AcDbMText
 10
296.1004191961
 20
10.6375696681
 30
0.0
 40
2.0
 41
0.0
 71
     1
 72
     1
  1
F
  7
SLDTEXTSTYLE0
 73
     1
 44
1.0
  0
MTEXT
  5
80
330
1F
100
AcDbEntity
  8
FORMAT
100
AcDbMText
 10
347.7404191961
 20
10.6375696681
 30
0.0
 40
2.0
 41
0.0
 71
     1
 72
     1
  1
G
  7
SLDTEXTSTYLE0
 73
     1
 44
1.0
  0
MTEXT
  5
81
330
1F
100
AcDbEntity
  8
FORMAT
100
AcDbMText
 10
397.7250046897
 20
10.6375696681
 30
0.0
 40
2.0
 41
0.0
 71
     1
 72
     1
  1
H
  7
SLDTEXTSTYLE0
 73
     1
 44
1.0
  0
MTEXT
  5
82
330
1F
100
AcDbEntity
  8
FORMAT
100
AcDbMText
 10
451.0204191961
 20
10.6375696681
 30
0.0
 40
2.0
 41
0.0
 71
     1
 72
     1
  1
I
  7
SLDTEXTSTYLE0
 73
     1
 44
1.0
  0
MTEXT
  5
83
330
1F
100
AcDbEntity
  8
FORMAT
100
AcDbMText
 10
502.6604191961
 20
10.6375696681
 30
0.0
 40
2.0
 41
0.0
 71
     1
 72
     1
  1
J
  7
SLDTEXTSTYLE0
 73
     1
 44
1.0
  0
MTEXT
  5
84
330
1F
100
AcDbEntity
  8
FORMAT
100
AcDbMText
 10
554.3004191961
 20
10.6375696681
 30
0.0
 40
2.0
 41
0.0
 71
     1
 72
     1
  1
K
  7
SLDTEXTSTYLE0
 73
     1
 44
1.0
  0
MTEXT
  5
85
330
1F
100
AcDbEntity
  8
FORMAT
100
AcDbMText
 10
582.9767730496
 20
88.1159487504
 30
0.0
 40
2.0
 41
0.0
 71
     1
 72
     1
  1
7
  7
SLDTEXTSTYLE0
 73
     1
 44
1.0
  0
MTEXT
  5
86
330
1F
100
AcDbEntity
  8
FORMAT
100
AcDbMText
 10
582.9767730496
 20
137.3659487504
 30
0.0
 40
2.0
 41
0.0
 71
     1
 72
     1
  1
6
  7
SLDTEXTSTYLE0
 73
     1
 44
1.0
  0
MTEXT
  5
87
330
1F
100
AcDbEntity
  8
FORMAT
100
AcDbMText
 10
582.9767730496
 20
186.6159487504
 30
0.0
 40
2.0
 41
0.0
 71
     1
 72
     1
  1
5
  7
SLDTEXTSTYLE0
 73
     1
 44
1.0
  0
MTEXT
  5
88
330
1F
100
AcDbEntity
  8
FORMAT
100
AcDbMText
 10
582.9767730496
 20
235.8659487504
 30
0.0
 40
2.0
 41
0.0
 71
     1
 72
     1
  1
4
  7
SLDTEXTSTYLE0
 73
     1
 44
1.0
  0
MTEXT
  5
89
330
1F
100
AcDbEntity
  8
FORMAT
100
AcDbMText
 10
582.9767730496
 20
285.1159487504
 30
0.0
 40
2.0
 41
0.0
 71
     1
 72
     1
  1
3
  7
SLDTEXTSTYLE0
 73
     1
 44
1.0
  0
MTEXT
  5
8A
330
1F
100
AcDbEntity
  8
FORMAT
100
AcDbMText
 10
582.9767730496
 20
334.3659487504
 30
0.0
 40
2.0
 41
0.0
 71
     1
 72
     1
  1
2
  7
SLDTEXTSTYLE0
 73
     1
 44
1.0
  0
MTEXT
  5
8B
330
1F
100
AcDbEntity
  8
FORMAT
100
AcDbMText
 10
582.9767730496
 20
383.6159487504
 30
0.0
 40
2.0
 41
0.0
 71
     1
 72
     1
  1
1
  7
SLDTEXTSTYLE0
 73
     1
 44
1.0
  0
MTEXT
  5
8C
330
1F
100
AcDbEntity
  8
FORMAT
100
AcDbMText
 10
399.3804191961
 20
410.6375696681
 30
0.0
 40
2.0
 41
0.0
 71
     1
 72
     1
  1
H
  7
SLDTEXTSTYLE0
 73
     1
 44
1.0
  0
MTEXT
  5
8D
330
1F
100
AcDbEntity
  8
FORMAT
100
AcDbMText
 10
244.4604191961
 20
410.6375696681
 30
0.0
 40
2.0
 41
0.0
 71
     1
 72
     1
  1
E
  7
SLDTEXTSTYLE0
 73
     1
 44
1.0
  0
MTEXT
  5
8E
330
1F
100
AcDbEntity
  8
FORMAT
100
AcDbMText
 10
37.9004191961
 20
410.6375696681
 30
0.0
 40
2.0
 41
0.0
 71
     1
 72
     1
  1
A
  7
SLDTEXTSTYLE0
 73
     1
 44
1.0
  0
MTEXT
  5
8F
330
1F
100
AcDbEntity
  8
FORMAT
100
AcDbMText
 10
89.5404191961
 20
410.6375696681
 30
0.0
 40
2.0
 41
0.0
 71
     1
 72
     1
  1
B
  7
SLDTEXTSTYLE0
 73
     1
 44
1.0
  0
MTEXT
  5
90
330
1F
100
AcDbEntity
  8
FORMAT
100
AcDbMText
 10
451.0204191961
 20
410.6375696681
 30
0.0
 40
2.0
 41
0.0
 71
     1
 72
     1
  1
I
  7
SLDTEXTSTYLE0
 73
     1
 44
1.0
  0
MTEXT
  5
91
330
1F
100
AcDbEntity
  8
FORMAT
100
AcDbMText
 10
141.1804191961
 20
410.6375696681
 30
0.0
 40
2.0
 41
0.0
 71
     1
 72
     1
  1
C
  7
SLDTEXTSTYLE0
 73
     1
 44
1.0
  0
MTEXT
  5
92
330
1F
100
AcDbEntity
  8
FORMAT
100
AcDbMText
 10
296.1004191961
 20
410.6375696681
 30
0.0
 40
2.0
 41
0.0
 71
     1
 72
     1
  1
F
  7
SLDTEXTSTYLE0
 73
     1
 44
1.0
  0
MTEXT
  5
93
330
1F
100
AcDbEntity
  8
FORMAT
100
AcDbMText
 10
554.3004191961
 20
410.6375696681
 30
0.0
 40
2.0
 41
0.0
 71
     1
 72
     1
  1
K
  7
SLDTEXTSTYLE0
 73
     1
 44
1.0
  0
MTEXT
  5
94
330
1F
100
AcDbEntity
  8
FORMAT
100
AcDbMText
 10
502.6604191961
 20
410.6375696681
 30
0.0
 40
2.0
 41
0.0
 71
     1
 72
     1
  1
J
  7
SLDTEXTSTYLE0
 73
     1
 44
1.0
  0
MTEXT
  5
95
330
1F
100
AcDbEntity
  8
FORMAT
100
AcDbMText
 10
347.7404191961
 20
410.6375696681
 30
0.0
 40
2.0
 41
0.0
 71
     1
 72
     1
  1
G
  7
SLDTEXTSTYLE0
 73
     1
 44
1.0
  0
MTEXT
  5
96
330
1F
100
AcDbEntity
  8
FORMAT
100
AcDbMText
 10
192.8204191961
 20
410.6375696681
 30
0.0
 40
2.0
 41
0.0
 71
     1
 72
     1
  1
D
  7
SLDTEXTSTYLE0
 73
     1
 44
1.0
  0
MTEXT
  5
97
330
1F
100
AcDbEntity
  8
FORMAT
100
AcDbMText
 10
8.9767730496
 20
334.3659487504
 30
0.0
 40
2.0
 41
0.0
 71
     1
 72
     1
  1
2
  7
SLDTEXTSTYLE0
 73
     1
 44
1.0
  0
MTEXT
  5
98
330
1F
100
AcDbEntity
  8
FORMAT
100
AcDbMText
 10
8.9767730496
 20
186.6159487504
 30
0.0
 40
2.0
 41
0.0
 71
     1
 72
     1
  1
5
  7
SLDTEXTSTYLE0
 73
     1
 44
1.0
  0
MTEXT
  5
99
330
1F
100
AcDbEntity
  8
FORMAT
100
AcDbMText
 10
8.9767730496
 20
285.1159487504
 30
0.0
 40
2.0
 41
0.0
 71
     1
 72
     1
  1
3
  7
SLDTEXTSTYLE0
 73
     1
 44
1.0
  0
MTEXT
  5
9A
330
1F
100
AcDbEntity
  8
FORMAT
100
AcDbMText
 10
8.9767730496
 20
235.8659487504
 30
0.0
 40
2.0
 41
0.0
 71
     1
 72
     1
  1
4
  7
SLDTEXTSTYLE0
 73
     1
 44
1.0
  0
MTEXT
  5
9B
330
1F
100
AcDbEntity
  8
FORMAT
100
AcDbMText
 10
8.9767730496
 20
88.1159487504
 30
0.0
 40
2.0
 41
0.0
 71
     1
 72
     1
  1
7
  7
SLDTEXTSTYLE0
 73
     1
 44
1.0
  0
MTEXT
  5
9C
330
1F
100
AcDbEntity
  8
FORMAT
100
AcDbMText
 10
8.9767730496
 20
137.3659487504
 30
0.0
 40
2.0
 41
0.0
 71
     1
 72
     1
  1
6
  7
SLDTEXTSTYLE0
 73
     1
 44
1.0
  0
MTEXT
  5
9D
330
1F
100
AcDbEntity
  8
FORMAT
100
AcDbMText
 10
8.9767730496
 20
383.6159487504
 30
0.0
 40
2.0
 41
0.0
 71
     1
 72
     1
  1
1
  7
SLDTEXTSTYLE0
 73
     1
 44
1.0
  0
MTEXT
  5
9E
330
1F
100
AcDbEntity
  8
FORMAT
100
AcDbMText
 10
8.9767730496
 20
38.8659487504
 30
0.0
 40
2.0
 41
0.0
 71
     1
 72
     1
  1
8
  7
SLDTEXTSTYLE0
 73
     1
 44
1.0
  0
LINE
  5
9F
330
1F
100
AcDbEntity
  8
0
  6
Continuous
 62
     7
370
    15
100
AcDbLine
 10
244.4283154362
 20
360.10280276
 30
0.0
 11
244.0737055223
 21
364.1560126223
 31
0.0
  0
LINE
  5
A0
330
1F
100
AcDbEntity
  8
0
  6
Continuous
 62
     7
370
    15
100
AcDbLine
 10
154.78292535
 20
364.1560126223
 30
0.0
 11
154.4283154362
 21
360.10280276
 31
0.0
  0
ARC
  5
A1
330
1F
100
AcDbEntity
  8
0
  6
Continuous
 62
     7
370
    15
100
AcDbCircle
 10
159.9631377801
 20
363.70280276
 30
0.0
 40
5.200000000000006
100
AcDbArc
 50
90.0
 51
175.0
  0
ARC
  5
A2
330
1F
100
AcDbEntity
  8
0
  6
Continuous
 62
     7
370
    15
100
AcDbCircle
 10
238.8934930922
 20
363.70280276
 30
0.0
 40
5.200000000000006
100
AcDbArc
 50
5.0
 51
90.0
  0
LINE
  5
A3
330
1F
100
AcDbEntity
  8
0
  6
Continuous
 62
     7
370
    15
100
AcDbLine
 10
238.8934930922
 20
368.90280276
 30
0.0
 11
159.9631377801
 21
368.90280276
 31
0.0
  0
LINE
  5
A4
330
1F
100
AcDbEntity
  8
0
  6
Continuous
 62
     7
370
    15
100
AcDbLine
 10
234.2283154362
 20
256.10280276
 30
0.0
 11
220.6283154362
 21
256.10280276
 31
0.0
  0
LINE
  5
A5
330
1F
100
AcDbEntity
  8
0
  6
Continuous
 62
     7
370
    15
100
AcDbLine
 10
231.8283154362
 20
176.10280276
 30
0.0
 11
234.2283154362
 21
176.10280276
 31
0.0
  0
LINE
  5
A6
330
1F
100
AcDbEntity
  8
0
  6
Continuous
 62
     7
370
    15
100
AcDbLine
 10
164.6283154362
 20
176.10280276
 30
0.0
 11
167.0283154362
 21
176.10280276
 31
0.0
  0
LINE
  5
A7
330
1F
100
AcDbEntity
  8
0
  6
Continuous
 62
     7
370
    15
100
AcDbLine
 10
178.2283154362
 20
256.10280276
 30
0.0
 11
164.6283154362
 21
256.10280276
 31
0.0
  0
LINE
  5
A8
330
1F
100
AcDbEntity
  8
0
  6
Continuous
 62
     7
370
    15
100
AcDbLine
 10
209.8283154362
 20
282.50280276
 30
0.0
 11
209.8283154362
 21
278.0000642526
 31
0.0
  0
LINE
  5
A9
330
1F
100
AcDbEntity
  8
0
  6
Continuous
 62
     7
370
    15
100
AcDbLine
 10
189.0283154362
 20
278.0000642526
 30
0.0
 11
189.0283154362
 21
282.50280276
 31
0.0
  0
LINE
  5
AA
330
1F
100
AcDbEntity
  8
0
  6
Continuous
 62
     7
370
    15
100
AcDbLine
 10
234.2283154362
 20
188.30280276
 30
0.0
 11
235.4283154362
 21
189.50280276
 31
0.0
  0
LINE
  5
AB
330
1F
100
AcDbEntity
  8
0
  6
Continuous
 62
     7
370
    15
100
AcDbLine
 10
235.4283154362
 20
242.70280276
 30
0.0
 11
234.2283154362
 21
243.90280276
 31
0.0
  0
LINE
  5
AC
330
1F
100
AcDbEntity
  8
0
  6
Continuous
 62
     7
370
    15
100
AcDbLine
 10
164.6283154362
 20
243.90280276
 30
0.0
 11
163.4283154362
 21
242.70280276
 31
0.0
  0
LINE
  5
AD
330
1F
100
AcDbEntity
  8
0
  6
Continuous
 62
     7
370
    15
100
AcDbLine
 10
163.4283154362
 20
189.50280276
 30
0.0
 11
164.6283154362
 21
188.30280276
 31
0.0
  0
LINE
  5
AE
330
1F
100
AcDbEntity
  8
0
  6
Continuous
 62
     7
370
    15
100
AcDbLine
 10
176.4283154362
 20
270.50280276
 30
0.0
 11
176.7082791594
 21
267.30280276
 31
0.0
  0
LINE
  5
AF
330
1F
100
AcDbEntity
  8
0
  6
Continuous
 62
     7
370
    15
100
AcDbLine
 10
222.1483517129
 20
267.30280276
 30
0.0
 11
222.4283154362
 21
270.50280276
 31
0.0
  0
LINE
  5
B0
330
1F
100
AcDbEntity
  8
0
  6
Continuous
 62
     7
370
    15
100
AcDbLine
 10
220.6287517671
 20
266.8956271817
 30
0.0
 11
222.1483517129
 21
267.30280276
 31
0.0
  0
LINE
  5
B1
330
1F
100
AcDbEntity
  8
0
  6
Continuous
 62
     7
370
    15
100
AcDbLine
 10
176.7082791594
 20
267.30280276
 30
0.0
 11
178.2278791052
 21
266.8956271817
 31
0.0
  0
LINE
  5
B2
330
1F
100
AcDbEntity
  8
0
  6
Continuous
 62
     7
370
    15
100
AcDbLine
 10
222.393407965
 20
274.50280276
 30
0.0
 11
220.0773498818
 21
275.8399795178
 31
0.0
  0
LINE
  5
B3
330
1F
100
AcDbEntity
  8
0
  6
Continuous
 62
     7
370
    15
100
AcDbLine
 10
178.7792809905
 20
275.8399795178
 30
0.0
 11
176.4632229073
 21
274.50280276
 31
0.0
  0
LINE
  5
B4
330
1F
100
AcDbEntity
  8
0
  6
Continuous
 62
     7
370
    15
100
AcDbLine
 10
222.4283154362
 20
270.50280276
 30
0.0
 11
222.393407965
 21
274.50280276
 31
0.0
  0
LINE
  5
B5
330
1F
100
AcDbEntity
  8
0
  6
Continuous
 62
     7
370
    15
100
AcDbLine
 10
176.4632229073
 20
274.50280276
 30
0.0
 11
176.4283154362
 21
270.50280276
 31
0.0
  0
ARC
  5
B6
330
1F
100
AcDbEntity
  8
0
  6
Continuous
 62
     7
370
    15
100
AcDbCircle
 10
186.2283154362
 20
277.30280276
 30
0.0
 40
30.52
100
AcDbArc
 50
9.8099183596
 51
16.2811304868
  0
ARC
  5
B7
330
1F
100
AcDbEntity
  8
0
  6
Continuous
 62
     7
370
    15
100
AcDbCircle
 10
212.6283154362
 20
277.30280276
 30
0.0
 40
30.52
100
AcDbArc
 50
163.7198315147
 51
170.1900816404
  0
LINE
  5
B8
330
1F
100
AcDbEntity
  8
0
  6
Continuous
 62
     7
370
    15
100
AcDbLine
 10
183.4283154362
 20
294.90280276
 30
0.0
 11
183.4283154362
 21
286.5313671121
 31
0.0
  0
LINE
  5
B9
330
1F
100
AcDbEntity
  8
0
  6
Continuous
 62
     7
370
    15
100
AcDbLine
 10
215.4283154362
 20
286.5313671121
 30
0.0
 11
215.4283154362
 21
294.90280276
 31
0.0
  0
ARC
  5
BA
330
1F
100
AcDbEntity
  8
0
  6
Continuous
 62
     7
370
    15
100
AcDbCircle
 10
184.6283154362
 20
294.90280276
 30
0.0
 40
1.199999999999989
100
AcDbArc
 50
90.0
 51
180.0
  0
ARC
  5
BB
330
1F
100
AcDbEntity
  8
0
  6
Continuous
 62
     7
370
    15
100
AcDbCircle
 10
214.2283154362
 20
294.90280276
 30
0.0
 40
1.199999999999989
100
AcDbArc
 50
0.0
 51
90.0
  0
ARC
  5
BC
330
1F
100
AcDbEntity
  8
0
  6
Continuous
 62
     7
370
    15
100
AcDbCircle
 10
214.022154551
 20
298.50280276
 30
0.0
 40
2.400000000000034
100
AcDbArc
 50
190.0
 51
270.0
  0
ARC
  5
BD
330
1F
100
AcDbEntity
  8
0
  6
Continuous
 62
     7
370
    15
100
AcDbCircle
 10
184.8344763213
 20
298.50280276
 30
0.0
 40
2.400000000000034
100
AcDbArc
 50
270.0
 51
350.0
  0
LINE
  5
BE
330
1F
100
AcDbEntity
  8
0
  6
Continuous
 62
     7
370
    15
100
AcDbLine
 10
188.0388147712
 20
302.8544599954
 30
0.0
 11
187.1980149286
 21
298.0860471336
 31
0.0
  0
LINE
  5
BF
330
1F
100
AcDbEntity
  8
0
  6
Continuous
 62
     7
370
    15
100
AcDbLine
 10
211.6586159437
 20
298.0860471336
 30
0.0
 11
210.8178161011
 21
302.8544599954
 31
0.0
  0
LINE
  5
C0
330
1F
100
AcDbEntity
  8
0
  6
Continuous
 62
     7
370
    15
100
AcDbLine
 10
188.5687174745
 20
312.9656059075
 30
0.0
 11
188.0388147712
 21
302.8544599954
 31
0.0
  0
LINE
  5
C1
330
1F
100
AcDbEntity
  8
0
  6
Continuous
 62
     7
370
    15
100
AcDbLine
 10
210.8178161011
 20
302.8544599954
 30
0.0
 11
210.2879133978
 21
312.9656059075
 31
0.0
  0
LINE
  5
C2
330
1F
100
AcDbEntity
  8
0
  6
Continuous
 62
     7
370
    15
100
AcDbLine
 10
196.8283154362
 20
316.74280276
 30
0.0
 11
196.8283154362
 21
316.50280276
 31
0.0
  0
LINE
  5
C3
330
1F
100
AcDbEntity
  8
0
  6
Continuous
 62
     7
370
    15
100
AcDbLine
 10
202.0283154362
 20
316.50280276
 30
0.0
 11
202.0283154362
 21
316.74280276
 31
0.0
  0
ARC
  5
C4
330
1F
100
AcDbEntity
  8
0
  6
Continuous
 62
     7
370
    15
100
AcDbCircle
 10
209.0895579561
 20
312.90280276
 30
0.0
 40
1.20000000000001
100
AcDbArc
 50
3.0
 51
90.0
  0
ARC
  5
C5
330
1F
100
AcDbEntity
  8
0
  6
Continuous
 62
     7
370
    15
100
AcDbCircle
 10
189.7670729162
 20
312.90280276
 30
0.0
 40
1.20000000000001
100
AcDbArc
 50
90.0
 51
177.0
  0
LINE
  5
C6
330
1F
100
AcDbEntity
  8
0
  6
Continuous
 62
     7
370
    15
100
AcDbLine
 10
197.8283154362
 20
329.30280276
 30
0.0
 11
197.8283154362
 21
319.22280276
 31
0.0
  0
LINE
  5
C7
330
1F
100
AcDbEntity
  8
0
  6
Continuous
 62
     7
370
    15
100
AcDbLine
 10
201.0283154362
 20
319.22280276
 30
0.0
 11
201.0283154362
 21
329.30280276
 31
0.0
  0
ARC
  5
C8
330
1F
100
AcDbEntity
  8
0
  6
Continuous
 62
     7
370
    15
100
AcDbCircle
 10
197.3811018407
 20
329.70280276
 30
0.0
 40
0.6000000000000243
100
AcDbArc
 50
318.1896851042
 51
41.8103148958
  0
ARC
  5
C9
330
1F
100
AcDbEntity
  8
0
  6
Continuous
 62
     7
370
    15
100
AcDbCircle
 10
201.4755290317
 20
329.70280276
 30
0.0
 40
0.6000000000000243
100
AcDbArc
 50
138.1896851042
 51
221.8103148958
  0
LINE
  5
CA
330
1F
100
AcDbEntity
  8
0
  6
Continuous
 62
     7
370
    15
100
AcDbLine
 10
197.8283154362
 20
332.50280276
 30
0.0
 11
197.8283154362
 21
330.10280276
 31
0.0
  0
LINE
  5
CB
330
1F
100
AcDbEntity
  8
0
  6
Continuous
 62
     7
370
    15
100
AcDbLine
 10
201.0283154362
 20
330.10280276
 30
0.0
 11
201.0283154362
 21
332.50280276
 31
0.0
  0
LINE
  5
CC
330
1F
100
AcDbEntity
  8
0
  6
Continuous
 62
     7
370
    15
100
AcDbLine
 10
197.8283154362
 20
339.30280276
 30
0.0
 11
197.8283154362
 21
335.70280276
 31
0.0
  0
LINE
  5
CD
330
1F
100
AcDbEntity
  8
0
  6
Continuous
 62
     7
370
    15
100
AcDbLine
 10
201.0283154362
 20
335.70280276
 30
0.0
 11
201.0283154362
 21
339.30280276
 31
0.0
  0
LINE
  5
CE
330
1F
100
AcDbEntity
  8
0
  6
Continuous
 62
     7
370
    15
100
AcDbLine
 10
197.8283154362
 20
343.891657142
 30
0.0
 11
197.8283154362
 21
340.10280276
 31
0.0
  0
LINE
  5
CF
330
1F
100
AcDbEntity
  8
0
  6
Continuous
 62
     7
370
    15
100
AcDbLine
 10
201.0283154362
 20
340.10280276
 30
0.0
 11
201.0283154362
 21
343.891657142
 31
0.0
  0
ARC
  5
D0
330
1F
100
AcDbEntity
  8
0
  6
Continuous
 62
     7
370
    15
100
AcDbCircle
 10
197.3811018407
 20
339.70280276
 30
0.0
 40
0.5999999999999864
100
AcDbArc
 50
318.1896851042
 51
41.8103148958
  0
ARC
  5
D1
330
1F
100
AcDbEntity
  8
0
  6
Continuous
 62
     7
370
    15
100
AcDbCircle
 10
201.4755290317
 20
339.70280276
 30
0.0
 40
0.5999999999999864
100
AcDbArc
 50
138.1896851042
 51
221.8103148958
  0
ARC
  5
D2
330
1F
100
AcDbEntity
  8
0
  6
Continuous
 62
     7
370
    15
100
AcDbCircle
 10
199.4283154362
 20
342.10280276
 30
0.0
 40
2.400000000000003
100
AcDbArc
 50
48.1896851042
 51
131.8103148958
  0
LINE
  5
D3
330
1F
100
AcDbEntity
  8
0
  6
Continuous
 62
     7
370
    15
100
AcDbLine
 10
189.4283154362
 20
351.70280276
 30
0.0
 11
189.4283154362
 21
349.70280276
 31
0.0
  0
LINE
  5
D4
330
1F
100
AcDbEntity
  8
0
  6
Continuous
 62
     7
370
    15
100
AcDbLine
 10
189.4283154362
 20
359.70280276
 30
0.0
 11
189.4283154362
 21
358.0552978945
 31
0.0
  0
LINE
  5
D5
330
1F
100
AcDbEntity
  8
0
  6
Continuous
 62
     7
370
    15
100
AcDbLine
 10
209.4283154362
 20
349.70280276
 30
0.0
 11
209.4283154362
 21
353.1002098135
 31
0.0
  0
LINE
  5
D6
330
1F
100
AcDbEntity
  8
0
  6
Continuous
 62
     7
370
    15
100
AcDbLine
 10
196.8283154362
 20
319.22280276
 30
0.0
 11
196.4260940364
 21
318.9905801266
 31
0.0
  0
LINE
  5
D7
330
1F
100
AcDbEntity
  8
0
  6
Continuous
 62
     7
370
    15
100
AcDbLine
 10
202.4305368359
 20
318.9905801266
 30
0.0
 11
202.0283154362
 21
319.22280276
 31
0.0
  0
LINE
  5
D8
330
1F
100
AcDbEntity
  8
0
  6
Continuous
 62
     7
370
    15
100
AcDbLine
 10
190.4283154362
 20
316.50280276
 30
0.0
 11
190.4283154362
 21
314.10280276
 31
0.0
  0
LINE
  5
D9
330
1F
100
AcDbEntity
  8
0
  6
Continuous
 62
     7
370
    15
100
AcDbLine
 10
208.4283154362
 20
314.10280276
 30
0.0
 11
208.4283154362
 21
316.50280276
 31
0.0
  0
ARC
  5
DA
330
1F
100
AcDbEntity
  8
0
  6
Continuous
 62
     7
370
    15
100
AcDbCircle
 10
181.0283154368
 20
286.5313671138
 30
0.0
 40
2.400000000437707
100
AcDbArc
 50
343.6910602159
 51
0.0252573084
  0
ARC
  5
DB
330
1F
100
AcDbEntity
  8
0
  6
Continuous
 62
     7
370
    15
100
AcDbCircle
 10
217.8283154355
 20
286.5313671138
 30
0.0
 40
2.400000000427729
100
AcDbArc
 50
180.2118254499
 51
196.2978994632
  0
LINE
  5
DC
330
1F
100
AcDbEntity
  8
0
  6
Continuous
 62
     7
370
    15
100
AcDbLine
 10
194.4283154362
 20
343.0965915836
 30
0.0
 11
194.4283154362
 21
335.70280276
 31
0.0
  0
LINE
  5
DD
330
1F
100
AcDbEntity
  8
0
  6
Continuous
 62
     7
370
    15
100
AcDbLine
 10
204.4283154362
 20
335.70280276
 30
0.0
 11
204.4283154362
 21
343.0965915836
 31
0.0
  0
LINE
  5
DE
330
1F
100
AcDbEntity
  8
0
  6
Continuous
 62
     7
370
    15
100
AcDbLine
 10
194.4283154362
 20
332.50280276
 30
0.0
 11
194.4283154362
 21
316.50280276
 31
0.0
  0
LINE
  5
DF
330
1F
100
AcDbEntity
  8
0
  6
Continuous
 62
     7
370
    15
100
AcDbLine
 10
204.4283154362
 20
316.50280276
 30
0.0
 11
204.4283154362
 21
332.50280276
 31
0.0
  0
LINE
  5
E0
330
1F
100
AcDbEntity
  8
0
  6
Continuous
 62
     7
370
    15
100
AcDbLine
 10
199.4283154362
 20
360.10280276
 30
0.0
 11
244.4283154362
 21
360.10280276
 31
0.0
  0
LINE
  5
E1
330
1F
100
AcDbEntity
  8
0
  6
Continuous
 62
     7
370
    15
100
AcDbLine
 10
154.4283154362
 20
360.10280276
 30
0.0
 11
199.4283154362
 21
360.10280276
 31
0.0
  0
LINE
  5
E2
330
1F
100
AcDbEntity
  8
0
  6
Continuous
 62
     7
370
    15
100
AcDbLine
 10
231.8283154362
 20
181.0864713073
 30
0.0
 11
227.8283154362
 21
181.0864713073
 31
0.0
  0
LINE
  5
E3
330
1F
100
AcDbEntity
  8
0
  6
Continuous
 62
     7
370
    15
100
AcDbLine
 10
227.8283154362
 20
256.0707899498
 30
0.0
 11
227.8283154362
 21
181.0864713073
 31
0.0
  0
LINE
  5
E4
330
1F
100
AcDbEntity
  8
0
  6
Continuous
 62
     7
370
    15
100
AcDbLine
 10
220.6283154362
 20
256.0707899498
 30
0.0
 11
227.8283154362
 21
256.0707899498
 31
0.0
  0
LINE
  5
E5
330
1F
100
AcDbEntity
  8
0
  6
Continuous
 62
     7
370
    15
100
AcDbLine
 10
234.2283154362
 20
216.10280276
 30
0.0
 11
234.2283154362
 21
256.10280276
 31
0.0
  0
LINE
  5
E6
330
1F
100
AcDbEntity
  8
0
  6
Continuous
 62
     7
370
    15
100
AcDbLine
 10
234.2283154362
 20
176.10280276
 30
0.0
 11
234.2283154362
 21
216.10280276
 31
0.0
  0
LINE
  5
E7
330
1F
100
AcDbEntity
  8
0
  6
Continuous
 62
     7
370
    15
100
AcDbLine
 10
178.2283154362
 20
256.0707899498
 30
0.0
 11
171.0283154362
 21
256.0707899498
 31
0.0
  0
LINE
  5
E8
330
1F
100
AcDbEntity
  8
0
  6
Continuous
 62
     7
370
    15
100
AcDbLine
 10
171.0283154362
 20
256.0707899498
 30
0.0
 11
171.0283154362
 21
181.0864713073
 31
0.0
  0
LINE
  5
E9
330
1F
100
AcDbEntity
  8
0
  6
Continuous
 62
     7
370
    15
100
AcDbLine
 10
167.0283154362
 20
181.0864713073
 30
0.0
 11
171.0283154362
 21
181.0864713073
 31
0.0
  0
LINE
  5
EA
330
1F
100
AcDbEntity
  8
0
  6
Continuous
 62
     7
370
    15
100
AcDbLine
 10
164.6283154362
 20
216.10280276
 30
0.0
 11
164.6283154362
 21
256.10280276
 31
0.0
  0
LINE
  5
EB
330
1F
100
AcDbEntity
  8
0
  6
Continuous
 62
     7
370
    15
100
AcDbLine
 10
164.6283154362
 20
176.10280276
 30
0.0
 11
164.6283154362
 21
216.10280276
 31
0.0
  0
LINE
  5
EC
330
1F
100
AcDbEntity
  8
0
  6
Continuous
 62
     7
370
    15
100
AcDbLine
 10
201.1072055617
 20
351.4840390548
 30
0.0
 11
213.383995908
 21
360.10280276
 31
0.0
  0
ELLIPSE
  5
ED
330
1F
100
AcDbEntity
  8
0
  6
Continuous
 62
     7
370
    15
100
AcDbEllipse
 10
199.4283154362
 20
306.1388773919
 30
0.0
 11
-8.52755534233728
 21
121.0659247117721
 31
0.0
210
0.0
220
0.0
230
1.0
 40
0.043142631
 41
5.093258956320559
 42
5.14986492123203
  0
LINE
  5
EE
330
1F
100
AcDbEntity
  8
0
  6
Continuous
 62
     7
370
    15
100
AcDbLine
 10
200.546789516
 20
357.7622504979
 30
0.0
 11
203.8807328052
 21
360.10280276
 31
0.0
  0
ELLIPSE
  5
EF
330
1F
100
AcDbEntity
  8
0
  6
Continuous
 62
     7
370
    15
100
AcDbEllipse
 10
199.4283154362
 20
348.1926166845
 30
0.0
 11
9.983979228682074
 21
1.924287191797873
 31
0.0
210
0.0
220
0.0
230
1.0
 40
0.2940443279
 41
1.182826080602848
 42
1.345495623027679
  0
LINE
  5
F0
330
1F
100
AcDbEntity
  8
0
  6
Continuous
 62
     7
370
    15
100
AcDbLine
 10
202.6815846582
 20
351.6381397694
 30
0.0
 11
214.7388699537
 21
360.10280276
 31
0.0
  0
LINE
  5
F1
330
1F
100
AcDbEntity
  8
0
  6
Continuous
 62
     7
370
    15
100
AcDbLine
 10
205.9908309353
 20
351.6381397694
 30
0.0
 11
218.0481162307
 21
360.10280276
 31
0.0
  0
ELLIPSE
  5
F2
330
1F
100
AcDbEntity
  8
0
  6
Continuous
 62
     7
370
    15
100
AcDbEllipse
 10
199.4283154362
 20
386.790704948
 30
0.0
 11
-8.577640484225157
 21
202.0517551045887
 31
0.0
210
0.0
220
0.0
230
1.0
 40
0.0254411853
 41
4.536441166858832
 42
4.547802231263419
  0
LINE
  5
F3
330
1F
100
AcDbEntity
  8
0
  6
Continuous
 62
     7
370
    15
100
AcDbLine
 10
183.2789316895
 20
270.50280276
 30
0.0
 11
182.7942817334
 21
270.50280276
 31
0.0
  0
LINE
  5
F4
330
1F
100
AcDbEntity
  8
0
  6
Continuous
 62
     7
370
    15
100
AcDbLine
 10
183.2789316895
 20
270.50280276
 30
0.0
 11
184.4575145183
 21
270.50280276
 31
0.0
  0
LINE
  5
F5
330
1F
100
AcDbEntity
  8
0
  6
Continuous
 62
     7
370
    15
100
AcDbLine
 10
214.3991163541
 20
270.50280276
 30
0.0
 11
184.4575145183
 21
270.50280276
 31
0.0
  0
LINE
  5
F6
330
1F
100
AcDbEntity
  8
0
  6
Continuous
 62
     7
370
    15
100
AcDbLine
 10
215.5776991828
 20
270.50280276
 30
0.0
 11
214.3991163541
 21
270.50280276
 31
0.0
  0
LINE
  5
F7
330
1F
100
AcDbEntity
  8
0
  6
Continuous
 62
     7
370
    15
100
AcDbLine
 10
216.0623491389
 20
270.50280276
 30
0.0
 11
215.5776991828
 21
270.50280276
 31
0.0
  0
LINE
  5
F8
330
1F
100
AcDbEntity
  8
0
  6
Continuous
 62
     7
370
    15
100
AcDbLine
 10
215.9791897459
 20
267.30280276
 30
0.0
 11
182.8774411264
 21
267.30280276
 31
0.0
  0
SPLINE
  5
F9
330
1F
100
AcDbEntity
  8
0
  6
Continuous
 62
     7
370
    15
100
AcDbSpline
210
0.0
220
0.0
230
1.0
 70
     8
 71
     3
 72
     8
 73
     4
 74
     0
 42
0.00000001
 43
0.00000001
 12
1.0
 22
0.0
 32
0.0
 13
1.0
 23
0.0
 33
0.0
 40
0.0000502121506779
 40
0.0000502121506779
 40
0.0000502121506779
 40
0.0000502121506779
 40
0.0100527251396888
 40
0.0100527251396888
 40
0.0100527251396888
 40
0.0100527251396888
 10
184.5464391182947
 20
274.5028027600247
 30
0.0
 10
184.5173732846463
 20
273.1694572875362
 30
0.0
 10
184.4877532773201
 20
271.8361232122594
 30
0.0
 10
184.4575145182526
 20
270.5028027600247
 30
0.0
  0
LINE
  5
FA
330
1F
100
AcDbEntity
  8
0
  6
Continuous
 62
     7
370
    15
100
AcDbLine
 10
214.310191754
 20
274.50280276
 30
0.0
 11
184.5464391183
 21
274.50280276
 31
0.0
  0
SPLINE
  5
FB
330
1F
100
AcDbEntity
  8
0
  6
Continuous
 62
     7
370
    15
100
AcDbSpline
210
0.0
220
0.0
230
1.0
 70
     8
 71
     3
 72
     8
 73
     4
 74
     0
 42
0.00000001
 43
0.00000001
 12
1.0
 22
0.0
 32
0.0
 13
1.0
 23
0.0
 33
0.0
 40
0.0000502121506779
 40
0.0000502121506779
 40
0.0000502121506779
 40
0.0000502121506779
 40
0.0100527251396888
 40
0.0100527251396888
 40
0.0100527251396888
 40
0.0100527251396888
 10
214.310191754011
 20
274.5028027600247
 30
0.0
 10
214.3392575876594
 20
273.1694572875362
 30
0.0
 10
214.3688775949857
 20
271.8361232122594
 30
0.0
 10
214.3991163540531
 20
270.5028027600247
 30
0.0
  0
SPLINE
  5
FC
330
1F
100
AcDbEntity
  8
0
  6
Continuous
 62
     7
370
    15
100
AcDbSpline
210
0.0
220
0.0
230
1.0
 70
     8
 71
     3
 72
    15
 73
    11
 74
     0
 42
0.00000001
 43
0.00000001
 12
1.0
 22
0.0
 32
0.0
 13
1.0
 23
0.0
 33
0.0
 40
0.0
 40
0.0
 40
0.0
 40
0.0
 40
0.0732216376030138
 40
0.2099786816076457
 40
0.3467222870215448
 40
0.4877700053511804
 40
0.6287311277400491
 40
0.7607096101788416
 40
0.892568547340833
 40
1.0
 40
1.0
 40
1.0
 40
1.0
 10
188.9816131853994
 20
278.0000642525546
 30
0.0
 10
188.9946863214675
 20
277.9022529463919
 30
0.0
 10
189.0321763307861
 20
277.6217581393007
 30
0.0
 10
188.8302078906588
 20
277.1393928654852
 30
0.0
 10
188.4717361377089
 20
276.5746275275739
 30
0.0
 10
187.9122504441717
 20
276.0251534566661
 30
0.0
 10
187.1967540105778
 20
275.5193613217077
 30
0.0
 10
186.3448056394169
 20
275.0817225527489
 30
0.0
 10
185.4568055125231
 20
274.7365275699732
 30
0.0
 10
184.8285153309856
 20
274.5752221832593
 30
0.0
 10
184.5464391182947
 20
274.5028027600247
 30
0.0
  0
LINE
  5
FD
330
1F
100
AcDbEntity
  8
0
  6
Continuous
 62
     7
370
    15
100
AcDbLine
 10
189.0283154362
 20
278.5133860387
 30
0.0
 11
209.8283154362
 21
278.5133860387
 31
0.0
  0
SPLINE
  5
FE
330
1F
100
AcDbEntity
  8
0
  6
Continuous
 62
     7
370
    15
100
AcDbSpline
210
0.0
220
0.0
230
1.0
 70
     8
 71
     3
 72
    15
 73
    11
 74
     0
 42
0.00000001
 43
0.00000001
 12
1.0
 22
0.0
 32
0.0
 13
1.0
 23
0.0
 33
0.0
 40
0.0
 40
0.0
 40
0.0
 40
0.0
 40
0.0732216376030149
 40
0.2099786816076466
 40
0.3467222870215456
 40
0.4877700053511809
 40
0.6287311277400495
 40
0.7607096101788419
 40
0.892568547340833
 40
0.9999999999999999
 40
0.9999999999999999
 40
0.9999999999999999
 40
0.9999999999999999
 10
209.8750176869064
 20
278.0000642525546
 30
0.0
 10
209.8619445508383
 20
277.9022529463919
 30
0.0
 10
209.8244545415197
 20
277.6217581393007
 30
0.0
 10
210.026422981647
 20
277.1393928654852
 30
0.0
 10
210.3848947345969
 20
276.5746275275739
 30
0.0
 10
210.9443804281341
 20
276.025153456666
 30
0.0
 10
211.659876861728
 20
275.5193613217077
 30
0.0
 10
212.5118252328889
 20
275.0817225527489
 30
0.0
 10
213.3998253597827
 20
274.7365275699732
 30
0.0
 10
214.0281155413202
 20
274.5752221832593
 30
0.0
 10
214.310191754011
 20
274.5028027600247
 30
0.0
  0
LINE
  5
FF
330
1F
100
AcDbEntity
  8
0
  6
Continuous
 62
     7
370
    15
100
AcDbLine
 10
210.7338008409
 20
265.9094572391
 30
0.0
 11
188.1228300314
 21
265.9094572391
 31
0.0
  0
SPLINE
  5
100
330
1F
100
AcDbEntity
  8
0
  6
Continuous
 62
     7
370
    15
100
AcDbSpline
210
0.0
220
0.0
230
1.0
 70
     8
 71
     3
 72
     8
 73
     4
 74
     0
 42
0.00000001
 43
0.00000001
 12
1.0
 22
0.0
 32
0.0
 13
1.0
 23
0.0
 33
0.0
 40
0.0
 40
0.0
 40
0.0
 40
0.0
 40
1.0
 40
1.0
 40
1.0
 40
1.0
 10
188.1228300314454
 20
265.9094572390658
 30
0.0
 10
187.8391989155872
 20
265.9094572390658
 30
0.0
 10
187.5642939838434
 20
265.9042147256537
 30
0.0
 10
187.2977322189785
 20
265.8939428022497
 30
0.0
  0
SPLINE
  5
101
330
1F
100
AcDbEntity
  8
0
  6
Continuous
 62
     7
370
    15
100
AcDbSpline
210
0.0
220
0.0
230
1.0
 70
     8
 71
     3
 72
    30
 73
    26
 74
     0
 42
0.00000001
 43
0.00000001
 12
1.0
 22
0.0
 32
0.0
 13
1.0
 23
0.0
 33
0.0
 40
0.0
 40
0.0
 40
0.0
 40
0.0
 40
0.1249999999999991
 40
0.1249999999999991
 40
0.1874999999999998
 40
0.1874999999999998
 40
0.2500000000000004
 40
0.2500000000000004
 40
0.375000000000003
 40
0.375000000000003
 40
0.5000000000000047
 40
0.5000000000000047
 40
0.5625000000000043
 40
0.5625000000000043
 40
0.625000000000004
 40
0.625000000000004
 40
0.7500000000000022
 40
0.7500000000000022
 40
0.8125000000000018
 40
0.8125000000000018
 40
0.8750000000000012
 40
0.8750000000000012
 40
0.9375000000000007
 40
0.9375000000000007
 40
1.0
 40
1.0
 40
1.0
 40
1.0
 10
187.2987100837805
 20
265.9051198480814
 30
0.0
 10
187.2883546280094
 20
265.9699774409629
 30
0.0
 10
187.2522547752482
 20
266.0354389760634
 30
0.0
 10
187.1597382547231
 20
266.134491444713
 30
0.0
 10
187.1221761740864
 20
266.1678475764784
 30
0.0
 10
187.0350850613833
 20
266.2337594479299
 30
0.0
 10
186.9856843730128
 20
266.2662907795817
 30
0.0
 10
186.8203188546224
 20
266.3626570953222
 30
0.0
 10
186.6873102110005
 20
266.425306005193
 30
0.0
 10
186.3736999046842
 20
266.547214117622
 30
0.0
 10
186.1985765916793
 20
266.6043543968262
 30
0.0
 10
185.909082790561
 20
266.684655873903
 30
0.0
 10
185.8080794777282
 20
266.7105141330177
 30
0.0
 10
185.5967042158137
 20
266.7603739432749
 30
0.0
 10
185.4865594074649
 20
266.7842917446035
 30
0.0
 10
185.1500828457111
 20
266.8515154909843
 30
0.0
 10
184.915259987486
 20
266.8909594946545
 30
0.0
 10
184.5468305428343
 20
266.9420314770118
 30
0.0
 10
184.4207277549504
 20
266.9577396481708
 30
0.0
 10
184.1691505720297
 20
266.9856317428357
 30
0.0
 10
184.0430216852877
 20
266.9979212526069
 30
0.0
 10
183.7900936333524
 20
267.019251727636
 30
0.0
 10
183.6632944866207
 20
267.028292755133
 30
0.0
 10
183.4090117577781
 20
267.0430687055436
 30
0.0
 10
183.280987114998
 20
267.0488127511396
 30
0.0
 10
183.15462500657
 20
267.0527619642775
 30
0.0
  0
SPLINE
  5
102
330
1F
100
AcDbEntity
  8
0
  6
Continuous
 62
     7
370
    15
100
AcDbSpline
210
0.0
220
0.0
230
1.0
 70
     8
 71
     3
 72
    30
 73
    26
 74
     0
 42
0.00000001
 43
0.00000001
 12
1.0
 22
0.0
 32
0.0
 13
1.0
 23
0.0
 33
0.0
 40
0.0
 40
0.0
 40
0.0
 40
0.0
 40
0.1249999999999991
 40
0.1249999999999991
 40
0.1874999999999998
 40
0.1874999999999998
 40
0.2500000000000004
 40
0.2500000000000004
 40
0.375000000000003
 40
0.375000000000003
 40
0.5000000000000047
 40
0.5000000000000047
 40
0.5625000000000043
 40
0.5625000000000043
 40
0.625000000000004
 40
0.625000000000004
 40
0.7500000000000022
 40
0.7500000000000022
 40
0.8125000000000018
 40
0.8125000000000018
 40
0.8750000000000012
 40
0.8750000000000012
 40
0.9375000000000007
 40
0.9375000000000007
 40
1.0
 40
1.0
 40
1.0
 40
1.0
 10
211.5579207885253
 20
265.9051198480814
 30
0.0
 10
211.5682762442963
 20
265.9699774409629
 30
0.0
 10
211.6043760970576
 20
266.0354389760634
 30
0.0
 10
211.6968926175826
 20
266.134491444713
 30
0.0
 10
211.7344546982194
 20
266.1678475764784
 30
0.0
 10
211.8215458109225
 20
266.2337594479299
 30
0.0
 10
211.870946499293
 20
266.2662907795817
 30
0.0
 10
212.0363120176833
 20
266.3626570953222
 30
0.0
 10
212.1693206613053
 20
266.425306005193
 30
0.0
 10
212.4829309676215
 20
266.547214117622
 30
0.0
 10
212.6580542806265
 20
266.6043543968262
 30
0.0
 10
212.9475480817448
 20
266.684655873903
 30
0.0
 10
213.0485513945775
 20
266.7105141330177
 30
0.0
 10
213.259926656492
 20
266.7603739432749
 30
0.0
 10
213.3700714648409
 20
266.7842917446035
 30
0.0
 10
213.7065480265947
 20
266.8515154909843
 30
0.0
 10
213.9413708848197
 20
266.8909594946545
 30
0.0
 10
214.3098003294715
 20
266.9420314770118
 30
0.0
 10
214.4359031173554
 20
266.9577396481708
 30
0.0
 10
214.6874803002761
 20
266.9856317428357
 30
0.0
 10
214.8136091870181
 20
266.9979212526069
 30
0.0
 10
215.0665372389534
 20
267.019251727636
 30
0.0
 10
215.1933363856851
 20
267.028292755133
 30
0.0
 10
215.4476191145277
 20
267.0430687055436
 30
0.0
 10
215.5756437573078
 20
267.0488127511396
 30
0.0
 10
215.7020058657358
 20
267.0527619642775
 30
0.0
  0
SPLINE
  5
103
330
1F
100
AcDbEntity
  8
0
  6
Continuous
 62
     7
370
    15
100
AcDbSpline
210
0.0
220
0.0
230
1.0
 70
     8
 71
     3
 72
     8
 73
     4
 74
     0
 42
0.00000001
 43
0.00000001
 12
1.0
 22
0.0
 32
0.0
 13
1.0
 23
0.0
 33
0.0
 40
0.0
 40
0.0
 40
0.0
 40
0.0
 40
1.0
 40
1.0
 40
1.0
 40
1.0
 10
210.7338008408604
 20
265.9094572390658
 30
0.0
 10
211.0174319567186
 20
265.9094572390658
 30
0.0
 10
211.2923368884623
 20
265.9042147256537
 30
0.0
 10
211.5588986533272
 20
265.8939428022497
 30
0.0
  0
ELLIPSE
  5
104
330
1F
100
AcDbEntity
  8
0
  6
Continuous
 62
     7
370
    15
100
AcDbEllipse
 10
199.4283154362
 20
348.1926166845
 30
0.0
 11
9.983979228682074
 21
1.924287191797873
 31
0.0
210
0.0
220
0.0
230
1.0
 40
0.2940443279
 41
0.6356738607156217
 42
0.79834340314045
  0
LINE
  5
105
330
1F
100
AcDbEntity
  8
0
  6
Continuous
 62
     7
370
    15
100
AcDbLine
 10
207.1261999301
 20
351.4840390548
 30
0.0
 11
219.4029902764
 21
360.10280276
 31
0.0
  0
LINE
  5
106
330
1F
100
AcDbEntity
  8
0
  6
Continuous
 62
     7
370
    15
100
AcDbLine
 10
214.3991163541
 20
282.50280276
 30
0.0
 11
209.8283154362
 21
282.50280276
 31
0.0
  0
LINE
  5
107
330
1F
100
AcDbEntity
  8
0
  6
Continuous
 62
     7
370
    15
100
AcDbLine
 10
214.3991163541
 20
270.50280276
 30
0.0
 11
214.3991163541
 21
282.50280276
 31
0.0
  0
LINE
  5
108
330
1F
100
AcDbEntity
  8
0
  6
Continuous
 62
     7
370
    15
100
AcDbLine
 10
184.4575145183
 20
282.50280276
 30
0.0
 11
189.0283154362
 21
282.50280276
 31
0.0
  0
LINE
  5
109
330
1F
100
AcDbEntity
  8
0
  6
Continuous
 62
     7
370
    15
100
AcDbLine
 10
184.4575145183
 20
270.50280276
 30
0.0
 11
184.4575145183
 21
282.50280276
 31
0.0
  0
LINE
  5
10A
330
1F
100
AcDbEntity
  8
0
  6
Continuous
 62
     7
370
    15
100
AcDbLine
 10
214.3991163541
 20
282.50280276
 30
0.0
 11
215.5776991828
 21
282.50280276
 31
0.0
  0
LINE
  5
10B
330
1F
100
AcDbEntity
  8
0
  6
Continuous
 62
     7
370
    15
100
AcDbLine
 10
184.4575145183
 20
282.50280276
 30
0.0
 11
183.2789316895
 21
282.50280276
 31
0.0
  0
LINE
  5
10C
330
1F
100
AcDbEntity
  8
0
  6
Continuous
 62
     7
370
    15
100
AcDbLine
 10
235.4283154362
 20
216.10280276
 30
0.0
 11
235.4283154362
 21
242.70280276
 31
0.0
  0
LINE
  5
10D
330
1F
100
AcDbEntity
  8
0
  6
Continuous
 62
     7
370
    15
100
AcDbLine
 10
235.4283154362
 20
189.50280276
 30
0.0
 11
235.4283154362
 21
216.10280276
 31
0.0
  0
LINE
  5
10E
330
1F
100
AcDbEntity
  8
0
  6
Continuous
 62
     7
370
    15
100
AcDbLine
 10
163.4283154362
 20
216.10280276
 30
0.0
 11
163.4283154362
 21
242.70280276
 31
0.0
  0
LINE
  5
10F
330
1F
100
AcDbEntity
  8
0
  6
Continuous
 62
     7
370
    15
100
AcDbLine
 10
163.4283154362
 20
189.50280276
 30
0.0
 11
163.4283154362
 21
216.10280276
 31
0.0
  0
LINE
  5
110
330
1F
100
AcDbEntity
  8
0
  6
Continuous
 62
     7
370
    15
100
AcDbLine
 10
215.5776991828
 20
282.50280276
 30
0.0
 11
219.6826692988
 21
282.50280276
 31
0.0
  0
LINE
  5
111
330
1F
100
AcDbEntity
  8
0
  6
Continuous
 62
     7
370
    15
100
AcDbLine
 10
183.2789316895
 20
282.50280276
 30
0.0
 11
179.1739615735
 21
282.50280276
 31
0.0
  0
LINE
  5
112
330
1F
100
AcDbEntity
  8
0
  6
Continuous
 62
     7
370
    15
100
AcDbLine
 10
219.2971211538
 20
267.30280276
 30
0.0
 11
215.9791897459
 21
267.30280276
 31
0.0
  0
LINE
  5
113
330
1F
100
AcDbEntity
  8
0
  6
Continuous
 62
     7
370
    15
100
AcDbLine
 10
219.5690800553
 20
270.50280276
 30
0.0
 11
216.0623491389
 21
270.50280276
 31
0.0
  0
LINE
  5
114
330
1F
100
AcDbEntity
  8
0
  6
Continuous
 62
     7
370
    15
100
AcDbLine
 10
179.5595097185
 20
267.30280276
 30
0.0
 11
182.8774411264
 21
267.30280276
 31
0.0
  0
LINE
  5
115
330
1F
100
AcDbEntity
  8
0
  6
Continuous
 62
     7
370
    15
100
AcDbLine
 10
179.287550817
 20
270.50280276
 30
0.0
 11
182.7942817334
 21
270.50280276
 31
0.0
  0
SPLINE
  5
116
330
1F
100
AcDbEntity
  8
0
  6
Continuous
 62
     7
370
    15
100
AcDbSpline
210
0.0
220
0.0
230
1.0
 70
     8
 71
     3
 72
    20
 73
    16
 74
     0
 42
0.00000001
 43
0.00000001
 12
1.0
 22
0.0
 32
0.0
 13
1.0
 23
0.0
 33
0.0
 40
0.0
 40
0.0
 40
0.0
 40
0.0
 40
0.125
 40
0.125
 40
0.25
 40
0.25
 40
0.5000000000000018
 40
0.5000000000000018
 40
0.6250000000000013
 40
0.6250000000000013
 40
0.7500000000000009
 40
0.7500000000000009
 40
0.8750000000000004
 40
0.8750000000000004
 40
1.0
 40
1.0
 40
1.0
 40
1.0
 10
215.7020058657358
 20
267.0527619642775
 30
0.0
 10
215.8763733106643
 20
267.0582114950973
 30
0.0
 10
216.0468597188301
 20
267.063228292174
 30
0.0
 10
216.380195855544
 20
267.0724451042399
 30
0.0
 10
216.5438196128964
 20
267.0766633224835
 30
0.0
 10
217.0175205419812
 20
267.0879569940555
 30
0.0
 10
217.3019123572395
 20
267.0935056567723
 30
0.0
 10
217.6814734729766
 20
267.0989978376543
 30
0.0
 10
217.7983876023793
 20
267.100319585343
 30
0.0
 10
218.0091402639196
 20
267.101935356011
 30
0.0
 10
218.1037391690543
 20
267.1022406037196
 30
0.0
 10
218.2710655271008
 20
267.101833600681
 30
0.0
 10
218.3438061930084
 20
267.1011081065125
 30
0.0
 10
218.4623401230371
 20
267.0986672783428
 30
0.0
 10
218.508914714841
 20
267.0969544501047
 30
0.0
 10
218.5428358011521
 20
267.0947437109659
 30
0.0
  0
SPLINE
  5
117
330
1F
100
AcDbEntity
  8
0
  6
Continuous
 62
     7
370
    15
100
AcDbSpline
210
0.0
220
0.0
230
1.0
 70
     8
 71
     3
 72
    20
 73
    16
 74
     0
 42
0.00000001
 43
0.00000001
 12
1.0
 22
0.0
 32
0.0
 13
1.0
 23
0.0
 33
0.0
 40
0.0
 40
0.0
 40
0.0
 40
0.0
 40
0.125
 40
0.125
 40
0.25
 40
0.25
 40
0.5000000000000018
 40
0.5000000000000018
 40
0.6250000000000013
 40
0.6250000000000013
 40
0.7500000000000009
 40
0.7500000000000009
 40
0.8750000000000004
 40
0.8750000000000004
 40
1.0
 40
1.0
 40
1.0
 40
1.0
 10
183.15462500657
 20
267.0527619642775
 30
0.0
 10
182.9802575616415
 20
267.0582114950973
 30
0.0
 10
182.8097711534756
 20
267.063228292174
 30
0.0
 10
182.4764350167618
 20
267.0724451042399
 30
0.0
 10
182.3128112594093
 20
267.0766633224835
 30
0.0
 10
181.8391103303245
 20
267.0879569940555
 30
0.0
 10
181.5547185150663
 20
267.0935056567723
 30
0.0
 10
181.1751573993292
 20
267.0989978376543
 30
0.0
 10
181.0582432699264
 20
267.100319585343
 30
0.0
 10
180.8474906083862
 20
267.101935356011
 30
0.0
 10
180.7528917032515
 20
267.1022406037196
 30
0.0
 10
180.585565345205
 20
267.101833600681
 30
0.0
 10
180.5128246792974
 20
267.1011081065125
 30
0.0
 10
180.3942907492687
 20
267.0986672783428
 30
0.0
 10
180.3477161574648
 20
267.0969544501047
 30
0.0
 10
180.3137950711537
 20
267.0947437109659
 30
0.0
  0
SPLINE
  5
118
330
1F
100
AcDbEntity
  8
0
  6
Continuous
 62
     7
370
    15
100
AcDbSpline
210
0.0
220
0.0
230
1.0
 70
     8
 71
     3
 72
     8
 73
     4
 74
     0
 42
0.00000001
 43
0.00000001
 12
1.0
 22
0.0
 32
0.0
 13
1.0
 23
0.0
 33
0.0
 40
0.0
 40
0.0
 40
0.0
 40
0.0
 40
1.0
 40
1.0
 40
1.0
 40
1.0
 10
218.5428358011521
 20
267.0947437109659
 30
0.0
 10
218.5873488247271
 20
267.0918426634435
 30
0.0
 10
218.6090912013716
 20
267.0830687509945
 30
0.0
 10
218.6078023452996
 20
267.0683370586806
 30
0.0
  0
LINE
  5
119
330
1F
100
AcDbEntity
  8
0
  6
Continuous
 62
     7
370
    15
100
AcDbLine
 10
217.8584151971
 20
258.50280276
 30
0.0
 11
218.6078023453
 21
267.0683370587
 31
0.0
  0
LINE
  5
11A
330
1F
100
AcDbEntity
  8
0
  6
Continuous
 62
     7
370
    15
100
AcDbLine
 10
217.8584151971
 20
258.50280276
 30
0.0
 11
212.2055396176
 21
258.50280276
 31
0.0
  0
SPLINE
  5
11B
330
1F
100
AcDbEntity
  8
0
  6
Continuous
 62
     7
370
    15
100
AcDbSpline
210
0.0
220
0.0
230
1.0
 70
    24
 71
     3
 72
    11
 73
     7
 74
     0
 42
0.00000001
 43
0.00000001
 12
1.0
 22
0.0
 32
0.0
 13
1.0
 23
0.0
 33
0.0
 40
0.0
 40
0.0
 40
0.0
 40
0.0
 40
0.0130160733599031
 40
0.0130160733599031
 40
0.0130160733599031
 40
0.0185765640970028
 40
0.0185765640970028
 40
0.0185765640970028
 40
0.0185765640970028
 10
212.2055396175545
 20
258.5028027600247
 30
0.0
 10
212.0542836230108
 20
260.2316666887646
 30
0.0
 10
211.9030275683708
 20
261.9605313044089
 30
0.0
 10
211.7517714708647
 20
263.6893964100158
 30
0.0
 10
211.6871545845601
 20
264.4279708001191
 30
0.0
 10
211.6225376901178
 20
265.1665452832362
 30
0.0
 10
211.5579207885253
 20
265.9051198480815
 30
0.0
  0
SPLINE
  5
11C
330
1F
100
AcDbEntity
  8
0
  6
Continuous
 62
     7
370
    15
100
AcDbSpline
210
0.0
220
0.0
230
1.0
 70
    24
 71
     3
 72
    11
 73
     7
 74
     0
 42
0.00000001
 43
0.00000001
 12
1.0
 22
0.0
 32
0.0
 13
1.0
 23
0.0
 33
0.0
 40
0.0
 40
0.0
 40
0.0
 40
0.0
 40
0.0130160733599031
 40
0.0130160733599031
 40
0.0130160733599031
 40
0.0185765640970028
 40
0.0185765640970028
 40
0.0185765640970028
 40
0.0185765640970028
 10
186.6510912547513
 20
258.5028027600247
 30
0.0
 10
186.8023472492949
 20
260.2316666887646
 30
0.0
 10
186.9536033039349
 20
261.9605313044089
 30
0.0
 10
187.1048594014411
 20
263.6893964100158
 30
0.0
 10
187.1694762877457
 20
264.4279708001191
 30
0.0
 10
187.234093182188
 20
265.1665452832362
 30
0.0
 10
187.2987100837805
 20
265.9051198480815
 30
0.0
  0
LINE
  5
11D
330
1F
100
AcDbEntity
  8
0
  6
Continuous
 62
     7
370
    15
100
AcDbLine
 10
180.9982156752
 20
258.50280276
 30
0.0
 11
186.6510912548
 21
258.50280276
 31
0.0
  0
LINE
  5
11E
330
1F
100
AcDbEntity
  8
0
  6
Continuous
 62
     7
370
    15
100
AcDbLine
 10
180.9982156752
 20
258.50280276
 30
0.0
 11
180.248828527
 21
267.0683370587
 31
0.0
  0
SPLINE
  5
11F
330
1F
100
AcDbEntity
  8
0
  6
Continuous
 62
     7
370
    15
100
AcDbSpline
210
0.0
220
0.0
230
1.0
 70
     8
 71
     3
 72
     8
 73
     4
 74
     0
 42
0.00000001
 43
0.00000001
 12
1.0
 22
0.0
 32
0.0
 13
1.0
 23
0.0
 33
0.0
 40
0.0
 40
0.0
 40
0.0
 40
0.0
 40
1.0
 40
1.0
 40
1.0
 40
1.0
 10
180.3137950711537
 20
267.0947437109659
 30
0.0
 10
180.2692820475787
 20
267.0918426634435
 30
0.0
 10
180.2475396709341
 20
267.0830687509945
 30
0.0
 10
180.2488285270061
 20
267.0683370586806
 30
0.0
  0
LINE
  5
120
330
1F
100
AcDbEntity
  8
0
  6
Continuous
 62
     7
370
    15
100
AcDbLine
 10
179.5595097185
 20
267.30280276
 30
0.0
 11
176.7082791594
 21
267.30280276
 31
0.0
  0
LINE
  5
121
330
1F
100
AcDbEntity
  8
0
  6
Continuous
 62
     7
370
    15
100
AcDbLine
 10
178.7792809905
 20
270.50280276
 30
0.0
 11
176.4283154362
 21
270.50280276
 31
0.0
  0
LINE
  5
122
330
1F
100
AcDbEntity
  8
0
  6
Continuous
 62
     7
370
    15
100
AcDbLine
 10
178.7792809905
 20
270.50280276
 30
0.0
 11
179.1739615735
 21
270.50280276
 31
0.0
  0
LINE
  5
123
330
1F
100
AcDbEntity
  8
0
  6
Continuous
 62
     7
370
    15
100
AcDbLine
 10
179.287550817
 20
270.50280276
 30
0.0
 11
179.1739615735
 21
270.50280276
 31
0.0
  0
LINE
  5
124
330
1F
100
AcDbEntity
  8
0
  6
Continuous
 62
     7
370
    15
100
AcDbLine
 10
220.0773498818
 20
270.50280276
 30
0.0
 11
219.6826692988
 21
270.50280276
 31
0.0
  0
LINE
  5
125
330
1F
100
AcDbEntity
  8
0
  6
Continuous
 62
     7
370
    15
100
AcDbLine
 10
220.0773498818
 20
270.50280276
 30
0.0
 11
222.4283154362
 21
270.50280276
 31
0.0
  0
LINE
  5
126
330
1F
100
AcDbEntity
  8
0
  6
Continuous
 62
     7
370
    15
100
AcDbLine
 10
219.2971211538
 20
267.30280276
 30
0.0
 11
222.1483517129
 21
267.30280276
 31
0.0
  0
LINE
  5
127
330
1F
100
AcDbEntity
  8
0
  6
Continuous
 62
     7
370
    15
100
AcDbLine
 10
219.5690800553
 20
270.50280276
 30
0.0
 11
219.6826692988
 21
270.50280276
 31
0.0
  0
LWPOLYLINE
  5
128
330
1F
100
AcDbEntity
  8
0
  6
Continuous
 62
     7
370
    15
100
AcDbPolyline
 90
        3
 70
   128
 43
0.0
 10
218.5441357108
 20
266.3406240966
 10
220.5878730746
 20
266.8881675928
 10
220.6283154362
 20
266.8990026522
  0
LWPOLYLINE
  5
129
330
1F
100
AcDbEntity
  8
0
  6
Continuous
 62
     7
370
    15
100
AcDbPolyline
 90
        3
 70
   128
 43
0.0
 10
180.3124951615
 20
266.3406240966
 10
178.2687577977
 20
266.8881675928
 10
178.2283154362
 20
266.8990026522
  0
LINE
  5
12A
330
1F
100
AcDbEntity
  8
0
  6
Continuous
 62
     7
370
    15
100
AcDbLine
 10
178.7792809905
 20
282.50280276
 30
0.0
 11
178.7792809905
 21
270.50280276
 31
0.0
  0
LINE
  5
12B
330
1F
100
AcDbEntity
  8
0
  6
Continuous
 62
     7
370
    15
100
AcDbLine
 10
179.1739615735
 20
282.50280276
 30
0.0
 11
178.7792809905
 21
282.50280276
 31
0.0
  0
LINE
  5
12C
330
1F
100
AcDbEntity
  8
0
  6
Continuous
 62
     7
370
    15
100
AcDbLine
 10
220.0773498818
 20
282.50280276
 30
0.0
 11
220.0773498818
 21
270.50280276
 31
0.0
  0
LINE
  5
12D
330
1F
100
AcDbEntity
  8
0
  6
Continuous
 62
     7
370
    15
100
AcDbLine
 10
219.6826692988
 20
282.50280276
 30
0.0
 11
220.0773498818
 21
282.50280276
 31
0.0
  0
LINE
  5
12E
330
1F
100
AcDbEntity
  8
0
  6
Continuous
 62
     7
370
    15
100
AcDbLine
 10
220.0773498818
 20
274.50280276
 30
0.0
 11
222.393407965
 21
274.50280276
 31
0.0
  0
LINE
  5
12F
330
1F
100
AcDbEntity
  8
0
  6
Continuous
 62
     7
370
    15
100
AcDbLine
 10
178.7792809905
 20
274.50280276
 30
0.0
 11
176.4632229073
 21
274.50280276
 31
0.0
  0
SPLINE
  5
130
330
1F
100
AcDbEntity
  8
0
  6
Continuous
 62
     7
370
    15
100
AcDbSpline
210
0.0
220
0.0
230
1.0
 70
     8
 71
     3
 72
    18
 73
    14
 74
     0
 42
0.00000001
 43
0.00000001
 12
1.0
 22
0.0
 32
0.0
 13
1.0
 23
0.0
 33
0.0
 40
0.0
 40
0.0
 40
0.0
 40
0.0
 40
0.1249999999999999
 40
0.1249999999999999
 40
0.2499999999999998
 40
0.2499999999999998
 40
0.3749999999999998
 40
0.3749999999999998
 40
0.4999999999999997
 40
0.4999999999999997
 40
0.7499999999999998
 40
0.7499999999999998
 40
1.0
 40
1.0
 40
1.0
 40
1.0
 10
182.963680753204
 20
230.9478835522236
 30
0.0
 10
182.963680753204
 20
231.206302203851
 30
0.0
 10
182.9507149317105
 20
231.4533766096391
 30
0.0
 10
182.9186674177435
 20
231.9225238720789
 30
0.0
 10
182.898779534541
 20
232.1447127773966
 30
0.0
 10
182.8569549832626
 20
232.5636603236984
 30
0.0
 10
182.8348984396258
 20
232.760436545602
 30
0.0
 10
182.791049261738
 20
233.1279978672299
 30
0.0
 10
182.7691618470906
 20
233.2992455478972
 30
0.0
 10
182.7064558508291
 20
233.7692390080794
 30
0.0
 10
182.6688668847521
 20
234.0234371319838
 30
0.0
 10
182.6074840875762
 20
234.415489750994
 30
0.0
 10
182.5835792008552
 20
234.5533723551608
 30
0.0
 10
182.5679161560623
 20
234.6307751924376
 30
0.0
  0
SPLINE
  5
131
330
1F
100
AcDbEntity
  8
0
  6
Continuous
 62
     7
370
    15
100
AcDbSpline
210
0.0
220
0.0
230
1.0
 70
     8
 71
     3
 72
    26
 73
    22
 74
     0
 42
0.00000001
 43
0.00000001
 12
1.0
 22
0.0
 32
0.0
 13
1.0
 23
0.0
 33
0.0
 40
0.0
 40
0.0
 40
0.0
 40
0.0
 40
0.1249999999999988
 40
0.1249999999999988
 40
0.1874999999999983
 40
0.1874999999999983
 40
0.2499999999999977
 40
0.2499999999999977
 40
0.3749999999999996
 40
0.3749999999999996
 40
0.5000000000000016
 40
0.5000000000000016
 40
0.6250000000000034
 40
0.6250000000000034
 40
0.687500000000003
 40
0.687500000000003
 40
0.7500000000000026
 40
0.7500000000000026
 40
0.8750000000000012
 40
0.8750000000000012
 40
1.0
 40
1.0
 40
1.0
 40
1.0
 10
182.5679161560696
 20
234.6307751924363
 30
0.0
 10
182.7178627811737
 20
234.6698377395758
 30
0.0
 10
182.861584601861
 20
234.7227037705417
 30
0.0
 10
183.0682169639986
 20
234.8218502313006
 30
0.0
 10
183.1355920634694
 20
234.8582305180046
 30
0.0
 10
183.2672760235904
 20
234.9377904661616
 30
0.0
 10
183.331831613884
 20
234.9811905726271
 30
0.0
 10
183.5169266021866
 20
235.1190793122781
 30
0.0
 10
183.6301103212287
 20
235.2217318355337
 30
0.0
 10
183.8363795802395
 20
235.44814609029
 30
0.0
 10
183.9299698572238
 20
235.5731674833551
 30
0.0
 10
184.0891744200716
 20
235.8348831128847
 30
0.0
 10
184.1558290941046
 20
235.9723752047881
 30
0.0
 10
184.2361799436243
 20
236.1886722332326
 30
0.0
 10
184.2597316098006
 20
236.2627989403834
 30
0.0
 10
184.2992345099113
 20
236.4115428915213
 30
0.0
 10
184.315317349819
 20
236.4864220946337
 30
0.0
 10
184.3528011993758
 20
236.7125480434189
 30
0.0
 10
184.3635377324408
 20
236.8652692756252
 30
0.0
 10
184.3553945952616
 20
237.1748065207428
 30
0.0
 10
184.336573661367
 20
237.3280828325815
 30
0.0
 10
184.3030394791967
 20
237.4793457532603
 30
0.0
  0
SPLINE
  5
132
330
1F
100
AcDbEntity
  8
0
  6
Continuous
 62
     7
370
    15
100
AcDbSpline
210
0.0
220
0.0
230
1.0
 70
     8
 71
     3
 72
    26
 73
    22
 74
     0
 42
0.00000001
 43
0.00000001
 12
1.0
 22
0.0
 32
0.0
 13
1.0
 23
0.0
 33
0.0
 40
0.0
 40
0.0
 40
0.0
 40
0.0
 40
0.1249999999999988
 40
0.1249999999999988
 40
0.1874999999999983
 40
0.1874999999999983
 40
0.2499999999999977
 40
0.2499999999999977
 40
0.3749999999999996
 40
0.3749999999999996
 40
0.5000000000000016
 40
0.5000000000000016
 40
0.6250000000000034
 40
0.6250000000000034
 40
0.687500000000003
 40
0.687500000000003
 40
0.7500000000000026
 40
0.7500000000000026
 40
0.8750000000000012
 40
0.8750000000000012
 40
1.0
 40
1.0
 40
1.0
 40
1.0
 10
216.2887147162361
 20
234.6307751924363
 30
0.0
 10
216.1387680911321
 20
234.6698377395758
 30
0.0
 10
215.9950462704448
 20
234.7227037705417
 30
0.0
 10
215.7884139083071
 20
234.8218502313006
 30
0.0
 10
215.7210388088364
 20
234.8582305180046
 30
0.0
 10
215.5893548487154
 20
234.9377904661616
 30
0.0
 10
215.5247992584218
 20
234.9811905726271
 30
0.0
 10
215.3397042701192
 20
235.1190793122781
 30
0.0
 10
215.2265205510771
 20
235.2217318355337
 30
0.0
 10
215.0202512920663
 20
235.44814609029
 30
0.0
 10
214.926661015082
 20
235.5731674833551
 30
0.0
 10
214.7674564522341
 20
235.8348831128847
 30
0.0
 10
214.7008017782011
 20
235.9723752047881
 30
0.0
 10
214.6204509286814
 20
236.1886722332326
 30
0.0
 10
214.5968992625052
 20
236.2627989403834
 30
0.0
 10
214.5573963623945
 20
236.4115428915213
 30
0.0
 10
214.5413135224868
 20
236.4864220946337
 30
0.0
 10
214.50382967293
 20
236.7125480434189
 30
0.0
 10
214.493093139865
 20
236.8652692756252
 30
0.0
 10
214.5012362770442
 20
237.1748065207428
 30
0.0
 10
214.5200572109387
 20
237.3280828325815
 30
0.0
 10
214.553591393109
 20
237.4793457532603
 30
0.0
  0
SPLINE
  5
133
330
1F
100
AcDbEntity
  8
0
  6
Continuous
 62
     7
370
    15
100
AcDbSpline
210
0.0
220
0.0
230
1.0
 70
     8
 71
     3
 72
    18
 73
    14
 74
     0
 42
0.00000001
 43
0.00000001
 12
1.0
 22
0.0
 32
0.0
 13
1.0
 23
0.0
 33
0.0
 40
0.0
 40
0.0
 40
0.0
 40
0.0
 40
0.1249999999999999
 40
0.1249999999999999
 40
0.2499999999999998
 40
0.2499999999999998
 40
0.3749999999999998
 40
0.3749999999999998
 40
0.4999999999999997
 40
0.4999999999999997
 40
0.7499999999999998
 40
0.7499999999999998
 40
1.0
 40
1.0
 40
1.0
 40
1.0
 10
215.8929501191018
 20
230.9478835522236
 30
0.0
 10
215.8929501191018
 20
231.206302203851
 30
0.0
 10
215.9059159405953
 20
231.4533766096391
 30
0.0
 10
215.9379634545622
 20
231.9225238720789
 30
0.0
 10
215.9578513377647
 20
232.1447127773966
 30
0.0
 10
215.9996758890432
 20
232.5636603236984
 30
0.0
 10
216.02173243268
 20
232.760436545602
 30
0.0
 10
216.0655816105678
 20
233.1279978672299
 30
0.0
 10
216.0874690252151
 20
233.2992455478972
 30
0.0
 10
216.1501750214767
 20
233.7692390080794
 30
0.0
 10
216.1877639875537
 20
234.0234371319838
 30
0.0
 10
216.2491467847296
 20
234.415489750994
 30
0.0
 10
216.2730516714506
 20
234.5533723551608
 30
0.0
 10
216.2887147162435
 20
234.6307751924376
 30
0.0
  0
SPLINE
  5
134
330
1F
100
AcDbEntity
  8
0
  6
Continuous
 62
     7
370
    15
100
AcDbSpline
210
0.0
220
0.0
230
1.0
 70
     8
 71
     3
 72
     8
 73
     4
 74
     0
 42
0.00000001
 43
0.00000001
 12
1.0
 22
0.0
 32
0.0
 13
1.0
 23
0.0
 33
0.0
 40
0.0
 40
0.0
 40
0.0
 40
0.0
 40
1.0
 40
1.0
 40
1.0
 40
1.0
 10
171.0283154361529
 20
195.4517592028579
 30
0.0
 10
175.0069410243835
 20
196.2322019551746
 30
0.0
 10
178.9854181526979
 20
197.0134011030756
 30
0.0
 10
182.963680753204
 20
197.7956893884415
 30
0.0
  0
LWPOLYLINE
  5
135
330
1F
100
AcDbEntity
  8
0
  6
Continuous
 62
     7
370
    15
100
AcDbPolyline
 90
        3
 70
   128
 43
0.0
 10
171.0283154362
 20
236.8812916367
 10
172.6851339963
 20
236.5582703186
 10
182.5679161561
 20
234.6307751924
  0
LINE
  5
136
330
1F
100
AcDbEntity
  8
0
  6
Continuous
 62
     7
370
    15
100
AcDbLine
 10
182.9636807532
 20
230.9478835522
 30
0.0
 11
182.9636807532
 21
197.7956893884
 31
0.0
  0
LWPOLYLINE
  5
137
330
1F
100
AcDbEntity
  8
0
  6
Continuous
 62
     7
370
    15
100
AcDbPolyline
 90
        3
 70
   128
 43
0.0
 10
227.8283154362
 20
236.8812916367
 10
226.171496876
 20
236.5582703186
 10
216.2887147162
 20
234.6307751924
  0
SPLINE
  5
138
330
1F
100
AcDbEntity
  8
0
  6
Continuous
 62
     7
370
    15
100
AcDbSpline
210
0.0
220
0.0
230
1.0
 70
     8
 71
     3
 72
     8
 73
     4
 74
     0
 42
0.00000001
 43
0.00000001
 12
1.0
 22
0.0
 32
0.0
 13
1.0
 23
0.0
 33
0.0
 40
0.0
 40
0.0
 40
0.0
 40
0.0
 40
1.0
 40
1.0
 40
1.0
 40
1.0
 10
227.8283154361529
 20
195.4517592028579
 30
0.0
 10
223.8496898479223
 20
196.2322019551746
 30
0.0
 10
219.8712127196079
 20
197.0134011030756
 30
0.0
 10
215.8929501191018
 20
197.7956893884415
 30
0.0
  0
LINE
  5
139
330
1F
100
AcDbEntity
  8
0
  6
Continuous
 62
     7
370
    15
100
AcDbLine
 10
215.8929501191
 20
230.9478835522
 30
0.0
 11
215.8929501191
 21
197.7956893884
 31
0.0
  0
LINE
  5
13A
330
1F
100
AcDbEntity
  8
0
  6
Continuous
 62
     7
370
    15
100
AcDbLine
 10
231.8283154362
 20
176.10280276
 30
0.0
 11
227.8283154362
 21
176.10280276
 31
0.0
  0
LINE
  5
13B
330
1F
100
AcDbEntity
  8
0
  6
Continuous
 62
     7
370
    15
100
AcDbLine
 10
231.8283154362
 20
181.0864713073
 30
0.0
 11
231.8283154362
 21
176.10280276
 31
0.0
  0
LINE
  5
13C
330
1F
100
AcDbEntity
  8
0
  6
Continuous
 62
     7
370
    15
100
AcDbLine
 10
227.8283154362
 20
181.0864713073
 30
0.0
 11
227.8283154362
 21
176.10280276
 31
0.0
  0
LINE
  5
13D
330
1F
100
AcDbEntity
  8
0
  6
Continuous
 62
     7
370
    15
100
AcDbLine
 10
167.0283154362
 20
176.10280276
 30
0.0
 11
171.0283154362
 21
176.10280276
 31
0.0
  0
LINE
  5
13E
330
1F
100
AcDbEntity
  8
0
  6
Continuous
 62
     7
370
    15
100
AcDbLine
 10
167.0283154362
 20
181.0864713073
 30
0.0
 11
167.0283154362
 21
176.10280276
 31
0.0
  0
LINE
  5
13F
330
1F
100
AcDbEntity
  8
0
  6
Continuous
 62
     7
370
    15
100
AcDbLine
 10
171.0283154362
 20
181.0864713073
 30
0.0
 11
171.0283154362
 21
176.10280276
 31
0.0
  0
LINE
  5
140
330
1F
100
AcDbEntity
  8
0
  6
Continuous
 62
     7
370
    15
100
AcDbLine
 10
181.9218585139
 20
248.8781041311
 30
0.0
 11
181.9218585139
 21
258.50280276
 31
0.0
  0
LINE
  5
141
330
1F
100
AcDbEntity
  8
0
  6
Continuous
 62
     7
370
    15
100
AcDbLine
 10
216.9347723584
 20
248.8781041311
 30
0.0
 11
216.9347723584
 21
258.50280276
 31
0.0
  0
SPLINE
  5
142
330
1F
100
AcDbEntity
  8
0
  6
Continuous
 62
     7
370
    15
100
AcDbSpline
210
0.0
220
0.0
230
1.0
 70
     8
 71
     3
 72
     8
 73
     4
 74
     0
 42
0.00000001
 43
0.00000001
 12
1.0
 22
0.0
 32
0.0
 13
1.0
 23
0.0
 33
0.0
 40
0.0
 40
0.0
 40
0.0
 40
0.0
 40
1.0
 40
1.0
 40
1.0
 40
1.0
 10
216.7923382978808
 20
247.5776804541613
 30
0.0
 10
216.8872846681312
 20
248.0059558538417
 30
0.0
 10
216.9347723584182
 20
248.4394293536604
 30
0.0
 10
216.9347723584182
 20
248.8781041310882
 30
0.0
  0
SPLINE
  5
143
330
1F
100
AcDbEntity
  8
0
  6
Continuous
 62
     7
370
    15
100
AcDbSpline
210
0.0
220
0.0
230
1.0
 70
     8
 71
     3
 72
     8
 73
     4
 74
     0
 42
0.00000001
 43
0.00000001
 12
1.0
 22
0.0
 32
0.0
 13
1.0
 23
0.0
 33
0.0
 40
0.0
 40
0.0
 40
0.0
 40
0.0
 40
1.0
 40
1.0
 40
1.0
 40
1.0
 10
182.064292574425
 20
247.5776804541613
 30
0.0
 10
181.9693462041746
 20
248.0059558538417
 30
0.0
 10
181.9218585138875
 20
248.4394293536604
 30
0.0
 10
181.9218585138875
 20
248.8781041310882
 30
0.0
  0
LINE
  5
144
330
1F
100
AcDbEntity
  8
0
  6
Continuous
 62
     7
370
    15
100
AcDbLine
 10
182.9636807532
 20
197.7956893884
 30
0.0
 11
215.8929501191
 21
197.7956893884
 31
0.0
  0
LINE
  5
145
330
1F
100
AcDbEntity
  8
0
  6
Continuous
 62
     7
370
    15
100
AcDbLine
 10
182.0642925744
 20
247.5776804542
 30
0.0
 11
184.3030394792
 21
237.4793457533
 31
0.0
  0
LINE
  5
146
330
1F
100
AcDbEntity
  8
0
  6
Continuous
 62
     7
370
    15
100
AcDbLine
 10
216.7923382979
 20
247.5776804542
 30
0.0
 11
214.5535913931
 21
237.4793457533
 31
0.0
  0
LINE
  5
147
330
1F
100
AcDbEntity
  8
0
  6
Continuous
 62
     7
370
    15
100
AcDbLine
 10
184.6283154362
 20
296.10280276
 30
0.0
 11
214.2283154146
 21
296.10280276
 31
0.0
  0
LINE
  5
148
330
1F
100
AcDbEntity
  8
0
  6
Continuous
 62
     7
370
    15
100
AcDbLine
 10
199.4283154362
 20
316.50280276
 30
0.0
 11
197.0283154362
 21
316.50280276
 31
0.0
  0
LINE
  5
149
330
1F
100
AcDbEntity
  8
0
  6
Continuous
 62
     7
370
    15
100
AcDbLine
 10
201.8283154362
 20
316.50280276
 30
0.0
 11
199.4283154362
 21
316.50280276
 31
0.0
  0
LINE
  5
14A
330
1F
100
AcDbEntity
  8
0
  6
Continuous
 62
     7
370
    15
100
AcDbLine
 10
197.0283154362
 20
316.50280276
 30
0.0
 11
197.0283154362
 21
296.10280276
 31
0.0
  0
LINE
  5
14B
330
1F
100
AcDbEntity
  8
0
  6
Continuous
 62
     7
370
    15
100
AcDbLine
 10
201.8283154362
 20
316.50280276
 30
0.0
 11
201.8283154362
 21
296.10280276
 31
0.0
  0
LINE
  5
14C
330
1F
100
AcDbEntity
  8
0
  6
Continuous
 62
     7
370
    15
100
AcDbLine
 10
192.4283154362
 20
335.70280276
 30
0.0
 11
192.4283154362
 21
332.50280276
 31
0.0
  0
LINE
  5
14D
330
1F
100
AcDbEntity
  8
0
  6
Continuous
 62
     7
370
    15
100
AcDbLine
 10
192.4283154362
 20
335.70280276
 30
0.0
 11
206.4283154362
 21
335.70280276
 31
0.0
  0
LINE
  5
14E
330
1F
100
AcDbEntity
  8
0
  6
Continuous
 62
     7
370
    15
100
AcDbLine
 10
192.4283154362
 20
332.50280276
 30
0.0
 11
206.4283154362
 21
332.50280276
 31
0.0
  0
CIRCLE
  5
14F
330
1F
100
AcDbEntity
  8
0
  6
Continuous
 62
     7
370
    15
100
AcDbCircle
 10
203.0283154362
 20
334.10280276
 30
0.0
 40
0.7999999999999545
  0
LINE
  5
150
330
1F
100
AcDbEntity
  8
0
  6
Continuous
 62
     7
370
    15
100
AcDbLine
 10
206.4283154362
 20
335.70280276
 30
0.0
 11
206.4283154362
 21
332.50280276
 31
0.0
  0
CIRCLE
  5
151
330
1F
100
AcDbEntity
  8
0
  6
Continuous
 62
     7
370
    15
100
AcDbCircle
 10
195.8283154362
 20
334.10280276
 30
0.0
 40
0.7999999999999545
  0
LINE
  5
152
330
1F
100
AcDbEntity
  8
0
  6
Continuous
 62
     7
370
    15
100
AcDbLine
 10
188.0388147712
 20
302.8544599954
 30
0.0
 11
197.0283154362
 21
302.8544599954
 31
0.0
  0
LINE
  5
153
330
1F
100
AcDbEntity
  8
0
  6
Continuous
 62
     7
370
    15
100
AcDbLine
 10
201.8283154362
 20
302.8544599954
 30
0.0
 11
210.8178161011
 21
302.8544599954
 31
0.0
  0
SPLINE
  5
154
330
1F
100
AcDbEntity
  8
0
  6
Continuous
 62
     7
370
    15
100
AcDbSpline
210
0.0
220
0.0
230
1.0
 70
     8
 71
     3
 72
    10
 73
     6
 74
     0
 42
0.00000001
 43
0.00000001
 12
1.0
 22
0.0
 32
0.0
 13
1.0
 23
0.0
 33
0.0
 40
0.0
 40
0.0
 40
0.0
 40
0.0
 40
0.5
 40
0.5
 40
1.0
 40
1.0
 40
1.0
 40
1.0
 10
197.1766493863134
 20
319.2228027600247
 30
0.0
 10
197.303556252139
 20
319.2228027600247
 30
0.0
 10
197.4321886963419
 20
319.2003957795668
 30
0.0
 10
197.6828915971817
 20
319.1189999923225
 30
0.0
 10
197.8058441205662
 20
319.0606477107241
 30
0.0
 10
197.9272047362599
 20
318.9905801265844
 30
0.0
  0
LINE
  5
155
330
1F
100
AcDbEntity
  8
0
  6
Continuous
 62
     7
370
    15
100
AcDbLine
 10
197.9272047363
 20
316.74280276
 30
0.0
 11
197.9272047363
 21
318.9905801266
 31
0.0
  0
LINE
  5
156
330
1F
100
AcDbEntity
  8
0
  6
Continuous
 62
     7
370
    15
100
AcDbLine
 10
197.9272047363
 20
316.74280276
 30
0.0
 11
197.1766493863
 21
316.74280276
 31
0.0
  0
LINE
  5
157
330
1F
100
AcDbEntity
  8
0
  6
Continuous
 62
     7
370
    15
100
AcDbLine
 10
197.1766493863
 20
316.74280276
 30
0.0
 11
196.4260940364
 21
316.74280276
 31
0.0
  0
LINE
  5
158
330
1F
100
AcDbEntity
  8
0
  6
Continuous
 62
     7
370
    15
100
AcDbLine
 10
196.4260940364
 20
316.74280276
 30
0.0
 11
196.4260940364
 21
318.9905801266
 31
0.0
  0
SPLINE
  5
159
330
1F
100
AcDbEntity
  8
0
  6
Continuous
 62
     7
370
    15
100
AcDbSpline
210
0.0
220
0.0
230
1.0
 70
     8
 71
     3
 72
    10
 73
     6
 74
     0
 42
0.00000001
 43
0.00000001
 12
1.0
 22
0.0
 32
0.0
 13
1.0
 23
0.0
 33
0.0
 40
0.0
 40
0.0
 40
0.0
 40
0.0
 40
0.5
 40
0.5
 40
1.0
 40
1.0
 40
1.0
 40
1.0
 10
196.4260940363668
 20
318.9905801265844
 30
0.0
 10
196.548165783313
 20
319.0610582825442
 30
0.0
 10
196.6731911996081
 20
319.1201707899374
 30
0.0
 10
196.9238080782992
 20
319.2009989318216
 30
0.0
 10
197.0498178755611
 20
319.2228027600247
 30
0.0
 10
197.1766493863134
 20
319.2228027600247
 30
0.0
  0
SPLINE
  5
15A
330
1F
100
AcDbEntity
  8
0
  6
Continuous
 62
     7
370
    15
100
AcDbSpline
210
0.0
220
0.0
230
1.0
 70
     8
 71
     3
 72
    12
 73
     8
 74
     0
 42
0.00000001
 43
0.00000001
 12
1.0
 22
0.0
 32
0.0
 13
1.0
 23
0.0
 33
0.0
 40
0.0
 40
0.0
 40
0.0
 40
0.0
 40
0.2500000000000017
 40
0.2500000000000017
 40
0.5000000000000034
 40
0.5000000000000034
 40
1.0
 40
1.0
 40
1.0
 40
1.0
 10
199.4283154361529
 20
319.2228027600247
 30
0.0
 10
199.3009209334576
 20
319.2228027600247
 30
0.0
 10
199.1729551780403
 20
319.2173138764341
 30
0.0
 10
198.9198121968381
 20
319.1960725434794
 30
0.0
 10
198.7940873679854
 20
319.1803405115585
 30
0.0
 10
198.4191458628157
 20
319.1196637265719
 30
0.0
 10
198.1721534793059
 20
319.0612907379522
 30
0.0
 10
197.9272047362598
 20
318.9905801265845
 30
0.0
  0
LINE
  5
15B
330
1F
100
AcDbEntity
  8
0
  6
Continuous
 62
     7
370
    15
100
AcDbLine
 10
197.1766493863
 20
319.22280276
 30
0.0
 11
199.4283154362
 21
319.22280276
 31
0.0
  0
LINE
  5
15C
330
1F
100
AcDbEntity
  8
0
  6
Continuous
 62
     7
370
    15
100
AcDbLine
 10
199.4283154362
 20
316.74280276
 30
0.0
 11
200.929426136
 21
316.74280276
 31
0.0
  0
LINE
  5
15D
330
1F
100
AcDbEntity
  8
0
  6
Continuous
 62
     7
370
    15
100
AcDbLine
 10
197.9272047363
 20
316.74280276
 30
0.0
 11
199.4283154362
 21
316.74280276
 31
0.0
  0
SPLINE
  5
15E
330
1F
100
AcDbEntity
  8
0
  6
Continuous
 62
     7
370
    15
100
AcDbSpline
210
0.0
220
0.0
230
1.0
 70
     8
 71
     3
 72
    10
 73
     6
 74
     0
 42
0.00000001
 43
0.00000001
 12
1.0
 22
0.0
 32
0.0
 13
1.0
 23
0.0
 33
0.0
 40
0.0
 40
0.0
 40
0.0
 40
0.0
 40
0.5
 40
0.5
 40
1.0
 40
1.0
 40
1.0
 40
1.0
 10
200.9294261360459
 20
318.9905801265846
 30
0.0
 10
200.6838643433273
 20
319.061467710149
 30
0.0
 10
200.4365087880902
 20
319.1198685817012
 30
0.0
 10
199.9366261918433
 20
319.2006706577072
 30
0.0
 10
199.6840604933129
 20
319.2228027600247
 30
0.0
 10
199.4283154361529
 20
319.2228027600247
 30
0.0
  0
LINE
  5
15F
330
1F
100
AcDbEntity
  8
0
  6
Continuous
 62
     7
370
    15
100
AcDbLine
 10
200.929426136
 20
316.74280276
 30
0.0
 11
200.929426136
 21
318.9905801266
 31
0.0
  0
SPLINE
  5
160
330
1F
100
AcDbEntity
  8
0
  6
Continuous
 62
     7
370
    15
100
AcDbSpline
210
0.0
220
0.0
230
1.0
 70
     8
 71
     3
 72
    12
 73
     8
 74
     0
 42
0.00000001
 43
0.00000001
 12
1.0
 22
0.0
 32
0.0
 13
1.0
 23
0.0
 33
0.0
 40
0.0
 40
0.0
 40
0.0
 40
0.0
 40
0.2500000000000018
 40
0.2500000000000018
 40
0.5000000000000037
 40
0.5000000000000037
 40
1.0
 40
1.0
 40
1.0
 40
1.0
 10
201.6799814859924
 20
319.2228027600247
 30
0.0
 10
201.6162842346448
 20
319.2228027600248
 30
0.0
 10
201.5523013569361
 20
319.2173138764341
 30
0.0
 10
201.425729866335
 20
319.1960725434794
 30
0.0
 10
201.3628674519086
 20
319.1803405115585
 30
0.0
 10
201.1753966993238
 20
319.1196637265718
 30
0.0
 10
201.0519005075689
 20
319.0612907379522
 30
0.0
 10
200.9294261360459
 20
318.9905801265845
 30
0.0
  0
LINE
  5
161
330
1F
100
AcDbEntity
  8
0
  6
Continuous
 62
     7
370
    15
100
AcDbLine
 10
201.679981486
 20
319.22280276
 30
0.0
 11
199.4283154362
 21
319.22280276
 31
0.0
  0
LINE
  5
162
330
1F
100
AcDbEntity
  8
0
  6
Continuous
 62
     7
370
    15
100
AcDbLine
 10
201.679981486
 20
316.74280276
 30
0.0
 11
202.4305368359
 21
316.74280276
 31
0.0
  0
SPLINE
  5
163
330
1F
100
AcDbEntity
  8
0
  6
Continuous
 62
     7
370
    15
100
AcDbSpline
210
0.0
220
0.0
230
1.0
 70
     8
 71
     3
 72
    10
 73
     6
 74
     0
 42
0.00000001
 43
0.00000001
 12
1.0
 22
0.0
 32
0.0
 13
1.0
 23
0.0
 33
0.0
 40
0.0
 40
0.0
 40
0.0
 40
0.0
 40
0.5
 40
0.5
 40
1.0
 40
1.0
 40
1.0
 40
1.0
 10
202.4305368359389
 20
318.9905801265846
 30
0.0
 10
202.3077559395796
 20
319.061467710149
 30
0.0
 10
202.1840781619611
 20
319.1198685817012
 30
0.0
 10
201.9341368638376
 20
319.2006706577072
 30
0.0
 10
201.8078540145725
 20
319.2228027600247
 30
0.0
 10
201.6799814859924
 20
319.2228027600247
 30
0.0
  0
LINE
  5
164
330
1F
100
AcDbEntity
  8
0
  6
Continuous
 62
     7
370
    15
100
AcDbLine
 10
202.4305368359
 20
316.74280276
 30
0.0
 11
202.4305368359
 21
318.9905801266
 31
0.0
  0
LINE
  5
165
330
1F
100
AcDbEntity
  8
0
  6
Continuous
 62
     7
370
    15
100
AcDbLine
 10
200.929426136
 20
316.74280276
 30
0.0
 11
201.679981486
 21
316.74280276
 31
0.0
  0
LINE
  5
166
330
1F
100
AcDbEntity
  8
0
  6
Continuous
 62
     7
370
    15
100
AcDbLine
 10
202.0190717235
 20
316.50280276
 30
0.0
 11
201.8283154362
 21
316.50280276
 31
0.0
  0
LINE
  5
167
330
1F
100
AcDbEntity
  8
0
  6
Continuous
 62
     7
370
    15
100
AcDbLine
 10
197.0283154362
 20
316.50280276
 30
0.0
 11
196.8375591488
 21
316.50280276
 31
0.0
  0
LINE
  5
168
330
1F
100
AcDbEntity
  8
0
  6
Continuous
 62
     7
370
    15
100
AcDbLine
 10
201.8283154362
 20
314.10280276
 30
0.0
 11
209.0895579561
 21
314.10280276
 31
0.0
  0
LINE
  5
169
330
1F
100
AcDbEntity
  8
0
  6
Continuous
 62
     7
370
    15
100
AcDbLine
 10
189.7670729162
 20
314.10280276
 30
0.0
 11
197.0283154362
 21
314.10280276
 31
0.0
  0
LINE
  5
16A
330
1F
100
AcDbEntity
  8
0
  6
Continuous
 62
     7
370
    15
100
AcDbLine
 10
197.8283154362
 20
329.30280276
 30
0.0
 11
201.0283154362
 21
329.30280276
 31
0.0
  0
LINE
  5
16B
330
1F
100
AcDbEntity
  8
0
  6
Continuous
 62
     7
370
    15
100
AcDbLine
 10
197.8283154362
 20
330.10280276
 30
0.0
 11
201.0283154362
 21
330.10280276
 31
0.0
  0
LINE
  5
16C
330
1F
100
AcDbEntity
  8
0
  6
Continuous
 62
     7
370
    15
100
AcDbLine
 10
197.8283154362
 20
339.30280276
 30
0.0
 11
201.0283154362
 21
339.30280276
 31
0.0
  0
LINE
  5
16D
330
1F
100
AcDbEntity
  8
0
  6
Continuous
 62
     7
370
    15
100
AcDbLine
 10
197.8283154362
 20
340.10280276
 30
0.0
 11
201.0283154362
 21
340.10280276
 31
0.0
  0
LINE
  5
16E
330
1F
100
AcDbEntity
  8
0
  6
Continuous
 62
     7
370
    15
100
AcDbLine
 10
197.8283154362
 20
343.891657142
 30
0.0
 11
201.0283154362
 21
343.891657142
 31
0.0
  0
ELLIPSE
  5
16F
330
1F
100
AcDbEntity
  8
0
  6
Continuous
 62
     7
370
    15
100
AcDbEllipse
 10
199.4283154362
 20
306.1388773919
 30
0.0
 11
-0.2919287470652421
 21
121.0664813094195
 31
0.0
210
0.0
220
0.0
230
1.0
 40
0.0825640414
 41
1.13008245795215
 42
1.18668842286361
  0
LINE
  5
170
330
1F
100
AcDbEntity
  8
0
  6
Continuous
 62
     7
370
    15
100
AcDbLine
 10
199.4283154362
 20
349.70280276
 30
0.0
 11
209.4283154362
 21
349.70280276
 31
0.0
  0
LINE
  5
171
330
1F
100
AcDbEntity
  8
0
  6
Continuous
 62
     7
370
    15
100
AcDbLine
 10
189.4283154362
 20
349.70280276
 30
0.0
 11
199.4283154362
 21
349.70280276
 31
0.0
  0
LINE
  5
172
330
1F
100
AcDbEntity
  8
0
  6
Continuous
 62
     7
370
    15
100
AcDbLine
 10
199.4283154362
 20
359.70280276
 30
0.0
 11
203.3109624406
 21
359.70280276
 31
0.0
  0
LINE
  5
173
330
1F
100
AcDbEntity
  8
0
  6
Continuous
 62
     7
370
    15
100
AcDbLine
 10
189.4283154362
 20
359.70280276
 30
0.0
 11
199.4283154362
 21
359.70280276
 31
0.0
  0
LINE
  5
174
330
1F
100
AcDbEntity
  8
0
  6
Continuous
 62
     7
370
    15
100
AcDbLine
 10
197.1766493863
 20
319.22280276
 30
0.0
 11
196.8283154362
 21
319.22280276
 31
0.0
  0
LINE
  5
175
330
1F
100
AcDbEntity
  8
0
  6
Continuous
 62
     7
370
    15
100
AcDbLine
 10
202.0283154362
 20
319.22280276
 30
0.0
 11
201.679981486
 21
319.22280276
 31
0.0
  0
LINE
  5
176
330
1F
100
AcDbEntity
  8
0
  6
Continuous
 62
     7
370
    15
100
AcDbLine
 10
190.4283154362
 20
316.50280276
 30
0.0
 11
196.8375591488
 21
316.50280276
 31
0.0
  0
LINE
  5
177
330
1F
100
AcDbEntity
  8
0
  6
Continuous
 62
     7
370
    15
100
AcDbLine
 10
202.0190717235
 20
316.50280276
 30
0.0
 11
208.4283154362
 21
316.50280276
 31
0.0
  0
ARC
  5
178
330
1F
100
AcDbEntity
  8
0
  6
Continuous
 62
     7
370
    15
100
AcDbCircle
 10
199.4283154362
 20
348.0965915836
 30
0.0
 40
5.000000000000032
100
AcDbArc
 50
288.6629248849
 51
306.9883591794
  0
ARC
  5
179
330
1F
100
AcDbEntity
  8
0
  6
Continuous
 62
     7
370
    15
100
AcDbCircle
 10
199.4283154362
 20
348.0965915836
 30
0.0
 40
5.000000000000037
100
AcDbArc
 50
233.0116408206
 51
251.3370751151
  0
LINE
  5
17A
330
1F
100
AcDbEntity
  8
0
  6
Continuous
 62
     7
370
    15
100
AcDbLine
 10
202.4365791933
 20
344.10280276
 30
0.0
 11
200.7549653523
 21
344.10280276
 31
0.0
  0
LINE
  5
17B
330
1F
100
AcDbEntity
  8
0
  6
Continuous
 62
     7
370
    15
100
AcDbLine
 10
198.10166552
 20
344.10280276
 30
0.0
 11
196.420051679
 21
344.10280276
 31
0.0
  0
ELLIPSE
  5
17C
330
1F
100
AcDbEntity
  8
0
  6
Continuous
 62
     7
370
    15
100
AcDbEllipse
 10
199.4283154362
 20
435.5756056247
 30
0.0
 11
0.0
 21
114.5188277421555
 31
0.0
210
0.0
220
0.0
230
1.0
 40
0.0436609429
 41
2.418643005412946
 42
2.496024000999281
  0
ELLIPSE
  5
17D
330
1F
100
AcDbEntity
  8
0
  6
Continuous
 62
     7
370
    15
100
AcDbEllipse
 10
199.4283154362
 20
435.5756056247
 30
0.0
 11
0.0
 21
114.5188277421555
 31
0.0
210
0.0
220
0.0
230
1.0
 40
0.0436609429
 41
3.78716130618051
 42
3.864542301766821
  0
LINE
  5
17E
330
1F
100
AcDbEntity
  8
0
  6
Continuous
 62
     7
370
    15
100
AcDbLine
 10
203.4221042597
 20
344.10280276
 30
0.0
 11
203.1776029794
 21
349.70280276
 31
0.0
  0
LINE
  5
17F
330
1F
100
AcDbEntity
  8
0
  6
Continuous
 62
     7
370
    15
100
AcDbLine
 10
204.4283154362
 20
343.0965915836
 30
0.0
 11
203.4221042597
 21
344.10280276
 31
0.0
  0
LINE
  5
180
330
1F
100
AcDbEntity
  8
0
  6
Continuous
 62
     7
370
    15
100
AcDbLine
 10
195.4345266126
 20
344.10280276
 30
0.0
 11
194.4283154362
 21
343.0965915836
 31
0.0
  0
LINE
  5
181
330
1F
100
AcDbEntity
  8
0
  6
Continuous
 62
     7
370
    15
100
AcDbLine
 10
195.6790278929
 20
349.70280276
 30
0.0
 11
195.4345266126
 21
344.10280276
 31
0.0
  0
LINE
  5
182
330
1F
100
AcDbEntity
  8
0
  6
Continuous
 62
     7
370
    15
100
AcDbLine
 10
190.2631640462
 20
357.7622504979
 30
0.0
 11
183.5952774678
 21
360.10280276
 31
0.0
  0
LINE
  5
183
330
1F
100
AcDbEntity
  8
0
  6
Continuous
 62
     7
370
    15
100
AcDbLine
 10
190.0515408167
 20
351.4840390548
 30
0.0
 11
165.497960124
 21
360.10280276
 31
0.0
  0
LINE
  5
184
330
1F
100
AcDbEntity
  8
0
  6
Continuous
 62
     7
370
    15
100
AcDbLine
 10
215.6503017176
 20
195.06280276
 30
0.0
 11
227.8283154362
 21
192.6956366887
 31
0.0
  0
LINE
  5
185
330
1F
100
AcDbEntity
  8
0
  6
Continuous
 62
     7
370
    15
100
AcDbLine
 10
183.2063291547
 20
195.06280276
 30
0.0
 11
215.6503017176
 21
195.06280276
 31
0.0
  0
LINE
  5
186
330
1F
100
AcDbEntity
  8
0
  6
Continuous
 62
     7
370
    15
100
AcDbLine
 10
183.2063291547
 20
195.06280276
 30
0.0
 11
171.0283154362
 21
192.6956366887
 31
0.0
  0
LINE
  5
187
330
1F
100
AcDbEntity
  8
0
  6
Continuous
 62
     7
370
    15
100
AcDbLine
 10
178.2283154362
 20
266.8990026522
 30
0.0
 11
178.2283154362
 21
256.0707899498
 31
0.0
  0
CIRCLE
  5
188
330
1F
100
AcDbEntity
  8
0
  6
Continuous
 62
     7
370
    15
100
AcDbCircle
 10
176.6283154362
 20
242.10280276
 30
0.0
 40
3.599999999999994
  0
LINE
  5
189
330
1F
100
AcDbEntity
  8
0
  6
Continuous
 62
     7
370
    15
100
AcDbLine
 10
220.6283154362
 20
266.8990026522
 30
0.0
 11
220.6283154362
 21
256.0707899498
 31
0.0
  0
CIRCLE
  5
18A
330
1F
100
AcDbEntity
  8
0
  6
Continuous
 62
     7
370
    15
100
AcDbCircle
 10
222.2283154362
 20
242.10280276
 30
0.0
 40
3.599999999999994
  0
LINE
  5
18B
330
1F
100
AcDbEntity
  8
0
  6
Continuous
 62
     7
370
    15
100
AcDbLine
 10
188.7020359945
 20
316.50280276
 30
0.0
 11
185.606353035
 21
296.2303137416
 31
0.0
  0
LINE
  5
18C
330
1F
100
AcDbEntity
  8
0
  6
Continuous
 62
     7
370
    15
100
AcDbLine
 10
190.4283154362
 20
316.50280276
 30
0.0
 11
188.7020359945
 21
316.50280276
 31
0.0
  0
LINE
  5
18D
330
1F
100
AcDbEntity
  8
0
  6
Continuous
 62
     7
370
    15
100
AcDbLine
 10
210.1545948778
 20
316.50280276
 30
0.0
 11
213.2502778374
 21
296.2303137416
 31
0.0
  0
LINE
  5
18E
330
1F
100
AcDbEntity
  8
0
  6
Continuous
 62
     7
370
    15
100
AcDbLine
 10
208.4283154362
 20
316.50280276
 30
0.0
 11
210.1545948778
 21
316.50280276
 31
0.0
  0
LINE
  5
18F
330
1F
100
AcDbEntity
  8
0
  6
Continuous
 62
     8
370
     0
100
AcDbLine
 10
199.4283154362
 20
364.1560126223
 30
0.0
 11
244.0737055223
 21
364.1560126223
 31
0.0
  0
LINE
  5
190
330
1F
100
AcDbEntity
  8
0
  6
Continuous
 62
     8
370
     0
100
AcDbLine
 10
154.78292535
 20
364.1560126223
 30
0.0
 11
199.4283154362
 21
364.1560126223
 31
0.0
  0
LINE
  5
191
330
1F
100
AcDbEntity
  8
0
  6
Continuous
 62
     8
370
     0
100
AcDbLine
 10
182.8774411264
 20
267.30280276
 30
0.0
 11
182.7942817334
 21
270.50280276
 31
0.0
  0
LINE
  5
192
330
1F
100
AcDbEntity
  8
0
  6
Continuous
 62
     8
370
     0
100
AcDbLine
 10
215.9791897459
 20
267.30280276
 30
0.0
 11
216.0623491389
 21
270.50280276
 31
0.0
  0
LINE
  5
193
330
1F
100
AcDbEntity
  8
0
  6
Continuous
 62
     8
370
     0
100
AcDbLine
 10
183.1546250066
 20
267.0527619643
 30
0.0
 11
182.8774411264
 21
267.30280276
 31
0.0
  0
LINE
  5
194
330
1F
100
AcDbEntity
  8
0
  6
Continuous
 62
     8
370
     0
100
AcDbLine
 10
215.7020058657
 20
267.0527619643
 30
0.0
 11
215.9791897459
 21
267.30280276
 31
0.0
  0
LINE
  5
195
330
1F
100
AcDbEntity
  8
0
  6
Continuous
 62
     8
370
     0
100
AcDbLine
 10
215.5776991828
 20
282.50280276
 30
0.0
 11
215.5776991828
 21
270.50280276
 31
0.0
  0
LINE
  5
196
330
1F
100
AcDbEntity
  8
0
  6
Continuous
 62
     8
370
     0
100
AcDbLine
 10
183.2789316895
 20
282.50280276
 30
0.0
 11
183.2789316895
 21
270.50280276
 31
0.0
  0
LINE
  5
197
330
1F
100
AcDbEntity
  8
0
  6
Continuous
 62
     8
370
     0
100
AcDbLine
 10
219.6826692988
 20
282.50280276
 30
0.0
 11
219.6826692988
 21
270.50280276
 31
0.0
  0
LINE
  5
198
330
1F
100
AcDbEntity
  8
0
  6
Continuous
 62
     8
370
     0
100
AcDbLine
 10
179.1739615735
 20
282.50280276
 30
0.0
 11
179.1739615735
 21
270.50280276
 31
0.0
  0
LINE
  5
199
330
1F
100
AcDbEntity
  8
0
  6
Continuous
 62
     8
370
     0
100
AcDbLine
 10
219.2971211538
 20
267.30280276
 30
0.0
 11
219.5690800553
 21
270.50280276
 31
0.0
  0
LINE
  5
19A
330
1F
100
AcDbEntity
  8
0
  6
Continuous
 62
     8
370
     0
100
AcDbLine
 10
179.5595097185
 20
267.30280276
 30
0.0
 11
179.287550817
 21
270.50280276
 31
0.0
  0
LINE
  5
19B
330
1F
100
AcDbEntity
  8
0
  6
Continuous
 62
     8
370
     0
100
AcDbLine
 10
218.5428358012
 20
267.094743711
 30
0.0
 11
219.2971211538
 21
267.30280276
 31
0.0
  0
LINE
  5
19C
330
1F
100
AcDbEntity
  8
0
  6
Continuous
 62
     8
370
     0
100
AcDbLine
 10
180.3137950712
 20
267.094743711
 30
0.0
 11
179.5595097185
 21
267.30280276
 31
0.0
  0
SPLINE
  5
19D
330
1F
100
AcDbEntity
  8
0
  6
Continuous
 62
     8
370
     0
100
AcDbSpline
210
0.0
220
0.0
230
1.0
 70
     8
 71
     3
 72
    28
 73
    24
 74
     0
 42
0.00000001
 43
0.00000001
 12
1.0
 22
0.0
 32
0.0
 13
1.0
 23
0.0
 33
0.0
 40
0.0
 40
0.0
 40
0.0
 40
0.0
 40
0.2499999999999987
 40
0.2499999999999987
 40
0.3124999999999991
 40
0.3124999999999991
 40
0.3749999999999994
 40
0.3749999999999994
 40
0.4999999999999994
 40
0.4999999999999994
 40
0.5624999999999997
 40
0.5624999999999997
 40
0.6249999999999999
 40
0.6249999999999999
 40
0.7499999999999999
 40
0.7499999999999999
 40
0.875
 40
0.875
 40
0.9375
 40
0.9375
 40
0.96875
 40
0.96875
 40
1.0
 40
1.0
 40
1.0
 40
1.0
 10
204.9469806738205
 20
217.6838612025803
 30
0.0
 10
205.5126394605626
 20
217.581635247528
 30
0.0
 10
206.0575787494899
 20
217.4921126413807
 30
0.0
 10
206.7137000436663
 20
217.3965265615979
 30
0.0
 10
206.8441539812488
 20
217.3781718439016
 30
0.0
 10
207.0993858477003
 20
217.3435940090238
 30
0.0
 10
207.2241818421915
 20
217.3273613251384
 30
0.0
 10
207.5903130619822
 20
217.2817712857701
 30
0.0
 10
207.8234324319723
 20
217.2555087097123
 30
0.0
 10
208.1566967959113
 20
217.2223186003922
 30
0.0
 10
208.2650388862559
 20
217.212292503173
 30
0.0
 10
208.4761089810265
 20
217.1943576384276
 30
0.0
 10
208.5784667271655
 20
217.1864868711957
 30
0.0
 10
208.8725388513664
 20
217.1663748506661
 30
0.0
 10
209.052794637025
 20
217.1574894214763
 30
0.0
 10
209.3823344885485
 20
217.1484770875259
 30
0.0
 10
209.5317565990236
 20
217.1483543438468
 30
0.0
 10
209.7312665465167
 20
217.1548699407471
 30
0.0
 10
209.7931598486665
 20
217.1581437752488
 30
0.0
 10
209.8791331719247
 20
217.164676049988
 30
0.0
 10
209.9066453952395
 20
217.1671239758649
 30
0.0
 10
209.9593735157711
 20
217.172558514445
 30
0.0
 10
209.9848742418889
 20
217.1755848367516
 30
0.0
 10
210.0086008356858
 20
217.1787942290663
 30
0.0
  0
SPLINE
  5
19E
330
1F
100
AcDbEntity
  8
0
  6
Continuous
 62
     8
370
     0
100
AcDbSpline
210
0.0
220
0.0
230
1.0
 70
     8
 71
     3
 72
    28
 73
    24
 74
     0
 42
0.00000001
 43
0.00000001
 12
1.0
 22
0.0
 32
0.0
 13
1.0
 23
0.0
 33
0.0
 40
0.0
 40
0.0
 40
0.0
 40
0.0
 40
0.2500000000000008
 40
0.2500000000000008
 40
0.3125000000000006
 40
0.3125000000000006
 40
0.3750000000000005
 40
0.3750000000000005
 40
0.5000000000000007
 40
0.5000000000000007
 40
0.5625000000000009
 40
0.5625000000000009
 40
0.6250000000000009
 40
0.6250000000000009
 40
0.7500000000000004
 40
0.7500000000000004
 40
0.8749999999999999
 40
0.8749999999999999
 40
0.9374999999999999
 40
0.9374999999999999
 40
0.96875
 40
0.96875
 40
1.0
 40
1.0
 40
1.0
 40
1.0
 10
204.6713668997195
 20
215.0406437074735
 30
0.0
 10
205.2520037535321
 20
215.0459538304883
 30
0.0
 10
205.8149422554075
 20
215.0984833972948
 30
0.0
 10
206.4971359657589
 20
215.2235258059587
 30
0.0
 10
206.633011038222
 20
215.2516895239718
 30
0.0
 10
206.8992878734994
 20
215.3135139032063
 30
0.0
 10
207.0297180389576
 20
215.3471453509465
 30
0.0
 10
207.4130731236329
 20
215.4560444089604
 30
0.0
 10
207.6581023498324
 20
215.5392812274288
 30
0.0
 10
208.0098419092864
 20
215.6801505892048
 30
0.0
 10
208.1244444451678
 20
215.7297849439229
 30
0.0
 10
208.3482379315378
 20
215.8345307544741
 30
0.0
 10
208.4570278350935
 20
215.8894867494367
 30
0.0
 10
208.770347971091
 20
216.0599878366973
 30
0.0
 10
208.9634706747846
 20
216.1818634974736
 30
0.0
 10
209.3187738428007
 20
216.4415150123784
 30
0.0
 10
209.4811080826073
 20
216.5794408022371
 30
0.0
 10
209.6999242607237
 20
216.7980421593602
 30
0.0
 10
209.7681835954744
 20
216.8723074224336
 30
0.0
 10
209.8636028772194
 20
216.9857463021518
 30
0.0
 10
209.8942465518394
 20
217.0238997223398
 30
0.0
 10
209.9532030978938
 20
217.1008815929808
 30
0.0
 10
209.9818399934504
 20
217.1401816659646
 30
0.0
 10
210.0086008356858
 20
217.1787942290663
 30
0.0
  0
ARC
  5
19F
330
1F
100
AcDbEntity
  8
0
  6
Continuous
 62
     8
370
     0
100
AcDbCircle
 10
174.5275048884
 20
219.5197849194
 30
0.0
 40
30.47482769362308
100
AcDbArc
 50
351.5481396
 51
356.5461851224
  0
SPLINE
  5
1A0
330
1F
100
AcDbEntity
  8
0
  6
Continuous
 62
     8
370
     0
100
AcDbSpline
210
0.0
220
0.0
230
1.0
 70
     8
 71
     3
 72
    28
 73
    24
 74
     0
 42
0.00000001
 43
0.00000001
 12
1.0
 22
0.0
 32
0.0
 13
1.0
 23
0.0
 33
0.0
 40
0.0
 40
0.0
 40
0.0
 40
0.0
 40
0.2500000000000006
 40
0.2500000000000006
 40
0.3125000000000003
 40
0.3125000000000003
 40
0.3750000000000002
 40
0.3750000000000002
 40
0.5000000000000002
 40
0.5000000000000002
 40
0.5625000000000003
 40
0.5625000000000003
 40
0.6250000000000003
 40
0.6250000000000003
 40
0.7499999999999998
 40
0.7499999999999998
 40
0.8749999999999991
 40
0.8749999999999991
 40
0.9374999999999991
 40
0.9374999999999991
 40
0.9687499999999996
 40
0.9687499999999996
 40
1.0
 40
1.0
 40
1.0
 40
1.0
 10
194.1852639725862
 20
215.0406437074735
 30
0.0
 10
193.6046271187737
 20
215.0459538304883
 30
0.0
 10
193.0416886168983
 20
215.0984833972948
 30
0.0
 10
192.3594949065469
 20
215.2235258059587
 30
0.0
 10
192.2236198340838
 20
215.2516895239718
 30
0.0
 10
191.9573429988064
 20
215.3135139032063
 30
0.0
 10
191.8269128333482
 20
215.3471453509465
 30
0.0
 10
191.4435577486729
 20
215.4560444089604
 30
0.0
 10
191.1985285224734
 20
215.5392812274288
 30
0.0
 10
190.8467889630194
 20
215.6801505892048
 30
0.0
 10
190.7321864271379
 20
215.7297849439229
 30
0.0
 10
190.508392940768
 20
215.8345307544741
 30
0.0
 10
190.3996030372122
 20
215.8894867494367
 30
0.0
 10
190.0862829012148
 20
216.0599878366973
 30
0.0
 10
189.8931601975212
 20
216.1818634974736
 30
0.0
 10
189.5378570295051
 20
216.4415150123784
 30
0.0
 10
189.3755227896985
 20
216.5794408022371
 30
0.0
 10
189.1567066115821
 20
216.7980421593602
 30
0.0
 10
189.0884472768313
 20
216.8723074224336
 30
0.0
 10
188.9930279950864
 20
216.9857463021518
 30
0.0
 10
188.9623843204664
 20
217.0238997223398
 30
0.0
 10
188.903427774412
 20
217.1008815929808
 30
0.0
 10
188.8747908788554
 20
217.1401816659646
 30
0.0
 10
188.84803003662
 20
217.1787942290663
 30
0.0
  0
SPLINE
  5
1A1
330
1F
100
AcDbEntity
  8
0
  6
Continuous
 62
     8
370
     0
100
AcDbSpline
210
0.0
220
0.0
230
1.0
 70
     8
 71
     3
 72
    28
 73
    24
 74
     0
 42
0.00000001
 43
0.00000001
 12
1.0
 22
0.0
 32
0.0
 13
1.0
 23
0.0
 33
0.0
 40
0.0
 40
0.0
 40
0.0
 40
0.0
 40
0.2499999999999987
 40
0.2499999999999987
 40
0.3124999999999991
 40
0.3124999999999991
 40
0.3749999999999994
 40
0.3749999999999994
 40
0.4999999999999994
 40
0.4999999999999994
 40
0.5624999999999997
 40
0.5624999999999997
 40
0.6249999999999999
 40
0.6249999999999999
 40
0.7499999999999999
 40
0.7499999999999999
 40
0.875
 40
0.875
 40
0.9375
 40
0.9375
 40
0.96875
 40
0.96875
 40
1.0
 40
1.0
 40
1.0
 40
1.0
 10
193.9096501984853
 20
217.6838612025803
 30
0.0
 10
193.3439914117432
 20
217.581635247528
 30
0.0
 10
192.7990521228159
 20
217.4921126413807
 30
0.0
 10
192.1429308286394
 20
217.3965265615979
 30
0.0
 10
192.012476891057
 20
217.3781718439016
 30
0.0
 10
191.7572450246055
 20
217.3435940090238
 30
0.0
 10
191.6324490301143
 20
217.3273613251384
 30
0.0
 10
191.2663178103236
 20
217.2817712857701
 30
0.0
 10
191.0331984403335
 20
217.2555087097123
 30
0.0
 10
190.6999340763944
 20
217.2223186003922
 30
0.0
 10
190.5915919860499
 20
217.212292503173
 30
0.0
 10
190.3805218912793
 20
217.1943576384276
 30
0.0
 10
190.2781641451403
 20
217.1864868711957
 30
0.0
 10
189.9840920209394
 20
217.1663748506661
 30
0.0
 10
189.8038362352808
 20
217.1574894214763
 30
0.0
 10
189.4742963837573
 20
217.1484770875259
 30
0.0
 10
189.3248742732822
 20
217.1483543438468
 30
0.0
 10
189.1253643257891
 20
217.1548699407471
 30
0.0
 10
189.0634710236393
 20
217.1581437752488
 30
0.0
 10
188.977497700381
 20
217.164676049988
 30
0.0
 10
188.9499854770663
 20
217.1671239758649
 30
0.0
 10
188.8972573565347
 20
217.172558514445
 30
0.0
 10
188.8717566304169
 20
217.1755848367516
 30
0.0
 10
188.8480300366199
 20
217.1787942290663
 30
0.0
  0
ARC
  5
1A2
330
1F
100
AcDbEntity
  8
0
  6
Continuous
 62
     8
370
     0
100
AcDbCircle
 10
224.3291259839
 20
219.5197849194
 30
0.0
 40
30.47482769362313
100
AcDbArc
 50
183.4538148776
 51
188.4518604
  0
SPLINE
  5
1A3
330
1F
100
AcDbEntity
  8
0
  6
Continuous
 62
     8
370
     0
100
AcDbSpline
210
0.0
220
0.0
230
1.0
 70
     8
 71
     3
 72
    16
 73
    12
 74
     0
 42
0.00000001
 43
0.00000001
 12
1.0
 22
0.0
 32
0.0
 13
1.0
 23
0.0
 33
0.0
 40
0.0
 40
0.0
 40
0.0
 40
0.0
 40
0.1249999999999999
 40
0.1249999999999999
 40
0.2499999999999999
 40
0.2499999999999999
 40
0.4999999999999999
 40
0.4999999999999999
 40
0.7499999999999999
 40
0.7499999999999999
 40
1.0
 40
1.0
 40
1.0
 40
1.0
 10
210.008600835686
 20
217.1787942290663
 30
0.0
 10
210.103513347277
 20
217.6070873637347
 30
0.0
 10
210.1972059292889
 20
218.0349664463213
 30
0.0
 10
210.3822538596807
 20
218.8898840480967
 30
0.0
 10
210.4737242830498
 20
219.3174705976379
 30
0.0
 10
210.7441140975853
 20
220.5943833007
 30
0.0
 10
210.9187811060668
 20
221.4371894182168
 30
0.0
 10
211.2620741581655
 20
223.1058257458622
 30
0.0
 10
211.4306563643207
 20
223.9316620194827
 30
0.0
 10
211.7705065846565
 20
225.5654836125203
 30
0.0
 10
211.9416664852527
 20
226.3734953464912
 30
0.0
 10
212.1214071328764
 20
227.1715142719811
 30
0.0
  0
SPLINE
  5
1A4
330
1F
100
AcDbEntity
  8
0
  6
Continuous
 62
     8
370
     0
100
AcDbSpline
210
0.0
220
0.0
230
1.0
 70
     8
 71
     3
 72
    12
 73
     8
 74
     0
 42
0.00000001
 43
0.00000001
 12
1.0
 22
0.0
 32
0.0
 13
1.0
 23
0.0
 33
0.0
 40
0.0
 40
0.0
 40
0.0
 40
0.0
 40
0.5
 40
0.5
 40
0.75
 40
0.75
 40
1.0
 40
1.0
 40
1.0
 40
1.0
 10
207.1850857670695
 20
228.470102507466
 30
0.0
 10
206.7360216320011
 20
226.6875541055967
 30
0.0
 10
206.4303246085901
 20
224.8759158866551
 30
0.0
 10
205.9404646889874
 20
222.1646822358719
 30
0.0
 10
205.7715805920598
 20
221.2620316789874
 30
0.0
 10
205.3923228711346
 20
219.4650674453807
 30
0.0
 10
205.181765730235
 20
218.5715819712441
 30
0.0
 10
204.9469806738205
 20
217.6838612025803
 30
0.0
  0
ARC
  5
1A5
330
1F
100
AcDbEntity
  8
0
  6
Continuous
 62
     8
370
     0
100
AcDbCircle
 10
200.6961258661
 20
193.7721203561
 30
0.0
 40
35.29952642703104
100
AcDbArc
 50
71.1151829681
 51
79.4073245674
  0
SPLINE
  5
1A6
330
1F
100
AcDbEntity
  8
0
  6
Continuous
 62
     8
370
     0
100
AcDbSpline
210
0.0
220
0.0
230
1.0
 70
     8
 71
     3
 72
    12
 73
     8
 74
     0
 42
0.00000001
 43
0.00000001
 12
1.0
 22
0.0
 32
0.0
 13
1.0
 23
0.0
 33
0.0
 40
0.0
 40
0.0
 40
0.0
 40
0.0
 40
0.5
 40
0.5
 40
0.75
 40
0.75
 40
1.0
 40
1.0
 40
1.0
 40
1.0
 10
191.6715451052363
 20
228.470102507466
 30
0.0
 10
192.1206092403047
 20
226.6875541055967
 30
0.0
 10
192.4263062637157
 20
224.8759158866551
 30
0.0
 10
192.9161661833184
 20
222.1646822358719
 30
0.0
 10
193.085050280246
 20
221.2620316789874
 30
0.0
 10
193.4643080011712
 20
219.4650674453807
 30
0.0
 10
193.6748651420708
 20
218.5715819712441
 30
0.0
 10
193.9096501984853
 20
217.6838612025803
 30
0.0
  0
SPLINE
  5
1A7
330
1F
100
AcDbEntity
  8
0
  6
Continuous
 62
     8
370
     0
100
AcDbSpline
210
0.0
220
0.0
230
1.0
 70
     8
 71
     3
 72
    16
 73
    12
 74
     0
 42
0.00000001
 43
0.00000001
 12
1.0
 22
0.0
 32
0.0
 13
1.0
 23
0.0
 33
0.0
 40
0.0
 40
0.0
 40
0.0
 40
0.0
 40
0.1249999999999999
 40
0.1249999999999999
 40
0.2499999999999999
 40
0.2499999999999999
 40
0.4999999999999999
 40
0.4999999999999999
 40
0.7499999999999999
 40
0.7499999999999999
 40
1.0
 40
1.0
 40
1.0
 40
1.0
 10
188.8480300366198
 20
217.1787942290663
 30
0.0
 10
188.7531175250288
 20
217.6070873637347
 30
0.0
 10
188.6594249430169
 20
218.0349664463213
 30
0.0
 10
188.4743770126251
 20
218.8898840480967
 30
0.0
 10
188.382906589256
 20
219.3174705976379
 30
0.0
 10
188.1125167747205
 20
220.5943833007
 30
0.0
 10
187.9378497662389
 20
221.4371894182168
 30
0.0
 10
187.5945567141403
 20
223.1058257458622
 30
0.0
 10
187.4259745079851
 20
223.9316620194827
 30
0.0
 10
187.0861242876493
 20
225.5654836125203
 30
0.0
 10
186.9149643870531
 20
226.3734953464912
 30
0.0
 10
186.7352237394294
 20
227.1715142719811
 30
0.0
  0
ARC
  5
1A8
330
1F
100
AcDbEntity
  8
0
  6
Continuous
 62
     8
370
     0
100
AcDbCircle
 10
198.1605050062
 20
193.7721203561
 30
0.0
 40
35.29952642703075
100
AcDbArc
 50
100.5926754326
 51
108.8848170319
  0
SPLINE
  5
1A9
330
1F
100
AcDbEntity
  8
0
  6
Continuous
 62
     8
370
     0
100
AcDbSpline
210
0.0
220
0.0
230
1.0
 70
     8
 71
     3
 72
     8
 73
     4
 74
     0
 42
0.00000001
 43
0.00000001
 12
1.0
 22
0.0
 32
0.0
 13
1.0
 23
0.0
 33
0.0
 40
0.0
 40
0.0
 40
0.0
 40
0.0
 40
0.0002195233614284
 40
0.0002195233614284
 40
0.0002195233614284
 40
0.0002195233614284
 10
204.9469806738205
 20
217.6838612025803
 30
0.0
 10
204.917937455287
 20
217.685600343798
 30
0.0
 10
204.8889300274629
 20
217.6881920825522
 30
0.0
 10
204.8600293524339
 20
217.6916130380322
 30
0.0
  0
ELLIPSE
  5
1AA
330
1F
100
AcDbEntity
  8
0
  6
Continuous
 62
     8
370
     0
100
AcDbEllipse
 10
199.4283154362
 20
162.7147862458
 30
0.0
 11
0.0
 21
55.29736669637111
 31
0.0
210
0.0
220
0.0
230
1.0
 40
0.9136058915
 41
6.175460968820707
 42
6.39090964553848
  0
SPLINE
  5
1AB
330
1F
100
AcDbEntity
  8
0
  6
Continuous
 62
     8
370
     0
100
AcDbSpline
210
0.0
220
0.0
230
1.0
 70
     8
 71
     3
 72
     8
 73
     4
 74
     0
 42
0.00000001
 43
0.00000001
 12
1.0
 22
0.0
 32
0.0
 13
1.0
 23
0.0
 33
0.0
 40
0.0
 40
0.0
 40
0.0
 40
0.0
 40
0.0002195233614284
 40
0.0002195233614284
 40
0.0002195233614284
 40
0.0002195233614284
 10
193.9096501984853
 20
217.6838612025803
 30
0.0
 10
193.9386934170188
 20
217.685600343798
 30
0.0
 10
193.9677008448429
 20
217.6881920825522
 30
0.0
 10
193.9966015198719
 20
217.6916130380322
 30
0.0
  0
ELLIPSE
  5
1AC
330
1F
100
AcDbEntity
  8
0
  6
Continuous
 62
     8
370
     0
100
AcDbEllipse
 10
199.4283154362
 20
195.8632134742
 30
0.0
 11
-50.51821488792456
 21
200.8247367647939
 31
0.0
210
0.0
220
0.0
230
1.0
 40
0.0021147468
 41
4.874943873555074
 42
4.946489066212964
  0
LINE
  5
1AD
330
1F
100
AcDbEntity
  8
0
  6
Continuous
 62
     8
370
     0
100
AcDbLine
 10
188.1228300314
 20
265.9094572391
 30
0.0
 11
188.1228300314
 21
242.5519873514
 31
0.0
  0
LINE
  5
1AE
330
1F
100
AcDbEntity
  8
0
  6
Continuous
 62
     8
370
     0
100
AcDbLine
 10
210.7338008409
 20
265.9094572391
 30
0.0
 11
210.7338008409
 21
242.5519873514
 31
0.0
  0
ELLIPSE
  5
1AF
330
1F
100
AcDbEntity
  8
0
  6
Continuous
 62
     8
370
     0
100
AcDbEllipse
 10
199.4283154362
 20
195.8632134742
 30
0.0
 11
50.51821488792454
 21
200.8247367647939
 31
0.0
210
0.0
220
0.0
230
1.0
 40
0.0021147468
 41
1.336696240966978
 42
1.408241433624683
  0
ARC
  5
1B0
330
1F
100
AcDbEntity
  8
0
  6
Continuous
 62
     8
370
     0
100
AcDbCircle
 10
173.8628219388
 20
221.5151836248
 30
0.0
 40
31.23213984788064
100
AcDbArc
 50
348.0406417186
 51
352.9679676393
  0
ELLIPSE
  5
1B1
330
1F
100
AcDbEntity
  8
0
  6
Continuous
 62
     8
370
     0
100
AcDbEllipse
 10
199.4283154362
 20
160.0665012939
 30
0.0
 11
0.0
 21
55.29736669637106
 31
0.0
210
0.0
220
0.0
230
1.0
 40
0.8390996312
 41
6.175460968820708
 42
6.390909645538481
  0
ARC
  5
1B2
330
1F
100
AcDbEntity
  8
0
  6
Continuous
 62
     8
370
     0
100
AcDbCircle
 10
224.9938089335
 20
221.5151836248
 30
0.0
 40
31.23213984788074
100
AcDbArc
 50
187.0320323607
 51
191.9593582814
  0
SPLINE
  5
1B3
330
1F
100
AcDbEntity
  8
0
  6
Continuous
 62
     8
370
     0
100
AcDbSpline
210
0.0
220
0.0
230
1.0
 70
     8
 71
     3
 72
     8
 73
     4
 74
     0
 42
0.00000001
 43
0.00000001
 12
1.0
 22
0.0
 32
0.0
 13
1.0
 23
0.0
 33
0.0
 40
0.0
 40
0.0
 40
0.0
 40
0.0
 40
1.0
 40
1.0
 40
1.0
 40
1.0
 10
194.439567896259
 20
215.0433280861236
 30
0.0
 10
194.3547833452441
 20
215.0407601496698
 30
0.0
 10
194.2700151689834
 20
215.0398686287385
 30
0.0
 10
194.1852639725862
 20
215.0406437074742
 30
0.0
  0
SPLINE
  5
1B4
330
1F
100
AcDbEntity
  8
0
  6
Continuous
 62
     8
370
     0
100
AcDbSpline
210
0.0
220
0.0
230
1.0
 70
     8
 71
     3
 72
     8
 73
     4
 74
     0
 42
0.00000001
 43
0.00000001
 12
1.0
 22
0.0
 32
0.0
 13
1.0
 23
0.0
 33
0.0
 40
0.0
 40
0.0
 40
0.0
 40
0.0
 40
1.0
 40
1.0
 40
1.0
 40
1.0
 10
204.4170629760468
 20
215.0433280861236
 30
0.0
 10
204.5018475270617
 20
215.0407601496698
 30
0.0
 10
204.5866157033224
 20
215.0398686287385
 30
0.0
 10
204.6713668997196
 20
215.0406437074742
 30
0.0
  0
ELLIPSE
  5
1B5
330
1F
100
AcDbEntity
  8
0
  6
Continuous
 62
     8
370
     0
100
AcDbEllipse
 10
205.2858684327
 20
194.5646252387
 30
0.0
 11
44.51838421177663
 21
200.8247475787958
 31
0.0
210
0.0
220
0.0
230
1.0
 40
0.0018887028
 41
1.340636586916771
 42
1.408128144611847
  0
SPLINE
  5
1B6
330
1F
100
AcDbEntity
  8
0
  6
Continuous
 62
     8
370
     0
100
AcDbSpline
210
0.0
220
0.0
230
1.0
 70
     8
 71
     3
 72
    16
 73
    12
 74
     0
 42
0.00000001
 43
0.00000001
 12
1.0
 22
0.0
 32
0.0
 13
1.0
 23
0.0
 33
0.0
 40
0.0
 40
0.0
 40
0.0
 40
0.0
 40
0.2499999999999987
 40
0.2499999999999987
 40
0.3749999999999983
 40
0.3749999999999983
 40
0.499999999999998
 40
0.499999999999998
 40
0.749999999999999
 40
0.749999999999999
 40
1.0
 40
1.0
 40
1.0
 40
1.0
 10
210.7338008408604
 20
242.5519873514461
 30
0.0
 10
211.2073651204923
 20
242.3307364927774
 30
0.0
 10
211.6583642689414
 20
242.1200042322309
 30
0.0
 10
212.3014570503606
 20
241.8195295967775
 30
0.0
 10
212.511284604095
 20
241.7214929057669
 30
0.0
 10
212.9110633943214
 20
241.534709101714
 30
0.0
 10
213.1015536220896
 20
241.4457101408332
 30
0.0
 10
213.6442890383748
 20
241.1921317295398
 30
0.0
 10
213.9623446008472
 20
241.0435216663337
 30
0.0
 10
214.488874118563
 20
240.7973514563229
 30
0.0
 10
214.6973255632283
 20
240.6997995774772
 30
0.0
 10
214.8421625504135
 20
240.6317976228925
 30
0.0
  0
SPLINE
  5
1B7
330
1F
100
AcDbEntity
  8
0
  6
Continuous
 62
     8
370
     0
100
AcDbSpline
210
0.0
220
0.0
230
1.0
 70
     8
 71
     3
 72
    12
 73
     8
 74
     0
 42
0.00000001
 43
0.00000001
 12
1.0
 22
0.0
 32
0.0
 13
1.0
 23
0.0
 33
0.0
 40
0.0
 40
0.0
 40
0.0
 40
0.0
 40
0.4999999999999999
 40
0.4999999999999999
 40
0.7499999999999999
 40
0.7499999999999999
 40
1.0
 40
1.0
 40
1.0
 40
1.0
 10
214.8421625504137
 20
240.631797622893
 30
0.0
 10
214.9204843909736
 20
240.5950249838853
 30
0.0
 10
214.978798840339
 20
240.5624178519908
 30
0.0
 10
215.0366168688348
 20
240.5196815154983
 30
0.0
 10
215.0509398664085
 20
240.5064506360322
 30
0.0
 10
215.0694266826825
 20
240.4821855403399
 30
0.0
 10
215.0735925054511
 20
240.4711158909541
 30
0.0
 10
215.07268722764
 20
240.4612529695232
 30
0.0
  0
SPLINE
  5
1B8
330
1F
100
AcDbEntity
  8
0
  6
Continuous
 62
     8
370
     0
100
AcDbSpline
210
0.0
220
0.0
230
1.0
 70
     8
 71
     3
 72
    16
 73
    12
 74
     0
 42
0.00000001
 43
0.00000001
 12
1.0
 22
0.0
 32
0.0
 13
1.0
 23
0.0
 33
0.0
 40
0.0
 40
0.0
 40
0.0
 40
0.0
 40
0.2499999999999987
 40
0.2499999999999987
 40
0.3749999999999983
 40
0.3749999999999983
 40
0.499999999999998
 40
0.499999999999998
 40
0.749999999999999
 40
0.749999999999999
 40
1.0
 40
1.0
 40
1.0
 40
1.0
 10
188.1228300314454
 20
242.5519873514461
 30
0.0
 10
187.6492657518135
 20
242.3307364927774
 30
0.0
 10
187.1982666033643
 20
242.1200042322309
 30
0.0
 10
186.5551738219452
 20
241.8195295967775
 30
0.0
 10
186.3453462682108
 20
241.7214929057669
 30
0.0
 10
185.9455674779843
 20
241.534709101714
 30
0.0
 10
185.7550772502162
 20
241.4457101408332
 30
0.0
 10
185.212341833931
 20
241.1921317295398
 30
0.0
 10
184.8942862714586
 20
241.0435216663337
 30
0.0
 10
184.3677567537428
 20
240.7973514563229
 30
0.0
 10
184.1593053090775
 20
240.6997995774772
 30
0.0
 10
184.0144683218922
 20
240.6317976228925
 30
0.0
  0
ELLIPSE
  5
1B9
330
1F
100
AcDbEntity
  8
0
  6
Continuous
 62
     8
370
     0
100
AcDbEllipse
 10
193.5707624396
 20
194.5646252387
 30
0.0
 11
-44.51838421177663
 21
200.8247475787958
 31
0.0
210
0.0
220
0.0
230
1.0
 40
0.0018887028
 41
4.87505716256794
 42
4.942548720263202
  0
SPLINE
  5
1BA
330
1F
100
AcDbEntity
  8
0
  6
Continuous
 62
     8
370
     0
100
AcDbSpline
210
0.0
220
0.0
230
1.0
 70
     8
 71
     3
 72
    12
 73
     8
 74
     0
 42
0.00000001
 43
0.00000001
 12
1.0
 22
0.0
 32
0.0
 13
1.0
 23
0.0
 33
0.0
 40
0.0
 40
0.0
 40
0.0
 40
0.0
 40
0.4999999999999999
 40
0.4999999999999999
 40
0.7499999999999999
 40
0.7499999999999999
 40
1.0
 40
1.0
 40
1.0
 40
1.0
 10
184.0144683218921
 20
240.631797622893
 30
0.0
 10
183.9361464813322
 20
240.5950249838853
 30
0.0
 10
183.8778320319668
 20
240.5624178519908
 30
0.0
 10
183.8200140034709
 20
240.5196815154983
 30
0.0
 10
183.8056910058973
 20
240.5064506360322
 30
0.0
 10
183.7872041896232
 20
240.4821855403399
 30
0.0
 10
183.7830383668547
 20
240.4711158909541
 30
0.0
 10
183.7839436446658
 20
240.4612529695232
 30
0.0
  0
SPLINE
  5
1BB
330
1F
100
AcDbEntity
  8
0
  6
Continuous
 62
     8
370
     0
100
AcDbSpline
210
0.0
220
0.0
230
1.0
 70
     8
 71
     3
 72
    27
 73
    23
 74
     0
 42
0.00000001
 43
0.00000001
 12
1.0
 22
0.0
 32
0.0
 13
1.0
 23
0.0
 33
0.0
 40
0.0
 40
0.0
 40
0.0
 40
0.0
 40
0.2499999999999998
 40
0.2499999999999998
 40
0.3749999999999997
 40
0.3749999999999997
 40
0.4374999999999998
 40
0.4374999999999998
 40
0.4999999999999998
 40
0.4999999999999998
 40
0.625
 40
0.625
 40
0.7500000000000002
 40
0.7500000000000002
 40
0.8750000000000004
 40
0.8750000000000004
 40
0.9375000000000006
 40
0.9375000000000006
 40
0.9687500000000004
 40
0.9843750000000002
 40
0.9843750000000002
 40
1.0
 40
1.0
 40
1.0
 40
1.0
 10
194.439567896259
 20
215.0433280861236
 30
0.0
 10
194.4150334940394
 20
214.0747954877781
 30
0.0
 10
194.2581430329846
 20
213.1237034122571
 30
0.0
 10
193.8723719438108
 20
211.7168881314806
 30
0.0
 10
193.7184093145418
 20
211.251293001355
 30
0.0
 10
193.4537859757896
 20
210.5573382311076
 30
0.0
 10
193.3598696559571
 20
210.3265759704334
 30
0.0
 10
193.1623649432144
 20
209.8683957687107
 30
0.0
 10
193.0587034613374
 20
209.6407616942019
 30
0.0
 10
192.7341957760504
 20
208.9618704077128
 30
0.0
 10
192.4998342336728
 20
208.5146217894582
 30
0.0
 10
192.001120414513
 20
207.6290196809255
 30
0.0
 10
191.7366444123905
 20
207.1905266782398
 30
0.0
 10
191.1852097280376
 20
206.3230509077233
 30
0.0
 10
190.8980685977849
 20
205.8937379785508
 30
0.0
 10
190.454725062281
 20
205.2546614747389
 30
0.0
 10
190.3048316956198
 20
205.042440479703
 30
0.0
 10
190.077437912684
 20
204.7251441140484
 30
0.0
 10
189.9631098943936
 20
204.5667643921462
 30
0.0
 10
189.8479437606674
 20
204.4087411774267
 30
0.0
 10
189.7709922927432
 20
204.3034664009112
 30
0.0
 10
189.7321781694763
 20
204.2505330421491
 30
0.0
 10
189.6938418506668
 20
204.19837622863
 30
0.0
  0
SPLINE
  5
1BC
330
1F
100
AcDbEntity
  8
0
  6
Continuous
 62
     8
370
     0
100
AcDbSpline
210
0.0
220
0.0
230
1.0
 70
     8
 71
     3
 72
    22
 73
    18
 74
     0
 42
0.00000001
 43
0.00000001
 12
1.0
 22
0.0
 32
0.0
 13
1.0
 23
0.0
 33
0.0
 40
0.0
 40
0.0
 40
0.0
 40
0.0
 40
0.2499999999999999
 40
0.2499999999999999
 40
0.3749999999999999
 40
0.3749999999999999
 40
0.4999999999999998
 40
0.4999999999999998
 40
0.6249999999999999
 40
0.6249999999999999
 40
0.7499999999999999
 40
0.7499999999999999
 40
0.875
 40
0.875
 40
0.9375
 40
0.9375
 40
1.0
 40
1.0
 40
1.0
 40
1.0
 10
188.8480300366198
 20
217.1787942290663
 30
0.0
 10
189.0105709461324
 20
216.0089272648168
 30
0.0
 10
189.1306038748395
 20
214.8473071400342
 30
0.0
 10
189.2804589358481
 20
213.1274705197282
 30
0.0
 10
189.325060493253
 20
212.5570957409207
 30
0.0
 10
189.4055605830391
 20
211.430005183713
 30
0.0
 10
189.4414626272785
 20
210.8732533250133
 30
0.0
 10
189.5059940998056
 20
209.774522506189
 30
0.0
 10
189.534613142067
 20
209.2325395941951
 30
0.0
 10
189.5851496391029
 20
208.1644597065363
 30
0.0
 10
189.6069265296709
 20
207.6411948007014
 30
0.0
 10
189.6436995725693
 20
206.6172121659366
 30
0.0
 10
189.658692951636
 20
206.1164593678843
 30
0.0
 10
189.6759292780666
 20
205.3828495557592
 30
0.0
 10
189.6807983691489
 20
205.1410736556192
 30
0.0
 10
189.6887049590613
 20
204.6644928831185
 30
0.0
 10
189.6917319869418
 20
204.4289773953205
 30
0.0
 10
189.6938418506668
 20
204.19837622863
 30
0.0
  0
SPLINE
  5
1BD
330
1F
100
AcDbEntity
  8
0
  6
Continuous
 62
     8
370
     0
100
AcDbSpline
210
0.0
220
0.0
230
1.0
 70
     8
 71
     3
 72
    22
 73
    18
 74
     0
 42
0.00000001
 43
0.00000001
 12
1.0
 22
0.0
 32
0.0
 13
1.0
 23
0.0
 33
0.0
 40
0.0
 40
0.0
 40
0.0
 40
0.0
 40
0.2499999999999999
 40
0.2499999999999999
 40
0.3749999999999999
 40
0.3749999999999999
 40
0.4999999999999998
 40
0.4999999999999998
 40
0.6249999999999999
 40
0.6249999999999999
 40
0.7499999999999999
 40
0.7499999999999999
 40
0.875
 40
0.875
 40
0.9375
 40
0.9375
 40
1.0
 40
1.0
 40
1.0
 40
1.0
 10
210.008600835686
 20
217.1787942290663
 30
0.0
 10
209.8460599261733
 20
216.0089272648168
 30
0.0
 10
209.7260269974662
 20
214.8473071400342
 30
0.0
 10
209.5761719364577
 20
213.1274705197282
 30
0.0
 10
209.5315703790527
 20
212.5570957409207
 30
0.0
 10
209.4510702892667
 20
211.430005183713
 30
0.0
 10
209.4151682450273
 20
210.8732533250133
 30
0.0
 10
209.3506367725002
 20
209.774522506189
 30
0.0
 10
209.3220177302388
 20
209.2325395941951
 30
0.0
 10
209.2714812332028
 20
208.1644597065363
 30
0.0
 10
209.2497043426349
 20
207.6411948007014
 30
0.0
 10
209.2129312997365
 20
206.6172121659366
 30
0.0
 10
209.1979379206698
 20
206.1164593678843
 30
0.0
 10
209.1807015942392
 20
205.3828495557592
 30
0.0
 10
209.1758325031568
 20
205.1410736556192
 30
0.0
 10
209.1679259132445
 20
204.6644928831185
 30
0.0
 10
209.164898885364
 20
204.4289773953205
 30
0.0
 10
209.162789021639
 20
204.19837622863
 30
0.0
  0
SPLINE
  5
1BE
330
1F
100
AcDbEntity
  8
0
  6
Continuous
 62
     8
370
     0
100
AcDbSpline
210
0.0
220
0.0
230
1.0
 70
     8
 71
     3
 72
    27
 73
    23
 74
     0
 42
0.00000001
 43
0.00000001
 12
1.0
 22
0.0
 32
0.0
 13
1.0
 23
0.0
 33
0.0
 40
0.0
 40
0.0
 40
0.0
 40
0.0
 40
0.2499999999999998
 40
0.2499999999999998
 40
0.3749999999999997
 40
0.3749999999999997
 40
0.4374999999999998
 40
0.4374999999999998
 40
0.4999999999999998
 40
0.4999999999999998
 40
0.625
 40
0.625
 40
0.7500000000000002
 40
0.7500000000000002
 40
0.8750000000000004
 40
0.8750000000000004
 40
0.9375000000000006
 40
0.9375000000000006
 40
0.9687500000000004
 40
0.9843750000000002
 40
0.9843750000000002
 40
1.0
 40
1.0
 40
1.0
 40
1.0
 10
204.4170629760468
 20
215.0433280861236
 30
0.0
 10
204.4415973782664
 20
214.0747954877781
 30
0.0
 10
204.5984878393212
 20
213.1237034122571
 30
0.0
 10
204.984258928495
 20
211.7168881314806
 30
0.0
 10
205.138221557764
 20
211.251293001355
 30
0.0
 10
205.4028448965162
 20
210.5573382311076
 30
0.0
 10
205.4967612163486
 20
210.3265759704334
 30
0.0
 10
205.6942659290914
 20
209.8683957687107
 30
0.0
 10
205.7979274109684
 20
209.6407616942019
 30
0.0
 10
206.1224350962554
 20
208.9618704077128
 30
0.0
 10
206.356796638633
 20
208.5146217894582
 30
0.0
 10
206.8555104577928
 20
207.6290196809255
 30
0.0
 10
207.1199864599153
 20
207.1905266782398
 30
0.0
 10
207.6714211442681
 20
206.3230509077233
 30
0.0
 10
207.9585622745209
 20
205.8937379785508
 30
0.0
 10
208.4019058100247
 20
205.2546614747389
 30
0.0
 10
208.551799176686
 20
205.042440479703
 30
0.0
 10
208.7791929596218
 20
204.7251441140484
 30
0.0
 10
208.8935209779121
 20
204.5667643921462
 30
0.0
 10
209.0086871116384
 20
204.4087411774267
 30
0.0
 10
209.0856385795626
 20
204.3034664009112
 30
0.0
 10
209.1244527028295
 20
204.2505330421491
 30
0.0
 10
209.162789021639
 20
204.19837622863
 30
0.0
  0
LINE
  5
1BF
330
1F
100
AcDbEntity
  8
0
  6
Continuous
 62
     8
370
     0
100
AcDbLine
 10
189.6938418507
 20
204.1983762286
 30
0.0
 11
209.1627890216
 21
204.1983762286
 31
0.0
  0
LINE
  5
1C0
330
1F
100
AcDbEntity
  8
0
  6
Continuous
 62
     8
370
     0
100
AcDbLine
 10
183.7971717797
 20
242.5519873514
 30
0.0
 11
188.1228300314
 21
242.5519873514
 31
0.0
  0
ARC
  5
1C1
330
1F
100
AcDbEntity
  8
0
  6
Continuous
 62
     8
370
     0
100
AcDbCircle
 10
188.5782135573
 20
242.2450608924
 30
0.0
 40
4.840494701027291
100
AcDbArc
 50
186.0101166102
 51
199.4682707375
  0
SPLINE
  5
1C2
330
1F
100
AcDbEntity
  8
0
  6
Continuous
 62
     8
370
     0
100
AcDbSpline
210
0.0
220
0.0
230
1.0
 70
     8
 71
     3
 72
    16
 73
    12
 74
     0
 42
0.00000001
 43
0.00000001
 12
1.0
 22
0.0
 32
0.0
 13
1.0
 23
0.0
 33
0.0
 40
0.0
 40
0.0
 40
0.0
 40
0.0
 40
0.0625
 40
0.0625
 40
0.1249999999999999
 40
0.1249999999999999
 40
0.2499999999999999
 40
0.2499999999999999
 40
0.5000000000000002
 40
0.5000000000000002
 40
1.0
 40
1.0
 40
1.0
 40
1.0
 10
183.7643250058808
 20
241.7382414325107
 30
0.0
 10
183.7675035036235
 20
241.7461975109705
 30
0.0
 10
183.7700444886009
 20
241.7591780271983
 30
0.0
 10
183.7743178672601
 20
241.7875205704345
 30
0.0
 10
183.776064479022
 20
241.80307997937
 30
0.0
 10
183.7806687160921
 20
241.8511422601547
 30
0.0
 10
183.7829007611417
 20
241.884980181222
 30
0.0
 10
183.7885520760163
 20
241.9878432277552
 30
0.0
 10
183.7908669919978
 20
242.0582169073015
 30
0.0
 10
183.7960865514405
 20
242.2688139031291
 30
0.0
 10
183.7971717796641
 20
242.410181670611
 30
0.0
 10
183.7971717796641
 20
242.5519873514461
 30
0.0
  0
LINE
  5
1C3
330
1F
100
AcDbEntity
  8
0
  6
Continuous
 62
     8
370
     0
100
AcDbLine
 10
183.7971717797
 20
242.5519873514
 30
0.0
 11
183.7971717797
 21
258.50280276
 31
0.0
  0
LINE
  5
1C4
330
1F
100
AcDbEntity
  8
0
  6
Continuous
 62
     8
370
     0
100
AcDbLine
 10
215.0594590926
 20
242.5519873514
 30
0.0
 11
210.7338008409
 21
242.5519873514
 31
0.0
  0
LINE
  5
1C5
330
1F
100
AcDbEntity
  8
0
  6
Continuous
 62
     8
370
     0
100
AcDbLine
 10
215.0594590926
 20
242.5519873514
 30
0.0
 11
215.0594590926
 21
258.50280276
 31
0.0
  0
ARC
  5
1C6
330
1F
100
AcDbEntity
  8
0
  6
Continuous
 62
     8
370
     0
100
AcDbCircle
 10
210.278417315
 20
242.2450608924
 30
0.0
 40
4.840494701027236
100
AcDbArc
 50
340.5317292625
 51
353.9898833898
  0
SPLINE
  5
1C7
330
1F
100
AcDbEntity
  8
0
  6
Continuous
 62
     8
370
     0
100
AcDbSpline
210
0.0
220
0.0
230
1.0
 70
     8
 71
     3
 72
    16
 73
    12
 74
     0
 42
0.00000001
 43
0.00000001
 12
1.0
 22
0.0
 32
0.0
 13
1.0
 23
0.0
 33
0.0
 40
0.0
 40
0.0
 40
0.0
 40
0.0
 40
0.0625
 40
0.0625
 40
0.1249999999999999
 40
0.1249999999999999
 40
0.2499999999999999
 40
0.2499999999999999
 40
0.5000000000000002
 40
0.5000000000000002
 40
1.0
 40
1.0
 40
1.0
 40
1.0
 10
215.0923058664249
 20
241.7382414325107
 30
0.0
 10
215.0891273686823
 20
241.7461975109705
 30
0.0
 10
215.0865863837049
 20
241.7591780271983
 30
0.0
 10
215.0823130050457
 20
241.7875205704345
 30
0.0
 10
215.0805663932837
 20
241.80307997937
 30
0.0
 10
215.0759621562137
 20
241.8511422601547
 30
0.0
 10
215.0737301111641
 20
241.884980181222
 30
0.0
 10
215.0680787962895
 20
241.9878432277552
 30
0.0
 10
215.0657638803079
 20
242.0582169073015
 30
0.0
 10
215.0605443208653
 20
242.2688139031291
 30
0.0
 10
215.0594590926417
 20
242.410181670611
 30
0.0
 10
215.0594590926417
 20
242.5519873514461
 30
0.0
  0
SPLINE
  5
1C8
330
1F
100
AcDbEntity
  8
0
  6
Continuous
 62
     8
370
     0
100
AcDbSpline
210
0.0
220
0.0
230
1.0
 70
     8
 71
     3
 72
    14
 73
    10
 74
     0
 42
0.00000001
 43
0.00000001
 12
1.0
 22
0.0
 32
0.0
 13
1.0
 23
0.0
 33
0.0
 40
0.0
 40
0.0
 40
0.0
 40
0.0
 40
0.2499999999999963
 40
0.2499999999999963
 40
0.3749999999999956
 40
0.3749999999999956
 40
0.4999999999999949
 40
0.4999999999999949
 40
1.0
 40
1.0
 40
1.0
 40
1.0
 10
187.950616419769
 20
289.0323788985425
 30
0.0
 10
187.8740231153729
 20
288.611981601809
 30
0.0
 10
187.800627430583
 20
288.1583593890697
 30
0.0
 10
187.6990204752582
 20
287.4279894822757
 30
0.0
 10
187.666570956624
 20
287.176195121287
 30
0.0
 10
187.6051955274325
 20
286.6557264918807
 30
0.0
 10
187.5762386112344
 20
286.3867329349193
 30
0.0
 10
187.4424426329254
 20
285.0021020617008
 30
0.0
 10
187.3731710052942
 20
283.7978003836708
 30
0.0
 10
187.3594539865628
 20
282.5028027600247
 30
0.0
  0
SPLINE
  5
1C9
330
1F
100
AcDbEntity
  8
0
  6
Continuous
 62
     8
370
     0
100
AcDbSpline
210
0.0
220
0.0
230
1.0
 70
     8
 71
     3
 72
    32
 73
    28
 74
     0
 42
0.00000001
 43
0.00000001
 12
1.0
 22
0.0
 32
0.0
 13
1.0
 23
0.0
 33
0.0
 40
0.0
 40
0.0
 40
0.0
 40
0.0
 40
0.1250000000000001
 40
0.1250000000000001
 40
0.2500000000000003
 40
0.2500000000000003
 40
0.3125000000000003
 40
0.3125000000000003
 40
0.3750000000000003
 40
0.3750000000000003
 40
0.5000000000000002
 40
0.5000000000000002
 40
0.5625000000000002
 40
0.5625000000000002
 40
0.6250000000000001
 40
0.6250000000000001
 40
0.6875000000000001
 40
0.6875000000000001
 40
0.71875
 40
0.71875
 40
0.7499999999999999
 40
0.7499999999999999
 40
0.875
 40
0.875
 40
0.9375
 40
0.9375
 40
1.0
 40
1.0
 40
1.0
 40
1.0
 10
187.950616419769
 20
289.0323788985425
 30
0.0
 10
188.749268242686
 20
288.7809769802024
 30
0.0
 10
189.5923941681536
 20
288.5453594147275
 30
0.0
 10
191.3677923010705
 20
288.1186630797662
 30
0.0
 10
192.3000261318416
 20
287.9275076898514
 30
0.0
 10
193.7719120263592
 20
287.6865548401405
 30
0.0
 10
194.2709168009419
 20
287.6145841865759
 30
0.0
 10
195.2830455934144
 20
287.4894131007428
 30
0.0
 10
195.792570647439
 20
287.4366433998412
 30
0.0
 10
197.3314687334369
 20
287.3089556551194
 30
0.0
 10
198.3710992169602
 20
287.2646369980964
 30
0.0
 10
199.952032489799
 20
287.2645000620909
 30
0.0
 10
200.4792410525872
 20
287.2756121878547
 30
0.0
 10
201.5208184913812
 20
287.3191005860057
 30
0.0
 10
202.0366427091915
 20
287.3514419679571
 30
0.0
 10
203.0586532333617
 20
287.436148093762
 30
0.0
 10
203.5648392465191
 20
287.4885129723298
 30
0.0
 10
204.3169671089429
 20
287.5812607891147
 30
0.0
 10
204.5664831063155
 20
287.614544098227
 30
0.0
 10
205.0631239458915
 20
287.6857170168996
 30
0.0
 10
205.3107670151139
 20
287.7236930085841
 30
0.0
 10
206.5363905318736
 20
287.923690811977
 30
0.0
 10
207.4707576944934
 20
288.1146701156507
 30
0.0
 10
208.8084643257737
 20
288.4356476429921
 30
0.0
 10
209.2436575177912
 20
288.5484274459161
 30
0.0
 10
210.0927420298282
 20
288.78391011008
 30
0.0
 10
210.5066747432483
 20
288.9066735960518
 30
0.0
 10
210.9060144525368
 20
289.0323788985425
 30
0.0
  0
SPLINE
  5
1CA
330
1F
100
AcDbEntity
  8
0
  6
Continuous
 62
     8
370
     0
100
AcDbSpline
210
0.0
220
0.0
230
1.0
 70
     8
 71
     3
 72
    14
 73
    10
 74
     0
 42
0.00000001
 43
0.00000001
 12
1.0
 22
0.0
 32
0.0
 13
1.0
 23
0.0
 33
0.0
 40
0.0
 40
0.0
 40
0.0
 40
0.0
 40
0.2499999999999963
 40
0.2499999999999963
 40
0.3749999999999956
 40
0.3749999999999956
 40
0.4999999999999949
 40
0.4999999999999949
 40
1.0
 40
1.0
 40
1.0
 40
1.0
 10
210.9060144525367
 20
289.0323788985425
 30
0.0
 10
210.9826077569329
 20
288.611981601809
 30
0.0
 10
211.0560034417228
 20
288.1583593890697
 30
0.0
 10
211.1576103970476
 20
287.4279894822757
 30
0.0
 10
211.1900599156817
 20
287.176195121287
 30
0.0
 10
211.2514353448733
 20
286.6557264918807
 30
0.0
 10
211.2803922610713
 20
286.3867329349193
 30
0.0
 10
211.4141882393804
 20
285.0021020617008
 30
0.0
 10
211.4834598670116
 20
283.7978003836708
 30
0.0
 10
211.497176885743
 20
282.5028027600247
 30
0.0
  0
ELLIPSE
  5
1CB
330
1F
100
AcDbEntity
  8
0
  6
Continuous
 62
     8
370
     0
100
AcDbEllipse
 10
188.9124597208
 20
216.6222380542
 30
0.0
 11
-4.638197303637725
 21
20.91996267637003
 31
0.0
210
0.0
220
0.0
230
1.0
 40
0.0085199758
 41
5.23903352199543
 42
6.203735624869775
  0
ELLIPSE
  5
1CC
330
1F
100
AcDbEntity
  8
0
  6
Continuous
 62
     8
370
     0
100
AcDbEllipse
 10
186.5694385222
 20
216.10280276
 30
0.0
 11
-4.638284185812466
 21
18.51994756717366
 31
0.0
210
0.0
220
0.0
230
1.0
 40
0.009501222
 41
4.011877721846714
 42
5.639926287601799
  0
ELLIPSE
  5
1CD
330
1F
100
AcDbEntity
  8
0
  6
Continuous
 62
     8
370
     0
100
AcDbEllipse
 10
209.9441711515
 20
216.6222380542
 30
0.0
 11
4.638197303637725
 21
20.91996267637003
 31
0.0
210
0.0
220
0.0
230
1.0
 40
0.0085199758
 41
0.0794496823114531
 42
1.044151785184563
  0
ELLIPSE
  5
1CE
330
1F
100
AcDbEntity
  8
0
  6
Continuous
 62
     8
370
     0
100
AcDbEllipse
 10
212.2871923501
 20
216.10280276
 30
0.0
 11
4.638284185812466
 21
18.51994756717366
 31
0.0
210
0.0
220
0.0
230
1.0
 40
0.009501222
 41
0.6432590195787029
 42
2.271307585333483
  0
SPLINE
  5
1CF
330
1F
100
AcDbEntity
  8
0
  6
Continuous
 62
     8
370
     0
100
AcDbSpline
210
0.0
220
0.0
230
1.0
 70
     8
 71
     3
 72
    12
 73
     8
 74
     0
 42
0.00000001
 43
0.00000001
 12
1.0
 22
0.0
 32
0.0
 13
1.0
 23
0.0
 33
0.0
 40
0.0
 40
0.0
 40
0.0
 40
0.0
 40
0.1605161827484849
 40
0.4671730358529881
 40
0.6252701180222603
 40
0.7833540965470845
 40
1.0
 40
1.0
 40
1.0
 40
1.0
 10
183.744018307866
 20
282.5028027600247
 30
0.0
 10
183.7705309838237
 20
282.9379495319197
 30
0.0
 10
183.8476945887864
 20
284.2044189618984
 30
0.0
 10
184.027930703496
 20
285.6914673350546
 30
0.0
 10
184.2229106838567
 20
286.9546457599572
 30
0.0
 10
184.3930309175628
 20
287.9066849635728
 30
0.0
 10
184.495370139586
 20
288.4065423175275
 30
0.0
 10
184.5545364198327
 20
288.6955292738746
 30
0.0
  0
SPLINE
  5
1D0
330
1F
100
AcDbEntity
  8
0
  6
Continuous
 62
     8
370
     0
100
AcDbSpline
210
0.0
220
0.0
230
1.0
 70
     8
 71
     3
 72
    20
 73
    16
 74
     0
 42
0.00000001
 43
0.00000001
 12
1.0
 22
0.0
 32
0.0
 13
1.0
 23
0.0
 33
0.0
 40
0.0
 40
0.0
 40
0.0
 40
0.0
 40
0.2500000000000003
 40
0.2500000000000003
 40
0.3750000000000002
 40
0.3750000000000002
 40
0.5000000000000002
 40
0.5000000000000002
 40
0.6250000000000002
 40
0.6250000000000002
 40
0.7500000000000001
 40
0.7500000000000001
 40
0.8750000000000001
 40
0.8750000000000001
 40
1.0
 40
1.0
 40
1.0
 40
1.0
 10
187.950616419769
 20
289.0323788985425
 30
0.0
 10
187.5625211580034
 20
289.229816411119
 30
0.0
 10
187.1931247626978
 20
289.3659306091332
 30
0.0
 10
186.673612958616
 20
289.4900983347104
 30
0.0
 10
186.5061689428015
 20
289.5180091670358
 30
0.0
 10
186.1835038179999
 20
289.5470160465543
 30
0.0
 10
186.0300345021329
 20
289.5478881545988
 30
0.0
 10
185.7411007754694
 20
289.5233967510417
 30
0.0
 10
185.6051376368529
 20
289.4980999654563
 30
0.0
 10
185.3494337819301
 20
289.4206826911735
 30
0.0
 10
185.2295062839848
 20
289.3685140498801
 30
0.0
 10
185.0059592257757
 20
289.2340230281529
 30
0.0
 10
184.9036709103461
 20
289.1526883481358
 30
0.0
 10
184.716391419139
 20
288.9550054622909
 30
0.0
 10
184.6313848369732
 20
288.8393039415157
 30
0.0
 10
184.5545364198321
 20
288.6955292738734
 30
0.0
  0
SPLINE
  5
1D1
330
1F
100
AcDbEntity
  8
0
  6
Continuous
 62
     8
370
     0
100
AcDbSpline
210
0.0
220
0.0
230
1.0
 70
     8
 71
     3
 72
    20
 73
    16
 74
     0
 42
0.00000001
 43
0.00000001
 12
1.0
 22
0.0
 32
0.0
 13
1.0
 23
0.0
 33
0.0
 40
0.0
 40
0.0
 40
0.0
 40
0.0
 40
0.2500000000000003
 40
0.2500000000000003
 40
0.3750000000000002
 40
0.3750000000000002
 40
0.5000000000000002
 40
0.5000000000000002
 40
0.6250000000000002
 40
0.6250000000000002
 40
0.7500000000000001
 40
0.7500000000000001
 40
0.8750000000000001
 40
0.8750000000000001
 40
1.0
 40
1.0
 40
1.0
 40
1.0
 10
210.9060144525367
 20
289.0323788985425
 30
0.0
 10
211.2941097143024
 20
289.229816411119
 30
0.0
 10
211.663506109608
 20
289.3659306091332
 30
0.0
 10
212.1830179136898
 20
289.4900983347104
 30
0.0
 10
212.3504619295042
 20
289.5180091670358
 30
0.0
 10
212.6731270543059
 20
289.5470160465543
 30
0.0
 10
212.8265963701728
 20
289.5478881545988
 30
0.0
 10
213.1155300968363
 20
289.5233967510417
 30
0.0
 10
213.2514932354528
 20
289.4980999654563
 30
0.0
 10
213.5071970903756
 20
289.4206826911735
 30
0.0
 10
213.6271245883209
 20
289.3685140498801
 30
0.0
 10
213.8506716465301
 20
289.2340230281529
 30
0.0
 10
213.9529599619597
 20
289.1526883481358
 30
0.0
 10
214.1402394531668
 20
288.9550054622909
 30
0.0
 10
214.2252460353326
 20
288.8393039415157
 30
0.0
 10
214.3020944524736
 20
288.6955292738734
 30
0.0
  0
SPLINE
  5
1D2
330
1F
100
AcDbEntity
  8
0
  6
Continuous
 62
     8
370
     0
100
AcDbSpline
210
0.0
220
0.0
230
1.0
 70
     8
 71
     3
 72
    12
 73
     8
 74
     0
 42
0.00000001
 43
0.00000001
 12
1.0
 22
0.0
 32
0.0
 13
1.0
 23
0.0
 33
0.0
 40
0.0
 40
0.0
 40
0.0
 40
0.0
 40
0.1605161827484849
 40
0.4671730358529881
 40
0.6252701180222603
 40
0.7833540965470845
 40
1.0
 40
1.0
 40
1.0
 40
1.0
 10
215.1126125644398
 20
282.5028027600247
 30
0.0
 10
215.0860998884821
 20
282.9379495319197
 30
0.0
 10
215.0089362835194
 20
284.2044189618984
 30
0.0
 10
214.8287001688098
 20
285.6914673350546
 30
0.0
 10
214.6337201884491
 20
286.9546457599572
 30
0.0
 10
214.463599954743
 20
287.9066849635728
 30
0.0
 10
214.3612607327198
 20
288.4065423175275
 30
0.0
 10
214.3020944524731
 20
288.6955292738746
 30
0.0
  0
SPLINE
  5
1D3
330
1F
100
AcDbEntity
  8
0
  6
Continuous
 62
     8
370
     0
100
AcDbSpline
210
0.0
220
0.0
230
1.0
 70
     8
 71
     3
 72
    12
 73
     8
 74
     0
 42
0.00000001
 43
0.00000001
 12
1.0
 22
0.0
 32
0.0
 13
1.0
 23
0.0
 33
0.0
 40
0.0
 40
0.0
 40
0.0
 40
0.0
 40
0.5000000000000016
 40
0.5000000000000016
 40
0.7500000000000008
 40
0.7500000000000008
 40
1.0
 40
1.0
 40
1.0
 40
1.0
 10
183.7643250058808
 20
241.7382414325107
 30
0.0
 10
183.7265870523523
 20
241.5217799268952
 30
0.0
 10
183.7094827301473
 20
241.3069975005087
 30
0.0
 10
183.7143158984862
 20
240.9872948373849
 30
0.0
 10
183.7210321432806
 20
240.8811069706958
 30
0.0
 10
183.744814353643
 20
240.6697092122236
 30
0.0
 10
183.7619432072133
 20
240.5644215012528
 30
0.0
 10
183.7839436446658
 20
240.4612529695231
 30
0.0
  0
SPLINE
  5
1D4
330
1F
100
AcDbEntity
  8
0
  6
Continuous
 62
     8
370
     0
100
AcDbSpline
210
0.0
220
0.0
230
1.0
 70
     8
 71
     3
 72
    12
 73
     8
 74
     0
 42
0.00000001
 43
0.00000001
 12
1.0
 22
0.0
 32
0.0
 13
1.0
 23
0.0
 33
0.0
 40
0.0
 40
0.0
 40
0.0
 40
0.0
 40
0.5000000000000016
 40
0.5000000000000016
 40
0.7500000000000008
 40
0.7500000000000008
 40
1.0
 40
1.0
 40
1.0
 40
1.0
 10
215.0923058664249
 20
241.7382414325107
 30
0.0
 10
215.1300438199535
 20
241.5217799268952
 30
0.0
 10
215.1471481421585
 20
241.3069975005087
 30
0.0
 10
215.1423149738195
 20
240.9872948373849
 30
0.0
 10
215.1355987290252
 20
240.8811069706958
 30
0.0
 10
215.1118165186627
 20
240.6697092122236
 30
0.0
 10
215.0946876650925
 20
240.5644215012528
 30
0.0
 10
215.07268722764
 20
240.4612529695231
 30
0.0
  0
ELLIPSE
  5
1D5
330
1F
100
AcDbEntity
  8
0
  6
Continuous
 62
     8
370
     0
100
AcDbEllipse
 10
276.4283154362
 20
-150.4130185981
 30
0.0
 11
-94.51661413739475
 21
399.3038233302296
 31
0.0
210
0.0
220
0.0
230
1.0
 40
0.0020035684
 41
6.093151413960475
 42
6.274721126519998
  0
ELLIPSE
  5
1D6
330
1F
100
AcDbEntity
  8
0
  6
Continuous
 62
     8
370
     0
100
AcDbEllipse
 10
122.4283154362
 20
-150.4130185981
 30
0.0
 11
94.5166141373948
 21
399.3038233302296
 31
0.0
210
0.0
220
0.0
230
1.0
 40
0.0020035684
 41
0.0084641806664728
 42
0.1900338932256703
  0
ELLIPSE
  5
1D7
330
1F
100
AcDbEntity
  8
0
  6
Continuous
 62
     8
370
     0
100
AcDbEllipse
 10
128.2858684327
 20
-151.7116068336
 30
0.0
 11
88.5167872961479
 21
399.3038332359873
 31
0.0
210
0.0
220
0.0
230
1.0
 40
0.0018887028
 41
0.0089645758495562
 42
0.1896910293452785
  0
ELLIPSE
  5
1D8
330
1F
100
AcDbEntity
  8
0
  6
Continuous
 62
     8
370
     0
100
AcDbEllipse
 10
270.5707624396
 20
-151.7116068336
 30
0.0
 11
-88.51678729614792
 21
399.3038332359873
 31
0.0
210
0.0
220
0.0
230
1.0
 40
0.0018887028
 41
6.093494277841653
 42
6.27422073133765
  0
ARC
  5
1D9
330
1F
100
AcDbEntity
  8
0
  6
Continuous
 62
     8
370
     0
100
AcDbCircle
 10
185.8157960181
 20
291.6268775285
 30
0.0
 40
3.359893047149372
100
AcDbArc
 50
309.4484292846
 51
349.9893147233
  0
SPLINE
  5
1DA
330
1F
100
AcDbEntity
  8
0
  6
Continuous
 62
     8
370
     0
100
AcDbSpline
210
0.0
220
0.0
230
1.0
 70
     8
 71
     3
 72
    32
 73
    28
 74
     0
 42
0.00000001
 43
0.00000001
 12
1.0
 22
0.0
 32
0.0
 13
1.0
 23
0.0
 33
0.0
 40
0.0
 40
0.0
 40
0.0
 40
0.0
 40
0.0625
 40
0.0625
 40
0.125
 40
0.125
 40
0.2500000000000002
 40
0.2500000000000002
 40
0.2812500000000002
 40
0.2812500000000002
 40
0.3125000000000003
 40
0.3125000000000003
 40
0.3750000000000003
 40
0.3750000000000003
 40
0.4375000000000003
 40
0.4375000000000003
 40
0.5000000000000004
 40
0.5000000000000004
 40
0.6250000000000006
 40
0.6250000000000006
 40
0.6875000000000006
 40
0.6875000000000006
 40
0.7500000000000004
 40
0.7500000000000004
 40
0.8750000000000002
 40
0.8750000000000002
 40
1.0
 40
1.0
 40
1.0
 40
1.0
 10
209.7320949971107
 20
291.0428211558862
 30
0.0
 10
209.3813450578598
 20
290.9050976507488
 30
0.0
 10
209.0166315954053
 20
290.7703469379675
 30
0.0
 10
208.2663175020934
 20
290.5114135823758
 30
0.0
 10
207.8807265676949
 20
290.3871771087582
 30
0.0
 10
206.6921493110646
 20
290.0328729645917
 30
0.0
 10
205.8576739474182
 20
289.8210117970809
 30
0.0
 10
204.7559865286216
 20
289.5980027321023
 30
0.0
 10
204.5328847944958
 20
289.5555641842432
 30
0.0
 10
204.0853092251472
 20
289.4760155455612
 30
0.0
 10
203.8602776484255
 20
289.438789281109
 30
0.0
 10
203.1814455590952
 20
289.3349826422863
 30
0.0
 10
202.7239140535565
 20
289.2762699350137
 30
0.0
 10
201.798711053839
 20
289.1811520556353
 30
0.0
 10
201.3310400737921
 20
289.1447463599591
 30
0.0
 10
200.3851618898239
 20
289.0957159573053
 30
0.0
 10
199.905387756687
 20
289.0831361533692
 30
0.0
 10
198.4666688128953
 20
289.0832665494201
 30
0.0
 10
197.5228345536076
 20
289.1332923639861
 30
0.0
 10
196.1287663205277
 20
289.2767076377788
 30
0.0
 10
195.6677091704994
 20
289.3359217019973
 30
0.0
 10
194.7528623671173
 20
289.4762335461439
 30
0.0
 10
194.3029619912249
 20
289.5567532328176
 30
0.0
 10
192.9797948022006
 20
289.8255002682809
 30
0.0
 10
192.1474127522857
 20
290.037554214205
 30
0.0
 10
190.5704778257856
 20
290.5084447300886
 30
0.0
 10
189.8259979762205
 20
290.7673889791034
 30
0.0
 10
189.1245358751951
 20
291.0428211558862
 30
0.0
  0
ARC
  5
1DB
330
1F
100
AcDbEntity
  8
0
  6
Continuous
 62
     8
370
     0
100
AcDbCircle
 10
213.0408348542
 20
291.6268775285
 30
0.0
 40
3.359893047149149
100
AcDbArc
 50
190.0106852767
 51
230.5515707154
  0
SPLINE
  5
1DC
330
1F
100
AcDbEntity
  8
0
  6
Continuous
 62
     8
370
     0
100
AcDbSpline
210
0.0
220
0.0
230
1.0
 70
     8
 71
     3
 72
    13
 73
     9
 74
     0
 42
0.00000001
 43
0.00000001
 12
1.0
 22
0.0
 32
0.0
 13
1.0
 23
0.0
 33
0.0
 40
0.0
 40
0.0
 40
0.0
 40
0.0
 40
0.0000643576778687
 40
0.1411550368302723
 40
0.3611540147886946
 40
0.5898694888220971
 40
0.7940555108749822
 40
1.0
 40
1.0
 40
1.0
 40
1.0
 10
215.5245345782832
 20
285.8586062721158
 30
0.0
 10
215.5245392970807
 20
285.8585934318481
 30
0.0
 10
215.5348889874539
 20
285.8304310039142
 30
0.0
 10
215.4913151671515
 20
285.9496089724014
 30
0.0
 10
215.3574144041934
 20
286.3102887299361
 30
0.0
 10
215.0791242246883
 20
287.0064792076244
 30
0.0
 10
214.7285681100338
 20
287.8161140523898
 30
0.0
 10
214.4446581005491
 20
288.4015541597597
 30
0.0
 10
214.3020944524731
 20
288.6955292738746
 30
0.0
  0
SPLINE
  5
1DD
330
1F
100
AcDbEntity
  8
0
  6
Continuous
 62
     8
370
     0
100
AcDbSpline
210
0.0
220
0.0
230
1.0
 70
     8
 71
     3
 72
    13
 73
     9
 74
     0
 42
0.00000001
 43
0.00000001
 12
1.0
 22
0.0
 32
0.0
 13
1.0
 23
0.0
 33
0.0
 40
0.0
 40
0.0
 40
0.0
 40
0.0
 40
0.0000549850037111
 40
0.1411469866381889
 40
0.3611480267080593
 40
0.5898656445550456
 40
0.7940535805001566
 40
1.0
 40
1.0
 40
1.0
 40
1.0
 10
183.3320942330843
 20
285.8586006641267
 30
0.0
 10
183.3320902017786
 20
285.8585896945871
 30
0.0
 10
183.3217418044059
 20
285.8304307902756
 30
0.0
 10
183.3653165963475
 20
285.9496114051886
 30
0.0
 10
183.4992161733961
 20
286.3102879254171
 30
0.0
 10
183.7775067179788
 20
287.0064793996973
 30
0.0
 10
184.1280627453511
 20
287.8161140061989
 30
0.0
 10
184.4119727661002
 20
288.4015541443187
 30
0.0
 10
184.5545364198327
 20
288.6955292738746
 30
0.0
  0
SPLINE
  5
1DE
330
1F
100
AcDbEntity
  8
0
  6
Continuous
 62
     8
370
     0
100
AcDbSpline
210
0.0
220
0.0
230
1.0
 70
     8
 71
     3
 72
    26
 73
    22
 74
     0
 42
0.00000001
 43
0.00000001
 12
1.0
 22
0.0
 32
0.0
 13
1.0
 23
0.0
 33
0.0
 40
0.0
 40
0.0
 40
0.0
 40
0.0
 40
0.1250000000000007
 40
0.1250000000000007
 40
0.2500000000000015
 40
0.2500000000000015
 40
0.3125000000000014
 40
0.3125000000000014
 40
0.3750000000000013
 40
0.3750000000000013
 40
0.5
 40
0.5
 40
0.5624999999999999
 40
0.5624999999999999
 40
0.6249999999999999
 40
0.6249999999999999
 40
0.7499999999999998
 40
0.7499999999999998
 40
0.8749999999999999
 40
0.8749999999999999
 40
1.0
 40
1.0
 40
1.0
 40
1.0
 10
214.2930921730474
 20
289.5914186458681
 30
0.0
 10
214.1947104172199
 20
289.8209157544003
 30
0.0
 10
214.0837652230847
 20
290.0214348424549
 30
0.0
 10
213.8363080030539
 20
290.3805653611502
 30
0.0
 10
213.699766440067
 20
290.5388666821199
 30
0.0
 10
213.4739191816691
 20
290.748417031355
 30
0.0
 10
213.3953495163467
 20
290.8132869999801
 30
0.0
 10
213.2333341559796
 20
290.9322404017432
 30
0.0
 10
213.1496342744959
 20
290.9865638800292
 30
0.0
 10
212.8903020898828
 20
291.1348310970324
 30
0.0
 10
212.7064570775425
 20
291.2141698384232
 30
0.0
 10
212.4132886518121
 20
291.304723527511
 30
0.0
 10
212.3126609191858
 20
291.3301390513515
 30
0.0
 10
212.1053697891762
 20
291.3712716132752
 30
0.0
 10
211.9983769234411
 20
291.3870173951132
 30
0.0
 10
211.6702400528305
 20
291.4189816761223
 30
0.0
 10
211.4441381241397
 20
291.4199274166518
 30
0.0
 10
210.977780163448
 20
291.3819897022599
 30
0.0
 10
210.7375225977474
 20
291.3430963725033
 30
0.0
 10
210.2432948046776
 20
291.2240944631047
 30
0.0
 10
209.9885990763797
 20
291.1435386099062
 30
0.0
 10
209.7320949971107
 20
291.0428211558862
 30
0.0
  0
SPLINE
  5
1DF
330
1F
100
AcDbEntity
  8
0
  6
Continuous
 62
     8
370
     0
100
AcDbSpline
210
0.0
220
0.0
230
1.0
 70
     8
 71
     3
 72
    26
 73
    22
 74
     0
 42
0.00000001
 43
0.00000001
 12
1.0
 22
0.0
 32
0.0
 13
1.0
 23
0.0
 33
0.0
 40
0.0
 40
0.0
 40
0.0
 40
0.0
 40
0.1250000000000007
 40
0.1250000000000007
 40
0.2500000000000015
 40
0.2500000000000015
 40
0.3125000000000014
 40
0.3125000000000014
 40
0.3750000000000013
 40
0.3750000000000013
 40
0.5
 40
0.5
 40
0.5624999999999999
 40
0.5624999999999999
 40
0.6249999999999999
 40
0.6249999999999999
 40
0.7499999999999998
 40
0.7499999999999998
 40
0.8749999999999999
 40
0.8749999999999999
 40
1.0
 40
1.0
 40
1.0
 40
1.0
 10
184.5635386992584
 20
289.5914186458681
 30
0.0
 10
184.6619204550859
 20
289.8209157544003
 30
0.0
 10
184.7728656492211
 20
290.0214348424549
 30
0.0
 10
185.0203228692518
 20
290.3805653611502
 30
0.0
 10
185.1568644322388
 20
290.5388666821199
 30
0.0
 10
185.3827116906367
 20
290.748417031355
 30
0.0
 10
185.4612813559591
 20
290.8132869999801
 30
0.0
 10
185.6232967163261
 20
290.9322404017432
 30
0.0
 10
185.7069965978099
 20
290.9865638800292
 30
0.0
 10
185.966328782423
 20
291.1348310970324
 30
0.0
 10
186.1501737947633
 20
291.2141698384232
 30
0.0
 10
186.4433422204937
 20
291.304723527511
 30
0.0
 10
186.5439699531199
 20
291.3301390513515
 30
0.0
 10
186.7512610831295
 20
291.3712716132752
 30
0.0
 10
186.8582539488646
 20
291.3870173951132
 30
0.0
 10
187.1863908194752
 20
291.4189816761223
 30
0.0
 10
187.4124927481661
 20
291.4199274166518
 30
0.0
 10
187.8788507088577
 20
291.3819897022599
 30
0.0
 10
188.1191082745584
 20
291.3430963725033
 30
0.0
 10
188.6133360676282
 20
291.2240944631047
 30
0.0
 10
188.8680317959261
 20
291.1435386099062
 30
0.0
 10
189.1245358751951
 20
291.0428211558862
 30
0.0
  0
SPLINE
  5
1E0
330
1F
100
AcDbEntity
  8
0
  6
Continuous
 62
     8
370
     0
100
AcDbSpline
210
0.0
220
0.0
230
1.0
 70
     8
 71
     3
 72
    20
 73
    16
 74
     0
 42
0.00000001
 43
0.00000001
 12
1.0
 22
0.0
 32
0.0
 13
1.0
 23
0.0
 33
0.0
 40
0.0
 40
0.0
 40
0.0
 40
0.0
 40
0.2500000000000002
 40
0.2500000000000002
 40
0.3750000000000002
 40
0.3750000000000002
 40
0.5000000000000003
 40
0.5000000000000003
 40
0.6250000000000003
 40
0.6250000000000003
 40
0.7500000000000002
 40
0.7500000000000002
 40
0.8750000000000001
 40
0.8750000000000001
 40
1.0
 40
1.0
 40
1.0
 40
1.0
 10
184.5635386992584
 20
289.5914186458681
 30
0.0
 10
184.4015343617342
 20
289.2135078562227
 30
0.0
 10
184.2530905612647
 20
288.8477015167485
 30
0.0
 10
184.052082356853
 20
288.3284498556213
 30
0.0
 10
183.9887032132276
 20
288.1603410862862
 30
0.0
 10
183.8696966188654
 20
287.8372302749143
 30
0.0
 10
183.8140510126288
 20
287.6821468505424
 30
0.0
 10
183.7125009070029
 20
287.3930473521872
 30
0.0
 10
183.6664239603677
 20
287.2585691484193
 30
0.0
 10
183.5847353695922
 20
287.0158808825171
 30
0.0
 10
183.5490604244062
 20
286.907481724432
 30
0.0
 10
183.4901462036912
 20
286.7261797843672
 30
0.0
 10
183.4672299231743
 20
286.654318852969
 30
0.0
 10
183.4362445405178
 20
286.5566680935864
 30
0.0
 10
183.4283154361529
 20
286.5313671120787
 30
0.0
 10
183.4283154361529
 20
286.5313671120786
 30
0.0
  0
SPLINE
  5
1E1
330
1F
100
AcDbEntity
  8
0
  6
Continuous
 62
     8
370
     0
100
AcDbSpline
210
0.0
220
0.0
230
1.0
 70
     8
 71
     3
 72
    20
 73
    16
 74
     0
 42
0.00000001
 43
0.00000001
 12
1.0
 22
0.0
 32
0.0
 13
1.0
 23
0.0
 33
0.0
 40
0.0
 40
0.0
 40
0.0
 40
0.0
 40
0.2500000000000002
 40
0.2500000000000002
 40
0.3750000000000002
 40
0.3750000000000002
 40
0.5000000000000003
 40
0.5000000000000003
 40
0.6250000000000003
 40
0.6250000000000003
 40
0.7500000000000002
 40
0.7500000000000002
 40
0.8750000000000001
 40
0.8750000000000001
 40
1.0
 40
1.0
 40
1.0
 40
1.0
 10
214.2930921730474
 20
289.5914186458681
 30
0.0
 10
214.4550965105715
 20
289.2135078562227
 30
0.0
 10
214.603540311041
 20
288.8477015167485
 30
0.0
 10
214.8045485154527
 20
288.3284498556213
 30
0.0
 10
214.8679276590782
 20
288.1603410862862
 30
0.0
 10
214.9869342534404
 20
287.8372302749143
 30
0.0
 10
215.042579859677
 20
287.6821468505424
 30
0.0
 10
215.1441299653029
 20
287.3930473521872
 30
0.0
 10
215.1902069119381
 20
287.2585691484193
 30
0.0
 10
215.2718955027136
 20
287.0158808825171
 30
0.0
 10
215.3075704478996
 20
286.907481724432
 30
0.0
 10
215.3664846686145
 20
286.7261797843672
 30
0.0
 10
215.3894009491314
 20
286.654318852969
 30
0.0
 10
215.4203863317879
 20
286.5566680935864
 30
0.0
 10
215.4283154361529
 20
286.5313671120787
 30
0.0
 10
215.4283154361529
 20
286.5313671120786
 30
0.0
  0
LINE
  5
1E2
330
1F
100
AcDbEntity
  8
0
  6
Continuous
 62
     8
370
     0
100
AcDbLine
 10
215.4283154362
 20
294.90280276
 30
0.0
 11
183.4283154362
 21
294.90280276
 31
0.0
  0
LINE
  5
1E3
330
1F
100
AcDbEntity
  8
0
  6
Continuous
 62
     8
370
     0
100
AcDbLine
 10
201.8283154362
 20
298.0860471336
 30
0.0
 11
211.6586159437
 21
298.0860471336
 31
0.0
  0
LINE
  5
1E4
330
1F
100
AcDbEntity
  8
0
  6
Continuous
 62
     8
370
     0
100
AcDbLine
 10
187.1980149286
 20
298.0860471336
 30
0.0
 11
197.0283154362
 21
298.0860471336
 31
0.0
  0
ARC
  5
1E5
330
1F
100
AcDbEntity
  8
0
  6
Continuous
 62
     8
370
     0
100
AcDbCircle
 10
215.7542321922
 20
289.1581108901
 30
0.0
 40
1.524036012348338
100
AcDbArc
 50
163.482035667
 51
197.6693905565
  0
ARC
  5
1E6
330
1F
100
AcDbEntity
  8
0
  6
Continuous
 62
     8
370
     0
100
AcDbCircle
 10
183.1023986801
 20
289.1581108901
 30
0.0
 40
1.524036012348095
100
AcDbArc
 50
342.3306094435
 51
16.517964333
  0
LINE
  5
1E7
330
1F
100
AcDbEntity
  8
0
  6
Continuous
 62
     8
370
     0
100
AcDbLine
 10
188.5687174745
 20
312.9656059075
 30
0.0
 11
197.0283154362
 21
312.9656059075
 31
0.0
  0
LINE
  5
1E8
330
1F
100
AcDbEntity
  8
0
  6
Continuous
 62
     8
370
     0
100
AcDbLine
 10
201.8283154362
 20
312.9656059075
 30
0.0
 11
210.2879133978
 21
312.9656059075
 31
0.0
  0
LINE
  5
1E9
330
1F
100
AcDbEntity
  8
FORMAT
  6
CENTERX2
370
     0
100
AcDbLine
 10
199.4283154362
 20
192.4981183885
 30
0.0
 11
199.4283154362
 21
371.5482273934
 31
0.0
  0
LINE
  5
1EA
330
1F
100
AcDbEntity
  8
FORMAT
  6
CENTERX2
370
     0
100
AcDbLine
 10
162.6283154362
 20
216.10280276
 30
0.0
 11
237.0229493216
 21
216.10280276
 31
0.0
  0
LINE
  5
1EB
330
1F
100
AcDbEntity
  8
0
  6
Continuous
 62
     7
370
    15
100
AcDbLine
 10
442.3640139307
 20
360.1028084821
 30
0.0
 11
442.0094050373
 21
364.1560077733
 31
0.0
  0
LINE
  5
1EC
330
1F
100
AcDbEntity
  8
0
  6
Continuous
 62
     7
370
    15
100
AcDbLine
 10
352.7186252083
 20
364.1560077733
 30
0.0
 11
352.3640163149
 21
360.1028084821
 31
0.0
  0
ARC
  5
1ED
330
1F
100
AcDbEntity
  8
0
  6
Continuous
 62
     7
370
    15
100
AcDbCircle
 10
357.8988374667
 20
363.70280276
 30
0.0
 40
5.199999999999932
100
AcDbArc
 50
90.0
 51
175.0
  0
ARC
  5
1EE
330
1F
100
AcDbEntity
  8
0
  6
Continuous
 62
     7
370
    15
100
AcDbCircle
 10
436.8291927789
 20
363.70280276
 30
0.0
 40
5.199999999999978
100
AcDbArc
 50
5.0
 51
90.0
  0
LINE
  5
1EF
330
1F
100
AcDbEntity
  8
0
  6
Continuous
 62
     7
370
    15
100
AcDbLine
 10
436.829192182
 20
368.9028024739
 30
0.0
 11
357.8988380637
 21
368.9028024739
 31
0.0
  0
LINE
  5
1F0
330
1F
100
AcDbEntity
  8
0
  6
Continuous
 62
     7
370
    15
100
AcDbLine
 10
414.9640150275
 20
282.5028002328
 30
0.0
 11
414.9640150275
 21
278.6129236287
 31
0.0
  0
LINE
  5
1F1
330
1F
100
AcDbEntity
  8
0
  6
Continuous
 62
     7
370
    15
100
AcDbLine
 10
379.7640152182
 20
278.6129236287
 30
0.0
 11
379.7640152182
 21
282.5028002328
 31
0.0
  0
LINE
  5
1F2
330
1F
100
AcDbEntity
  8
0
  6
Continuous
 62
     7
370
    15
100
AcDbLine
 10
422.9941137041
 20
258.5028022593
 30
0.0
 11
423.7375087942
 21
266.999828822
 31
0.0
  0
LINE
  5
1F3
330
1F
100
AcDbEntity
  8
0
  6
Continuous
 62
     7
370
    15
100
AcDbLine
 10
370.9905214514
 20
266.999828822
 30
0.0
 11
371.7339165415
 21
258.5028022593
 31
0.0
  0
LINE
  5
1F4
330
1F
100
AcDbEntity
  8
0
  6
Continuous
 62
     7
370
    15
100
AcDbLine
 10
427.0840503182
 20
267.3028051919
 30
0.0
 11
427.3640163149
 21
270.5028057164
 31
0.0
  0
LINE
  5
1F5
330
1F
100
AcDbEntity
  8
0
  6
Continuous
 62
     7
370
    15
100
AcDbLine
 10
367.3640139307
 20
270.5028057164
 30
0.0
 11
367.6439799275
 21
267.3028051919
 31
0.0
  0
LINE
  5
1F6
330
1F
100
AcDbEntity
  8
0
  6
Continuous
 62
     7
370
    15
100
AcDbLine
 10
423.6843176092
 20
266.3918495244
 30
0.0
 11
427.0840503182
 21
267.3028051919
 31
0.0
  0
LINE
  5
1F7
330
1F
100
AcDbEntity
  8
0
  6
Continuous
 62
     7
370
    15
100
AcDbLine
 10
367.6439799275
 20
267.3028051919
 30
0.0
 11
371.0437126364
 21
266.3918495244
 31
0.0
  0
ARC
  5
1F8
330
1F
100
AcDbEntity
  8
0
  6
Continuous
 62
     7
370
    15
100
AcDbCircle
 10
382.5640151228
 20
294.90280276
 30
0.0
 40
1.200000000000045
100
AcDbArc
 50
90.0
 51
180.0
  0
ARC
  5
1F9
330
1F
100
AcDbEntity
  8
0
  6
Continuous
 62
     7
370
    15
100
AcDbCircle
 10
412.1640151228
 20
294.90280276
 30
0.0
 40
1.200000000000045
100
AcDbArc
 50
0.0
 51
90.0
  0
LINE
  5
1FA
330
1F
100
AcDbEntity
  8
0
  6
Continuous
 62
     7
370
    15
100
AcDbLine
 10
381.3640154805
 20
294.9028015202
 30
0.0
 11
381.3640154805
 21
289.0831768578
 31
0.0
  0
LINE
  5
1FB
330
1F
100
AcDbEntity
  8
0
  6
Continuous
 62
     7
370
    15
100
AcDbLine
 10
413.3640147652
 20
289.0831768578
 30
0.0
 11
413.3640147652
 21
294.9028015202
 31
0.0
  0
LINE
  5
1FC
330
1F
100
AcDbEntity
  8
0
  6
Continuous
 62
     7
370
    15
100
AcDbLine
 10
427.3291088547
 20
274.5028019017
 30
0.0
 11
425.3258086647
 21
275.6594061917
 31
0.0
  0
LINE
  5
1FD
330
1F
100
AcDbEntity
  8
0
  6
Continuous
 62
     7
370
    15
100
AcDbLine
 10
369.4022215809
 20
275.6594061917
 30
0.0
 11
367.3989213909
 21
274.5028019017
 31
0.0
  0
LINE
  5
1FE
330
1F
100
AcDbEntity
  8
0
  6
Continuous
 62
     7
370
    15
100
AcDbLine
 10
427.3640163149
 20
270.5028057164
 30
0.0
 11
427.3291088547
 21
274.5028019017
 31
0.0
  0
LINE
  5
1FF
330
1F
100
AcDbEntity
  8
0
  6
Continuous
 62
     7
370
    15
100
AcDbLine
 10
367.3989213909
 20
274.5028019017
 30
0.0
 11
367.3640139307
 21
270.5028057164
 31
0.0
  0
ARC
  5
200
330
1F
100
AcDbEntity
  8
0
  6
Continuous
 62
     7
370
    15
100
AcDbCircle
 10
399.7640151228
 20
270.50280276
 30
0.0
 40
22.12000000000006
100
AcDbArc
 50
32.8536790474
 51
49.2659077711
  0
ARC
  5
201
330
1F
100
AcDbEntity
  8
0
  6
Continuous
 62
     7
370
    15
100
AcDbCircle
 10
394.9640151228
 20
270.50280276
 30
0.0
 40
22.12000000000009
100
AcDbArc
 50
130.7319613347
 51
147.1463209526
  0
SPLINE
  5
202
330
1F
100
AcDbEntity
  8
0
  6
Continuous
 62
     7
370
    15
100
AcDbSpline
210
0.0
220
0.0
230
1.0
 70
     8
 71
     3
 72
    12
 73
     8
 74
     0
 42
0.00000001
 43
0.00000001
 12
1.0
 22
0.0
 32
0.0
 13
1.0
 23
0.0
 33
0.0
 40
0.0
 40
0.0
 40
0.0
 40
0.0
 40
0.1520376266292139
 40
0.3769739904666142
 40
0.6072306283636895
 40
0.8133947113713548
 40
1.0
 40
1.0
 40
1.0
 40
1.0
 10
414.2586983646686
 20
287.2224032944638
 30
0.0
 10
414.1755678222054
 20
287.2918413208072
 30
0.0
 10
413.969447449132
 20
287.4640113977887
 30
0.0
 10
413.7088922655591
 20
287.8145176752441
 30
0.0
 10
413.5026516081998
 20
288.2387856664787
 30
0.0
 10
413.3819214073515
 20
288.6696831839135
 30
0.0
 10
413.3749815357558
 20
288.9497076711513
 30
0.0
 10
413.371684392863
 20
289.0827477044065
 30
0.0
  0
SPLINE
  5
203
330
1F
100
AcDbEntity
  8
0
  6
Continuous
 62
     7
370
    15
100
AcDbSpline
210
0.0
220
0.0
230
1.0
 70
     8
 71
     3
 72
    14
 73
    10
 74
     0
 42
0.00000001
 43
0.00000001
 12
1.0
 22
0.0
 32
0.0
 13
1.0
 23
0.0
 33
0.0
 40
0.0
 40
0.0
 40
0.0
 40
0.0
 40
0.1325606879225694
 40
0.3385875202650715
 40
0.5279126891569224
 40
0.70000939248024
 40
0.8533205673763331
 40
0.985317058550426
 40
1.0
 40
1.0
 40
1.0
 40
1.0
 10
381.3533209170635
 20
289.0833616322476
 30
0.0
 10
381.3545489838359
 20
288.9920711603177
 30
0.0
 10
381.3576857213537
 20
288.7588963405502
 30
0.0
 10
381.2753544919002
 20
288.4017051266282
 30
0.0
 10
381.1350705307465
 20
288.0370711299254
 30
0.0
 10
380.9561071898076
 20
287.7298157948475
 30
0.0
 10
380.7594587159022
 20
287.4841782660365
 30
0.0
 10
380.6160675924116
 20
287.3346195754761
 30
0.0
 10
380.5372333250007
 20
287.2717871226313
 30
0.0
 10
380.5293418373401
 20
287.2654974526364
 30
0.0
  0
ARC
  5
204
330
1F
100
AcDbEntity
  8
0
  6
Continuous
 62
     7
370
    15
100
AcDbCircle
 10
411.9578542376
 20
298.50280276
 30
0.0
 40
2.400000000000081
100
AcDbArc
 50
190.0
 51
270.0
  0
LINE
  5
205
330
1F
100
AcDbEntity
  8
0
  6
Continuous
 62
     7
370
    15
100
AcDbLine
 10
421.8840144481
 20
247.7061182326
 30
0.0
 11
421.8840144481
 21
258.5028022593
 31
0.0
  0
LINE
  5
206
330
1F
100
AcDbEntity
  8
0
  6
Continuous
 62
     7
370
    15
100
AcDbLine
 10
372.8440157975
 20
258.5028022593
 30
0.0
 11
372.8440157975
 21
247.7061182326
 31
0.0
  0
LINE
  5
207
330
1F
100
AcDbEntity
  8
0
  6
Continuous
 62
     7
370
    15
100
AcDbLine
 10
387.3640149738
 20
359.702801711
 30
0.0
 11
387.3640149738
 21
359.4089627332
 31
0.0
  0
LINE
  5
208
330
1F
100
AcDbEntity
  8
0
  6
Continuous
 62
     7
370
    15
100
AcDbLine
 10
387.3640149738
 20
351.5415668553
 30
0.0
 11
387.3640149738
 21
349.7027993268
 31
0.0
  0
LINE
  5
209
330
1F
100
AcDbEntity
  8
0
  6
Continuous
 62
     7
370
    15
100
AcDbLine
 10
407.3640152718
 20
349.7027993268
 30
0.0
 11
407.3640152718
 21
351.5415668553
 31
0.0
  0
LINE
  5
20A
330
1F
100
AcDbEntity
  8
0
  6
Continuous
 62
     7
370
    15
100
AcDbLine
 10
407.3640152718
 20
359.4089627332
 30
0.0
 11
407.3640152718
 21
359.702801711
 31
0.0
  0
LINE
  5
20B
330
1F
100
AcDbEntity
  8
0
  6
Continuous
 62
     7
370
    15
100
AcDbLine
 10
409.5943152811
 20
298.0860471791
 30
0.0
 11
408.7535157706
 21
302.8544604844
 31
0.0
  0
LINE
  5
20C
330
1F
100
AcDbEntity
  8
0
  6
Continuous
 62
     7
370
    15
100
AcDbLine
 10
408.7535157706
 20
302.8544604844
 30
0.0
 11
408.2236133422
 21
312.9656076497
 31
0.0
  0
ARC
  5
20D
330
1F
100
AcDbEntity
  8
0
  6
Continuous
 62
     7
370
    15
100
AcDbCircle
 10
407.0252576428
 20
312.90280276
 30
0.0
 40
1.200000000000039
100
AcDbArc
 50
3.0
 51
90.0
  0
LINE
  5
20E
330
1F
100
AcDbEntity
  8
0
  6
Continuous
 62
     7
370
    15
100
AcDbLine
 10
406.3640154805
 20
314.1028046674
 30
0.0
 11
406.3640154805
 21
316.5027976102
 31
0.0
  0
LINE
  5
20F
330
1F
100
AcDbEntity
  8
0
  6
Continuous
 62
     7
370
    15
100
AcDbLine
 10
392.3640150483
 20
343.0965900487
 30
0.0
 11
392.3640150483
 21
335.7028007573
 31
0.0
  0
LINE
  5
210
330
1F
100
AcDbEntity
  8
0
  6
Continuous
 62
     7
370
    15
100
AcDbLine
 10
402.3640151973
 20
335.7028007573
 30
0.0
 11
402.3640151973
 21
343.0965900487
 31
0.0
  0
LINE
  5
211
330
1F
100
AcDbEntity
  8
0
  6
Continuous
 62
     7
370
    15
100
AcDbLine
 10
392.3640150483
 20
332.5028061933
 30
0.0
 11
392.3640150483
 21
316.5027976102
 31
0.0
  0
LINE
  5
212
330
1F
100
AcDbEntity
  8
0
  6
Continuous
 62
     7
370
    15
100
AcDbLine
 10
402.3640151973
 20
316.5027976102
 30
0.0
 11
402.3640151973
 21
332.5028061933
 31
0.0
  0
LINE
  5
213
330
1F
100
AcDbEntity
  8
0
  6
Continuous
 62
     7
370
    15
100
AcDbLine
 10
386.3640151824
 20
316.7428016728
 30
0.0
 11
386.3640151824
 21
316.5027976102
 31
0.0
  0
LINE
  5
214
330
1F
100
AcDbEntity
  8
0
  6
Continuous
 62
     7
370
    15
100
AcDbLine
 10
391.5640152897
 20
316.5027976102
 30
0.0
 11
391.5640152897
 21
316.7428016728
 31
0.0
  0
LINE
  5
215
330
1F
100
AcDbEntity
  8
0
  6
Continuous
 62
     7
370
    15
100
AcDbLine
 10
387.3640149738
 20
332.5028061933
 30
0.0
 11
387.3640149738
 21
330.1028013295
 31
0.0
  0
LINE
  5
216
330
1F
100
AcDbEntity
  8
0
  6
Continuous
 62
     7
370
    15
100
AcDbLine
 10
390.5640147533
 20
330.1028013295
 30
0.0
 11
390.5640147533
 21
332.5028061933
 31
0.0
  0
ARC
  5
217
330
1F
100
AcDbEntity
  8
0
  6
Continuous
 62
     7
370
    15
100
AcDbCircle
 10
386.9168015273
 20
329.70280276
 30
0.0
 40
0.6000000000000031
100
AcDbArc
 50
318.1896851042
 51
41.8103148958
  0
ARC
  5
218
330
1F
100
AcDbEntity
  8
0
  6
Continuous
 62
     7
370
    15
100
AcDbCircle
 10
391.0112287183
 20
329.70280276
 30
0.0
 40
0.6000000000000031
100
AcDbArc
 50
138.1896851042
 51
221.8103148958
  0
LINE
  5
219
330
1F
100
AcDbEntity
  8
0
  6
Continuous
 62
     7
370
    15
100
AcDbLine
 10
387.3640149738
 20
329.3027997083
 30
0.0
 11
387.3640149738
 21
319.2228078908
 31
0.0
  0
LINE
  5
21A
330
1F
100
AcDbEntity
  8
0
  6
Continuous
 62
     7
370
    15
100
AcDbLine
 10
390.5640147533
 20
319.2228078908
 30
0.0
 11
390.5640147533
 21
329.3027997083
 31
0.0
  0
LINE
  5
21B
330
1F
100
AcDbEntity
  8
0
  6
Continuous
 62
     7
370
    15
100
AcDbLine
 10
387.3640149738
 20
339.3028020925
 30
0.0
 11
387.3640149738
 21
335.7028007573
 31
0.0
  0
LINE
  5
21C
330
1F
100
AcDbEntity
  8
0
  6
Continuous
 62
     7
370
    15
100
AcDbLine
 10
390.5640147533
 20
335.7028007573
 30
0.0
 11
390.5640147533
 21
339.3028020925
 31
0.0
  0
ARC
  5
21D
330
1F
100
AcDbEntity
  8
0
  6
Continuous
 62
     7
370
    15
100
AcDbCircle
 10
386.9168015273
 20
339.70280276
 30
0.0
 40
0.5999999999999653
100
AcDbArc
 50
318.1896851042
 51
41.8103148958
  0
ARC
  5
21E
330
1F
100
AcDbEntity
  8
0
  6
Continuous
 62
     7
370
    15
100
AcDbCircle
 10
391.0112287183
 20
339.70280276
 30
0.0
 40
0.5999999999999653
100
AcDbArc
 50
138.1896851042
 51
221.8103148958
  0
LINE
  5
21F
330
1F
100
AcDbEntity
  8
0
  6
Continuous
 62
     7
370
    15
100
AcDbLine
 10
387.3640149738
 20
343.8916564053
 30
0.0
 11
387.3640149738
 21
340.1028037137
 31
0.0
  0
LINE
  5
220
330
1F
100
AcDbEntity
  8
0
  6
Continuous
 62
     7
370
    15
100
AcDbLine
 10
390.5640147533
 20
340.1028037137
 30
0.0
 11
390.5640147533
 21
343.8916564053
 31
0.0
  0
ARC
  5
221
330
1F
100
AcDbEntity
  8
0
  6
Continuous
 62
     7
370
    15
100
AcDbCircle
 10
388.9640151228
 20
342.10280276
 30
0.0
 40
2.400000000000022
100
AcDbArc
 50
48.1896851042
 51
131.8103148958
  0
LINE
  5
222
330
1F
100
AcDbEntity
  8
0
  6
Continuous
 62
     7
370
    15
100
AcDbLine
 10
352.3640163149
 20
360.1028084821
 30
0.0
 11
442.3640139307
 21
360.1028084821
 31
0.0
  0
CIRCLE
  5
223
330
1F
100
AcDbEntity
  8
0
  6
Continuous
 62
     7
370
    15
100
AcDbCircle
 10
397.3640151228
 20
216.10280276
 30
0.0
 40
27.79999999999995
  0
CIRCLE
  5
224
330
1F
100
AcDbEntity
  8
0
  6
Continuous
 62
     7
370
    15
100
AcDbCircle
 10
397.3640151228
 20
216.10280276
 30
0.0
 40
26.59999999999997
  0
CIRCLE
  5
225
330
1F
100
AcDbEntity
  8
0
  6
Continuous
 62
     7
370
    15
100
AcDbCircle
 10
397.3640151228
 20
216.10280276
 30
0.0
 40
23.56
  0
CIRCLE
  5
226
330
1F
100
AcDbEntity
  8
0
  6
Continuous
 62
     7
370
    15
100
AcDbCircle
 10
397.3640151228
 20
216.10280276
 30
0.0
 40
22.56
  0
CIRCLE
  5
227
330
1F
100
AcDbEntity
  8
0
  6
Continuous
 62
     7
370
    15
100
AcDbCircle
 10
397.3640151228
 20
216.10280276
 30
0.0
 40
20.03999999999996
  0
CIRCLE
  5
228
330
1F
100
AcDbEntity
  8
0
  6
Continuous
 62
     7
370
    15
100
AcDbCircle
 10
397.3640151228
 20
216.10280276
 30
0.0
 40
19.03999999999996
  0
CIRCLE
  5
229
330
1F
100
AcDbEntity
  8
0
  6
Continuous
 62
     7
370
    15
100
AcDbCircle
 10
397.3640151228
 20
216.10280276
 30
0.0
 40
39.99999999999994
  0
LINE
  5
22A
330
1F
100
AcDbEntity
  8
0
  6
Continuous
 62
     7
370
    15
100
AcDbLine
 10
415.3640158381
 20
176.102802164
 30
0.0
 11
397.3640151228
 21
176.102802164
 31
0.0
  0
LINE
  5
22B
330
1F
100
AcDbEntity
  8
0
  6
Continuous
 62
     7
370
    15
100
AcDbLine
 10
416.6993848886
 20
181.0864716834
 30
0.0
 11
415.3640158381
 21
176.102802164
 31
0.0
  0
LINE
  5
22C
330
1F
100
AcDbEntity
  8
0
  6
Continuous
 62
     7
370
    15
100
AcDbLine
 10
378.0286453571
 20
181.0864716834
 30
0.0
 11
379.3640144076
 21
176.102802164
 31
0.0
  0
LINE
  5
22D
330
1F
100
AcDbEntity
  8
0
  6
Continuous
 62
     7
370
    15
100
AcDbLine
 10
379.3640144076
 20
176.102802164
 30
0.0
 11
397.3640151228
 21
176.102802164
 31
0.0
  0
LINE
  5
22E
330
1F
100
AcDbEntity
  8
0
  6
Continuous
 62
     7
370
    15
100
AcDbLine
 10
375.8078999724
 20
270.5028057164
 30
0.0
 11
374.0919150318
 21
270.5028057164
 31
0.0
  0
LINE
  5
22F
330
1F
100
AcDbEntity
  8
0
  6
Continuous
 62
     7
370
    15
100
AcDbLine
 10
375.8078999724
 20
270.5028057164
 30
0.0
 11
418.9201302733
 21
270.5028057164
 31
0.0
  0
LINE
  5
230
330
1F
100
AcDbEntity
  8
0
  6
Continuous
 62
     7
370
    15
100
AcDbLine
 10
418.9201302733
 20
270.5028057164
 30
0.0
 11
420.6361152138
 21
270.5028057164
 31
0.0
  0
LINE
  5
231
330
1F
100
AcDbEntity
  8
0
  6
Continuous
 62
     7
370
    15
100
AcDbLine
 10
420.6361152138
 20
270.5028057164
 30
0.0
 11
421.1057893838
 21
270.5028057164
 31
0.0
  0
LINE
  5
232
330
1F
100
AcDbEntity
  8
0
  6
Continuous
 62
     7
370
    15
100
AcDbLine
 10
373.6887089814
 20
267.3028051919
 30
0.0
 11
421.0393212642
 21
267.3028051919
 31
0.0
  0
LINE
  5
233
330
1F
100
AcDbEntity
  8
0
  6
Continuous
 62
     7
370
    15
100
AcDbLine
 10
373.6222408618
 20
270.5028057164
 30
0.0
 11
374.0919150318
 21
270.5028057164
 31
0.0
  0
SPLINE
  5
234
330
1F
100
AcDbEntity
  8
0
  6
Continuous
 62
     7
370
    15
100
AcDbSpline
210
0.0
220
0.0
230
1.0
 70
     8
 71
     3
 72
     8
 73
     4
 74
     0
 42
0.00000001
 43
0.00000001
 12
1.0
 22
0.0
 32
0.0
 13
1.0
 23
0.0
 33
0.0
 40
0.000050209743428
 40
0.000050209743428
 40
0.000050209743428
 40
0.000050209743428
 40
0.0100520961816847
 40
0.0100520961816847
 40
0.0100520961816847
 40
0.0100520961816847
 10
375.8079006346188
 20
270.5028027600247
 30
0.0
 10
375.8334103603831
 20
271.8361288012834
 30
0.0
 10
375.8584999066654
 20
273.1694624630074
 30
0.0
 10
375.8832031567715
 20
274.5028027600247
 30
0.0
  0
LINE
  5
235
330
1F
100
AcDbEntity
  8
0
  6
Continuous
 62
     7
370
    15
100
AcDbLine
 10
375.8832029905
 20
274.5028019017
 30
0.0
 11
418.8448272552
 21
274.5028019017
 31
0.0
  0
SPLINE
  5
236
330
1F
100
AcDbEntity
  8
0
  6
Continuous
 62
     7
370
    15
100
AcDbSpline
210
0.0
220
0.0
230
1.0
 70
     8
 71
     3
 72
     8
 73
     4
 74
     0
 42
0.00000001
 43
0.00000001
 12
1.0
 22
0.0
 32
0.0
 13
1.0
 23
0.0
 33
0.0
 40
0.000050209743428
 40
0.000050209743428
 40
0.000050209743428
 40
0.000050209743428
 40
0.0100520961816847
 40
0.0100520961816847
 40
0.0100520961816847
 40
0.0100520961816847
 10
418.92012961103
 20
270.5028027600247
 30
0.0
 10
418.8946198852657
 20
271.8361288012834
 30
0.0
 10
418.8695303389835
 20
273.1694624630074
 30
0.0
 10
418.8448270888774
 20
274.5028027600247
 30
0.0
  0
SPLINE
  5
237
330
1F
100
AcDbEntity
  8
0
  6
Continuous
 62
     7
370
    15
100
AcDbSpline
210
0.0
220
0.0
230
1.0
 70
     8
 71
     3
 72
    24
 73
    20
 74
     0
 42
0.00000001
 43
0.00000001
 12
1.0
 22
0.0
 32
0.0
 13
1.0
 23
0.0
 33
0.0
 40
0.0
 40
0.0
 40
0.0
 40
0.0
 40
0.1250000000000001
 40
0.1250000000000001
 40
0.2500000000000003
 40
0.2500000000000003
 40
0.3750000000000004
 40
0.3750000000000004
 40
0.5000000000000006
 40
0.5000000000000006
 40
0.6250000000000007
 40
0.6250000000000007
 40
0.7500000000000009
 40
0.7500000000000009
 40
0.8125000000000003
 40
0.8125000000000003
 40
0.8749999999999999
 40
0.8749999999999999
 40
1.0
 40
1.0
 40
1.0
 40
1.0
 10
375.8832031567715
 20
274.5028027600247
 30
0.0
 10
376.1802670941486
 20
274.5835884822083
 30
0.0
 10
376.4623425272545
 20
274.6753715507278
 30
0.0
 10
376.9996805975147
 20
274.8788387945706
 30
0.0
 10
377.2552455426055
 20
274.9907094445389
 30
0.0
 10
377.7387092502901
 20
275.2335479433214
 30
0.0
 10
377.9608196848532
 20
275.3615503209025
 30
0.0
 10
378.3694160305648
 20
275.6297433647121
 30
0.0
 10
378.5563123342577
 20
275.7703261092289
 30
0.0
 10
378.8931152945693
 20
276.062103354186
 30
0.0
 10
379.0402920496234
 20
276.2108089590889
 30
0.0
 10
379.2951257103961
 20
276.5136206514422
 30
0.0
 10
379.4027660896817
 20
276.667728263912
 30
0.0
 10
379.5344497957789
 20
276.9030309964281
 30
0.0
 10
379.5731819903584
 20
276.9819108543524
 30
0.0
 10
379.6397166448068
 20
277.1388676170126
 30
0.0
 10
379.6676618252215
 20
277.21719165053
 30
0.0
 10
379.7357931144977
 20
277.4517101331873
 30
0.0
 10
379.7603721387165
 20
277.6074561934788
 30
0.0
 10
379.7636417783808
 20
277.7625659030005
 30
0.0
  0
LINE
  5
238
330
1F
100
AcDbEntity
  8
0
  6
Continuous
 62
     7
370
    15
100
AcDbLine
 10
379.763641199
 20
277.7625680036
 30
0.0
 11
414.9643890466
 21
277.7625680036
 31
0.0
  0
SPLINE
  5
239
330
1F
100
AcDbEntity
  8
0
  6
Continuous
 62
     7
370
    15
100
AcDbSpline
210
0.0
220
0.0
230
1.0
 70
     8
 71
     3
 72
    24
 73
    20
 74
     0
 42
0.00000001
 43
0.00000001
 12
1.0
 22
0.0
 32
0.0
 13
1.0
 23
0.0
 33
0.0
 40
0.0
 40
0.0
 40
0.0
 40
0.0
 40
0.1250000000000001
 40
0.1250000000000001
 40
0.2500000000000003
 40
0.2500000000000003
 40
0.3750000000000004
 40
0.3750000000000004
 40
0.5000000000000006
 40
0.5000000000000006
 40
0.6250000000000007
 40
0.6250000000000007
 40
0.7500000000000009
 40
0.7500000000000009
 40
0.8125000000000003
 40
0.8125000000000003
 40
0.8749999999999999
 40
0.8749999999999999
 40
1.0
 40
1.0
 40
1.0
 40
1.0
 10
418.8448270888774
 20
274.5028027600247
 30
0.0
 10
418.5477631515002
 20
274.5835884822083
 30
0.0
 10
418.2656877183944
 20
274.6753715507278
 30
0.0
 10
417.7283496481342
 20
274.8788387945706
 30
0.0
 10
417.4727847030434
 20
274.9907094445389
 30
0.0
 10
416.9893209953588
 20
275.2335479433214
 30
0.0
 10
416.7672105607956
 20
275.3615503209025
 30
0.0
 10
416.3586142150841
 20
275.6297433647121
 30
0.0
 10
416.1717179113911
 20
275.7703261092289
 30
0.0
 10
415.8349149510796
 20
276.062103354186
 30
0.0
 10
415.6877381960255
 20
276.2108089590889
 30
0.0
 10
415.4329045352527
 20
276.5136206514422
 30
0.0
 10
415.3252641559671
 20
276.667728263912
 30
0.0
 10
415.19358044987
 20
276.9030309964281
 30
0.0
 10
415.1548482552904
 20
276.9819108543524
 30
0.0
 10
415.0883136008421
 20
277.1388676170126
 30
0.0
 10
415.0603684204274
 20
277.21719165053
 30
0.0
 10
414.9922371311512
 20
277.4517101331873
 30
0.0
 10
414.9676581069324
 20
277.6074561934788
 30
0.0
 10
414.9643884672681
 20
277.7625659030005
 30
0.0
  0
SPLINE
  5
23A
330
1F
100
AcDbEntity
  8
0
  6
Continuous
 62
     7
370
    15
100
AcDbSpline
210
0.0
220
0.0
230
1.0
 70
     8
 71
     3
 72
     8
 73
     4
 74
     0
 42
0.00000001
 43
0.00000001
 12
1.0
 22
0.0
 32
0.0
 13
1.0
 23
0.0
 33
0.0
 40
0.0
 40
0.0
 40
0.0
 40
0.0
 40
1.0
 40
1.0
 40
1.0
 40
1.0
 10
398.9640151228244
 20
266.8990026522109
 30
0.0
 10
397.897350806447
 20
266.8943464581197
 30
0.0
 10
396.8306374996465
 20
266.8943466411939
 30
0.0
 10
395.7640151228244
 20
266.8990026522109
 30
0.0
  0
SPLINE
  5
23B
330
1F
100
AcDbEntity
  8
0
  6
Continuous
 62
     7
370
    15
100
AcDbSpline
210
0.0
220
0.0
230
1.0
 70
     8
 71
     3
 72
    10
 73
     6
 74
     0
 42
0.00000001
 43
0.00000001
 12
1.0
 22
0.0
 32
0.0
 13
1.0
 23
0.0
 33
0.0
 40
0.0
 40
0.0
 40
0.0
 40
0.0
 40
0.5
 40
0.5
 40
1.0
 40
1.0
 40
1.0
 40
1.0
 10
374.5640151228245
 20
267.0683370586806
 30
0.0
 10
378.0940519661631
 20
266.8450657172631
 30
0.0
 10
381.6256722254656
 20
266.6707816379488
 30
0.0
 10
388.6922875612584
 20
266.426622590949
 30
0.0
 10
392.2272835507954
 20
266.3567758708392
 30
0.0
 10
395.7640151228244
 20
266.3406240965779
 30
0.0
  0
SPLINE
  5
23C
330
1F
100
AcDbEntity
  8
0
  6
Continuous
 62
     7
370
    15
100
AcDbSpline
210
0.0
220
0.0
230
1.0
 70
     8
 71
     3
 72
     8
 73
     4
 74
     0
 42
0.00000001
 43
0.00000001
 12
1.0
 22
0.0
 32
0.0
 13
1.0
 23
0.0
 33
0.0
 40
0.0
 40
0.0
 40
0.0
 40
0.0
 40
1.0
 40
1.0
 40
1.0
 40
1.0
 10
373.8730609075204
 20
267.0947437109659
 30
0.0
 10
374.1007909306082
 20
267.0918426634435
 30
0.0
 10
374.3310993518066
 20
267.0830687509945
 30
0.0
 10
374.5640151228245
 20
267.0683370586806
 30
0.0
  0
SPLINE
  5
23D
330
1F
100
AcDbEntity
  8
0
  6
Continuous
 62
     7
370
    15
100
AcDbSpline
210
0.0
220
0.0
230
1.0
 70
     8
 71
     3
 72
     8
 73
     4
 74
     0
 42
0.00000001
 43
0.00000001
 12
1.0
 22
0.0
 32
0.0
 13
1.0
 23
0.0
 33
0.0
 40
0.0
 40
0.0
 40
0.0
 40
0.0
 40
1.0
 40
1.0
 40
1.0
 40
1.0
 10
420.8549693381285
 20
267.0947437109659
 30
0.0
 10
420.6272393150407
 20
267.0918426634435
 30
0.0
 10
420.3969308938423
 20
267.0830687509945
 30
0.0
 10
420.1640151228244
 20
267.0683370586806
 30
0.0
  0
SPLINE
  5
23E
330
1F
100
AcDbEntity
  8
0
  6
Continuous
 62
     7
370
    15
100
AcDbSpline
210
0.0
220
0.0
230
1.0
 70
     8
 71
     3
 72
    10
 73
     6
 74
     0
 42
0.00000001
 43
0.00000001
 12
1.0
 22
0.0
 32
0.0
 13
1.0
 23
0.0
 33
0.0
 40
0.0
 40
0.0
 40
0.0
 40
0.0
 40
0.5
 40
0.5
 40
1.0
 40
1.0
 40
1.0
 40
1.0
 10
420.1640151228244
 20
267.0683370586806
 30
0.0
 10
416.6339782794858
 20
266.8450657172631
 30
0.0
 10
413.1023580201833
 20
266.6707816379488
 30
0.0
 10
406.0357426843905
 20
266.426622590949
 30
0.0
 10
402.5007466948535
 20
266.3567758708392
 30
0.0
 10
398.9640151228244
 20
266.3406240965779
 30
0.0
  0
LINE
  5
23F
330
1F
100
AcDbEntity
  8
0
  6
Continuous
 62
     7
370
    15
100
AcDbLine
 10
391.4267610665
 20
357.762253291
 30
0.0
 11
385.6522023584
 21
360.1028084821
 31
0.0
  0
ELLIPSE
  5
240
330
1F
100
AcDbEntity
  8
0
  6
Continuous
 62
     7
370
    15
100
AcDbEllipse
 10
397.3640151228
 20
306.1388773919
 30
0.0
 11
4.771966816661802
 21
121.0659881739134
 31
0.0
210
0.0
220
0.0
230
1.0
 40
0.0725882252
 41
1.133142692962949
 42
1.189748657874412
  0
LINE
  5
241
330
1F
100
AcDbEntity
  8
0
  6
Continuous
 62
     7
370
    15
100
AcDbLine
 10
390.9810237493
 20
351.4840364522
 30
0.0
 11
369.7169996704
 21
360.1028084821
 31
0.0
  0
LINE
  5
242
330
1F
100
AcDbEntity
  8
0
  6
Continuous
 62
     7
370
    15
100
AcDbLine
 10
403.7470064964
 20
351.4840364522
 30
0.0
 11
425.0110305752
 21
360.1028084821
 31
0.0
  0
ELLIPSE
  5
243
330
1F
100
AcDbEntity
  8
0
  6
Continuous
 62
     7
370
    15
100
AcDbEllipse
 10
397.3640151228
 20
306.1388773919
 30
0.0
 11
-4.771966816661632
 21
121.0659881739134
 31
0.0
210
0.0
220
0.0
230
1.0
 40
0.0725882252
 41
5.093436649305202
 42
5.15004261421667
  0
LINE
  5
244
330
1F
100
AcDbEntity
  8
0
  6
Continuous
 62
     7
370
    15
100
AcDbLine
 10
403.3012691792
 20
357.762253291
 30
0.0
 11
409.0758278872
 21
360.1028084821
 31
0.0
  0
LINE
  5
245
330
1F
100
AcDbEntity
  8
0
  6
Continuous
 62
     7
370
    15
100
AcDbLine
 10
395.7640150468
 20
266.8990016049
 30
0.0
 11
395.7640150468
 21
256.0707897014
 31
0.0
  0
LINE
  5
246
330
1F
100
AcDbEntity
  8
0
  6
Continuous
 62
     7
370
    15
100
AcDbLine
 10
398.9640151988
 20
266.8990016049
 30
0.0
 11
398.9640151988
 21
256.0707897014
 31
0.0
  0
LINE
  5
247
330
1F
100
AcDbEntity
  8
0
  6
Continuous
 62
     7
370
    15
100
AcDbLine
 10
414.964317521
 20
277.9833912915
 30
0.0
 11
414.9643890466
 21
277.7625680036
 31
0.0
  0
SPLINE
  5
248
330
1F
100
AcDbEntity
  8
0
  6
Continuous
 62
     7
370
    15
100
AcDbSpline
210
0.0
220
0.0
230
1.0
 70
     8
 71
     3
 72
     8
 73
     4
 74
     0
 42
0.00000001
 43
0.00000001
 12
1.0
 22
0.0
 32
0.0
 13
1.0
 23
0.0
 33
0.0
 40
0.0
 40
0.0
 40
0.0
 40
0.0
 40
0.0005395854461526
 40
0.0005395854461526
 40
0.0005395854461526
 40
0.0005395854461526
 10
414.9642449216466
 20
278.1991058824373
 30
0.0
 10
414.9642709376276
 20
278.127214397421
 30
0.0
 10
414.9642955249386
 20
278.0553073655686
 30
0.0
 10
414.9643174396388
 20
277.9833913506877
 30
0.0
  0
LINE
  5
249
330
1F
100
AcDbEntity
  8
0
  6
Continuous
 62
     7
370
    15
100
AcDbLine
 10
414.9648986663
 20
278.6129236287
 30
0.0
 11
414.9642445053
 21
278.1991064614
 31
0.0
  0
LINE
  5
24A
330
1F
100
AcDbEntity
  8
0
  6
Continuous
 62
     7
370
    15
100
AcDbLine
 10
414.9640150275
 20
282.5028002328
 30
0.0
 11
418.9201302733
 21
282.5028002328
 31
0.0
  0
LINE
  5
24B
330
1F
100
AcDbEntity
  8
0
  6
Continuous
 62
     7
370
    15
100
AcDbLine
 10
418.9201302733
 20
282.5028002328
 30
0.0
 11
418.9201302733
 21
270.5028057164
 31
0.0
  0
LINE
  5
24C
330
1F
100
AcDbEntity
  8
0
  6
Continuous
 62
     7
370
    15
100
AcDbLine
 10
379.7640152182
 20
282.5028002328
 30
0.0
 11
375.8078999724
 21
282.5028002328
 31
0.0
  0
LINE
  5
24D
330
1F
100
AcDbEntity
  8
0
  6
Continuous
 62
     7
370
    15
100
AcDbLine
 10
379.7631315793
 20
278.6129236287
 30
0.0
 11
379.7637857403
 21
278.1991064614
 31
0.0
  0
SPLINE
  5
24E
330
1F
100
AcDbEntity
  8
0
  6
Continuous
 62
     7
370
    15
100
AcDbSpline
210
0.0
220
0.0
230
1.0
 70
     8
 71
     3
 72
     8
 73
     4
 74
     0
 42
0.00000001
 43
0.00000001
 12
1.0
 22
0.0
 32
0.0
 13
1.0
 23
0.0
 33
0.0
 40
0.0
 40
0.0
 40
0.0
 40
0.0
 40
0.0005395854461526
 40
0.0005395854461526
 40
0.0005395854461526
 40
0.0005395854461526
 10
379.7637853240022
 20
278.1991058824373
 30
0.0
 10
379.7637593080212
 20
278.127214397421
 30
0.0
 10
379.7637347207103
 20
278.0553073655686
 30
0.0
 10
379.7637128060101
 20
277.9833913506877
 30
0.0
  0
LINE
  5
24F
330
1F
100
AcDbEntity
  8
0
  6
Continuous
 62
     7
370
    15
100
AcDbLine
 10
379.7637127246
 20
277.9833912915
 30
0.0
 11
379.763641199
 21
277.7625680036
 31
0.0
  0
LINE
  5
250
330
1F
100
AcDbEntity
  8
0
  6
Continuous
 62
     7
370
    15
100
AcDbLine
 10
375.8078999724
 20
282.5028002328
 30
0.0
 11
375.8078999724
 21
270.5028057164
 31
0.0
  0
LINE
  5
251
330
1F
100
AcDbEntity
  8
0
  6
Continuous
 62
     7
370
    15
100
AcDbLine
 10
420.6361152138
 20
282.5028002328
 30
0.0
 11
418.9201302733
 21
282.5028002328
 31
0.0
  0
LINE
  5
252
330
1F
100
AcDbEntity
  8
0
  6
Continuous
 62
     7
370
    15
100
AcDbLine
 10
374.0919150318
 20
282.5028002328
 30
0.0
 11
375.8078999724
 21
282.5028002328
 31
0.0
  0
LINE
  5
253
330
1F
100
AcDbEntity
  8
0
  6
Continuous
 62
     7
370
    15
100
AcDbLine
 10
424.9848820175
 20
282.5028002328
 30
0.0
 11
420.6361152138
 21
282.5028002328
 31
0.0
  0
LINE
  5
254
330
1F
100
AcDbEntity
  8
0
  6
Continuous
 62
     7
370
    15
100
AcDbLine
 10
369.7431482281
 20
282.5028002328
 30
0.0
 11
374.0919150318
 21
282.5028002328
 31
0.0
  0
LINE
  5
255
330
1F
100
AcDbEntity
  8
0
  6
Continuous
 62
     7
370
    15
100
AcDbLine
 10
421.0393212642
 20
267.3028051919
 30
0.0
 11
424.5691932644
 21
267.3028051919
 31
0.0
  0
LINE
  5
256
330
1F
100
AcDbEntity
  8
0
  6
Continuous
 62
     7
370
    15
100
AcDbLine
 10
421.1057893838
 20
270.5028057164
 30
0.0
 11
424.8365200962
 21
270.5028057164
 31
0.0
  0
LINE
  5
257
330
1F
100
AcDbEntity
  8
0
  6
Continuous
 62
     7
370
    15
100
AcDbLine
 10
373.6887089814
 20
267.3028051919
 30
0.0
 11
370.1588369812
 21
267.3028051919
 31
0.0
  0
LINE
  5
258
330
1F
100
AcDbEntity
  8
0
  6
Continuous
 62
     7
370
    15
100
AcDbLine
 10
373.6222408618
 20
270.5028057164
 30
0.0
 11
369.8915101494
 21
270.5028057164
 31
0.0
  0
ELLIPSE
  5
259
330
1F
100
AcDbEntity
  8
0
  6
Continuous
 62
     7
370
    15
100
AcDbEllipse
 10
397.3640151228
 20
348.1926166845
 30
0.0
 11
9.987458166192937
 21
-3.123971516700294
 31
0.0
210
0.0
220
0.0
230
1.0
 40
0.1602700008
 41
2.313171830542822
 42
2.475841372967643
  0
LINE
  5
25A
330
1F
100
AcDbEntity
  8
0
  6
Continuous
 62
     7
370
    15
100
AcDbLine
 10
389.8185931053
 20
351.6381383008
 30
0.0
 11
368.9347632136
 21
360.1028084821
 31
0.0
  0
LINE
  5
25B
330
1F
100
AcDbEntity
  8
0
  6
Continuous
 62
     7
370
    15
100
AcDbLine
 10
404.9094371404
 20
351.6381383008
 30
0.0
 11
425.7932670321
 21
360.1028084821
 31
0.0
  0
ELLIPSE
  5
25C
330
1F
100
AcDbEntity
  8
0
  6
Continuous
 62
     7
370
    15
100
AcDbEllipse
 10
397.3640151228
 20
348.1926166845
 30
0.0
 11
9.987458166192937
 21
3.123971516700408
 31
0.0
210
0.0
220
0.0
230
1.0
 40
0.1602700008
 41
0.6657512806220897
 42
0.8284208230469319
  0
SPLINE
  5
25D
330
1F
100
AcDbEntity
  8
0
  6
Continuous
 62
     7
370
    15
100
AcDbSpline
210
0.0
220
0.0
230
1.0
 70
     8
 71
     3
 72
    20
 73
    16
 74
     0
 42
0.00000001
 43
0.00000001
 12
1.0
 22
0.0
 32
0.0
 13
1.0
 23
0.0
 33
0.0
 40
0.0
 40
0.0
 40
0.0
 40
0.0
 40
0.125
 40
0.125
 40
0.25
 40
0.25
 40
0.5000000000000018
 40
0.5000000000000018
 40
0.6250000000000013
 40
0.6250000000000013
 40
0.7500000000000009
 40
0.7500000000000009
 40
0.8750000000000004
 40
0.8750000000000004
 40
1.0
 40
1.0
 40
1.0
 40
1.0
 10
423.6781458062986
 20
267.0527619642775
 30
0.0
 10
423.6452034546213
 20
267.0582114950973
 30
0.0
 10
423.5995999888398
 20
267.063228292174
 30
0.0
 10
423.483483129237
 20
267.0724451042399
 30
0.0
 10
423.4125574629429
 20
267.0766633224835
 30
0.0
 10
423.1632540038584
 20
267.0879569940555
 30
0.0
 10
422.9544377338885
 20
267.0935056567723
 30
0.0
 10
422.5774134368697
 20
267.0989978376543
 30
0.0
 10
422.442314591297
 20
267.100319585343
 30
0.0
 10
422.1589197409697
 20
267.101935356011
 30
0.0
 10
422.0098824153063
 20
267.1022406037196
 30
0.0
 10
421.6969123529757
 20
267.101833600681
 30
0.0
 10
421.5322670944577
 20
267.1011081065125
 30
0.0
 10
421.1986826665525
 20
267.0986672783428
 30
0.0
 10
421.0285106783557
 20
267.0969544501047
 30
0.0
 10
420.8549693381285
 20
267.0947437109659
 30
0.0
  0
SPLINE
  5
25E
330
1F
100
AcDbEntity
  8
0
  6
Continuous
 62
     7
370
    15
100
AcDbSpline
210
0.0
220
0.0
230
1.0
 70
     8
 71
     3
 72
    20
 73
    16
 74
     0
 42
0.00000001
 43
0.00000001
 12
1.0
 22
0.0
 32
0.0
 13
1.0
 23
0.0
 33
0.0
 40
0.0
 40
0.0
 40
0.0
 40
0.0
 40
0.125
 40
0.125
 40
0.25
 40
0.25
 40
0.5000000000000018
 40
0.5000000000000018
 40
0.6250000000000013
 40
0.6250000000000013
 40
0.7500000000000009
 40
0.7500000000000009
 40
0.8750000000000004
 40
0.8750000000000004
 40
1.0
 40
1.0
 40
1.0
 40
1.0
 10
371.0498844393503
 20
267.0527619642775
 30
0.0
 10
371.0828267910276
 20
267.0582114950973
 30
0.0
 10
371.1284302568091
 20
267.063228292174
 30
0.0
 10
371.2445471164119
 20
267.0724451042399
 30
0.0
 10
371.315472782706
 20
267.0766633224835
 30
0.0
 10
371.5647762417905
 20
267.0879569940555
 30
0.0
 10
371.7735925117603
 20
267.0935056567723
 30
0.0
 10
372.1506168087792
 20
267.0989978376543
 30
0.0
 10
372.2857156543519
 20
267.100319585343
 30
0.0
 10
372.5691105046791
 20
267.101935356011
 30
0.0
 10
372.7181478303426
 20
267.1022406037196
 30
0.0
 10
373.0311178926731
 20
267.101833600681
 30
0.0
 10
373.1957631511912
 20
267.1011081065125
 30
0.0
 10
373.5293475790963
 20
267.0986672783428
 30
0.0
 10
373.6995195672931
 20
267.0969544501047
 30
0.0
 10
373.8730609075204
 20
267.0947437109659
 30
0.0
  0
LINE
  5
25F
330
1F
100
AcDbEntity
  8
0
  6
Continuous
 62
     7
370
    15
100
AcDbLine
 10
398.9640151988
 20
258.5028022593
 30
0.0
 11
420.1640151347
 21
258.5028022593
 31
0.0
  0
LINE
  5
260
330
1F
100
AcDbEntity
  8
0
  6
Continuous
 62
     7
370
    15
100
AcDbLine
 10
395.7640150468
 20
258.5028022593
 30
0.0
 11
374.5640151109
 21
258.5028022593
 31
0.0
  0
SPLINE
  5
261
330
1F
100
AcDbEntity
  8
0
  6
Continuous
 62
     7
370
    15
100
AcDbSpline
210
0.0
220
0.0
230
1.0
 70
     8
 71
     3
 72
     9
 73
     5
 74
     0
 42
0.00000001
 43
0.00000001
 12
1.0
 22
0.0
 32
0.0
 13
1.0
 23
0.0
 33
0.0
 40
0.0
 40
0.0
 40
0.0
 40
0.0
 40
0.7582377151931644
 40
1.0
 40
1.0
 40
1.0
 40
1.0
 10
423.6898429598148
 20
267.0039951867063
 30
0.0
 10
423.707235269843
 20
267.0212966246001
 30
0.0
 10
423.7301730763905
 20
267.0441145846503
 30
0.0
 10
423.688274937955
 20
267.051079784445
 30
0.0
 10
423.6781455482777
 20
267.0527637070615
 30
0.0
  0
LINE
  5
262
330
1F
100
AcDbEntity
  8
0
  6
Continuous
 62
     7
370
    15
100
AcDbLine
 10
420.1640151347
 20
258.5028022593
 30
0.0
 11
422.9941137041
 21
258.5028022593
 31
0.0
  0
LINE
  5
263
330
1F
100
AcDbEntity
  8
0
  6
Continuous
 62
     7
370
    15
100
AcDbLine
 10
374.5640151109
 20
258.5028022593
 30
0.0
 11
371.7339165415
 21
258.5028022593
 31
0.0
  0
SPLINE
  5
264
330
1F
100
AcDbEntity
  8
0
  6
Continuous
 62
     7
370
    15
100
AcDbSpline
210
0.0
220
0.0
230
1.0
 70
     8
 71
     3
 72
     9
 73
     5
 74
     0
 42
0.00000001
 43
0.00000001
 12
1.0
 22
0.0
 32
0.0
 13
1.0
 23
0.0
 33
0.0
 40
0.0
 40
0.0
 40
0.0
 40
0.0
 40
0.7582377151931644
 40
1.0
 40
1.0
 40
1.0
 40
1.0
 10
371.0381872858341
 20
267.0039951867063
 30
0.0
 10
371.0207949758059
 20
267.0212966246001
 30
0.0
 10
370.9978571692583
 20
267.0441145846503
 30
0.0
 10
371.0397553076939
 20
267.051079784445
 30
0.0
 10
371.0498846973712
 20
267.0527637070615
 30
0.0
  0
LINE
  5
265
330
1F
100
AcDbEntity
  8
0
  6
Continuous
 62
     7
370
    15
100
AcDbLine
 10
406.8200312461
 20
351.6381383008
 30
0.0
 11
427.7038611378
 21
360.1028084821
 31
0.0
  0
ELLIPSE
  5
266
330
1F
100
AcDbEntity
  8
0
  6
Continuous
 62
     7
370
    15
100
AcDbEllipse
 10
397.3640151228
 20
386.790704948
 30
0.0
 11
-4.857887256435959
 21
202.0517636625874
 31
0.0
210
0.0
220
0.0
230
1.0
 40
0.0432600165
 41
4.536481122254715
 42
4.540346112315113
  0
ELLIPSE
  5
267
330
1F
100
AcDbEntity
  8
0
  6
Continuous
 62
     7
370
    15
100
AcDbEllipse
 10
397.3640151228
 20
386.790704948
 30
0.0
 11
4.857887256436186
 21
202.0517636625872
 31
0.0
210
0.0
220
0.0
230
1.0
 40
0.0432600165
 41
1.742839194864484
 42
1.746704184924883
  0
LINE
  5
268
330
1F
100
AcDbEntity
  8
0
  6
Continuous
 62
     7
370
    15
100
AcDbLine
 10
387.9079989995
 20
351.6381383008
 30
0.0
 11
367.0241691078
 21
360.1028084821
 31
0.0
  0
LINE
  5
269
330
1F
100
AcDbEntity
  8
0
  6
Continuous
 62
     7
370
    15
100
AcDbLine
 10
424.9848820175
 20
270.5028057164
 30
0.0
 11
425.3258086647
 21
270.5028057164
 31
0.0
  0
LINE
  5
26A
330
1F
100
AcDbEntity
  8
0
  6
Continuous
 62
     7
370
    15
100
AcDbLine
 10
425.3258086647
 20
270.5028057164
 30
0.0
 11
427.3640163149
 21
270.5028057164
 31
0.0
  0
LINE
  5
26B
330
1F
100
AcDbEntity
  8
0
  6
Continuous
 62
     7
370
    15
100
AcDbLine
 10
424.5691932644
 20
267.3028051919
 30
0.0
 11
427.0840503182
 21
267.3028051919
 31
0.0
  0
LINE
  5
26C
330
1F
100
AcDbEntity
  8
0
  6
Continuous
 62
     7
370
    15
100
AcDbLine
 10
424.8365200962
 20
270.5028057164
 30
0.0
 11
424.9848820175
 21
270.5028057164
 31
0.0
  0
LINE
  5
26D
330
1F
100
AcDbEntity
  8
0
  6
Continuous
 62
     7
370
    15
100
AcDbLine
 10
369.4022215809
 20
270.5028057164
 30
0.0
 11
367.3640139307
 21
270.5028057164
 31
0.0
  0
LINE
  5
26E
330
1F
100
AcDbEntity
  8
0
  6
Continuous
 62
     7
370
    15
100
AcDbLine
 10
369.7431482281
 20
270.5028057164
 30
0.0
 11
369.4022215809
 21
270.5028057164
 31
0.0
  0
LINE
  5
26F
330
1F
100
AcDbEntity
  8
0
  6
Continuous
 62
     7
370
    15
100
AcDbLine
 10
370.1588369812
 20
267.3028051919
 30
0.0
 11
367.6439799275
 21
267.3028051919
 31
0.0
  0
LINE
  5
270
330
1F
100
AcDbEntity
  8
0
  6
Continuous
 62
     7
370
    15
100
AcDbLine
 10
369.8915101494
 20
270.5028057164
 30
0.0
 11
369.7431482281
 21
270.5028057164
 31
0.0
  0
LINE
  5
271
330
1F
100
AcDbEntity
  8
0
  6
Continuous
 62
     7
370
    15
100
AcDbLine
 10
425.3258086647
 20
270.5028057164
 30
0.0
 11
425.3258086647
 21
282.5028002328
 31
0.0
  0
LINE
  5
272
330
1F
100
AcDbEntity
  8
0
  6
Continuous
 62
     7
370
    15
100
AcDbLine
 10
425.3258086647
 20
282.5028002328
 30
0.0
 11
424.9848820175
 21
282.5028002328
 31
0.0
  0
LINE
  5
273
330
1F
100
AcDbEntity
  8
0
  6
Continuous
 62
     7
370
    15
100
AcDbLine
 10
369.4022215809
 20
270.5028057164
 30
0.0
 11
369.4022215809
 21
282.5028002328
 31
0.0
  0
LINE
  5
274
330
1F
100
AcDbEntity
  8
0
  6
Continuous
 62
     7
370
    15
100
AcDbLine
 10
369.4022215809
 20
282.5028002328
 30
0.0
 11
369.7431482281
 21
282.5028002328
 31
0.0
  0
LINE
  5
275
330
1F
100
AcDbEntity
  8
0
  6
Continuous
 62
     7
370
    15
100
AcDbLine
 10
382.5640149321
 20
296.1028039521
 30
0.0
 11
412.1640153136
 21
296.1028039521
 31
0.0
  0
ELLIPSE
  5
276
330
1F
100
AcDbEntity
  8
0
  6
Continuous
 62
     7
370
    15
100
AcDbEllipse
 10
397.3640151228
 20
348.1926166845
 30
0.0
 11
9.987458166192937
 21
-3.123971516700294
 31
0.0
210
0.0
220
0.0
230
1.0
 40
0.1602700008
 41
2.860324050430028
 42
3.022993592854847
  0
LINE
  5
277
330
1F
100
AcDbEntity
  8
0
  6
Continuous
 62
     7
370
    15
100
AcDbLine
 10
387.5059559848
 20
351.4840364522
 30
0.0
 11
366.241932651
 21
360.1028084821
 31
0.0
  0
LINE
  5
278
330
1F
100
AcDbEntity
  8
0
  6
Continuous
 62
     7
370
    15
100
AcDbLine
 10
407.2220742609
 20
351.4840364522
 30
0.0
 11
428.4860975947
 21
360.1028084821
 31
0.0
  0
ELLIPSE
  5
279
330
1F
100
AcDbEntity
  8
0
  6
Continuous
 62
     7
370
    15
100
AcDbEllipse
 10
397.3640151228
 20
348.1926166845
 30
0.0
 11
9.987458166192937
 21
3.123971516700408
 31
0.0
210
0.0
220
0.0
230
1.0
 40
0.1602700008
 41
0.1185990607348642
 42
0.2812686031596887
  0
LINE
  5
27A
330
1F
100
AcDbEntity
  8
0
  6
Continuous
 62
     7
370
    15
100
AcDbLine
 10
425.3141887392
 20
274.5028019017
 30
0.0
 11
427.3291088547
 21
274.5028019017
 31
0.0
  0
LINE
  5
27B
330
1F
100
AcDbEntity
  8
0
  6
Continuous
 62
     7
370
    15
100
AcDbLine
 10
369.4138415064
 20
274.5028019017
 30
0.0
 11
367.3989213909
 21
274.5028019017
 31
0.0
  0
SPLINE
  5
27C
330
1F
100
AcDbEntity
  8
0
  6
Continuous
 62
     7
370
    15
100
AcDbSpline
210
0.0
220
0.0
230
1.0
 70
     8
 71
     3
 72
    22
 73
    18
 74
     0
 42
0.00000001
 43
0.00000001
 12
1.0
 22
0.0
 32
0.0
 13
1.0
 23
0.0
 33
0.0
 40
0.0
 40
0.0
 40
0.0
 40
0.0
 40
0.125
 40
0.125
 40
0.25
 40
0.25
 40
0.375
 40
0.375
 40
0.5
 40
0.5
 40
0.625
 40
0.625
 40
0.75
 40
0.75
 40
0.875
 40
0.875
 40
1.0
 40
1.0
 40
1.0
 40
1.0
 10
382.9688721881603
 20
296.1028027600247
 30
0.0
 10
383.1089992089347
 20
296.1028027600247
 30
0.0
 10
383.2500671858775
 20
296.1147898286717
 30
0.0
 10
383.5292272621262
 20
296.163077616278
 30
0.0
 10
383.6649544033983
 20
296.1988286432402
 30
0.0
 10
383.9289410485023
 20
296.2928275003433
 30
0.0
 10
384.0580176853515
 20
296.3515474099171
 30
0.0
 10
384.3045367753637
 20
296.4907066459378
 30
0.0
 10
384.4202773380711
 20
296.5699876901446
 30
0.0
 10
384.6370741000251
 20
296.7474963942959
 30
0.0
 10
384.7387140417813
 20
296.8464182301972
 30
0.0
 10
384.9235489160989
 20
297.0612707573281
 30
0.0
 10
385.0059388974177
 20
297.1760044336792
 30
0.0
 10
385.1503870568489
 20
297.4202883940111
 30
0.0
 10
385.2111517422742
 20
297.5478453102828
 30
0.0
 10
385.3089831587512
 20
297.8104917677724
 30
0.0
 10
385.3463662397106
 20
297.9462388387791
 30
0.0
 10
385.3715070237608
 20
298.086047133624
 30
0.0
  0
SPLINE
  5
27D
330
1F
100
AcDbEntity
  8
0
  6
Continuous
 62
     7
370
    15
100
AcDbSpline
210
0.0
220
0.0
230
1.0
 70
     8
 71
     3
 72
    24
 73
    20
 74
     0
 42
0.00000001
 43
0.00000001
 12
1.0
 22
0.0
 32
0.0
 13
1.0
 23
0.0
 33
0.0
 40
0.0
 40
0.0
 40
0.0
 40
0.0
 40
0.1249999999999997
 40
0.1249999999999997
 40
0.2499999999999994
 40
0.2499999999999994
 40
0.3749999999999992
 40
0.3749999999999992
 40
0.4999999999999989
 40
0.4999999999999989
 40
0.6249999999999987
 40
0.6249999999999987
 40
0.6874999999999989
 40
0.6874999999999989
 40
0.7499999999999992
 40
0.7499999999999992
 40
0.8749999999999996
 40
0.8749999999999996
 40
1.0
 40
1.0
 40
1.0
 40
1.0
 10
402.4831256210739
 20
296.1028027600247
 30
0.0
 10
402.4129275822199
 20
296.1028027600247
 30
0.0
 10
402.343053992621
 20
296.1146992239176
 30
0.0
 10
402.2039652663742
 20
296.1626354087189
 30
0.0
 10
402.1349171444231
 20
296.1989139839177
 30
0.0
 10
402.0027295686136
 20
296.293119015815
 30
0.0
 10
401.9389037170201
 20
296.3512237891344
 30
0.0
 10
401.8158946585672
 20
296.4899558254889
 30
0.0
 10
401.7570309577568
 20
296.5705458818609
 30
0.0
 10
401.6485404910849
 20
296.7483738137332
 30
0.0
 10
401.5983064504996
 20
296.8462408806892
 30
0.0
 10
401.5291630570227
 20
297.0068971786163
 30
0.0
 10
401.5070945420943
 20
297.0629869124026
 30
0.0
 10
401.4659174419479
 20
297.1777281594531
 30
0.0
 10
401.4467036337976
 20
297.2365918501312
 30
0.0
 10
401.3931184070917
 20
297.4175882403695
 30
0.0
 10
401.3627713353738
 20
297.544091665791
 30
0.0
 10
401.3132248768825
 20
297.8092056924932
 30
0.0
 10
401.294339673099
 20
297.9466717327068
 30
0.0
 10
401.2818082032736
 20
298.086047133624
 30
0.0
  0
LINE
  5
27E
330
1F
100
AcDbEntity
  8
0
  6
Continuous
 62
     7
370
    15
100
AcDbLine
 10
404.942475995
 20
316.5027976102
 30
0.0
 11
400.785554191
 21
316.5027976102
 31
0.0
  0
LINE
  5
27F
330
1F
100
AcDbEntity
  8
0
  6
Continuous
 62
     7
370
    15
100
AcDbLine
 10
404.942475995
 20
316.5027976102
 30
0.0
 11
406.7410111334
 21
296.1028039521
 31
0.0
  0
LINE
  5
280
330
1F
100
AcDbEntity
  8
0
  6
Continuous
 62
     7
370
    15
100
AcDbLine
 10
400.785554191
 20
316.5027976102
 30
0.0
 11
402.5840893294
 21
296.1028039521
 31
0.0
  0
SPLINE
  5
281
330
1F
100
AcDbEntity
  8
0
  6
Continuous
 62
     7
370
    15
100
AcDbSpline
210
0.0
220
0.0
230
1.0
 70
     8
 71
     3
 72
    20
 73
    16
 74
     0
 42
0.00000001
 43
0.00000001
 12
1.0
 22
0.0
 32
0.0
 13
1.0
 23
0.0
 33
0.0
 40
0.0
 40
0.0
 40
0.0
 40
0.0
 40
0.125000000000001
 40
0.125000000000001
 40
0.2500000000000021
 40
0.2500000000000021
 40
0.3750000000000031
 40
0.3750000000000031
 40
0.5000000000000041
 40
0.5000000000000041
 40
0.7499999999999942
 40
0.7499999999999942
 40
0.8749999999999972
 40
0.8749999999999972
 40
1.0
 40
1.0
 40
1.0
 40
1.0
 10
399.9647529908597
 20
314.1028027600247
 30
0.0
 10
400.0032515194409
 20
314.1028027600247
 30
0.0
 10
400.042244215855
 20
314.0957012980292
 30
0.0
 10
400.1177772955737
 20
314.0679267884063
 30
0.0
 10
400.1546993261515
 20
314.0473259877294
 30
0.0
 10
400.2268091945871
 20
313.9923381763031
 30
0.0
 10
400.2618567154444
 20
313.9578583110582
 30
0.0
 10
400.3272258325188
 20
313.877661860935
 30
0.0
 10
400.3579412490664
 20
313.8316854277277
 30
0.0
 10
400.4439021707094
 20
313.6752919210415
 30
0.0
 10
400.4904232429724
 20
313.5511086963911
 30
0.0
 10
400.5408049956974
 20
313.3410412343135
 30
0.0
 10
400.5539265220931
 20
313.268844218223
 30
0.0
 10
400.5730263996649
 20
313.1202205059805
 30
0.0
 10
400.5790075288241
 20
313.0431726557735
 30
0.0
 10
400.5810916120321
 20
312.9656059075162
 30
0.0
  0
LINE
  5
282
330
1F
100
AcDbEntity
  8
0
  6
Continuous
 62
     7
370
    15
100
AcDbLine
 10
399.622603869
 20
316.5027976102
 30
0.0
 11
399.622603869
 21
314.1028046674
 31
0.0
  0
LINE
  5
283
330
1F
100
AcDbEntity
  8
0
  6
Continuous
 62
     7
370
    15
100
AcDbLine
 10
399.622603869
 20
316.5027976102
 30
0.0
 11
400.785554191
 21
316.5027976102
 31
0.0
  0
SPLINE
  5
284
330
1F
100
AcDbEntity
  8
0
  6
Continuous
 62
     7
370
    15
100
AcDbSpline
210
0.0
220
0.0
230
1.0
 70
     8
 71
     3
 72
     8
 73
     4
 74
     0
 42
0.00000001
 43
0.00000001
 12
1.0
 22
0.0
 32
0.0
 13
1.0
 23
0.0
 33
0.0
 40
0.0000002032275395
 40
0.0000002032275395
 40
0.0000002032275395
 40
0.0000002032275395
 40
0.0121130065651998
 40
0.0121130065651998
 40
0.0121130065651998
 40
0.0121130065651998
 10
400.852436705852
 20
302.8544599953949
 30
0.0
 10
400.9957815999164
 20
301.265068726878
 30
0.0
 10
401.13888963266
 20
299.6755919639921
 30
0.0
 10
401.2818082032736
 20
298.086047133624
 30
0.0
  0
LINE
  5
285
330
1F
100
AcDbEntity
  8
0
  6
Continuous
 62
     7
370
    15
100
AcDbLine
 10
400.581091633
 20
312.9656076497
 30
0.0
 11
400.8524365629
 21
302.8544604844
 31
0.0
  0
SPLINE
  5
286
330
1F
100
AcDbEntity
  8
0
  6
Continuous
 62
     7
370
    15
100
AcDbSpline
210
0.0
220
0.0
230
1.0
 70
     8
 71
     3
 72
     8
 73
     4
 74
     0
 42
0.00000001
 43
0.00000001
 12
1.0
 22
0.0
 32
0.0
 13
1.0
 23
0.0
 33
0.0
 40
0.0
 40
0.0
 40
0.0
 40
0.0
 40
1.0
 40
1.0
 40
1.0
 40
1.0
 10
386.230250018604
 20
302.8544599953949
 30
0.0
 10
385.9435602201664
 20
301.2650686697263
 30
0.0
 10
385.6573441308333
 20
299.6755917740562
 30
0.0
 10
385.3715070237608
 20
298.086047133624
 30
0.0
  0
LINE
  5
287
330
1F
100
AcDbEntity
  8
0
  6
Continuous
 62
     7
370
    15
100
AcDbLine
 10
386.2302496936
 20
302.8544604844
 30
0.0
 11
400.8524365629
 21
302.8544604844
 31
0.0
  0
LWPOLYLINE
  5
288
330
1F
100
AcDbEntity
  8
0
  6
Continuous
 62
     7
370
    15
100
AcDbPolyline
 90
        3
 70
   128
 43
0.0
 10
386.7729402985
 20
312.9656076497
 10
386.3729521539
 20
305.5154740876
 10
386.2302496936
 20
302.8544604844
  0
SPLINE
  5
289
330
1F
100
AcDbEntity
  8
0
  6
Continuous
 62
     7
370
    15
100
AcDbSpline
210
0.0
220
0.0
230
1.0
 70
     8
 71
     3
 72
    20
 73
    16
 74
     0
 42
0.00000001
 43
0.00000001
 12
1.0
 22
0.0
 32
0.0
 13
1.0
 23
0.0
 33
0.0
 40
0.0
 40
0.0
 40
0.0
 40
0.0
 40
0.2499999999999984
 40
0.2499999999999984
 40
0.3749999999999986
 40
0.3749999999999986
 40
0.4999999999999989
 40
0.4999999999999989
 40
0.6249999999999991
 40
0.6249999999999991
 40
0.7499999999999993
 40
0.7499999999999993
 40
0.8749999999999997
 40
0.8749999999999997
 40
1.0
 40
1.0
 40
1.0
 40
1.0
 10
388.0056174485889
 20
314.1028027600247
 30
0.0
 10
387.8521831577685
 20
314.1028027600246
 30
0.0
 10
387.6968186138846
 20
314.0744529670951
 30
0.0
 10
387.4817937861116
 20
313.992438020497
 30
0.0
 10
387.4117924515344
 20
313.9581077868579
 30
0.0
 10
387.2799433336369
 20
313.8772001179368
 30
0.0
 10
387.2185929360456
 20
313.8311124815148
 30
0.0
 10
387.1049874062095
 20
313.7277349532753
 30
0.0
 10
387.0522608091247
 20
313.6697062690667
 30
0.0
 10
386.9601330944673
 20
313.5461131071858
 30
0.0
 10
386.9204061449057
 20
313.4805014908283
 30
0.0
 10
386.8537665108522
 20
313.3415636318508
 30
0.0
 10
386.8269307400239
 20
313.2678318677405
 30
0.0
 10
386.7888210834337
 20
313.1189356752715
 30
0.0
 10
386.7771004254634
 20
313.0430247638409
 30
0.0
 10
386.7729402062439
 20
312.9656059075162
 30
0.0
  0
LINE
  5
28A
330
1F
100
AcDbEntity
  8
0
  6
Continuous
 62
     7
370
    15
100
AcDbLine
 10
388.0056172516
 20
314.1028046674
 30
0.0
 11
399.9647529702
 21
314.1028046674
 31
0.0
  0
LINE
  5
28B
330
1F
100
AcDbEntity
  8
0
  6
Continuous
 62
     7
370
    15
100
AcDbLine
 10
387.3640149738
 20
349.7027993268
 30
0.0
 11
407.3640152718
 21
349.7027993268
 31
0.0
  0
LINE
  5
28C
330
1F
100
AcDbEntity
  8
0
  6
Continuous
 62
     7
370
    15
100
AcDbLine
 10
387.3640149738
 20
359.702801711
 30
0.0
 11
407.3640152718
 21
359.702801711
 31
0.0
  0
LINE
  5
28D
330
1F
100
AcDbEntity
  8
0
  6
Continuous
 62
     7
370
    15
100
AcDbLine
 10
406.1457618977
 20
302.8544604844
 30
0.0
 11
408.7535157706
 21
302.8544604844
 31
0.0
  0
LINE
  5
28E
330
1F
100
AcDbEntity
  8
0
  6
Continuous
 62
     7
370
    15
100
AcDbLine
 10
388.6899158265
 20
316.5027976102
 30
0.0
 11
388.6899158265
 21
314.1028046674
 31
0.0
  0
LINE
  5
28F
330
1F
100
AcDbEntity
  8
0
  6
Continuous
 62
     7
370
    15
100
AcDbLine
 10
388.7449674215
 20
316.5027976102
 30
0.0
 11
399.622603869
 21
316.5027976102
 31
0.0
  0
LINE
  5
290
330
1F
100
AcDbEntity
  8
0
  6
Continuous
 62
     7
370
    15
100
AcDbLine
 10
405.1540687587
 20
314.1028046674
 30
0.0
 11
407.0252574887
 21
314.1028046674
 31
0.0
  0
LINE
  5
291
330
1F
100
AcDbEntity
  8
0
  6
Continuous
 62
     7
370
    15
100
AcDbLine
 10
384.7640149202
 20
335.7028007573
 30
0.0
 11
384.7640149202
 21
332.5028061933
 31
0.0
  0
LINE
  5
292
330
1F
100
AcDbEntity
  8
0
  6
Continuous
 62
     7
370
    15
100
AcDbLine
 10
384.7640149202
 20
335.7028007573
 30
0.0
 11
404.3640151526
 21
335.7028007573
 31
0.0
  0
LINE
  5
293
330
1F
100
AcDbEntity
  8
0
  6
Continuous
 62
     7
370
    15
100
AcDbLine
 10
404.3640151526
 20
335.7028007573
 30
0.0
 11
404.3640151526
 21
332.5028061933
 31
0.0
  0
LINE
  5
294
330
1F
100
AcDbEntity
  8
0
  6
Continuous
 62
     7
370
    15
100
AcDbLine
 10
384.7640149202
 20
332.5028061933
 30
0.0
 11
404.3640151526
 21
332.5028061933
 31
0.0
  0
LINE
  5
295
330
1F
100
AcDbEntity
  8
0
  6
Continuous
 62
     7
370
    15
100
AcDbLine
 10
404.942475995
 20
316.5027976102
 30
0.0
 11
406.3640154805
 21
316.5027976102
 31
0.0
  0
LWPOLYLINE
  5
296
330
1F
100
AcDbEntity
  8
0
  6
Continuous
 62
     7
370
    15
100
AcDbPolyline
 90
        6
 70
   128
 43
0.0
 10
393.3702263887
 20
344.102799899
 10
392.9811675008
 20
343.7137484616
 10
392.6821559574
 20
343.4147358006
 10
392.4793355073
 20
343.2119131154
 10
392.3768725153
 20
343.109452731
 10
392.3640150483
 20
343.0965900487
  0
LWPOLYLINE
  5
297
330
1F
100
AcDbEntity
  8
0
  6
Continuous
 62
     7
370
    15
100
AcDbPolyline
 90
        4
 70
   128
 43
0.0
 10
393.6147276218
 20
349.7027993268
 10
393.5306589957
 20
347.7773070401
 10
393.4491403307
 20
345.9102273053
 10
393.3702263887
 20
344.102799899
  0
ELLIPSE
  5
298
330
1F
100
AcDbEntity
  8
0
  6
Continuous
 62
     7
370
    15
100
AcDbEllipse
 10
397.3640151228
 20
435.5756056247
 30
0.0
 11
0.0
 21
114.5188277421555
 31
0.0
210
0.0
220
0.0
230
1.0
 40
0.0436609429
 41
2.418643005412951
 42
2.496024000999281
  0
ARC
  5
299
330
1F
100
AcDbEntity
  8
0
  6
Continuous
 62
     7
370
    15
100
AcDbCircle
 10
397.3640151228
 20
348.0965915836
 30
0.0
 40
5.000000000000004
100
AcDbArc
 50
233.0116408206
 51
306.9883591794
  0
ELLIPSE
  5
29A
330
1F
100
AcDbEntity
  8
0
  6
Continuous
 62
     7
370
    15
100
AcDbEllipse
 10
397.3640151228
 20
435.5756056247
 30
0.0
 11
0.0
 21
114.5188277421555
 31
0.0
210
0.0
220
0.0
230
1.0
 40
0.0436609429
 41
3.78716130618051
 42
3.864542301766832
  0
LWPOLYLINE
  5
29B
330
1F
100
AcDbEntity
  8
0
  6
Continuous
 62
     7
370
    15
100
AcDbPolyline
 90
        4
 70
   128
 43
0.0
 10
401.3578038569
 20
344.102799899
 10
401.2788899149
 20
345.9102273053
 10
401.19737125
 20
347.7773070401
 10
401.1133026238
 20
349.7027993268
  0
LWPOLYLINE
  5
29C
330
1F
100
AcDbEntity
  8
0
  6
Continuous
 62
     7
370
    15
100
AcDbPolyline
 90
        6
 70
   128
 43
0.0
 10
402.3640151973
 20
343.0965900487
 10
402.3511577304
 20
343.109452731
 10
402.2486947383
 20
343.2119131154
 10
402.0458742883
 20
343.4147358006
 10
401.7468627449
 20
343.7137484616
 10
401.3578038569
 20
344.102799899
  0
LINE
  5
29D
330
1F
100
AcDbEntity
  8
0
  6
Continuous
 62
     7
370
    15
100
AcDbLine
 10
400.3722788672
 20
344.102799899
 30
0.0
 11
394.3557513784
 21
344.102799899
 31
0.0
  0
LINE
  5
29E
330
1F
100
AcDbEntity
  8
0
  6
Continuous
 62
     7
370
    15
100
AcDbLine
 10
390.2640148904
 20
316.7428016728
 30
0.0
 11
391.5640152897
 21
316.7428016728
 31
0.0
  0
LINE
  5
29F
330
1F
100
AcDbEntity
  8
0
  6
Continuous
 62
     7
370
    15
100
AcDbLine
 10
388.9640152361
 20
316.7428016728
 30
0.0
 11
390.2640148904
 21
316.7428016728
 31
0.0
  0
LINE
  5
2A0
330
1F
100
AcDbEntity
  8
0
  6
Continuous
 62
     7
370
    15
100
AcDbLine
 10
388.9640152361
 20
316.7428016728
 30
0.0
 11
388.9640152361
 21
318.9905762738
 31
0.0
  0
SPLINE
  5
2A1
330
1F
100
AcDbEntity
  8
0
  6
Continuous
 62
     7
370
    15
100
AcDbSpline
210
0.0
220
0.0
230
1.0
 70
     8
 71
     3
 72
     9
 73
     5
 74
     0
 42
0.00000001
 43
0.00000001
 12
1.0
 22
0.0
 32
0.0
 13
1.0
 23
0.0
 33
0.0
 40
0.0
 40
0.0
 40
0.0
 40
0.0
 40
0.2686334262584646
 40
1.0
 40
1.0
 40
1.0
 40
1.0
 10
390.2640148903664
 20
319.2228078907925
 30
0.0
 10
390.1458085375461
 20
319.2193601712459
 30
0.0
 10
389.7057800776981
 20
319.2065258803141
 30
0.0
 10
389.2773526996519
 20
319.0817980440658
 30
0.0
 10
388.9640152360733
 20
318.9905762738186
 30
0.0
  0
SPLINE
  5
2A2
330
1F
100
AcDbEntity
  8
0
  6
Continuous
 62
     7
370
    15
100
AcDbSpline
210
0.0
220
0.0
230
1.0
 70
     8
 71
     3
 72
     9
 73
     5
 74
     0
 42
0.00000001
 43
0.00000001
 12
1.0
 22
0.0
 32
0.0
 13
1.0
 23
0.0
 33
0.0
 40
0.0
 40
0.0
 40
0.0
 40
0.0
 40
0.2575517333003474
 40
1.0
 40
1.0
 40
1.0
 40
1.0
 10
391.5640152897175
 20
318.9905762738186
 30
0.0
 10
391.4548779791858
 20
319.0256334497291
 30
0.0
 10
391.0311288972709
 20
319.1617504754668
 30
0.0
 10
390.5908782329814
 20
319.1967916393812
 30
0.0
 10
390.2640148903664
 20
319.2228078907925
 30
0.0
  0
LINE
  5
2A3
330
1F
100
AcDbEntity
  8
0
  6
Continuous
 62
     7
370
    15
100
AcDbLine
 10
391.5640152897
 20
316.7428016728
 30
0.0
 11
391.5640152897
 21
318.9905762738
 31
0.0
  0
LINE
  5
2A4
330
1F
100
AcDbEntity
  8
0
  6
Continuous
 62
     7
370
    15
100
AcDbLine
 10
388.9640152361
 20
318.9905762738
 30
0.0
 11
387.6640148367
 21
319.2228078908
 31
0.0
  0
LINE
  5
2A5
330
1F
100
AcDbEntity
  8
0
  6
Continuous
 62
     7
370
    15
100
AcDbLine
 10
390.2640148904
 20
319.2228078908
 30
0.0
 11
387.6640148367
 21
319.2228078908
 31
0.0
  0
LINE
  5
2A6
330
1F
100
AcDbEntity
  8
0
  6
Continuous
 62
     7
370
    15
100
AcDbLine
 10
386.3640151824
 20
316.7428016728
 30
0.0
 11
387.6640148367
 21
316.7428016728
 31
0.0
  0
LINE
  5
2A7
330
1F
100
AcDbEntity
  8
0
  6
Continuous
 62
     7
370
    15
100
AcDbLine
 10
386.3640151824
 20
316.7428016728
 30
0.0
 11
386.3640151824
 21
318.9905762738
 31
0.0
  0
SPLINE
  5
2A8
330
1F
100
AcDbEntity
  8
0
  6
Continuous
 62
     7
370
    15
100
AcDbSpline
210
0.0
220
0.0
230
1.0
 70
     8
 71
     3
 72
     9
 73
     5
 74
     0
 42
0.00000001
 43
0.00000001
 12
1.0
 22
0.0
 32
0.0
 13
1.0
 23
0.0
 33
0.0
 40
0.0
 40
0.0
 40
0.0
 40
0.0
 40
0.0702145563612301
 40
1.0
 40
1.0
 40
1.0
 40
1.0
 10
387.6640148367221
 20
319.2228078907925
 30
0.0
 10
387.6331909791889
 20
319.2225760109226
 30
0.0
 10
387.1941957176562
 20
319.2192735636528
 30
0.0
 10
386.7640025384281
 20
319.1007643839986
 30
0.0
 10
386.3640151824291
 20
318.9905762738186
 30
0.0
  0
LINE
  5
2A9
330
1F
100
AcDbEntity
  8
0
  6
Continuous
 62
     7
370
    15
100
AcDbLine
 10
387.6640148367
 20
316.7428016728
 30
0.0
 11
388.9640152361
 21
316.7428016728
 31
0.0
  0
LINE
  5
2AA
330
1F
100
AcDbEntity
  8
0
  6
Continuous
 62
     7
370
    15
100
AcDbLine
 10
388.7449674215
 20
316.5027976102
 30
0.0
 11
387.9640154447
 21
316.5027976102
 31
0.0
  0
LINE
  5
2AB
330
1F
100
AcDbEntity
  8
0
  6
Continuous
 62
     7
370
    15
100
AcDbLine
 10
386.3640151824
 20
316.5027976102
 30
0.0
 11
382.7669449057
 21
296.1028039521
 31
0.0
  0
LINE
  5
2AC
330
1F
100
AcDbEntity
  8
0
  6
Continuous
 62
     7
370
    15
100
AcDbLine
 10
387.9640154447
 20
316.5027976102
 30
0.0
 11
386.3640151824
 21
316.5027976102
 31
0.0
  0
SPLINE
  5
2AD
330
1F
100
AcDbEntity
  8
0
  6
Continuous
 62
     7
370
    15
100
AcDbSpline
210
0.0
220
0.0
230
1.0
 70
    24
 71
     3
 72
     9
 73
     5
 74
     0
 42
0.00000001
 43
0.00000001
 12
1.0
 22
0.0
 32
0.0
 13
1.0
 23
0.0
 33
0.0
 40
0.0
 40
0.0
 40
0.0
 40
0.0
 40
0.0702146903370174
 40
1.0
 40
1.0
 40
1.0
 40
1.0
 10
391.5640152897175
 20
319.2228078907925
 30
0.0
 10
391.5640152897175
 20
319.2225760117028
 30
0.0
 10
391.5640152897175
 20
319.2192735818449
 30
0.0
 10
391.5640152897175
 20
319.1007643845362
 30
0.0
 10
391.5640152897175
 20
318.9905762738186
 30
0.0
  0
LINE
  5
2AE
330
1F
100
AcDbEntity
  8
0
  6
Continuous
 62
     7
370
    15
100
AcDbLine
 10
391.5640152897
 20
319.2228078908
 30
0.0
 11
390.2640148904
 21
319.2228078908
 31
0.0
  0
LINE
  5
2AF
330
1F
100
AcDbEntity
  8
0
  6
Continuous
 62
     7
370
    15
100
AcDbLine
 10
386.3640151824
 20
318.9905762738
 30
0.0
 11
386.3640151824
 21
319.2228078908
 31
0.0
  0
LINE
  5
2B0
330
1F
100
AcDbEntity
  8
0
  6
Continuous
 62
     7
370
    15
100
AcDbLine
 10
387.6640148367
 20
319.2228078908
 30
0.0
 11
386.3640151824
 21
319.2228078908
 31
0.0
  0
LINE
  5
2B1
330
1F
100
AcDbEntity
  8
0
  6
Continuous
 62
     7
370
    15
100
AcDbLine
 10
387.3640149738
 20
330.1028013295
 30
0.0
 11
390.5640147533
 21
330.1028013295
 31
0.0
  0
LINE
  5
2B2
330
1F
100
AcDbEntity
  8
0
  6
Continuous
 62
     7
370
    15
100
AcDbLine
 10
387.3640149738
 20
329.3027997083
 30
0.0
 11
390.5640147533
 21
329.3027997083
 31
0.0
  0
LINE
  5
2B3
330
1F
100
AcDbEntity
  8
0
  6
Continuous
 62
     7
370
    15
100
AcDbLine
 10
387.3640149738
 20
339.3028020925
 30
0.0
 11
390.5640147533
 21
339.3028020925
 31
0.0
  0
LINE
  5
2B4
330
1F
100
AcDbEntity
  8
0
  6
Continuous
 62
     7
370
    15
100
AcDbLine
 10
387.3640149738
 20
340.1028037137
 30
0.0
 11
390.5640147533
 21
340.1028037137
 31
0.0
  0
LINE
  5
2B5
330
1F
100
AcDbEntity
  8
0
  6
Continuous
 62
     7
370
    15
100
AcDbLine
 10
387.3640149738
 20
343.8916564053
 30
0.0
 11
390.5640147533
 21
343.8916564053
 31
0.0
  0
LINE
  5
2B6
330
1F
100
AcDbEntity
  8
0
  6
Continuous
 62
     7
370
    15
100
AcDbLine
 10
393.3640152122
 20
359.702801711
 30
0.0
 11
393.3640152122
 21
360.1028084821
 31
0.0
  0
LINE
  5
2B7
330
1F
100
AcDbEntity
  8
0
  6
Continuous
 62
     7
370
    15
100
AcDbLine
 10
401.3640150334
 20
359.702801711
 30
0.0
 11
401.3640150334
 21
360.1028084821
 31
0.0
  0
LINE
  5
2B8
330
1F
100
AcDbEntity
  8
0
  6
Continuous
 62
     8
370
     0
100
AcDbLine
 10
352.7186252083
 20
364.1560077733
 30
0.0
 11
442.0094050373
 21
364.1560077733
 31
0.0
  0
CIRCLE
  5
2B9
330
1F
100
AcDbEntity
  8
0
  6
Continuous
 62
     8
370
     0
100
AcDbCircle
 10
397.3640151228
 20
216.10280276
 30
0.0
 40
23.26784609690827
  0
CIRCLE
  5
2BA
330
1F
100
AcDbEntity
  8
0
  6
Continuous
 62
     8
370
     0
100
AcDbCircle
 10
397.3640151228
 20
216.10280276
 30
0.0
 40
22.85215390309173
  0
CIRCLE
  5
2BB
330
1F
100
AcDbEntity
  8
0
  6
Continuous
 62
     8
370
     0
100
AcDbCircle
 10
397.3640151228
 20
216.10280276
 30
0.0
 40
19.74784609690823
  0
CIRCLE
  5
2BC
330
1F
100
AcDbEntity
  8
0
  6
Continuous
 62
     8
370
     0
100
AcDbCircle
 10
397.3640151228
 20
216.10280276
 30
0.0
 40
19.33215390309169
  0
LINE
  5
2BD
330
1F
100
AcDbEntity
  8
0
  6
Continuous
 62
     8
370
     0
100
AcDbLine
 10
421.0393212642
 20
267.3028051919
 30
0.0
 11
421.1057893838
 21
270.5028057164
 31
0.0
  0
LINE
  5
2BE
330
1F
100
AcDbEntity
  8
0
  6
Continuous
 62
     8
370
     0
100
AcDbLine
 10
373.6887089814
 20
267.3028051919
 30
0.0
 11
373.6222408618
 21
270.5028057164
 31
0.0
  0
LINE
  5
2BF
330
1F
100
AcDbEntity
  8
0
  6
Continuous
 62
     8
370
     0
100
AcDbLine
 10
373.8730601873
 20
267.0947432584
 30
0.0
 11
373.6887089814
 21
267.3028051919
 31
0.0
  0
LINE
  5
2C0
330
1F
100
AcDbEntity
  8
0
  6
Continuous
 62
     8
370
     0
100
AcDbLine
 10
420.8549700584
 20
267.0947432584
 30
0.0
 11
421.0393212642
 21
267.3028051919
 31
0.0
  0
LINE
  5
2C1
330
1F
100
AcDbEntity
  8
0
  6
Continuous
 62
     8
370
     0
100
AcDbLine
 10
420.6361152138
 20
282.5028002328
 30
0.0
 11
420.6361152138
 21
270.5028057164
 31
0.0
  0
LINE
  5
2C2
330
1F
100
AcDbEntity
  8
0
  6
Continuous
 62
     8
370
     0
100
AcDbLine
 10
374.0919150318
 20
282.5028002328
 30
0.0
 11
374.0919150318
 21
270.5028057164
 31
0.0
  0
LINE
  5
2C3
330
1F
100
AcDbEntity
  8
0
  6
Continuous
 62
     8
370
     0
100
AcDbLine
 10
424.9848820175
 20
282.5028002328
 30
0.0
 11
424.9848820175
 21
270.5028057164
 31
0.0
  0
LINE
  5
2C4
330
1F
100
AcDbEntity
  8
0
  6
Continuous
 62
     8
370
     0
100
AcDbLine
 10
369.7431482281
 20
282.5028002328
 30
0.0
 11
369.7431482281
 21
270.5028057164
 31
0.0
  0
LINE
  5
2C5
330
1F
100
AcDbEntity
  8
0
  6
Continuous
 62
     8
370
     0
100
AcDbLine
 10
424.5691932644
 20
267.3028051919
 30
0.0
 11
424.8365200962
 21
270.5028057164
 31
0.0
  0
LINE
  5
2C6
330
1F
100
AcDbEntity
  8
0
  6
Continuous
 62
     8
370
     0
100
AcDbLine
 10
370.1588369812
 20
267.3028051919
 30
0.0
 11
369.8915101494
 21
270.5028057164
 31
0.0
  0
LINE
  5
2C7
330
1F
100
AcDbEntity
  8
0
  6
Continuous
 62
     8
370
     0
100
AcDbLine
 10
423.6781455483
 20
267.0527637071
 30
0.0
 11
424.5691932644
 21
267.3028051919
 31
0.0
  0
LINE
  5
2C8
330
1F
100
AcDbEntity
  8
0
  6
Continuous
 62
     8
370
     0
100
AcDbLine
 10
371.0498846974
 20
267.0527637071
 30
0.0
 11
370.1588369812
 21
267.3028051919
 31
0.0
  0
LINE
  5
2C9
330
1F
100
AcDbEntity
  8
0
  6
Continuous
 62
     8
370
     0
100
AcDbLine
 10
420.1640151347
 20
258.5028022593
 30
0.0
 11
420.1640151347
 21
267.0683384007
 31
0.0
  0
LINE
  5
2CA
330
1F
100
AcDbEntity
  8
0
  6
Continuous
 62
     8
370
     0
100
AcDbLine
 10
374.5640151109
 20
258.5028022593
 30
0.0
 11
374.5640151109
 21
267.0683384007
 31
0.0
  0
LINE
  5
2CB
330
1F
100
AcDbEntity
  8
0
  6
Continuous
 62
     8
370
     0
100
AcDbLine
 10
416.1656536068
 20
251.4085859126
 30
0.0
 11
416.1656536068
 21
258.5028022593
 31
0.0
  0
LINE
  5
2CC
330
1F
100
AcDbEntity
  8
0
  6
Continuous
 62
     8
370
     0
100
AcDbLine
 10
378.5623766388
 20
251.4085859126
 30
0.0
 11
378.5623766388
 21
258.5028022593
 31
0.0
  0
SPLINE
  5
2CD
330
1F
100
AcDbEntity
  8
0
  6
Continuous
 62
     8
370
     0
100
AcDbSpline
210
0.0
220
0.0
230
1.0
 70
     8
 71
     3
 72
     8
 73
     4
 74
     0
 42
0.00000001
 43
0.00000001
 12
1.0
 22
0.0
 32
0.0
 13
1.0
 23
0.0
 33
0.0
 40
0.0
 40
0.0
 40
0.0
 40
0.0
 40
1.0
 40
1.0
 40
1.0
 40
1.0
 10
379.7637128060101
 20
277.9833913506877
 30
0.0
 10
379.7933286266326
 20
278.0395630704297
 30
0.0
 10
379.8232949204723
 20
278.0956005319167
 30
0.0
 10
379.8536121025738
 20
278.1515036232585
 30
0.0
  0
LINE
  5
2CE
330
1F
100
AcDbEntity
  8
0
  6
Continuous
 62
     8
370
     0
100
AcDbLine
 10
379.8536114301
 20
278.1515061921
 30
0.0
 11
414.8744188155
 21
278.1515061921
 31
0.0
  0
SPLINE
  5
2CF
330
1F
100
AcDbEntity
  8
0
  6
Continuous
 62
     8
370
     0
100
AcDbSpline
210
0.0
220
0.0
230
1.0
 70
     8
 71
     3
 72
     8
 73
     4
 74
     0
 42
0.00000001
 43
0.00000001
 12
1.0
 22
0.0
 32
0.0
 13
1.0
 23
0.0
 33
0.0
 40
0.0
 40
0.0
 40
0.0
 40
0.0
 40
1.0
 40
1.0
 40
1.0
 40
1.0
 10
414.9643174396388
 20
277.9833913506877
 30
0.0
 10
414.9347016190163
 20
278.0395630704297
 30
0.0
 10
414.9047353251765
 20
278.0956005319167
 30
0.0
 10
414.874418143075
 20
278.1515036232585
 30
0.0
  0
SPLINE
  5
2D0
330
1F
100
AcDbEntity
  8
0
  6
Continuous
 62
     8
370
     0
100
AcDbSpline
210
0.0
220
0.0
230
1.0
 70
     8
 71
     3
 72
    20
 73
    16
 74
     0
 42
0.00000001
 43
0.00000001
 12
1.0
 22
0.0
 32
0.0
 13
1.0
 23
0.0
 33
0.0
 40
0.0
 40
0.0
 40
0.0
 40
0.0
 40
0.2500000000000021
 40
0.2500000000000021
 40
0.3750000000000023
 40
0.3750000000000023
 40
0.5000000000000027
 40
0.5000000000000027
 40
0.7500000000000037
 40
0.7500000000000037
 40
0.812500000000003
 40
0.812500000000003
 40
0.8750000000000023
 40
0.8750000000000023
 40
1.0
 40
1.0
 40
1.0
 40
1.0
 10
414.874418143075
 20
278.1515036232585
 30
0.0
 10
414.3302560676954
 20
279.3400539290221
 30
0.0
 10
413.6946124001527
 20
280.4679191772545
 30
0.0
 10
412.5981744845845
 20
282.0652012465069
 30
0.0
 10
412.2087059766518
 20
282.5817702648232
 30
0.0
 10
411.3786165021514
 20
283.5811562276195
 30
0.0
 10
410.9359774967583
 20
284.0655883497161
 30
0.0
 10
409.5549469089883
 20
285.434845683227
 30
0.0
 10
408.5572658617641
 20
286.2460483478052
 30
0.0
 10
407.2049162319663
 20
287.124990679651
 30
0.0
 10
406.9291362184134
 20
287.2939651738307
 30
0.0
 10
406.3665258525997
 20
287.6178252782513
 30
0.0
 10
406.0787075386157
 20
287.7731875429698
 30
0.0
 10
405.2066856645603
 20
288.2129577293341
 30
0.0
 10
404.6141808100586
 20
288.4713260637881
 30
0.0
 10
404.0105826911063
 20
288.6955292738746
 30
0.0
  0
SPLINE
  5
2D1
330
1F
100
AcDbEntity
  8
0
  6
Continuous
 62
     8
370
     0
100
AcDbSpline
210
0.0
220
0.0
230
1.0
 70
     8
 71
     3
 72
    20
 73
    16
 74
     0
 42
0.00000001
 43
0.00000001
 12
1.0
 22
0.0
 32
0.0
 13
1.0
 23
0.0
 33
0.0
 40
0.0
 40
0.0
 40
0.0
 40
0.0
 40
0.2500000000000021
 40
0.2500000000000021
 40
0.3750000000000023
 40
0.3750000000000023
 40
0.5000000000000027
 40
0.5000000000000027
 40
0.7500000000000037
 40
0.7500000000000037
 40
0.812500000000003
 40
0.812500000000003
 40
0.8750000000000023
 40
0.8750000000000023
 40
1.0
 40
1.0
 40
1.0
 40
1.0
 10
379.8536121025738
 20
278.1515036232585
 30
0.0
 10
380.3977741779535
 20
279.3400539290221
 30
0.0
 10
381.0334178454962
 20
280.4679191772545
 30
0.0
 10
382.1298557610643
 20
282.0652012465069
 30
0.0
 10
382.519324268997
 20
282.5817702648232
 30
0.0
 10
383.3494137434975
 20
283.5811562276195
 30
0.0
 10
383.7920527488906
 20
284.0655883497161
 30
0.0
 10
385.1730833366606
 20
285.434845683227
 30
0.0
 10
386.1707643838848
 20
286.2460483478052
 30
0.0
 10
387.5231140136826
 20
287.124990679651
 30
0.0
 10
387.7988940272355
 20
287.2939651738307
 30
0.0
 10
388.3615043930492
 20
287.6178252782513
 30
0.0
 10
388.6493227070331
 20
287.7731875429698
 30
0.0
 10
389.5213445810886
 20
288.2129577293341
 30
0.0
 10
390.1138494355902
 20
288.4713260637881
 30
0.0
 10
390.7174475545425
 20
288.6955292738746
 30
0.0
  0
SPLINE
  5
2D2
330
1F
100
AcDbEntity
  8
0
  6
Continuous
 62
     8
370
     0
100
AcDbSpline
210
0.0
220
0.0
230
1.0
 70
     8
 71
     3
 72
    34
 73
    30
 74
     0
 42
0.00000001
 43
0.00000001
 12
1.0
 22
0.0
 32
0.0
 13
1.0
 23
0.0
 33
0.0
 40
0.0
 40
0.0
 40
0.0
 40
0.0
 40
0.1250000000000014
 40
0.1250000000000014
 40
0.1875000000000015
 40
0.1875000000000015
 40
0.2500000000000017
 40
0.2500000000000017
 40
0.3750000000000009
 40
0.3750000000000009
 40
0.4062500000000009
 40
0.4062500000000009
 40
0.4375000000000008
 40
0.4375000000000008
 40
0.5000000000000004
 40
0.5000000000000004
 40
0.5625000000000001
 40
0.5625000000000001
 40
0.5937499999999999
 40
0.5937499999999999
 40
0.6249999999999996
 40
0.6249999999999996
 40
0.7499999999999994
 40
0.7499999999999994
 40
0.8125
 40
0.8125
 40
0.8750000000000004
 40
0.8750000000000004
 40
1.0
 40
1.0
 40
1.0
 40
1.0
 10
404.0105826911063
 20
288.6955292738746
 30
0.0
 10
403.535259450948
 20
288.3314038364485
 30
0.0
 10
403.0456047478783
 20
287.9813846459513
 30
0.0
 10
402.2811705212316
 20
287.4897489701912
 30
0.0
 10
402.0213177206912
 20
287.3315036594872
 30
0.0
 10
401.4892378398598
 20
287.0295232074181
 30
0.0
 10
401.2167377332987
 20
286.8857408461046
 30
0.0
 10
400.3877574142189
 20
286.4880067332583
 30
0.0
 10
399.8168577089414
 20
286.2651475848125
 30
0.0
 10
399.0696862875412
 20
286.0674882566265
 30
0.0
 10
398.9185556214279
 20
286.032048334533
 30
0.0
 10
398.6125550263927
 20
285.9702390507364
 30
0.0
 10
398.4571643333624
 20
285.943812174426
 30
0.0
 10
397.9896984364123
 20
285.8801581512419
 30
0.0
 10
397.6761378283777
 20
285.8584128214924
 30
0.0
 10
397.0451392772605
 20
285.8587243794017
 30
0.0
 10
396.7315408299708
 20
285.880776020612
 30
0.0
 10
396.2638484347364
 20
285.9449263372721
 30
0.0
 10
396.1087986698657
 20
285.9714540702553
 30
0.0
 10
395.8033861196579
 20
286.0334174403245
 30
0.0
 10
395.6525450890181
 20
286.0689128423409
 30
0.0
 10
394.906801989192
 20
286.2667519610995
 30
0.0
 10
394.336981887034
 20
286.4894452678585
 30
0.0
 10
393.5095642719464
 20
286.8866406730953
 30
0.0
 10
393.237583462325
 20
287.0301788726538
 30
0.0
 10
392.7056709280376
 20
287.3321254113529
 30
0.0
 10
392.4459200178737
 20
287.490334085865
 30
0.0
 10
391.681830934842
 20
287.981805612893
 30
0.0
 10
391.19245814265
 20
288.3316433462288
 30
0.0
 10
390.7174475545425
 20
288.6955292738746
 30
0.0
  0
ARC
  5
2D3
330
1F
100
AcDbEntity
  8
0
  6
Continuous
 62
     8
370
     0
100
AcDbCircle
 10
386.2732321448
 20
332.2328922552
 30
0.0
 40
61.17862533173778
100
AcDbArc
 50
297.872328104
 51
297.9675345703
  0
SPLINE
  5
2D4
330
1F
100
AcDbEntity
  8
0
  6
Continuous
 62
     8
370
     0
100
AcDbSpline
210
0.0
220
0.0
230
1.0
 70
     8
 71
     3
 72
    20
 73
    16
 74
     0
 42
0.00000001
 43
0.00000001
 12
1.0
 22
0.0
 32
0.0
 13
1.0
 23
0.0
 33
0.0
 40
0.0
 40
0.0
 40
0.0
 40
0.0
 40
0.2500000000000003
 40
0.2500000000000003
 40
0.3750000000000002
 40
0.3750000000000002
 40
0.5000000000000002
 40
0.5000000000000002
 40
0.6250000000000002
 40
0.6250000000000002
 40
0.7500000000000001
 40
0.7500000000000001
 40
0.8750000000000001
 40
0.8750000000000001
 40
1.0
 40
1.0
 40
1.0
 40
1.0
 10
410.1837169902565
 20
289.0323788985425
 30
0.0
 10
409.7531841966423
 20
289.229816411119
 30
0.0
 10
409.2946843498042
 20
289.3659306091332
 30
0.0
 10
408.5628228592402
 20
289.4900983347104
 30
0.0
 10
408.3115120108589
 20
289.5180091670358
 30
0.0
 10
407.7936325107447
 20
289.5470160465543
 30
0.0
 10
407.5297675126041
 20
289.5478881545988
 30
0.0
 10
406.997592369455
 20
289.5233967510417
 30
0.0
 10
406.7284836749056
 20
289.4980999654563
 30
0.0
 10
406.1846912306473
 20
289.4206826911735
 30
0.0
 10
405.90953106717
 20
289.3685140498801
 30
0.0
 10
405.3563306576748
 20
289.2340230281529
 30
0.0
 10
405.0816273164274
 20
289.1526883481358
 30
0.0
 10
404.5391236593746
 20
288.9550054622909
 30
0.0
 10
404.2710897722045
 20
288.8393039415157
 30
0.0
 10
404.0105826911068
 20
288.6955292738734
 30
0.0
  0
SPLINE
  5
2D5
330
1F
100
AcDbEntity
  8
0
  6
Continuous
 62
     8
370
     0
100
AcDbSpline
210
0.0
220
0.0
230
1.0
 70
     8
 71
     3
 72
    14
 73
    10
 74
     0
 42
0.00000001
 43
0.00000001
 12
1.0
 22
0.0
 32
0.0
 13
1.0
 23
0.0
 33
0.0
 40
0.0
 40
0.0
 40
0.0
 40
0.0
 40
0.2499999999999963
 40
0.2499999999999963
 40
0.3749999999999956
 40
0.3749999999999956
 40
0.4999999999999949
 40
0.4999999999999949
 40
1.0
 40
1.0
 40
1.0
 40
1.0
 10
410.1837169902565
 20
289.0323788985425
 30
0.0
 10
410.8334635494621
 20
288.611981601809
 30
0.0
 10
411.4602982958282
 20
288.1583593890697
 30
0.0
 10
412.366531951722
 20
287.4279894822757
 30
0.0
 10
412.6629301844643
 20
287.176195121287
 30
0.0
 10
413.2443018159141
 20
286.6557264918807
 30
0.0
 10
413.5295960756919
 20
286.3867329349193
 30
0.0
 10
414.9237191019294
 20
285.0021020617008
 30
0.0
 10
415.9078444834088
 20
283.7978003836708
 30
0.0
 10
416.7695236162866
 20
282.5028027600247
 30
0.0
  0
ARC
  5
2D6
330
1F
100
AcDbEntity
  8
0
  6
Continuous
 62
     8
370
     0
100
AcDbCircle
 10
408.454798072
 20
332.2328922009
 30
0.0
 40
61.1786252702139
100
AcDbArc
 50
242.0324654296
 51
242.127671896
  0
SPLINE
  5
2D7
330
1F
100
AcDbEntity
  8
0
  6
Continuous
 62
     8
370
     0
100
AcDbSpline
210
0.0
220
0.0
230
1.0
 70
     8
 71
     3
 72
    14
 73
    10
 74
     0
 42
0.00000001
 43
0.00000001
 12
1.0
 22
0.0
 32
0.0
 13
1.0
 23
0.0
 33
0.0
 40
0.0
 40
0.0
 40
0.0
 40
0.0
 40
0.2499999999999963
 40
0.2499999999999963
 40
0.3749999999999956
 40
0.3749999999999956
 40
0.4999999999999949
 40
0.4999999999999949
 40
1.0
 40
1.0
 40
1.0
 40
1.0
 10
384.5443132553924
 20
289.0323788985425
 30
0.0
 10
383.8945666961868
 20
288.611981601809
 30
0.0
 10
383.2677319498206
 20
288.1583593890697
 30
0.0
 10
382.3614982939269
 20
287.4279894822757
 30
0.0
 10
382.0651000611845
 20
287.176195121287
 30
0.0
 10
381.4837284297348
 20
286.6557264918807
 30
0.0
 10
381.1984341699569
 20
286.3867329349193
 30
0.0
 10
379.8043111437194
 20
285.0021020617008
 30
0.0
 10
378.82018576224
 20
283.7978003836708
 30
0.0
 10
377.9585066293623
 20
282.5028027600247
 30
0.0
  0
SPLINE
  5
2D8
330
1F
100
AcDbEntity
  8
0
  6
Continuous
 62
     8
370
     0
100
AcDbSpline
210
0.0
220
0.0
230
1.0
 70
     8
 71
     3
 72
    20
 73
    16
 74
     0
 42
0.00000001
 43
0.00000001
 12
1.0
 22
0.0
 32
0.0
 13
1.0
 23
0.0
 33
0.0
 40
0.0
 40
0.0
 40
0.0
 40
0.0
 40
0.2500000000000003
 40
0.2500000000000003
 40
0.3750000000000002
 40
0.3750000000000002
 40
0.5000000000000002
 40
0.5000000000000002
 40
0.6250000000000002
 40
0.6250000000000002
 40
0.7500000000000001
 40
0.7500000000000001
 40
0.8750000000000001
 40
0.8750000000000001
 40
1.0
 40
1.0
 40
1.0
 40
1.0
 10
384.5443132553924
 20
289.0323788985425
 30
0.0
 10
384.9748460490065
 20
289.229816411119
 30
0.0
 10
385.4333458958446
 20
289.3659306091332
 30
0.0
 10
386.1652073864087
 20
289.4900983347104
 30
0.0
 10
386.41651823479
 20
289.5180091670358
 30
0.0
 10
386.9343977349042
 20
289.5470160465543
 30
0.0
 10
387.1982627330448
 20
289.5478881545988
 30
0.0
 10
387.7304378761939
 20
289.5233967510417
 30
0.0
 10
387.9995465707432
 20
289.4980999654563
 30
0.0
 10
388.5433390150015
 20
289.4206826911735
 30
0.0
 10
388.8184991784789
 20
289.3685140498801
 30
0.0
 10
389.371699587974
 20
289.2340230281529
 30
0.0
 10
389.6464029292215
 20
289.1526883481358
 30
0.0
 10
390.1889065862743
 20
288.9550054622909
 30
0.0
 10
390.4569404734444
 20
288.8393039415157
 30
0.0
 10
390.717447554542
 20
288.6955292738734
 30
0.0
  0
ARC
  5
2D9
330
1F
100
AcDbEntity
  8
0
  6
Continuous
 62
     8
370
     0
100
AcDbCircle
 10
384.8996278352
 20
294.1612981643
 30
0.0
 40
7.982582595430248
100
AcDbArc
 50
316.7870777995
 51
325.0765707783
  0
SPLINE
  5
2DA
330
1F
100
AcDbEntity
  8
0
  6
Continuous
 62
     8
370
     0
100
AcDbSpline
210
0.0
220
0.0
230
1.0
 70
     8
 71
     3
 72
    34
 73
    30
 74
     0
 42
0.00000001
 43
0.00000001
 12
1.0
 22
0.0
 32
0.0
 13
1.0
 23
0.0
 33
0.0
 40
0.0
 40
0.0
 40
0.0
 40
0.0
 40
0.1249999999999998
 40
0.1249999999999998
 40
0.1874999999999998
 40
0.1874999999999998
 40
0.2499999999999998
 40
0.2499999999999998
 40
0.3124999999999998
 40
0.3124999999999998
 40
0.3749999999999998
 40
0.3749999999999998
 40
0.4374999999999998
 40
0.4374999999999998
 40
0.4999999999999998
 40
0.4999999999999998
 40
0.5624999999999998
 40
0.5624999999999998
 40
0.5937499999999996
 40
0.5937499999999996
 40
0.6249999999999994
 40
0.6249999999999994
 40
0.7499999999999989
 40
0.7499999999999989
 40
0.8124999999999992
 40
0.8124999999999992
 40
0.8749999999999996
 40
0.8749999999999996
 40
1.0
 40
1.0
 40
1.0
 40
1.0
 10
391.4446897759389
 20
289.5914186458681
 30
0.0
 10
391.8525823541984
 20
289.2125206810381
 30
0.0
 10
392.2745411616958
 20
288.8457881200766
 30
0.0
 10
392.9381372742922
 20
288.3253380174363
 30
0.0
 10
393.1645031546842
 20
288.156862286818
 30
0.0
 10
393.6302869606301
 20
287.8331152654188
 30
0.0
 10
393.8699139196135
 20
287.6777836400355
 30
0.0
 10
394.3598953801043
 20
287.3883550226199
 30
0.0
 10
394.6108438663312
 20
287.2537913533637
 30
0.0
 10
395.127980680788
 20
287.0111630061604
 30
0.0
 10
395.3947457221377
 20
286.9028743670931
 30
0.0
 10
395.945682105193
 20
286.7222903512544
 30
0.0
 10
396.2274414397073
 20
286.6509306774123
 30
0.0
 10
396.8011359376284
 20
286.5547466270763
 30
0.0
 10
397.0906156066537
 20
286.5303435063417
 30
0.0
 10
397.6738936349704
 20
286.5324568021053
 30
0.0
 10
397.9628187411818
 20
286.5589155321642
 30
0.0
 10
398.3924254129693
 20
286.6339070459651
 30
0.0
 10
398.5345145917535
 20
286.6647353942069
 30
0.0
 10
398.813088716927
 20
286.7360753523268
 30
0.0
 10
398.9501375990578
 20
286.7766778510502
 30
0.0
 10
399.6254706989895
 20
287.0014301687307
 30
0.0
 10
400.1345662348699
 20
287.2495844219848
 30
0.0
 10
400.8686814805806
 20
287.6844395357804
 30
0.0
 10
401.1074906548612
 20
287.8396212385614
 30
0.0
 10
401.5709411484648
 20
288.1622946624904
 30
0.0
 10
401.7962370417935
 20
288.3301689499724
 30
0.0
 10
402.4568249214159
 20
288.8486989883535
 30
0.0
 10
402.8770421791768
 20
289.214001640504
 30
0.0
 10
403.2833404697099
 20
289.5914186458681
 30
0.0
  0
ARC
  5
2DB
330
1F
100
AcDbEntity
  8
0
  6
Continuous
 62
     8
370
     0
100
AcDbCircle
 10
409.8284024105
 20
294.1612981643
 30
0.0
 40
7.982582595429637
100
AcDbArc
 50
214.9234292217
 51
223.2129222005
  0
LINE
  5
2DC
330
1F
100
AcDbEntity
  8
0
  6
Continuous
 62
     8
370
     0
100
AcDbLine
 10
413.3640147652
 20
294.9028015202
 30
0.0
 11
381.3640154805
 21
294.9028015202
 31
0.0
  0
SPLINE
  5
2DD
330
1F
100
AcDbEntity
  8
0
  6
Continuous
 62
     8
370
     0
100
AcDbSpline
210
0.0
220
0.0
230
1.0
 70
     8
 71
     3
 72
    26
 73
    22
 74
     0
 42
0.00000001
 43
0.00000001
 12
1.0
 22
0.0
 32
0.0
 13
1.0
 23
0.0
 33
0.0
 40
0.0
 40
0.0
 40
0.0
 40
0.0
 40
0.1250000000000007
 40
0.1250000000000007
 40
0.2500000000000015
 40
0.2500000000000015
 40
0.3125000000000014
 40
0.3125000000000014
 40
0.3750000000000013
 40
0.3750000000000013
 40
0.5
 40
0.5
 40
0.5624999999999999
 40
0.5624999999999999
 40
0.6249999999999999
 40
0.6249999999999999
 40
0.7499999999999998
 40
0.7499999999999998
 40
0.8749999999999999
 40
0.8749999999999999
 40
1.0
 40
1.0
 40
1.0
 40
1.0
 10
391.4446897759389
 20
289.5914186458681
 30
0.0
 10
391.1976307363257
 20
289.8209157544003
 30
0.0
 10
390.9371019075348
 20
290.0214348424549
 30
0.0
 10
390.4000240166937
 20
290.3805653611502
 30
0.0
 10
390.1232817445514
 20
290.5388666821199
 30
0.0
 10
389.6993788739845
 20
290.748417031355
 30
0.0
 10
389.5570599297011
 20
290.8132869999801
 30
0.0
 10
389.2740183039151
 20
290.9322404017432
 30
0.0
 10
389.132812145829
 20
290.9865638800292
 30
0.0
 10
388.710455867659
 20
291.1348310970324
 30
0.0
 10
388.4305827633365
 20
291.2141698384232
 30
0.0
 10
388.0141870291533
 20
291.304723527511
 30
0.0
 10
387.8759530193857
 20
291.3301390513515
 30
0.0
 10
387.6007178347484
 20
291.3712716132752
 30
0.0
 10
387.4633101457296
 20
291.3870173951132
 30
0.0
 10
387.0559163150763
 20
291.4189816761223
 30
0.0
 10
386.7933575286057
 20
291.4199274166518
 30
0.0
 10
386.2857182611079
 20
291.3819897022599
 30
0.0
 10
386.0406402576682
 20
291.3430963725033
 30
0.0
 10
385.567693398698
 20
291.2240944631047
 30
0.0
 10
385.3393394823312
 20
291.1435386099062
 30
0.0
 10
385.123421723843
 20
291.0428211558862
 30
0.0
  0
SPLINE
  5
2DE
330
1F
100
AcDbEntity
  8
0
  6
Continuous
 62
     8
370
     0
100
AcDbSpline
210
0.0
220
0.0
230
1.0
 70
     8
 71
     3
 72
    22
 73
    18
 74
     0
 42
0.00000001
 43
0.00000001
 12
1.0
 22
0.0
 32
0.0
 13
1.0
 23
0.0
 33
0.0
 40
0.0
 40
0.0
 40
0.0
 40
0.0
 40
0.1250000000000001
 40
0.1250000000000001
 40
0.2500000000000002
 40
0.2500000000000002
 40
0.5
 40
0.5
 40
0.5624999999999998
 40
0.5624999999999998
 40
0.6249999999999997
 40
0.6249999999999997
 40
0.7499999999999997
 40
0.7499999999999997
 40
0.8749999999999998
 40
0.8749999999999998
 40
1.0
 40
1.0
 40
1.0
 40
1.0
 10
385.123421723843
 20
291.0428211558862
 30
0.0
 10
384.8282346570583
 20
290.905127572763
 30
0.0
 10
384.5471660171534
 20
290.7704054712859
 30
0.0
 10
384.018815875833
 20
290.5115238192837
 30
0.0
 10
383.7713768852815
 20
290.3873107459975
 30
0.0
 10
383.0788061234147
 20
290.03306756044
 30
0.0
 10
382.6829358471816
 20
289.8212349211436
 30
0.0
 10
382.2756681051983
 20
289.5982376826582
 30
0.0
 10
382.1987353610613
 20
289.5557988543379
 30
0.0
 10
382.0553614247685
 20
289.4762475710399
 30
0.0
 10
381.9887070618043
 20
289.4390187333005
 30
0.0
 10
381.8037441077126
 20
289.3352004449526
 30
0.0
 10
381.7004050806526
 20
289.2764747358956
 30
0.0
 10
381.5338877645425
 20
289.1813193466776
 30
0.0
 10
381.470707103237
 20
289.1448891445774
 30
0.0
 10
381.3857346400796
 20
289.0957970385751
 30
0.0
 10
381.3640151228244
 20
289.0831795053978
 30
0.0
 10
381.3640151228244
 20
289.0831795053978
 30
0.0
  0
SPLINE
  5
2DF
330
1F
100
AcDbEntity
  8
0
  6
Continuous
 62
     8
370
     0
100
AcDbSpline
210
0.0
220
0.0
230
1.0
 70
     8
 71
     3
 72
    22
 73
    18
 74
     0
 42
0.00000001
 43
0.00000001
 12
1.0
 22
0.0
 32
0.0
 13
1.0
 23
0.0
 33
0.0
 40
0.0
 40
0.0
 40
0.0
 40
0.0
 40
0.1250000000000001
 40
0.1250000000000001
 40
0.2500000000000002
 40
0.2500000000000002
 40
0.5
 40
0.5
 40
0.5624999999999998
 40
0.5624999999999998
 40
0.6249999999999997
 40
0.6249999999999997
 40
0.7499999999999997
 40
0.7499999999999997
 40
0.8749999999999998
 40
0.8749999999999998
 40
1.0
 40
1.0
 40
1.0
 40
1.0
 10
409.6046085218059
 20
291.0428211558862
 30
0.0
 10
409.8997955885906
 20
290.905127572763
 30
0.0
 10
410.1808642284954
 20
290.7704054712859
 30
0.0
 10
410.7092143698159
 20
290.5115238192837
 30
0.0
 10
410.9566533603673
 20
290.3873107459975
 30
0.0
 10
411.6492241222342
 20
290.03306756044
 30
0.0
 10
412.0450943984673
 20
289.8212349211436
 30
0.0
 10
412.4523621404505
 20
289.5982376826582
 30
0.0
 10
412.5292948845876
 20
289.5557988543379
 30
0.0
 10
412.6726688208803
 20
289.4762475710399
 30
0.0
 10
412.7393231838446
 20
289.4390187333005
 30
0.0
 10
412.9242861379363
 20
289.3352004449526
 30
0.0
 10
413.0276251649963
 20
289.2764747358956
 30
0.0
 10
413.1941424811064
 20
289.1813193466776
 30
0.0
 10
413.2573231424118
 20
289.1448891445774
 30
0.0
 10
413.3422956055693
 20
289.0957970385751
 30
0.0
 10
413.3640151228245
 20
289.0831795053978
 30
0.0
 10
413.3640151228245
 20
289.0831795053978
 30
0.0
  0
SPLINE
  5
2E0
330
1F
100
AcDbEntity
  8
0
  6
Continuous
 62
     8
370
     0
100
AcDbSpline
210
0.0
220
0.0
230
1.0
 70
     8
 71
     3
 72
    26
 73
    22
 74
     0
 42
0.00000001
 43
0.00000001
 12
1.0
 22
0.0
 32
0.0
 13
1.0
 23
0.0
 33
0.0
 40
0.0
 40
0.0
 40
0.0
 40
0.0
 40
0.1250000000000007
 40
0.1250000000000007
 40
0.2500000000000015
 40
0.2500000000000015
 40
0.3125000000000014
 40
0.3125000000000014
 40
0.3750000000000013
 40
0.3750000000000013
 40
0.5
 40
0.5
 40
0.5624999999999999
 40
0.5624999999999999
 40
0.6249999999999999
 40
0.6249999999999999
 40
0.7499999999999998
 40
0.7499999999999998
 40
0.8749999999999999
 40
0.8749999999999999
 40
1.0
 40
1.0
 40
1.0
 40
1.0
 10
403.2833404697099
 20
289.5914186458681
 30
0.0
 10
403.5303995093231
 20
289.8209157544003
 30
0.0
 10
403.7909283381141
 20
290.0214348424549
 30
0.0
 10
404.3280062289551
 20
290.3805653611502
 30
0.0
 10
404.6047485010974
 20
290.5388666821199
 30
0.0
 10
405.0286513716644
 20
290.748417031355
 30
0.0
 10
405.1709703159478
 20
290.8132869999801
 30
0.0
 10
405.4540119417338
 20
290.9322404017432
 30
0.0
 10
405.5952180998199
 20
290.9865638800292
 30
0.0
 10
406.0175743779898
 20
291.1348310970324
 30
0.0
 10
406.2974474823124
 20
291.2141698384232
 30
0.0
 10
406.7138432164955
 20
291.304723527511
 30
0.0
 10
406.8520772262631
 20
291.3301390513515
 30
0.0
 10
407.1273124109005
 20
291.3712716132752
 30
0.0
 10
407.2647200999193
 20
291.3870173951132
 30
0.0
 10
407.6721139305725
 20
291.4189816761223
 30
0.0
 10
407.9346727170432
 20
291.4199274166518
 30
0.0
 10
408.4423119845409
 20
291.3819897022599
 30
0.0
 10
408.6873899879807
 20
291.3430963725033
 30
0.0
 10
409.1603368469509
 20
291.2240944631047
 30
0.0
 10
409.3886907633176
 20
291.1435386099062
 30
0.0
 10
409.6046085218059
 20
291.0428211558862
 30
0.0
  0
LINE
  5
2E1
330
1F
100
AcDbEntity
  8
0
  6
Continuous
 62
     8
370
     0
100
AcDbLine
 10
420.6027842964
 20
258.5028022593
 30
0.0
 11
420.6027842964
 21
248.6598223514
 31
0.0
  0
LINE
  5
2E2
330
1F
100
AcDbEntity
  8
0
  6
Continuous
 62
     8
370
     0
100
AcDbLine
 10
374.1252459492
 20
258.5028022593
 30
0.0
 11
374.1252459492
 21
248.6598223514
 31
0.0
  0
ARC
  5
2E3
330
1F
100
AcDbEntity
  8
0
  6
Continuous
 62
     8
370
     0
100
AcDbCircle
 10
411.680051857
 20
290.5520283753
 30
0.0
 40
2.132684953013929
100
AcDbArc
 50
166.6952898823
 51
225.4428449009
  0
ARC
  5
2E4
330
1F
100
AcDbEntity
  8
0
  6
Continuous
 62
     8
370
     0
100
AcDbCircle
 10
383.0479783886
 20
290.5520283753
 30
0.0
 40
2.13268495301413
100
AcDbArc
 50
314.5571550991
 51
13.3047101177
  0
LINE
  5
2E5
330
1F
100
AcDbEntity
  8
0
  6
Continuous
 62
     8
370
     0
100
AcDbLine
 10
385.3715069498
 20
298.0860471791
 30
0.0
 11
401.2818083073
 21
298.0860471791
 31
0.0
  0
SPLINE
  5
2E6
330
1F
100
AcDbEntity
  8
0
  6
Continuous
 62
     8
370
     0
100
AcDbSpline
210
0.0
220
0.0
230
1.0
 70
     8
 71
     3
 72
    14
 73
    10
 74
     0
 42
0.00000001
 43
0.00000001
 12
1.0
 22
0.0
 32
0.0
 13
1.0
 23
0.0
 33
0.0
 40
0.0
 40
0.0
 40
0.0
 40
0.0
 40
0.0000702859950909
 40
0.0536049916209795
 40
0.2665901519834649
 40
0.4851698471820803
 40
0.6994329219900669
 40
0.9185656584490222
 40
1.0
 40
1.0
 40
1.0
 40
1.0
 10
414.1978897060687
 20
287.2645735806424
 30
0.0
 10
414.1979085963123
 20
287.2645636384945
 30
0.0
 10
414.2123156107438
 20
287.2569810645705
 30
0.0
 10
414.1499783271142
 20
287.2890479555386
 30
0.0
 10
413.9676112171622
 20
287.3771578072343
 30
0.0
 10
413.273679292149
 20
287.7098356203522
 30
0.0
 10
412.2225097866776
 20
288.1879624428012
 30
0.0
 10
411.1319542789536
 20
288.6548309192583
 30
0.0
 10
410.3858600838778
 20
288.9518961998398
 30
0.0
 10
410.1837165560062
 20
289.0323817795713
 30
0.0
  0
SPLINE
  5
2E7
330
1F
100
AcDbEntity
  8
0
  6
Continuous
 62
     8
370
     0
100
AcDbSpline
210
0.0
220
0.0
230
1.0
 70
     8
 71
     3
 72
    14
 73
    10
 74
     0
 42
0.00000001
 43
0.00000001
 12
1.0
 22
0.0
 32
0.0
 13
1.0
 23
0.0
 33
0.0
 40
0.0
 40
0.0
 40
0.0
 40
0.0
 40
0.0001044709489174
 40
0.053637346364728
 40
0.2666152253275602
 40
0.4851874478641642
 40
0.6994431975839808
 40
0.9185684424739059
 40
1.0
 40
1.0
 40
1.0
 40
1.0
 10
380.5301688517864
 20
287.2645855015713
 30
0.0
 10
380.5301405052263
 20
287.2645715769538
 30
0.0
 10
380.515586849158
 20
287.2574224168876
 30
0.0
 10
380.5782832781251
 20
287.2881876053992
 30
0.0
 10
380.7603257198948
 20
287.3775047911646
 30
0.0
 10
381.4543757035556
 20
287.7097435830441
 30
0.0
 10
382.5055135404859
 20
288.18798817037
 30
0.0
 10
383.5960765168638
 20
288.6548288733627
 30
0.0
 10
384.3421702790549
 20
288.9518957636996
 30
0.0
 10
384.5443136896426
 20
289.0323817795713
 30
0.0
  0
LINE
  5
2E8
330
1F
100
AcDbEntity
  8
0
  6
Continuous
 62
     8
370
     0
100
AcDbLine
 10
406.566161653
 20
298.0860471791
 30
0.0
 11
409.5943152811
 21
298.0860471791
 31
0.0
  0
LINE
  5
2E9
330
1F
100
AcDbEntity
  8
0
  6
Continuous
 62
     8
370
     0
100
AcDbLine
 10
386.7729402985
 20
312.9656076497
 30
0.0
 11
400.581091633
 21
312.9656076497
 31
0.0
  0
LINE
  5
2EA
330
1F
100
AcDbEntity
  8
0
  6
Continuous
 62
     8
370
     0
100
AcDbLine
 10
405.2543274965
 20
312.9656076497
 30
0.0
 11
408.2236133422
 21
312.9656076497
 31
0.0
  0
INSERT
  5
2F6
330
1F
100
AcDbEntity
  8
FORMAT
100
AcDbBlockReference
  2
SW_CENTERMARKSYMBOL_0
 10
397.3640151228
 20
216.10280276
 30
0.0
  0
LINE
  5
2F7
330
1F
100
AcDbEntity
  8
0
  6
Continuous
 62
     7
370
    15
100
AcDbLine
 10
234.2283144348
 20
116.7613977418
 30
0.0
 11
227.828316366
 21
116.7613977418
 31
0.0
  0
LINE
  5
2F8
330
1F
100
AcDbEntity
  8
0
  6
Continuous
 62
     7
370
    15
100
AcDbLine
 10
227.828316366
 20
36.7613965497
 30
0.0
 11
234.2283144348
 21
36.7613965497
 31
0.0
  0
LINE
  5
2F9
330
1F
100
AcDbEntity
  8
0
  6
Continuous
 62
     7
370
    15
100
AcDbLine
 10
164.6283164375
 20
36.7613965497
 30
0.0
 11
171.0283145063
 21
36.7613965497
 31
0.0
  0
LINE
  5
2FA
330
1F
100
AcDbEntity
  8
0
  6
Continuous
 62
     7
370
    15
100
AcDbLine
 10
171.0283145063
 20
116.7613977418
 30
0.0
 11
164.6283164375
 21
116.7613977418
 31
0.0
  0
LINE
  5
2FB
330
1F
100
AcDbEntity
  8
0
  6
Continuous
 62
     7
370
    15
100
AcDbLine
 10
226.4159217232
 20
97.3268562779
 30
0.0
 11
220.5244570725
 21
96.1816707477
 31
0.0
  0
LINE
  5
2FC
330
1F
100
AcDbEntity
  8
0
  6
Continuous
 62
     7
370
    15
100
AcDbLine
 10
178.3321737998
 20
96.1816707477
 30
0.0
 11
172.4407091492
 21
97.3268562779
 31
0.0
  0
LINE
  5
2FD
330
1F
100
AcDbEntity
  8
0
  6
Continuous
 62
     7
370
    15
100
AcDbLine
 10
172.4407091492
 20
56.1959380135
 30
0.0
 11
178.3321737998
 21
57.3411235437
 31
0.0
  0
LINE
  5
2FE
330
1F
100
AcDbEntity
  8
0
  6
Continuous
 62
     7
370
    15
100
AcDbLine
 10
220.5244570725
 20
57.3411235437
 30
0.0
 11
226.4159217232
 21
56.1959380135
 31
0.0
  0
SPLINE
  5
2FF
330
1F
100
AcDbEntity
  8
0
  6
Continuous
 62
     7
370
    15
100
AcDbSpline
210
0.0
220
0.0
230
1.0
 70
     8
 71
     3
 72
    14
 73
    10
 74
     0
 42
0.00000001
 43
0.00000001
 12
1.0
 22
0.0
 32
0.0
 13
1.0
 23
0.0
 33
0.0
 40
0.0
 40
0.0
 40
0.0
 40
0.0
 40
0.4999999999999993
 40
0.4999999999999993
 40
0.7499999999999994
 40
0.7499999999999994
 40
0.8749999999999997
 40
0.8749999999999997
 40
1.0
 40
1.0
 40
1.0
 40
1.0
 10
220.4497631347192
 20
105.1716126082744
 30
0.0
 10
219.4041996634567
 20
106.0148702925948
 30
0.0
 10
218.3052694343714
 20
106.7720395208595
 30
0.0
 10
216.5732256955013
 20
107.7728561571806
 30
0.0
 10
215.9819786753033
 20
108.084040391457
 30
0.0
 10
215.0742698838437
 20
108.5172015523756
 30
0.0
 10
214.7682307773887
 20
108.6559917754928
 30
0.0
 10
214.1492515629293
 20
108.9224398878012
 30
0.0
 10
213.8360451065328
 20
109.0501779369101
 30
0.0
 10
213.5215599044432
 20
109.1716126082746
 30
0.0
  0
SPLINE
  5
300
330
1F
100
AcDbEntity
  8
0
  6
Continuous
 62
     7
370
    15
100
AcDbSpline
210
0.0
220
0.0
230
1.0
 70
     8
 71
     3
 72
     9
 73
     5
 74
     0
 42
0.00000001
 43
0.00000001
 12
1.0
 22
0.0
 32
0.0
 13
1.0
 23
0.0
 33
0.0
 40
0.0
 40
0.0
 40
0.0
 40
0.0
 40
0.5
 40
1.0
 40
1.0
 40
1.0
 40
1.0
 10
164.3136232692953
 20
72.76139714570516
 30
0.0
 10
164.1051499057894
 20
74.0947304790385
 30
0.0
 10
163.8936187264339
 20
76.76139714570516
 30
0.0
 10
164.1051499057894
 20
79.42806381237183
 30
0.0
 10
164.3136232692953
 20
80.76139714570517
 30
0.0
  0
SPLINE
  5
301
330
1F
100
AcDbEntity
  8
0
  6
Continuous
 62
     7
370
    15
100
AcDbSpline
210
0.0
220
0.0
230
1.0
 70
     8
 71
     3
 72
    12
 73
     8
 74
     0
 42
0.00000001
 43
0.00000001
 12
1.0
 22
0.0
 32
0.0
 13
1.0
 23
0.0
 33
0.0
 40
0.0
 40
0.0
 40
0.0
 40
0.0
 40
0.5000000000000009
 40
0.5000000000000009
 40
0.7500000000000004
 40
0.7500000000000004
 40
1.0
 40
1.0
 40
1.0
 40
1.0
 10
213.5215599044441
 20
44.3511816831361
 30
0.0
 10
214.7592854716206
 20
44.82911449679747
 30
0.0
 10
215.9607925228186
 20
45.39807164040782
 30
0.0
 10
217.7032114747195
 20
46.40190125413926
 30
0.0
 10
218.2758825275801
 20
46.76290734298699
 30
0.0
 10
219.3865998259434
 20
47.52604858545762
 30
0.0
 10
219.9258395833303
 20
47.92863195483319
 30
0.0
 10
220.4497631347197
 20
48.35118168313625
 30
0.0
  0
LINE
  5
302
330
1F
100
AcDbEntity
  8
0
  6
Continuous
 62
     7
370
    15
100
AcDbLine
 10
190.2631640189
 20
80.7613970563
 30
0.0
 11
164.3136217945
 21
80.7613970563
 31
0.0
  0
LINE
  5
303
330
1F
100
AcDbEntity
  8
0
  6
Continuous
 62
     7
370
    15
100
AcDbLine
 10
190.2631640189
 20
72.7613972351
 30
0.0
 11
164.3136217945
 21
72.7613972351
 31
0.0
  0
LINE
  5
304
330
1F
100
AcDbEntity
  8
0
  6
Continuous
 62
     7
370
    15
100
AcDbLine
 10
207.4749923997
 20
82.698651202
 30
0.0
 11
220.4497635119
 21
105.1716113314
 31
0.0
  0
LINE
  5
305
330
1F
100
AcDbEntity
  8
0
  6
Continuous
 62
     7
370
    15
100
AcDbLine
 10
200.5467895173
 20
86.6986507401
 30
0.0
 11
213.5215595119
 21
109.1716134772
 31
0.0
  0
LINE
  5
306
330
1F
100
AcDbEntity
  8
0
  6
Continuous
 62
     7
370
    15
100
AcDbLine
 10
200.5467895173
 20
66.8241435513
 30
0.0
 11
213.5215595119
 21
44.3511808142
 31
0.0
  0
LINE
  5
307
330
1F
100
AcDbEntity
  8
0
  6
Continuous
 62
     7
370
    15
100
AcDbLine
 10
207.4749923997
 20
70.8241430894
 30
0.0
 11
220.4497635119
 21
48.35118296
 31
0.0
  0
CIRCLE
  5
308
330
1F
100
AcDbEntity
  8
0
  6
Continuous
 62
     7
370
    15
100
AcDbCircle
 10
199.4283154362
 20
76.7613971457
 30
0.0
 40
45.0
  0
ARC
  5
309
330
1F
100
AcDbEntity
  8
0
  6
Continuous
 62
     7
370
    15
100
AcDbCircle
 10
199.4283154362
 20
76.7613971457
 30
0.0
 40
33.9303553121626
100
AcDbArc
 50
66.770259755
 51
173.229740245
  0
ARC
  5
30A
330
1F
100
AcDbEntity
  8
0
  6
Continuous
 62
     7
370
    15
100
AcDbCircle
 10
199.4283154362
 20
76.7613971457
 30
0.0
 40
33.9303553121626
100
AcDbArc
 50
306.770259755
 51
53.229740245
  0
ARC
  5
30B
330
1F
100
AcDbEntity
  8
0
  6
Continuous
 62
     7
370
    15
100
AcDbCircle
 10
199.4283154362
 20
76.7613971457
 30
0.0
 40
33.93035531216261
100
AcDbArc
 50
186.770259755
 51
293.229740245
  0
CIRCLE
  5
30C
330
1F
100
AcDbEntity
  8
0
  6
Continuous
 62
     7
370
    15
100
AcDbCircle
 10
199.4283154362
 20
76.7613971457
 30
0.0
 40
9.999999999999986
  0
LINE
  5
30D
330
1F
100
AcDbEntity
  8
0
  6
Continuous
 62
     7
370
    15
100
AcDbLine
 10
192.4283154064
 20
64.161396943
 30
0.0
 11
202.0841266715
 21
64.161396943
 31
0.0
  0
LINE
  5
30E
330
1F
100
AcDbEntity
  8
0
  6
Continuous
 62
     7
370
    15
100
AcDbLine
 10
192.4283154064
 20
69.6199687049
 30
0.0
 11
192.4283154064
 21
64.161396943
 31
0.0
  0
LINE
  5
30F
330
1F
100
AcDbEntity
  8
0
  6
Continuous
 62
     7
370
    15
100
AcDbLine
 10
189.0360109263
 20
80.7613970563
 30
0.0
 11
191.1020360642
 21
84.3398580179
 31
0.0
  0
LINE
  5
310
330
1F
100
AcDbEntity
  8
0
  6
Continuous
 62
     7
370
    15
100
AcDbLine
 10
192.2211758547
 20
83.6937228069
 30
0.0
 11
191.1020360642
 21
84.3398580179
 31
0.0
  0
LINE
  5
311
330
1F
100
AcDbEntity
  8
0
  6
Continuous
 62
     7
370
    15
100
AcDbLine
 10
208.0885693186
 20
83.7613971755
 30
0.0
 11
210.1545952015
 21
80.1829362139
 31
0.0
  0
LINE
  5
312
330
1F
100
AcDbEntity
  8
0
  6
Continuous
 62
     7
370
    15
100
AcDbLine
 10
209.035455411
 20
79.5368006304
 30
0.0
 11
210.1545952015
 21
80.1829362139
 31
0.0
  0
LINE
  5
313
330
1F
100
AcDbEntity
  8
0
  6
Continuous
 62
     7
370
    15
100
AcDbLine
 10
187.7001121395
 20
80.7613970563
 30
0.0
 11
185.586881613
 21
81.9814713523
 31
0.0
  0
LINE
  5
314
330
1F
100
AcDbEntity
  8
0
  6
Continuous
 62
     7
370
    15
100
AcDbLine
 10
187.9868820064
 20
86.1383931562
 30
0.0
 11
185.586881613
 21
81.9814713523
 31
0.0
  0
LINE
  5
315
330
1F
100
AcDbEntity
  8
0
  6
Continuous
 62
     7
370
    15
100
AcDbLine
 10
191.1020360642
 20
84.3398580179
 30
0.0
 11
187.9868820064
 21
86.1383931562
 31
0.0
  0
LINE
  5
316
330
1F
100
AcDbEntity
  8
0
  6
Continuous
 62
     7
370
    15
100
AcDbLine
 10
213.2697492593
 20
81.9814713523
 30
0.0
 11
210.8697488659
 21
86.1383931562
 31
0.0
  0
LINE
  5
317
330
1F
100
AcDbEntity
  8
0
  6
Continuous
 62
     7
370
    15
100
AcDbLine
 10
208.7565183394
 20
84.9183188602
 30
0.0
 11
210.8697488659
 21
86.1383931562
 31
0.0
  0
LINE
  5
318
330
1F
100
AcDbEntity
  8
0
  6
Continuous
 62
     7
370
    15
100
AcDbLine
 10
210.1545952015
 20
80.1829362139
 30
0.0
 11
213.2697492593
 21
81.9814713523
 31
0.0
  0
LINE
  5
319
330
1F
100
AcDbEntity
  8
0
  6
Continuous
 62
     7
370
    15
100
AcDbLine
 10
197.0283154153
 20
62.1643269286
 30
0.0
 11
201.828315457
 21
62.1643269286
 31
0.0
  0
LINE
  5
31A
330
1F
100
AcDbEntity
  8
0
  6
Continuous
 62
     7
370
    15
100
AcDbLine
 10
197.0283154153
 20
64.161396943
 30
0.0
 11
197.0283154153
 21
62.1643269286
 31
0.0
  0
LINE
  5
31B
330
1F
100
AcDbEntity
  8
0
  6
Continuous
 62
     7
370
    15
100
AcDbLine
 10
201.828315457
 20
64.161396943
 30
0.0
 11
201.828315457
 21
62.1643269286
 31
0.0
  0
ARC
  5
31C
330
1F
100
AcDbEntity
  8
0
  6
Continuous
 62
     7
370
    15
100
AcDbCircle
 10
199.4283154362
 20
76.7613971457
 30
0.0
 40
11.38950066490874
100
AcDbArc
 50
80.5607696264
 51
137.8354278435
  0
ARC
  5
31D
330
1F
100
AcDbEntity
  8
0
  6
Continuous
 62
     7
370
    15
100
AcDbCircle
 10
199.4283154362
 20
76.7613971457
 30
0.0
 40
11.3895006649087
100
AcDbArc
 50
320.5607696264
 51
17.8354278435
  0
ARC
  5
31E
330
1F
100
AcDbEntity
  8
0
  6
Continuous
 62
     7
370
    15
100
AcDbCircle
 10
199.4283154362
 20
76.7613971457
 30
0.0
 40
11.38950066490873
100
AcDbArc
 50
200.5607696264
 51
232.0770564641
  0
ARC
  5
31F
330
1F
100
AcDbEntity
  8
0
  6
Continuous
 62
     7
370
    15
100
AcDbCircle
 10
199.4283154362
 20
76.7613971457
 30
0.0
 40
16.00000000000004
100
AcDbArc
 50
74.4775121859
 51
165.5224878141
  0
ARC
  5
320
330
1F
100
AcDbEntity
  8
0
  6
Continuous
 62
     7
370
    15
100
AcDbCircle
 10
199.4283154362
 20
76.7613971457
 30
0.0
 40
16.0
100
AcDbArc
 50
314.4775121859
 51
45.5224878141
  0
ARC
  5
321
330
1F
100
AcDbEntity
  8
0
  6
Continuous
 62
     7
370
    15
100
AcDbCircle
 10
199.4283154362
 20
76.7613971457
 30
0.0
 40
16.00000000000001
100
AcDbArc
 50
194.4775121859
 51
285.5224878141
  0
SPLINE
  5
322
330
1F
100
AcDbEntity
  8
0
  6
Continuous
 62
     7
370
    15
100
AcDbSpline
210
0.0
220
0.0
230
1.0
 70
     8
 71
     3
 72
     9
 73
     5
 74
     0
 42
0.00000001
 43
0.00000001
 12
1.0
 22
0.0
 32
0.0
 13
1.0
 23
0.0
 33
0.0
 40
0.0
 40
0.0
 40
0.0
 40
0.0
 40
0.8747017142551535
 40
1.0
 40
1.0
 40
1.0
 40
1.0
 10
184.5635384075922
 20
70.84207179399006
 30
0.0
 10
184.4279599726862
 20
71.18322541958712
 30
0.0
 10
184.2729603508764
 20
71.57324823540787
 30
0.0
 10
184.1530340032668
 20
72.01183212902846
 30
0.0
 10
184.1380074374957
 20
72.06678593905443
 30
0.0
  0
LINE
  5
323
330
1F
100
AcDbEntity
  8
0
  6
Continuous
 62
     7
370
    15
100
AcDbLine
 10
184.5451831572
 20
82.6293276474
 30
0.0
 11
184.5635384076
 21
82.6807224974
 31
0.0
  0
ARC
  5
324
330
1F
100
AcDbEntity
  8
0
  6
Continuous
 62
     7
370
    15
100
AcDbCircle
 10
199.4283154362
 20
50.7613971457
 30
0.0
 40
46.98209891266325
100
AcDbArc
 50
104.2291209381
 51
104.885138624
  0
ARC
  5
325
330
1F
100
AcDbEntity
  8
0
  6
Continuous
 62
     7
370
    15
100
AcDbCircle
 10
199.4283154362
 20
50.7613971457
 30
0.0
 40
49.0185585222675
100
AcDbArc
 50
80.2921667443
 51
102.3463125859
  0
ARC
  5
326
330
1F
100
AcDbEntity
  8
0
  6
Continuous
 62
     7
370
    15
100
AcDbCircle
 10
199.4283154362
 20
102.7613971457
 30
0.0
 40
49.01855852226748
100
AcDbArc
 50
257.6536874141
 51
279.7078332557
  0
ARC
  5
327
330
1F
100
AcDbEntity
  8
0
  6
Continuous
 62
     7
370
    15
100
AcDbCircle
 10
199.4283154362
 20
102.7613971457
 30
0.0
 40
46.98209891266324
100
AcDbArc
 50
255.114861376
 51
255.7708790619
  0
SPLINE
  5
328
330
1F
100
AcDbEntity
  8
0
  6
Continuous
 62
     7
370
    15
100
AcDbSpline
210
0.0
220
0.0
230
1.0
 70
     8
 71
     3
 72
    12
 73
     8
 74
     0
 42
0.00000001
 43
0.00000001
 12
1.0
 22
0.0
 32
0.0
 13
1.0
 23
0.0
 33
0.0
 40
0.0
 40
0.0
 40
0.0
 40
0.0
 40
0.2500000000000002
 40
0.2500000000000002
 40
0.5000000000000003
 40
0.5000000000000003
 40
1.0
 40
1.0
 40
1.0
 40
1.0
 10
187.3594539865628
 20
96.16690563916733
 30
0.0
 10
187.112593230772
 20
96.10128963005667
 30
0.0
 10
186.8759323762575
 20
96.01393898908219
 30
0.0
 10
186.421168782858
 20
95.79969283308365
 30
0.0
 10
186.2030815425182
 20
95.67276429272287
 30
0.0
 10
185.5762341539631
 20
95.23356237840775
 30
0.0
 10
185.2168053892932
 20
94.88000718392041
 30
0.0
 10
184.9078223458851
 20
94.47468260370124
 30
0.0
  0
SPLINE
  5
329
330
1F
100
AcDbEntity
  8
0
  6
Continuous
 62
     7
370
    15
100
AcDbSpline
210
0.0
220
0.0
230
1.0
 70
     8
 71
     3
 72
    12
 73
     8
 74
     0
 42
0.00000001
 43
0.00000001
 12
1.0
 22
0.0
 32
0.0
 13
1.0
 23
0.0
 33
0.0
 40
0.0
 40
0.0
 40
0.0
 40
0.0
 40
0.2500000000000002
 40
0.2500000000000002
 40
0.5000000000000003
 40
0.5000000000000003
 40
1.0
 40
1.0
 40
1.0
 40
1.0
 10
187.3594539865628
 20
57.35588865224298
 30
0.0
 10
187.112593230772
 20
57.42150466135364
 30
0.0
 10
186.8759323762575
 20
57.50885530232811
 30
0.0
 10
186.421168782858
 20
57.72310145832665
 30
0.0
 10
186.2030815425182
 20
57.85002999868743
 30
0.0
 10
185.5762341539631
 20
58.28923191300256
 30
0.0
 10
185.2168053892932
 20
58.6427871074899
 30
0.0
 10
184.9078223458851
 20
59.04811168770906
 30
0.0
  0
ARC
  5
32A
330
1F
100
AcDbEntity
  8
0
  6
Continuous
 62
     7
370
    15
100
AcDbCircle
 10
276.4283154362
 20
76.7613971457
 30
0.0
 40
99.99999999999994
100
AcDbArc
 50
166.5426782883
 51
167.5515494856
  0
ARC
  5
32B
330
1F
100
AcDbEntity
  8
0
  6
Continuous
 62
     7
370
    15
100
AcDbCircle
 10
183.8283154362
 20
99.5613971457
 30
0.0
 40
5.199999999999974
100
AcDbArc
 50
193.8398449981
 51
281.9815956322
  0
ARC
  5
32C
330
1F
100
AcDbEntity
  8
0
  6
Continuous
 62
     7
370
    15
100
AcDbCircle
 10
185.0092228052
 20
98.6371714757
 30
0.0
 40
6.000000000000009
100
AcDbArc
 50
106.7611046741
 51
166.5426782883
  0
ARC
  5
32D
330
1F
100
AcDbEntity
  8
0
  6
Continuous
 62
     7
370
    15
100
AcDbCircle
 10
199.4283154362
 20
50.7613971457
 30
0.0
 40
56.00000000000002
100
AcDbArc
 50
105.5057886151
 51
106.7611046741
  0
ARC
  5
32E
330
1F
100
AcDbEntity
  8
0
  6
Continuous
 62
     7
370
    15
100
AcDbCircle
 10
183.8283154362
 20
99.5613971457
 30
0.0
 40
5.200000000000019
100
AcDbArc
 50
321.1866180031
 51
83.0501912672
  0
ARC
  5
32F
330
1F
100
AcDbEntity
  8
0
  6
Continuous
 62
     7
370
    15
100
AcDbCircle
 10
122.4283154362
 20
76.7613971457
 30
0.0
 40
100.0
100
AcDbArc
 50
12.4484505144
 51
13.4573217117
  0
ARC
  5
330
330
1F
100
AcDbEntity
  8
0
  6
Continuous
 62
     7
370
    15
100
AcDbCircle
 10
215.0283154362
 20
99.5613971457
 30
0.0
 40
5.200000000000017
100
AcDbArc
 50
261.3129775536
 51
346.1601550019
  0
ARC
  5
331
330
1F
100
AcDbEntity
  8
0
  6
Continuous
 62
     7
370
    15
100
AcDbCircle
 10
213.8474080671
 20
98.6371714757
 30
0.0
 40
6.000000000000009
100
AcDbArc
 50
13.4573217117
 51
35.8936825135
  0
ARC
  5
332
330
1F
100
AcDbEntity
  8
0
  6
Continuous
 62
     7
370
    15
100
AcDbCircle
 10
199.4283154362
 20
102.7613971457
 30
0.0
 40
56.00000000000001
100
AcDbArc
 50
253.2388953259
 51
254.4942113849
  0
ARC
  5
333
330
1F
100
AcDbEntity
  8
0
  6
Continuous
 62
     7
370
    15
100
AcDbCircle
 10
276.4283154362
 20
76.7613971457
 30
0.0
 40
99.99999999999994
100
AcDbArc
 50
192.4484505144
 51
193.4573217117
  0
ARC
  5
334
330
1F
100
AcDbEntity
  8
0
  6
Continuous
 62
     7
370
    15
100
AcDbCircle
 10
185.0092228052
 20
54.8856228157
 30
0.0
 40
6.000000000000012
100
AcDbArc
 50
193.4573217117
 51
253.2388953259
  0
ARC
  5
335
330
1F
100
AcDbEntity
  8
0
  6
Continuous
 62
     7
370
    15
100
AcDbCircle
 10
183.8283154362
 20
53.9613971457
 30
0.0
 40
5.199999999999972
100
AcDbArc
 50
78.0184043678
 51
166.1601550019
  0
ARC
  5
336
330
1F
100
AcDbEntity
  8
0
  6
Continuous
 62
     7
370
    15
100
AcDbCircle
 10
183.8283154362
 20
53.9613971457
 30
0.0
 40
5.200000000000014
100
AcDbArc
 50
276.9498087328
 51
38.8133819969
  0
ARC
  5
337
330
1F
100
AcDbEntity
  8
0
  6
Continuous
 62
     7
370
    15
100
AcDbCircle
 10
122.4283154362
 20
76.7613971457
 30
0.0
 40
100.0
100
AcDbArc
 50
346.5426782883
 51
347.5515494856
  0
ARC
  5
338
330
1F
100
AcDbEntity
  8
0
  6
Continuous
 62
     7
370
    15
100
AcDbCircle
 10
213.8474080671
 20
54.8856228157
 30
0.0
 40
6.000000000000012
100
AcDbArc
 50
324.1063174865
 51
346.5426782883
  0
ARC
  5
339
330
1F
100
AcDbEntity
  8
0
  6
Continuous
 62
     7
370
    15
100
AcDbCircle
 10
215.0283154362
 20
53.9613971457
 30
0.0
 40
5.200000000000006
100
AcDbArc
 50
13.8398449981
 51
98.6870224464
  0
ARC
  5
33A
330
1F
100
AcDbEntity
  8
0
  6
Continuous
 62
     7
370
    15
100
AcDbCircle
 10
199.4283154362
 20
50.7613971457
 30
0.0
 40
55.965092528837
100
AcDbArc
 50
77.6836248236
 51
105.4212430278
  0
ARC
  5
33B
330
1F
100
AcDbEntity
  8
0
  6
Continuous
 62
     7
370
    15
100
AcDbCircle
 10
199.4283154362
 20
102.7613971457
 30
0.0
 40
55.96509252883699
100
AcDbArc
 50
254.5787569722
 51
282.3163751764
  0
ARC
  5
33C
330
1F
100
AcDbEntity
  8
0
  6
Continuous
 62
     7
370
    15
100
AcDbCircle
 10
122.4283154362
 20
76.7613971457
 30
0.0
 40
94.31901714456244
100
AcDbArc
 50
349.2452948051
 51
10.7547051949
  0
ARC
  5
33D
330
1F
100
AcDbEntity
  8
0
  6
Continuous
 62
     7
370
    15
100
AcDbCircle
 10
276.4283154362
 20
76.7613971457
 30
0.0
 40
94.31901714456238
100
AcDbArc
 50
182.4306007424
 51
190.7547051949
  0
ARC
  5
33E
330
1F
100
AcDbEntity
  8
0
  6
Continuous
 62
     7
370
    15
100
AcDbCircle
 10
276.4283154362
 20
76.7613971457
 30
0.0
 40
94.31901714456238
100
AcDbArc
 50
169.2452948051
 51
177.5693992576
  0
ARC
  5
33F
330
1F
100
AcDbEntity
  8
0
  6
Continuous
 62
     7
370
    15
100
AcDbCircle
 10
122.4283154362
 20
76.7613971457
 30
0.0
 40
99.96509252883696
100
AcDbArc
 50
347.5913291127
 51
12.4086708873
  0
ARC
  5
340
330
1F
100
AcDbEntity
  8
0
  6
Continuous
 62
     7
370
    15
100
AcDbCircle
 10
276.4283154362
 20
76.7613971457
 30
0.0
 40
99.9650925288369
100
AcDbArc
 50
182.2932437169
 51
192.4086708873
  0
ARC
  5
341
330
1F
100
AcDbEntity
  8
0
  6
Continuous
 62
     7
370
    15
100
AcDbCircle
 10
276.4283154362
 20
76.7613971457
 30
0.0
 40
99.9650925288369
100
AcDbArc
 50
167.5913291127
 51
177.7067562831
  0
ARC
  5
342
330
1F
100
AcDbEntity
  8
0
  6
Continuous
 62
     7
370
    15
100
AcDbCircle
 10
199.4283154362
 20
50.7613971457
 30
0.0
 40
56.00000000000002
100
AcDbArc
 50
77.6722382585
 51
105.5057886151
  0
ARC
  5
343
330
1F
100
AcDbEntity
  8
0
  6
Continuous
 62
     7
370
    15
100
AcDbCircle
 10
276.4283154362
 20
76.7613971457
 30
0.0
 40
99.99999999999994
100
AcDbArc
 50
182.292442776
 51
192.4484505144
  0
ARC
  5
344
330
1F
100
AcDbEntity
  8
0
  6
Continuous
 62
     7
370
    15
100
AcDbCircle
 10
276.4283154362
 20
76.7613971457
 30
0.0
 40
99.99999999999994
100
AcDbArc
 50
167.5515494856
 51
177.707557224
  0
ARC
  5
345
330
1F
100
AcDbEntity
  8
0
  6
Continuous
 62
     7
370
    15
100
AcDbCircle
 10
122.4283154362
 20
76.7613971457
 30
0.0
 40
100.0
100
AcDbArc
 50
347.5515494856
 51
12.4484505144
  0
ARC
  5
346
330
1F
100
AcDbEntity
  8
0
  6
Continuous
 62
     7
370
    15
100
AcDbCircle
 10
199.4283154362
 20
102.7613971457
 30
0.0
 40
56.00000000000002
100
AcDbArc
 50
254.4942113849
 51
282.3277617415
  0
ARC
  5
347
330
1F
100
AcDbEntity
  8
0
  6
Continuous
 62
     7
370
    15
100
AcDbCircle
 10
214.5177602951
 20
99.268599228
 30
0.0
 40
5.199999999999997
100
AcDbArc
 50
13.7341834522
 51
35.1440608264
  0
ARC
  5
348
330
1F
100
AcDbEntity
  8
0
  6
Continuous
 62
     7
370
    15
100
AcDbCircle
 10
122.4283154362
 20
76.7613971457
 30
0.0
 40
100.0
100
AcDbArc
 50
13.4573217117
 51
13.7341834522
  0
ARC
  5
349
330
1F
100
AcDbEntity
  8
0
  6
Continuous
 62
     7
370
    15
100
AcDbCircle
 10
184.3388705772
 20
99.268599228
 30
0.0
 40
5.199999999999997
100
AcDbArc
 50
107.2796840514
 51
166.2658165478
  0
ARC
  5
34A
330
1F
100
AcDbEntity
  8
0
  6
Continuous
 62
     7
370
    15
100
AcDbCircle
 10
276.4283154362
 20
76.7613971457
 30
0.0
 40
100.0
100
AcDbArc
 50
166.2658165478
 51
166.5426782883
  0
ARC
  5
34B
330
1F
100
AcDbEntity
  8
0
  6
Continuous
 62
     7
370
    15
100
AcDbCircle
 10
199.4283154362
 20
50.7613971457
 30
0.0
 40
56.00000000000001
100
AcDbArc
 50
106.7611046741
 51
107.2796840514
  0
ARC
  5
34C
330
1F
100
AcDbEntity
  8
0
  6
Continuous
 62
     7
370
    15
100
AcDbCircle
 10
214.5177602951
 20
54.2541950634
 30
0.0
 40
5.200000000000006
100
AcDbArc
 50
324.8559391736
 51
346.2658165478
  0
ARC
  5
34D
330
1F
100
AcDbEntity
  8
0
  6
Continuous
 62
     7
370
    15
100
AcDbCircle
 10
122.4283154362
 20
76.7613971457
 30
0.0
 40
100.0
100
AcDbArc
 50
346.2658165478
 51
346.5426782883
  0
ARC
  5
34E
330
1F
100
AcDbEntity
  8
0
  6
Continuous
 62
     7
370
    15
100
AcDbCircle
 10
199.4283154362
 20
102.7613971457
 30
0.0
 40
56.00000000000001
100
AcDbArc
 50
252.7203159486
 51
253.2388953259
  0
ARC
  5
34F
330
1F
100
AcDbEntity
  8
0
  6
Continuous
 62
     7
370
    15
100
AcDbCircle
 10
184.3388705772
 20
54.2541950634
 30
0.0
 40
5.199999999999998
100
AcDbArc
 50
193.7341834522
 51
252.7203159486
  0
ARC
  5
350
330
1F
100
AcDbEntity
  8
0
  6
Continuous
 62
     7
370
    15
100
AcDbCircle
 10
276.4283154362
 20
76.7613971457
 30
0.0
 40
99.99999999999996
100
AcDbArc
 50
193.4573217117
 51
193.7341834522
  0
LINE
  5
351
330
1F
100
AcDbEntity
  8
0
  6
Continuous
 62
     7
370
    15
100
AcDbLine
 10
227.828316366
 20
78.3613972217
 30
0.0
 11
227.828316366
 21
95.3277373538
 31
0.0
  0
LINE
  5
352
330
1F
100
AcDbEntity
  8
0
  6
Continuous
 62
     7
370
    15
100
AcDbLine
 10
227.828316366
 20
111.6675579772
 30
0.0
 11
227.828316366
 21
116.7613977418
 31
0.0
  0
LINE
  5
353
330
1F
100
AcDbEntity
  8
0
  6
Continuous
 62
     7
370
    15
100
AcDbLine
 10
227.828316366
 20
75.1613970697
 30
0.0
 11
227.828316366
 21
58.1950569377
 31
0.0
  0
LINE
  5
354
330
1F
100
AcDbEntity
  8
0
  6
Continuous
 62
     7
370
    15
100
AcDbLine
 10
227.828316366
 20
41.8552363143
 30
0.0
 11
227.828316366
 21
36.7613965497
 31
0.0
  0
LINE
  5
355
330
1F
100
AcDbEntity
  8
0
  6
Continuous
 62
     7
370
    15
100
AcDbLine
 10
234.2283144348
 20
36.7613965497
 30
0.0
 11
234.2283144348
 21
48.2314133868
 31
0.0
  0
LINE
  5
356
330
1F
100
AcDbEntity
  8
0
  6
Continuous
 62
     7
370
    15
100
AcDbLine
 10
234.2283144348
 20
105.2913809046
 30
0.0
 11
234.2283144348
 21
116.7613977418
 31
0.0
  0
LINE
  5
357
330
1F
100
AcDbEntity
  8
0
  6
Continuous
 62
     7
370
    15
100
AcDbLine
 10
222.4155142658
 20
75.1613970697
 30
0.0
 11
227.828316366
 21
75.1613970697
 31
0.0
  0
LINE
  5
358
330
1F
100
AcDbEntity
  8
0
  6
Continuous
 62
     7
370
    15
100
AcDbLine
 10
222.4155142658
 20
78.3613972217
 30
0.0
 11
227.828316366
 21
78.3613972217
 31
0.0
  0
LINE
  5
359
330
1F
100
AcDbEntity
  8
0
  6
Continuous
 62
     7
370
    15
100
AcDbLine
 10
171.0283145063
 20
72.7613972351
 30
0.0
 11
171.0283145063
 21
58.1950569377
 31
0.0
  0
LINE
  5
35A
330
1F
100
AcDbEntity
  8
0
  6
Continuous
 62
     7
370
    15
100
AcDbLine
 10
171.0283145063
 20
41.8552363143
 30
0.0
 11
171.0283145063
 21
36.7613965497
 31
0.0
  0
LINE
  5
35B
330
1F
100
AcDbEntity
  8
0
  6
Continuous
 62
     7
370
    15
100
AcDbLine
 10
171.0283145063
 20
80.7613970563
 30
0.0
 11
171.0283145063
 21
95.3277373538
 31
0.0
  0
LINE
  5
35C
330
1F
100
AcDbEntity
  8
0
  6
Continuous
 62
     7
370
    15
100
AcDbLine
 10
171.0283145063
 20
111.6675579772
 30
0.0
 11
171.0283145063
 21
116.7613977418
 31
0.0
  0
LINE
  5
35D
330
1F
100
AcDbEntity
  8
0
  6
Continuous
 62
     7
370
    15
100
AcDbLine
 10
164.6283164375
 20
36.7613965497
 30
0.0
 11
164.6283164375
 21
48.2314133868
 31
0.0
  0
LINE
  5
35E
330
1F
100
AcDbEntity
  8
0
  6
Continuous
 62
     7
370
    15
100
AcDbLine
 10
164.6283164375
 20
105.2913809046
 30
0.0
 11
164.6283164375
 21
116.7613977418
 31
0.0
  0
ARC
  5
35F
330
1F
100
AcDbEntity
  8
0
  6
Continuous
 62
     8
370
     0
100
AcDbCircle
 10
199.4283154362
 20
76.7613971457
 30
0.0
 40
34.28496522600422
100
AcDbArc
 50
66.6999122254
 51
173.3000877746
  0
ARC
  5
360
330
1F
100
AcDbEntity
  8
0
  6
Continuous
 62
     8
370
     0
100
AcDbCircle
 10
199.4283154362
 20
76.7613971457
 30
0.0
 40
34.28496522600422
100
AcDbArc
 50
186.6999122254
 51
293.3000877746
  0
ARC
  5
361
330
1F
100
AcDbEntity
  8
0
  6
Continuous
 62
     8
370
     0
100
AcDbCircle
 10
199.4283154362
 20
76.7613971457
 30
0.0
 40
34.28496522600423
100
AcDbArc
 50
306.6999122254
 51
53.3000877746
  0
CIRCLE
  5
362
330
1F
100
AcDbEntity
  8
0
  6
Continuous
 62
     8
370
     0
100
AcDbCircle
 10
199.4283154362
 20
76.7613971457
 30
0.0
 40
44.64539008615836
  0
ARC
  5
363
330
1F
100
AcDbEntity
  8
0
  6
Continuous
 62
     8
370
     0
100
AcDbCircle
 10
199.4283154362
 20
76.7613971457
 30
0.0
 40
10.85959796164764
100
AcDbArc
 50
201.6131391782
 51
229.8649768774
  0
ARC
  5
364
330
1F
100
AcDbEntity
  8
0
  6
Continuous
 62
     8
370
     0
100
AcDbCircle
 10
199.4283154362
 20
76.7613971457
 30
0.0
 40
10.85959796164762
100
AcDbArc
 50
321.6131391782
 51
17.2320693392
  0
ARC
  5
365
330
1F
100
AcDbEntity
  8
0
  6
Continuous
 62
     8
370
     0
100
AcDbCircle
 10
199.4283154362
 20
76.7613971457
 30
0.0
 40
10.85959796164767
100
AcDbArc
 50
81.6131391782
 51
137.2320693392
  0
ARC
  5
366
330
1F
100
AcDbEntity
  8
0
  6
Continuous
 62
     8
370
     0
100
AcDbCircle
 10
199.4283154362
 20
76.7613971457
 30
0.0
 40
12.2303005075962
100
AcDbArc
 50
79.0902176462
 51
138.6831843185
  0
ARC
  5
367
330
1F
100
AcDbEntity
  8
0
  6
Continuous
 62
     8
370
     0
100
AcDbCircle
 10
199.4283154362
 20
76.7613971457
 30
0.0
 40
12.23030050759614
100
AcDbArc
 50
319.0902176462
 51
18.6831843185
  0
ARC
  5
368
330
1F
100
AcDbEntity
  8
0
  6
Continuous
 62
     8
370
     0
100
AcDbCircle
 10
199.4283154362
 20
76.7613971457
 30
0.0
 40
12.23030050759618
100
AcDbArc
 50
199.0902176462
 51
235.0858098754
  0
ARC
  5
369
330
1F
100
AcDbEntity
  8
0
  6
Continuous
 62
     8
370
     0
100
AcDbCircle
 10
199.4283154362
 20
76.7613971457
 30
0.0
 40
14.59383911482547
100
AcDbArc
 50
195.907687912
 51
260.5345428741
  0
LINE
  5
36A
330
1F
100
AcDbEntity
  8
0
  6
Continuous
 62
     8
370
     0
100
AcDbLine
 10
185.3933542722
 20
80.7613970563
 30
0.0
 11
185.7617556804
 21
81.8805077896
 31
0.0
  0
ARC
  5
36B
330
1F
100
AcDbEntity
  8
0
  6
Continuous
 62
     8
370
     0
100
AcDbCircle
 10
199.4283154362
 20
76.7613971457
 30
0.0
 40
14.59383911482546
100
AcDbArc
 50
315.907687912
 51
20.5345428741
  0
LINE
  5
36C
330
1F
100
AcDbEntity
  8
0
  6
Continuous
 62
     8
370
     0
100
AcDbLine
 10
202.9816943907
 20
62.6067647562
 30
0.0
 11
201.828315457
 21
62.366254054
 31
0.0
  0
ARC
  5
36D
330
1F
100
AcDbEntity
  8
0
  6
Continuous
 62
     8
370
     0
100
AcDbCircle
 10
199.4283154362
 20
76.7613971457
 30
0.0
 40
14.59383911482549
100
AcDbArc
 50
75.907687912
 51
140.5345428741
  0
LINE
  5
36E
330
1F
100
AcDbEntity
  8
0
  6
Continuous
 62
     8
370
     0
100
AcDbLine
 10
209.9098980181
 20
86.9160303697
 30
0.0
 11
210.6948747986
 21
86.0374295935
 31
0.0
  0
ARC
  5
36F
330
1F
100
AcDbEntity
  8
0
  6
Continuous
 62
     8
370
     0
100
AcDbCircle
 10
199.4283154362
 20
76.7613971457
 30
0.0
 40
14.8
100
AcDbArc
 50
195.6803501348
 51
284.3196498652
  0
ARC
  5
370
330
1F
100
AcDbEntity
  8
0
  6
Continuous
 62
     8
370
     0
100
AcDbCircle
 10
199.4283154362
 20
76.7613971457
 30
0.0
 40
14.8
100
AcDbArc
 50
315.6803501348
 51
44.3196498652
  0
ARC
  5
371
330
1F
100
AcDbEntity
  8
0
  6
Continuous
 62
     8
370
     0
100
AcDbCircle
 10
199.4283154362
 20
76.7613971457
 30
0.0
 40
14.8
100
AcDbArc
 50
75.6803501348
 51
164.3196498652
  0
SPLINE
  5
372
330
1F
100
AcDbEntity
  8
0
  6
Continuous
 62
     8
370
     0
100
AcDbSpline
210
0.0
220
0.0
230
1.0
 70
     8
 71
     3
 72
    16
 73
    12
 74
     0
 42
0.00000001
 43
0.00000001
 12
1.0
 22
0.0
 32
0.0
 13
1.0
 23
0.0
 33
0.0
 40
0.0
 40
0.0
 40
0.0
 40
0.0
 40
0.1791566297633358
 40
0.2714602191233756
 40
0.3637576658360331
 40
0.4497307934913999
 40
0.5852519792369133
 40
0.7235080342216449
 40
0.7622375698129498
 40
0.9163210984742083
 40
1.0
 40
1.0
 40
1.0
 40
1.0
 10
187.9506163053794
 20
89.58109857888692
 30
0.0
 10
188.7670589686706
 20
90.17465259097996
 30
0.0
 10
190.0041424334103
 20
91.07401256664585
 30
0.0
 10
191.8565627055835
 20
91.99117235742227
 30
0.0
 10
193.2880857152406
 20
92.56617355352712
 30
0.0
 10
195.0079167584699
 20
93.09218836338093
 30
0.0
 10
197.0451404375796
 20
93.49177583898258
 30
0.0
 10
198.8538142711677
 20
93.61111535051676
 30
0.0
 10
200.7652558260164
 20
93.57264286408876
 30
0.0
 10
202.3710302478511
 20
93.43634322269591
 30
0.0
 10
203.6829365926952
 20
93.06206053010757
 30
0.0
 10
204.1446532808823
 20
92.93033423276417
 30
0.0
  0
LWPOLYLINE
  5
373
330
1F
100
AcDbEntity
  8
0
  6
Continuous
 62
     8
370
     0
100
AcDbPolyline
 90
        9
 70
   128
 43
0.0
 10
189.1245357447
 20
89.0019902811
 10
189.0507824474
 20
88.9667214677
 10
188.9518685394
 20
88.9634432122
 10
188.8294853025
 20
88.9922121391
 10
188.6857233696
 20
89.0525365099
 10
188.5230421775
 20
89.1433836743
 10
188.3442222827
 20
89.2632031664
 10
188.1523199134
 20
89.4099438414
 10
187.9506163054
 20
89.5810985789
  0
LWPOLYLINE
  5
374
330
1F
100
AcDbEntity
  8
0
  6
Continuous
 62
     8
370
     0
100
AcDbPolyline
 90
        9
 70
   128
 43
0.0
 10
189.1245357447
 20
64.5208040103
 10
189.0507824474
 20
64.5560728237
 10
188.9518685394
 20
64.5593510792
 10
188.8294853025
 20
64.5305821523
 10
188.6857233696
 20
64.4702577815
 10
188.5230421775
 20
64.3794106171
 10
188.3442222827
 20
64.259591125
 10
188.1523199134
 20
64.11285045
 10
187.9506163054
 20
63.9416957125
  0
SPLINE
  5
375
330
1F
100
AcDbEntity
  8
0
  6
Continuous
 62
     8
370
     0
100
AcDbSpline
210
0.0
220
0.0
230
1.0
 70
     8
 71
     3
 72
    16
 73
    12
 74
     0
 42
0.00000001
 43
0.00000001
 12
1.0
 22
0.0
 32
0.0
 13
1.0
 23
0.0
 33
0.0
 40
0.0
 40
0.0
 40
0.0
 40
0.0
 40
0.1211582781668571
 40
0.2426888653689235
 40
0.3637945358072546
 40
0.4497648441157097
 40
0.5866533388163039
 40
0.7235244959776401
 40
0.7622527614977084
 40
0.9183277867017269
 40
0.9999999999999999
 40
0.9999999999999999
 40
0.9999999999999999
 40
0.9999999999999999
 10
187.9506163053794
 20
63.9416957125234
 30
0.0
 10
188.4966397510279
 20
63.5341525246124
 30
0.0
 10
189.5903645257128
 20
62.71781380340062
 30
0.0
 10
191.4016437509671
 20
61.72822061524294
 30
0.0
 10
193.1301943748649
 20
61.00479083296384
 30
0.0
 10
195.0153673688746
 20
60.4281450057652
 30
0.0
 10
197.0534447548514
 20
60.03148979522938
 30
0.0
 10
198.8617583637213
 20
59.9118175482192
 30
0.0
 10
200.7768142311358
 20
59.95029771435362
 30
0.0
 10
202.3823016861274
 20
60.08988546977329
 30
0.0
 10
203.6942455350968
 20
60.46359875004627
 30
0.0
 10
204.1449315600676
 20
60.59197875113957
 30
0.0
  0
SPLINE
  5
376
330
1F
100
AcDbEntity
  8
0
  6
Continuous
 62
     8
370
     0
100
AcDbSpline
210
0.0
220
0.0
230
1.0
 70
     8
 71
     3
 72
    13
 73
     9
 74
     0
 42
0.00000001
 43
0.00000001
 12
1.0
 22
0.0
 32
0.0
 13
1.0
 23
0.0
 33
0.0
 40
0.0
 40
0.0
 40
0.0
 40
0.0
 40
0.1288345274416261
 40
0.3404506952751105
 40
0.5291554490845869
 40
0.7221701039426792
 40
0.8598267458305597
 40
1.0
 40
1.0
 40
1.0
 40
1.0
 10
211.2251609318537
 20
89.19413255901806
 30
0.0
 10
211.4064578325721
 20
88.9810061180098
 30
0.0
 10
211.8855425711623
 20
88.41781047113126
 30
0.0
 10
212.5509522184245
 20
87.42044868313083
 30
0.0
 10
213.2063082364099
 20
86.25162450673969
 30
0.0
 10
213.6847763634817
 20
85.19295018266004
 30
0.0
 10
214.0491734438714
 20
84.22810827340966
 30
0.0
 10
214.2172797439299
 20
83.68299181763568
 30
0.0
 10
214.3020942561907
 20
83.40796472878927
 30
0.0
  0
ARC
  5
377
330
1F
100
AcDbEntity
  8
0
  6
Continuous
 62
     8
370
     0
100
AcDbCircle
 10
215.2518614155
 20
83.0325317
 30
0.0
 40
1.021277443175276
100
AcDbArc
 50
158.4316308241
 51
200.1500293188
  0
SPLINE
  5
378
330
1F
100
AcDbEntity
  8
0
  6
Continuous
 62
     8
370
     0
100
AcDbSpline
210
0.0
220
0.0
230
1.0
 70
     8
 71
     3
 72
    20
 73
    16
 74
     0
 42
0.00000001
 43
0.00000001
 12
1.0
 22
0.0
 32
0.0
 13
1.0
 23
0.0
 33
0.0
 40
0.0
 40
0.0
 40
0.0
 40
0.0
 40
0.2500000000000003
 40
0.2500000000000003
 40
0.3750000000000002
 40
0.3750000000000002
 40
0.5000000000000002
 40
0.5000000000000002
 40
0.6250000000000002
 40
0.6250000000000002
 40
0.7500000000000001
 40
0.7500000000000001
 40
0.8750000000000001
 40
0.8750000000000001
 40
1.0
 40
1.0
 40
1.0
 40
1.0
 10
187.950616419769
 20
89.58109901313725
 30
0.0
 10
187.5625211580034
 20
89.15056621952311
 30
0.0
 10
187.1931247626978
 20
88.69206637268489
 30
0.0
 10
186.673612958616
 20
87.96020488212088
 30
0.0
 10
186.5061689428015
 20
87.70889403373964
 30
0.0
 10
186.1835038179999
 20
87.19101453362543
 30
0.0
 10
186.0300345021329
 20
86.92714953548483
 30
0.0
 10
185.7411007754694
 20
86.3949743923357
 30
0.0
 10
185.6051376368529
 20
86.12586569778635
 30
0.0
 10
185.3494337819301
 20
85.58207325352802
 30
0.0
 10
185.2295062839848
 20
85.30691309005066
 30
0.0
 10
185.0059592257757
 20
84.7537126805556
 30
0.0
 10
184.9036709103461
 20
84.4790093393081
 30
0.0
 10
184.716391419139
 20
83.93650568225526
 30
0.0
 10
184.6313848369732
 20
83.66847179508521
 30
0.0
 10
184.5545364198321
 20
83.40796471398755
 30
0.0
  0
ARC
  5
379
330
1F
100
AcDbEntity
  8
0
  6
Continuous
 62
     8
370
     0
100
AcDbCircle
 10
183.6047694568
 20
83.0325317
 30
0.0
 40
1.021277443175117
100
AcDbArc
 50
339.8499706812
 51
21.5683691759
  0
SPLINE
  5
37A
330
1F
100
AcDbEntity
  8
0
  6
Continuous
 62
     8
370
     0
100
AcDbSpline
210
0.0
220
0.0
230
1.0
 70
     8
 71
     3
 72
    20
 73
    16
 74
     0
 42
0.00000001
 43
0.00000001
 12
1.0
 22
0.0
 32
0.0
 13
1.0
 23
0.0
 33
0.0
 40
0.0
 40
0.0
 40
0.0
 40
0.0
 40
0.2500000000000003
 40
0.2500000000000003
 40
0.3750000000000002
 40
0.3750000000000002
 40
0.5000000000000002
 40
0.5000000000000002
 40
0.6250000000000002
 40
0.6250000000000002
 40
0.7500000000000001
 40
0.7500000000000001
 40
0.8750000000000001
 40
0.8750000000000001
 40
1.0
 40
1.0
 40
1.0
 40
1.0
 10
187.950616419769
 20
63.94169527827307
 30
0.0
 10
187.5625211580034
 20
64.37222807188719
 30
0.0
 10
187.1931247626978
 20
64.8307279187254
 30
0.0
 10
186.673612958616
 20
65.56258940928943
 30
0.0
 10
186.5061689428015
 20
65.81390025767067
 30
0.0
 10
186.1835038179999
 20
66.33177975778487
 30
0.0
 10
186.0300345021329
 20
66.59564475592549
 30
0.0
 10
185.7411007754694
 20
67.12781989907461
 30
0.0
 10
185.6051376368529
 20
67.39692859362397
 30
0.0
 10
185.3494337819301
 20
67.94072103788228
 30
0.0
 10
185.2295062839848
 20
68.21588120135965
 30
0.0
 10
185.0059592257757
 20
68.76908161085471
 30
0.0
 10
184.9036709103461
 20
69.0437849521022
 30
0.0
 10
184.716391419139
 20
69.58628860915506
 30
0.0
 10
184.6313848369732
 20
69.8543224963251
 30
0.0
 10
184.5545364198321
 20
70.11482957742277
 30
0.0
  0
ARC
  5
37B
330
1F
100
AcDbEntity
  8
0
  6
Continuous
 62
     8
370
     0
100
AcDbCircle
 10
183.6047694568
 20
70.4902625914
 30
0.0
 40
1.021277443175086
100
AcDbArc
 50
338.4316308241
 51
20.1500293188
  0
ARC
  5
37C
330
1F
100
AcDbEntity
  8
0
  6
Continuous
 62
     8
370
     0
100
AcDbCircle
 10
215.2518614155
 20
70.4902625914
 30
0.0
 40
1.02127744317527
100
AcDbArc
 50
159.8499706812
 51
201.5683691759
  0
SPLINE
  5
37D
330
1F
100
AcDbEntity
  8
0
  6
Continuous
 62
     8
370
     0
100
AcDbSpline
210
0.0
220
0.0
230
1.0
 70
     8
 71
     3
 72
    13
 73
     9
 74
     0
 42
0.00000001
 43
0.00000001
 12
1.0
 22
0.0
 32
0.0
 13
1.0
 23
0.0
 33
0.0
 40
0.0
 40
0.0
 40
0.0
 40
0.0
 40
0.1288345274416261
 40
0.3404506952751105
 40
0.5291554490845869
 40
0.7221701039426792
 40
0.8598267458305597
 40
1.0
 40
1.0
 40
1.0
 40
1.0
 10
211.2251609318537
 20
64.32866173239223
 30
0.0
 10
211.4064578325721
 20
64.54178817340052
 30
0.0
 10
211.8855425711623
 20
65.10498382027905
 30
0.0
 10
212.5509522184245
 20
66.10234560827948
 30
0.0
 10
213.2063082364099
 20
67.27116978467063
 30
0.0
 10
213.6847763634817
 20
68.32984410875028
 30
0.0
 10
214.0491734438714
 20
69.29468601800065
 30
0.0
 10
214.2172797439299
 20
69.83980247377463
 30
0.0
 10
214.3020942561907
 20
70.11482956262105
 30
0.0
  0
SPLINE
  5
37E
330
1F
100
AcDbEntity
  8
0
  6
Continuous
 62
     8
370
     0
100
AcDbSpline
210
0.0
220
0.0
230
1.0
 70
     8
 71
     3
 72
    34
 73
    30
 74
     0
 42
0.00000001
 43
0.00000001
 12
1.0
 22
0.0
 32
0.0
 13
1.0
 23
0.0
 33
0.0
 40
0.0
 40
0.0
 40
0.0
 40
0.0
 40
0.1250000000000014
 40
0.1250000000000014
 40
0.1875000000000015
 40
0.1875000000000015
 40
0.2500000000000017
 40
0.2500000000000017
 40
0.3750000000000009
 40
0.3750000000000009
 40
0.4062500000000009
 40
0.4062500000000009
 40
0.4375000000000008
 40
0.4375000000000008
 40
0.5000000000000004
 40
0.5000000000000004
 40
0.5625000000000001
 40
0.5625000000000001
 40
0.5937499999999999
 40
0.5937499999999999
 40
0.6249999999999996
 40
0.6249999999999996
 40
0.7499999999999994
 40
0.7499999999999994
 40
0.8125
 40
0.8125
 40
0.8750000000000004
 40
0.8750000000000004
 40
1.0
 40
1.0
 40
1.0
 40
1.0
 10
214.3020944524731
 20
83.40796471398704
 30
0.0
 10
214.4833784332231
 20
82.93264147382872
 30
0.0
 10
214.6479088132369
 20
82.44298677075896
 30
0.0
 10
214.8682325498068
 20
81.67855254411229
 30
0.0
 10
214.9372459217091
 20
81.41869974357193
 30
0.0
 10
215.0658962167995
 20
80.88661986274047
 30
0.0
 10
215.1255407730002
 20
80.61411975617939
 30
0.0
 10
215.2871237559969
 20
79.78513943709969
 30
0.0
 10
215.3727708996645
 20
79.21423973182208
 30
0.0
 10
215.4472373726213
 20
78.467068310422
 30
0.0
 10
215.4604832626381
 20
78.31593764430866
 30
0.0
 10
215.4834728556175
 20
78.00993704927343
 30
0.0
 10
215.4932379907684
 20
77.85454635624313
 30
0.0
 10
215.5166875962981
 20
77.38708045929302
 30
0.0
 10
215.5246053615454
 20
77.07351985125841
 30
0.0
 10
215.5244914870628
 20
76.44252130014127
 30
0.0
 10
215.5164617916212
 20
76.1289228528515
 30
0.0
 10
215.4928266054674
 20
75.66123045761718
 30
0.0
 10
215.4830227104854
 20
75.50618069274644
 30
0.0
 10
215.4599721822729
 20
75.20076814253864
 30
0.0
 10
215.4467032452328
 20
75.04992711189888
 30
0.0
 10
215.3721559298916
 20
74.30418401207274
 30
0.0
 10
215.2865524636553
 20
73.73436390991472
 30
0.0
 10
215.1251686076611
 20
72.90694629482712
 30
0.0
 10
215.0656213618629
 20
72.63496548520575
 30
0.0
 10
214.9369765499836
 20
72.10305295091833
 30
0.0
 10
214.8679744145307
 20
71.8433020407544
 30
0.0
 10
214.6477119774596
 20
71.07921295772269
 30
0.0
 10
214.4832591905613
 20
70.58984016553073
 30
0.0
 10
214.3020944524731
 20
70.11482957742327
 30
0.0
  0
SPLINE
  5
37F
330
1F
100
AcDbEntity
  8
0
  6
Continuous
 62
     8
370
     0
100
AcDbSpline
210
0.0
220
0.0
230
1.0
 70
     8
 71
     3
 72
    10
 73
     6
 74
     0
 42
0.00000001
 43
0.00000001
 12
1.0
 22
0.0
 32
0.0
 13
1.0
 23
0.0
 33
0.0
 40
0.0
 40
0.0
 40
0.0
 40
0.0
 40
0.4811870914473447
 40
0.9660614947411424
 40
1.0
 40
1.0
 40
1.0
 40
1.0
 10
184.554536616115
 20
83.40796472878927
 30
0.0
 10
184.4114254351068
 20
83.00217757590129
 30
0.0
 10
184.1241064194968
 20
82.18749374411645
 30
0.0
 10
183.8669680279795
 20
81.30105238903093
 30
0.0
 10
183.7746748743062
 20
80.7945314724033
 30
0.0
 10
183.7686374538226
 20
80.7613970562982
 30
0.0
  0
SPLINE
  5
380
330
1F
100
AcDbEntity
  8
0
  6
Continuous
 62
     8
370
     0
100
AcDbSpline
210
0.0
220
0.0
230
1.0
 70
     8
 71
     3
 72
    10
 73
     6
 74
     0
 42
0.00000001
 43
0.00000001
 12
1.0
 22
0.0
 32
0.0
 13
1.0
 23
0.0
 33
0.0
 40
0.0
 40
0.0
 40
0.0
 40
0.0
 40
0.0579188945200717
 40
0.5269396005160615
 40
1.0
 40
1.0
 40
1.0
 40
1.0
 10
183.7714507930559
 20
72.76139723511211
 30
0.0
 10
183.7817160062617
 20
72.7048592535545
 30
0.0
 10
183.8751077636613
 20
72.19048304415304
 30
0.0
 10
184.133656042036
 20
71.30683826008617
 30
0.0
 10
184.413842606498
 20
70.51330003969576
 30
0.0
 10
184.554536616115
 20
70.11482956262105
 30
0.0
  0
SPLINE
  5
381
330
1F
100
AcDbEntity
  8
0
  6
Continuous
 62
     8
370
     0
100
AcDbSpline
210
0.0
220
0.0
230
1.0
 70
     8
 71
     3
 72
    14
 73
    10
 74
     0
 42
0.00000001
 43
0.00000001
 12
1.0
 22
0.0
 32
0.0
 13
1.0
 23
0.0
 33
0.0
 40
0.0
 40
0.0
 40
0.0
 40
0.0
 40
0.2499999999999963
 40
0.2499999999999963
 40
0.3749999999999956
 40
0.3749999999999956
 40
0.4999999999999949
 40
0.4999999999999949
 40
1.0
 40
1.0
 40
1.0
 40
1.0
 10
187.950616419769
 20
89.58109901313723
 30
0.0
 10
187.8740231153729
 20
90.23084557234276
 30
0.0
 10
187.800627430583
 20
90.85768031870892
 30
0.0
 10
187.6990204752582
 20
91.7639139746027
 30
0.0
 10
187.666570956624
 20
92.06031220734502
 30
0.0
 10
187.6051955274325
 20
92.64168383879485
 30
0.0
 10
187.5762386112344
 20
92.92697809857268
 30
0.0
 10
187.4424426329254
 20
94.32110112481013
 30
0.0
 10
187.3731710052942
 20
95.30522650628959
 30
0.0
 10
187.3594539865628
 20
96.16690563916735
 30
0.0
  0
SPLINE
  5
382
330
1F
100
AcDbEntity
  8
0
  6
Continuous
 62
     8
370
     0
100
AcDbSpline
210
0.0
220
0.0
230
1.0
 70
     8
 71
     3
 72
    14
 73
    10
 74
     0
 42
0.00000001
 43
0.00000001
 12
1.0
 22
0.0
 32
0.0
 13
1.0
 23
0.0
 33
0.0
 40
0.0
 40
0.0
 40
0.0
 40
0.0
 40
0.2499999999999963
 40
0.2499999999999963
 40
0.3749999999999956
 40
0.3749999999999956
 40
0.4999999999999949
 40
0.4999999999999949
 40
1.0
 40
1.0
 40
1.0
 40
1.0
 10
187.950616419769
 20
63.94169527827307
 30
0.0
 10
187.8740231153729
 20
63.29194871906754
 30
0.0
 10
187.800627430583
 20
62.66511397270138
 30
0.0
 10
187.6990204752582
 20
61.75888031680761
 30
0.0
 10
187.666570956624
 20
61.46248208406529
 30
0.0
 10
187.6051955274325
 20
60.88111045261547
 30
0.0
 10
187.5762386112344
 20
60.59581619283765
 30
0.0
 10
187.4424426329254
 20
59.20169316660018
 30
0.0
 10
187.3731710052942
 20
58.21756778512072
 30
0.0
 10
187.3594539865628
 20
57.35588865224296
 30
0.0
  0
SPLINE
  5
383
330
1F
100
AcDbEntity
  8
0
  6
Continuous
 62
     8
370
     0
100
AcDbSpline
210
0.0
220
0.0
230
1.0
 70
     8
 71
     3
 72
    20
 73
    16
 74
     0
 42
0.00000001
 43
0.00000001
 12
1.0
 22
0.0
 32
0.0
 13
1.0
 23
0.0
 33
0.0
 40
0.0
 40
0.0
 40
0.0
 40
0.0
 40
0.2500000000000021
 40
0.2500000000000021
 40
0.3750000000000023
 40
0.3750000000000023
 40
0.5000000000000027
 40
0.5000000000000027
 40
0.7500000000000037
 40
0.7500000000000037
 40
0.812500000000003
 40
0.812500000000003
 40
0.8750000000000023
 40
0.8750000000000023
 40
1.0
 40
1.0
 40
1.0
 40
1.0
 10
183.7599719876592
 20
94.27180016595577
 30
0.0
 10
183.6907974581895
 20
93.72763809057608
 30
0.0
 10
183.6778130558386
 20
93.09199442303344
 30
0.0
 10
183.720024866586
 20
91.99555650746524
 30
0.0
 10
183.7444159157257
 20
91.60608799953255
 30
0.0
 10
183.8101690172109
 20
90.77599852503212
 30
0.0
 10
183.8517815028416
 20
90.33335951963903
 30
0.0
 10
183.9927608225819
 20
88.95232893186898
 30
0.0
 10
184.1086369065005
 20
87.95464788464483
 30
0.0
 10
184.2549039390125
 20
86.60229825484699
 30
0.0
 10
184.2842272251484
 20
86.32651824129411
 30
0.0
 10
184.3423489318878
 20
85.76390787548043
 30
0.0
 10
184.3712401807246
 20
85.4760895614964
 30
0.0
 10
184.4552744944644
 20
84.60406768744096
 30
0.0
 10
184.5077545053663
 20
84.01156283293935
 30
0.0
 10
184.5545364198327
 20
83.40796471398704
 30
0.0
  0
ARC
  5
384
330
1F
100
AcDbEntity
  8
0
  6
Continuous
 62
     8
370
     0
100
AcDbCircle
 10
187.4666150003
 20
93.5159537316
 30
0.0
 40
3.782922680079865
100
AcDbArc
 50
167.082365703
 51
168.4744400801
  0
ARC
  5
385
330
1F
100
AcDbEntity
  8
0
  6
Continuous
 62
     8
370
     0
100
AcDbCircle
 10
211.3900158718
 20
93.5159537315
 30
0.0
 40
3.782922680309183
100
AcDbArc
 50
11.5255599199
 51
12.9176342969
  0
SPLINE
  5
386
330
1F
100
AcDbEntity
  8
0
  6
Continuous
 62
     8
370
     0
100
AcDbSpline
210
0.0
220
0.0
230
1.0
 70
     8
 71
     3
 72
    20
 73
    16
 74
     0
 42
0.00000001
 43
0.00000001
 12
1.0
 22
0.0
 32
0.0
 13
1.0
 23
0.0
 33
0.0
 40
0.0
 40
0.0
 40
0.0
 40
0.0
 40
0.2500000000000021
 40
0.2500000000000021
 40
0.3750000000000023
 40
0.3750000000000023
 40
0.5000000000000027
 40
0.5000000000000027
 40
0.7500000000000037
 40
0.7500000000000037
 40
0.812500000000003
 40
0.812500000000003
 40
0.8750000000000023
 40
0.8750000000000023
 40
1.0
 40
1.0
 40
1.0
 40
1.0
 10
215.0966588846466
 20
94.27180016595577
 30
0.0
 10
215.1658334141163
 20
93.72763809057608
 30
0.0
 10
215.1788178164672
 20
93.09199442303344
 30
0.0
 10
215.1366060057198
 20
91.99555650746524
 30
0.0
 10
215.1122149565801
 20
91.60608799953255
 30
0.0
 10
215.0464618550949
 20
90.77599852503212
 30
0.0
 10
215.0048493694642
 20
90.33335951963903
 30
0.0
 10
214.8638700497239
 20
88.95232893186898
 30
0.0
 10
214.7479939658053
 20
87.95464788464483
 30
0.0
 10
214.6017269332933
 20
86.60229825484699
 30
0.0
 10
214.5724036471574
 20
86.32651824129411
 30
0.0
 10
214.5142819404179
 20
85.76390787548043
 30
0.0
 10
214.4853906915812
 20
85.4760895614964
 30
0.0
 10
214.4013563778414
 20
84.60406768744096
 30
0.0
 10
214.3488763669395
 20
84.01156283293935
 30
0.0
 10
214.3020944524731
 20
83.40796471398704
 30
0.0
  0
ARC
  5
387
330
1F
100
AcDbEntity
  8
0
  6
Continuous
 62
     8
370
     0
100
AcDbCircle
 10
211.3900158718
 20
60.0068405599
 30
0.0
 40
3.782922680287343
100
AcDbArc
 50
347.0823657031
 51
348.4744400801
  0
SPLINE
  5
388
330
1F
100
AcDbEntity
  8
0
  6
Continuous
 62
     8
370
     0
100
AcDbSpline
210
0.0
220
0.0
230
1.0
 70
     8
 71
     3
 72
    20
 73
    16
 74
     0
 42
0.00000001
 43
0.00000001
 12
1.0
 22
0.0
 32
0.0
 13
1.0
 23
0.0
 33
0.0
 40
0.0
 40
0.0
 40
0.0
 40
0.0
 40
0.2500000000000021
 40
0.2500000000000021
 40
0.3750000000000023
 40
0.3750000000000023
 40
0.5000000000000027
 40
0.5000000000000027
 40
0.7500000000000037
 40
0.7500000000000037
 40
0.812500000000003
 40
0.812500000000003
 40
0.8750000000000023
 40
0.8750000000000023
 40
1.0
 40
1.0
 40
1.0
 40
1.0
 10
215.0966588846466
 20
59.25099412545454
 30
0.0
 10
215.1658334141163
 20
59.79515620083423
 30
0.0
 10
215.1788178164672
 20
60.43079986837687
 30
0.0
 10
215.1366060057198
 20
61.52723778394506
 30
0.0
 10
215.1122149565801
 20
61.91670629187777
 30
0.0
 10
215.0464618550949
 20
62.74679576637818
 30
0.0
 10
215.0048493694642
 20
63.18943477177129
 30
0.0
 10
214.8638700497239
 20
64.57046535954133
 30
0.0
 10
214.7479939658053
 20
65.56814640676548
 30
0.0
 10
214.6017269332933
 20
66.92049603656332
 30
0.0
 10
214.5724036471574
 20
67.19627605011618
 30
0.0
 10
214.5142819404179
 20
67.7588864159299
 30
0.0
 10
214.4853906915812
 20
68.04670472991391
 30
0.0
 10
214.4013563778414
 20
68.91872660396935
 30
0.0
 10
214.3488763669395
 20
69.51123145847096
 30
0.0
 10
214.3020944524731
 20
70.11482957742327
 30
0.0
  0
ARC
  5
389
330
1F
100
AcDbEntity
  8
0
  6
Continuous
 62
     8
370
     0
100
AcDbCircle
 10
187.4666150003
 20
60.0068405598
 30
0.0
 40
3.782922680058029
100
AcDbArc
 50
191.5255599199
 51
192.917634297
  0
SPLINE
  5
38A
330
1F
100
AcDbEntity
  8
0
  6
Continuous
 62
     8
370
     0
100
AcDbSpline
210
0.0
220
0.0
230
1.0
 70
     8
 71
     3
 72
    20
 73
    16
 74
     0
 42
0.00000001
 43
0.00000001
 12
1.0
 22
0.0
 32
0.0
 13
1.0
 23
0.0
 33
0.0
 40
0.0
 40
0.0
 40
0.0
 40
0.0
 40
0.2500000000000021
 40
0.2500000000000021
 40
0.3750000000000023
 40
0.3750000000000023
 40
0.5000000000000027
 40
0.5000000000000027
 40
0.7500000000000037
 40
0.7500000000000037
 40
0.812500000000003
 40
0.812500000000003
 40
0.8750000000000023
 40
0.8750000000000023
 40
1.0
 40
1.0
 40
1.0
 40
1.0
 10
183.7599719876592
 20
59.25099412545454
 30
0.0
 10
183.6907974581895
 20
59.79515620083423
 30
0.0
 10
183.6778130558386
 20
60.43079986837687
 30
0.0
 10
183.720024866586
 20
61.52723778394506
 30
0.0
 10
183.7444159157257
 20
61.91670629187777
 30
0.0
 10
183.8101690172109
 20
62.74679576637818
 30
0.0
 10
183.8517815028416
 20
63.18943477177129
 30
0.0
 10
183.9927608225819
 20
64.57046535954133
 30
0.0
 10
184.1086369065005
 20
65.56814640676548
 30
0.0
 10
184.2549039390125
 20
66.92049603656332
 30
0.0
 10
184.2842272251484
 20
67.19627605011618
 30
0.0
 10
184.3423489318878
 20
67.7588864159299
 30
0.0
 10
184.3712401807246
 20
68.04670472991391
 30
0.0
 10
184.4552744944644
 20
68.91872660396935
 30
0.0
 10
184.5077545053663
 20
69.51123145847096
 30
0.0
 10
184.5545364198327
 20
70.11482957742327
 30
0.0
  0
ARC
  5
38B
330
1F
100
AcDbEntity
  8
0
  6
Continuous
 62
     8
370
     0
100
AcDbCircle
 10
276.4283154362
 20
76.7613971457
 30
0.0
 40
94.30819737127618
100
AcDbArc
 50
182.4308797673
 51
190.7003210222
  0
ARC
  5
38C
330
1F
100
AcDbEntity
  8
0
  6
Continuous
 62
     8
370
     0
100
AcDbCircle
 10
276.4283154362
 20
76.7613971457
 30
0.0
 40
94.30819737127618
100
AcDbArc
 50
169.2996789778
 51
177.5691202327
  0
ARC
  5
38D
330
1F
100
AcDbEntity
  8
0
  6
Continuous
 62
     8
370
     0
100
AcDbCircle
 10
122.4283154362
 20
76.7613971457
 30
0.0
 40
94.30819737127628
100
AcDbArc
 50
349.2996789778
 51
10.7003210222
  0
SPLINE
  5
38E
330
1F
100
AcDbEntity
  8
0
  6
Continuous
 62
     8
370
     0
100
AcDbSpline
210
0.0
220
0.0
230
1.0
 70
     8
 71
     3
 72
     8
 73
     4
 74
     0
 42
0.00000001
 43
0.00000001
 12
1.0
 22
0.0
 32
0.0
 13
1.0
 23
0.0
 33
0.0
 40
0.0
 40
0.0
 40
0.0
 40
0.0
 40
1.0
 40
1.0
 40
1.0
 40
1.0
 10
215.0843868502081
 20
94.36169946251952
 30
0.0
 10
215.0884218948623
 20
94.33208364189701
 30
0.0
 10
215.0925128935015
 20
94.30211734805724
 30
0.0
 10
215.0966588846466
 20
94.27180016595578
 30
0.0
  0
SPLINE
  5
38F
330
1F
100
AcDbEntity
  8
0
  6
Continuous
 62
     8
370
     0
100
AcDbSpline
210
0.0
220
0.0
230
1.0
 70
     8
 71
     3
 72
     8
 73
     4
 74
     0
 42
0.00000001
 43
0.00000001
 12
1.0
 22
0.0
 32
0.0
 13
1.0
 23
0.0
 33
0.0
 40
0.0
 40
0.0
 40
0.0
 40
0.0
 40
1.0
 40
1.0
 40
1.0
 40
1.0
 10
183.7722440220976
 20
94.36169946251952
 30
0.0
 10
183.7682089774435
 20
94.33208364189701
 30
0.0
 10
183.7641179788043
 20
94.30211734805724
 30
0.0
 10
183.7599719876592
 20
94.27180016595578
 30
0.0
  0
SPLINE
  5
390
330
1F
100
AcDbEntity
  8
0
  6
Continuous
 62
     8
370
     0
100
AcDbSpline
210
0.0
220
0.0
230
1.0
 70
     8
 71
     3
 72
     8
 73
     4
 74
     0
 42
0.00000001
 43
0.00000001
 12
1.0
 22
0.0
 32
0.0
 13
1.0
 23
0.0
 33
0.0
 40
0.0
 40
0.0
 40
0.0
 40
0.0
 40
1.0
 40
1.0
 40
1.0
 40
1.0
 10
215.0843868502081
 20
59.16109482889078
 30
0.0
 10
215.0884218948623
 20
59.19071064951329
 30
0.0
 10
215.0925128935015
 20
59.22067694335308
 30
0.0
 10
215.0966588846466
 20
59.25099412545453
 30
0.0
  0
SPLINE
  5
391
330
1F
100
AcDbEntity
  8
0
  6
Continuous
 62
     8
370
     0
100
AcDbSpline
210
0.0
220
0.0
230
1.0
 70
     8
 71
     3
 72
     8
 73
     4
 74
     0
 42
0.00000001
 43
0.00000001
 12
1.0
 22
0.0
 32
0.0
 13
1.0
 23
0.0
 33
0.0
 40
0.0
 40
0.0
 40
0.0
 40
0.0
 40
1.0
 40
1.0
 40
1.0
 40
1.0
 10
183.7722440220976
 20
59.16109482889078
 30
0.0
 10
183.7682089774435
 20
59.19071064951329
 30
0.0
 10
183.7641179788043
 20
59.22067694335308
 30
0.0
 10
183.7599719876592
 20
59.25099412545453
 30
0.0
  0
INSERT
  5
39D
330
1F
100
AcDbEntity
  8
FORMAT
100
AcDbBlockReference
  2
SW_CENTERMARKSYMBOL_1
 10
199.4283154362
 20
76.7613971457
 30
0.0
  0
ENDSEC
  0
SECTION
  2
OBJECTS
  0
DICTIONARY
  5
C
330
0
100
AcDbDictionary
281
     1
  3
ACAD_GROUP
350
D
  3
ACAD_LAYOUT
350
1A
  3
ACAD_MLINESTYLE
350
17
  3
ACAD_PLOTSETTINGS
350
19
  3
ACAD_PLOTSTYLENAME
350
E
  0
DICTIONARY
  5
D
102
{ACAD_REACTORS
330
C
102
}
330
C
100
AcDbDictionary
281
     1
  0
DICTIONARY
  5
1A
102
{ACAD_REACTORS
330
C
102
}
330
C
100
AcDbDictionary
281
     1
  3
Layout1
350
1E
  3
Layout2
350
26
  3
Model
350
22
  0
DICTIONARY
  5
17
102
{ACAD_REACTORS
330
C
102
}
330
C
100
AcDbDictionary
281
     1
  3
Standard
350
18
  0
DICTIONARY
  5
19
102
{ACAD_REACTORS
330
C
102
}
330
C
100
AcDbDictionary
281
     1
  0
ACDBDICTIONARYWDFLT
  5
E
102
{ACAD_REACTORS
330
C
102
}
330
C
100
AcDbDictionary
281
     1
  3
Normal
350
F
100
AcDbDictionaryWithDefault
340
F
  0
LAYOUT
  5
1E
102
{ACAD_REACTORS
330
1A
102
}
330
1A
100
AcDbPlotSettings
  1

  2
none_device
  4

  6

 40
0.0
 41
0.0
 42
0.0
 43
0.0
 44
0.0
 45
0.0
 46
0.0
 47
0.0
 48
0.0
 49
0.0
140
0.0
141
0.0
142
1.0
143
1.0
 70
   688
 72
     0
 73
     0
 74
     5
  7

 75
    16
147
1.0
148
0.0
149
0.0
100
AcDbLayout
  1
Layout1
 70
     1
 71
     1
 10
0.0
 20
0.0
 11
420.0
 21
297.0
 12
0.0
 22
0.0
 32
0.0
 14
1.0000000000E+20
 24
1.0000000000E+20
 34
1.0000000000E+20
 15
-1.0000000000E+20
 25
-1.0000000000E+20
 35
-1.0000000000E+20
146
0.0
 13
0.0
 23
0.0
 33
0.0
 16
1.0
 26
0.0
 36
0.0
 17
0.0
 27
1.0
 37
0.0
 76
     0
330
1B
  0
LAYOUT
  5
26
102
{ACAD_REACTORS
330
1A
102
}
330
1A
100
AcDbPlotSettings
  1

  2
none_device
  4

  6

 40
0.0
 41
0.0
 42
0.0
 43
0.0
 44
0.0
 45
0.0
 46
0.0
 47
0.0
 48
0.0
 49
0.0
140
0.0
141
0.0
142
1.0
143
1.0
 70
   688
 72
     0
 73
     0
 74
     5
  7

 75
    16
147
1.0
148
0.0
149
0.0
100
AcDbLayout
  1
Layout2
 70
     1
 71
     2
 10
0.0
 20
0.0
 11
0.0
 21
0.0
 12
0.0
 22
0.0
 32
0.0
 14
0.0
 24
0.0
 34
0.0
 15
0.0
 25
0.0
 35
0.0
146
0.0
 13
0.0
 23
0.0
 33
0.0
 16
1.0
 26
0.0
 36
0.0
 17
0.0
 27
1.0
 37
0.0
 76
     0
330
23
  0
LAYOUT
  5
22
102
{ACAD_REACTORS
330
1A
102
}
330
1A
100
AcDbPlotSettings
  1

  2
none_device
  4

  6

 40
0.0
 41
0.0
 42
0.0
 43
0.0
 44
0.0
 45
0.0
 46
0.0
 47
0.0
 48
0.0
 49
0.0
140
0.0
141
0.0
142
1.0
143
1.0
 70
  1712
 72
     0
 73
     0
 74
     0
  7

 75
     0
147
1.0
148
0.0
149
0.0
100
AcDbLayout
  1
Model
 70
     1
 71
     0
 10
0.0
 20
0.0
 11
594.0
 21
420.0
 12
0.0
 22
0.0
 32
0.0
 14
0.0
 24
0.0
 34
0.0
 15
594.0
 25
420.0
 35
0.0
146
0.0
 13
0.0
 23
0.0
 33
0.0
 16
1.0
 26
0.0
 36
0.0
 17
0.0
 27
1.0
 37
0.0
 76
     0
330
1F
331
29
  0
MLINESTYLE
  5
18
102
{ACAD_REACTORS
330
17
102
}
330
17
100
AcDbMlineStyle
  2
Standard
 70
     0
  3

 62
   256
 51
90.0
 52
90.0
 71
     2
 49
0.5
 62
   256
  6
BYLAYER
 49
-0.5
 62
   256
  6
BYLAYER
  0
ACDBPLACEHOLDER
  5
F
102
{ACAD_REACTORS
330
E
102
}
330
E
  0
ENDSEC
  0
EOF
