  0
SECTION
  2
HEADER
  9
$ACADVER
  1
AC1015
  9
$ACADMAINTVER
 70
     6
  9
$DWGCODEPAGE
  3
ANSI_1252
  9
$INSBASE
 10
0.0
 20
0.0
 30
0.0
  9
$EXTMIN
 10
0.0
 20
0.0
 30
0.0
  9
$EXTMAX
 10
594.0
 20
420.0
 30
0.0
  9
$LIMMIN
 10
0.0
 20
0.0
  9
$LIMMAX
 10
594.0
 20
420.0
  9
$ORTHOMODE
 70
     0
  9
$REGENMODE
 70
     1
  9
$FILLMODE
 70
     1
  9
$QTEXTMODE
 70
     0
  9
$MIRRTEXT
 70
     1
  9
$LTSCALE
 40
1.0
  9
$ATTMODE
 70
     1
  9
$TEXTSIZE
 40
3.5
  9
$TRACEWID
 40
1.0
  9
$TEXTSTYLE
  7
Standard
  9
$CLAYER
  8
0
  9
$CELTYPE
  6
ByLayer
  9
$CECOLOR
 62
   256
  9
$CELTSCALE
 40
1.0
  9
$DISPSILH
 70
     0
  9
$DIMSCALE
 40
1.0
  9
$DIMASZ
 40
3.302
  9
$DIMEXO
 40
1.0
  9
$DIMDLI
 40
3.75
  9
$DIMRND
 40
0.0
  9
$DIMDLE
 40
0.0
  9
$DIMEXE
 40
1.0
  9
$DIMTP
 40
0.0
  9
$DIMTM
 40
0.0
  9
$DIMTXT
 40
3.5
  9
$DIMCEN
 40
2.5
  9
$DIMTSZ
 40
0.0
  9
$DIMTOL
 70
     0
  9
$DIMLIM
 70
     0
  9
$DIMTIH
 70
     1
  9
$DIMTOH
 70
     1
  9
$DIMSE1
 70
     0
  9
$DIMSE2
 70
     0
  9
$DIMTAD
 70
     1
  9
$DIMZIN
 70
     0
  9
$DIMBLK
  1

  9
$DIMASO
 70
     1
  9
$DIMSHO
 70
     1
  9
$DIMPOST
  1

  9
$DIMAPOST
  1

  9
$DIMALT
 70
     0
  9
$DIMALTD
 70
     3
  9
$DIMALTF
 40
0.0393700787
  9
$DIMLFAC
 40
2.0
  9
$DIMTOFL
 70
     1
  9
$DIMTVP
 40
0.0
  9
$DIMTIX
 70
     0
  9
$DIMSOXD
 70
     0
  9
$DIMSAH
 70
     0
  9
$DIMBLK1
  1

  9
$DIMBLK2
  1

  9
$DIMSTYLE
  2
ISO-25
  9
$DIMCLRD
 70
     0
  9
$DIMCLRE
 70
     0
  9
$DIMCLRT
 70
     0
  9
$DIMTFAC
 40
1.0
  9
$DIMGAP
 40
1.524
  9
$DIMJUST
 70
     0
  9
$DIMSD1
 70
     0
  9
$DIMSD2
 70
     0
  9
$DIMTOLJ
 70
     0
  9
$DIMTZIN
 70
     0
  9
$DIMALTZ
 70
     0
  9
$DIMALTTZ
 70
     0
  9
$DIMUPT
 70
     0
  9
$DIMDEC
 70
     2
  9
$DIMTDEC
 70
     2
  9
$DIMALTU
 70
     2
  9
$DIMALTTD
 70
     3
  9
$DIMTXSTY
  7
Standard
  9
$DIMAUNIT
 70
     0
  9
$DIMADEC
 70
     2
  9
$DIMALTRND
 40
0.0
  9
$DIMAZIN
 70
     0
  9
$DIMDSEP
 70
    44
  9
$DIMATFIT
 70
     3
  9
$DIMFRAC
 70
     0
  9
$DIMLDRBLK
  1

  9
$DIMLUNIT
 70
     2
  9
$DIMLWD
 70
    -2
  9
$DIMLWE
 70
    -2
  9
$DIMTMOVE
 70
     0
  9
$LUNITS
 70
     2
  9
$LUPREC
 70
     2
  9
$SKETCHINC
 40
1.0
  9
$FILLETRAD
 40
10.0
  9
$AUNITS
 70
     0
  9
$AUPREC
 70
     2
  9
$MENU
  1
.
  9
$ELEVATION
 40
0.0
  9
$PELEVATION
 40
0.0
  9
$THICKNESS
 40
0.0
  9
$LIMCHECK
 70
     0
  9
$CHAMFERA
 40
10.0
  9
$CHAMFERB
 40
10.0
  9
$CHAMFERC
 40
20.0
  9
$CHAMFERD
 40
0.0
  9
$SKPOLY
 70
     0
  9
$TDCREATE
 40
2456807.490769398
  9
$TDUCREATE
 40
2456807.157436065
  9
$TDUPDATE
 40
2456807.49077066
  9
$TDUUPDATE
 40
2456807.157437326
  9
$TDINDWG
 40
0.0000000116
  9
$TDUSRTIMER
 40
0.0000000116
  9
$USRTIMER
 70
     1
  9
$ANGBASE
 50
0.0
  9
$ANGDIR
 70
     0
  9
$PDMODE
 70
     0
  9
$PDSIZE
 40
-1.0
  9
$PLINEWID
 40
0.0
  9
$SPLFRAME
 70
     0
  9
$SPLINETYPE
 70
     6
  9
$SPLINESEGS
 70
     8
  9
$HANDSEED
  5
3A2
  9
$SURFTAB1
 70
     6
  9
$SURFTAB2
 70
     6
  9
$SURFTYPE
 70
     6
  9
$SURFU
 70
     6
  9
$SURFV
 70
     6
  9
$UCSBASE
  2

  9
$UCSNAME
  2

  9
$UCSORG
 10
0.0
 20
0.0
 30
0.0
  9
$UCSXDIR
 10
1.0
 20
0.0
 30
0.0
  9
$UCSYDIR
 10
0.0
 20
1.0
 30
0.0
  9
$UCSORTHOREF
  2

  9
$UCSORTHOVIEW
 70
     0
  9
$UCSORGTOP
 10
0.0
 20
0.0
 30
0.0
  9
$UCSORGBOTTOM
 10
0.0
 20
0.0
 30
0.0
  9
$UCSORGLEFT
 10
0.0
 20
0.0
 30
0.0
  9
$UCSORGRIGHT
 10
0.0
 20
0.0
 30
0.0
  9
$UCSORGFRONT
 10
0.0
 20
0.0
 30
0.0
  9
$UCSORGBACK
 10
0.0
 20
0.0
 30
0.0
  9
$PUCSBASE
  2

  9
$PUCSNAME
  2

  9
$PUCSORG
 10
0.0
 20
0.0
 30
0.0
  9
$PUCSXDIR
 10
1.0
 20
0.0
 30
0.0
  9
$PUCSYDIR
 10
0.0
 20
1.0
 30
0.0
  9
$PUCSORTHOREF
  2

  9
$PUCSORTHOVIEW
 70
     0
  9
$PUCSORGTOP
 10
0.0
 20
0.0
 30
0.0
  9
$PUCSORGBOTTOM
 10
0.0
 20
0.0
 30
0.0
  9
$PUCSORGLEFT
 10
0.0
 20
0.0
 30
0.0
  9
$PUCSORGRIGHT
 10
0.0
 20
0.0
 30
0.0
  9
$PUCSORGFRONT
 10
0.0
 20
0.0
 30
0.0
  9
$PUCSORGBACK
 10
0.0
 20
0.0
 30
0.0
  9
$USERI1
 70
     0
  9
$USERI2
 70
     0
  9
$USERI3
 70
     0
  9
$USERI4
 70
     0
  9
$USERI5
 70
     0
  9
$USERR1
 40
0.0
  9
$USERR2
 40
0.0
  9
$USERR3
 40
0.0
  9
$USERR4
 40
0.0
  9
$USERR5
 40
0.0
  9
$WORLDVIEW
 70
     1
  9
$SHADEDGE
 70
     3
  9
$SHADEDIF
 70
    70
  9
$TILEMODE
 70
     1
  9
$MAXACTVP
 70
    64
  9
$PINSBASE
 10
0.0
 20
0.0
 30
0.0
  9
$PLIMCHECK
 70
     0
  9
$PEXTMIN
 10
1.0000000000E+20
 20
1.0000000000E+20
 30
1.0000000000E+20
  9
$PEXTMAX
 10
-1.0000000000E+20
 20
-1.0000000000E+20
 30
-1.0000000000E+20
  9
$PLIMMIN
 10
0.0
 20
0.0
  9
$PLIMMAX
 10
420.0
 20
297.0
  9
$UNITMODE
 70
     0
  9
$VISRETAIN
 70
     1
  9
$PLINEGEN
 70
     0
  9
$PSLTSCALE
 70
     1
  9
$TREEDEPTH
 70
  3020
  9
$CMLSTYLE
  2
Standard
  9
$CMLJUST
 70
     0
  9
$CMLSCALE
 40
20.0
  9
$PROXYGRAPHICS
 70
     1
  9
$MEASUREMENT
 70
     1
  9
$CELWEIGHT
370
    -1
  9
$ENDCAPS
280
     0
  9
$JOINSTYLE
280
     0
  9
$LWDISPLAY
290
     1
  9
$INSUNITS
 70
     4
  9
$HYPERLINKBASE
  1

  9
$STYLESHEET
  1

  9
$XEDIT
290
     1
  9
$CEPSNTYPE
380
     0
  9
$PSTYLEMODE
290
     1
  9
$FINGERPRINTGUID
  2
{388AD1A1-0123-4ACA-BA42-E93323437FCB}
  9
$VERSIONGUID
  2
{FAEB1C32-E019-11D5-929B-00C0DF256EC4}
  9
$EXTNAMES
290
     1
  9
$PSVPSCALE
 40
0.0
  9
$OLESTARTUP
290
     0
  0
ENDSEC
  0
SECTION
  2
CLASSES
  0
CLASS
  1
ACDBDICTIONARYWDFLT
  2
AcDbDictionaryWithDefault
  3
ObjectDBX Classes
 90
        0
280
     0
281
     0
  0
CLASS
  1
VISUALSTYLE
  2
AcDbVisualStyle
  3
ObjectDBX Classes
 90
     4095
280
     0
281
     0
  0
CLASS
  1
MATERIAL
  2
AcDbMaterial
  3
ObjectDBX Classes
 90
     1153
280
     0
281
     0
  0
CLASS
  1
ACDBPLACEHOLDER
  2
AcDbPlaceHolder
  3
ObjectDBX Classes
 90
        0
280
     0
281
     0
  0
CLASS
  1
LAYOUT
  2
AcDbLayout
  3
ObjectDBX Classes
 90
        0
280
     0
281
     0
  0
ENDSEC
  0
SECTION
  2
TABLES
  0
TABLE
  2
VPORT
  5
8
330
0
100
AcDbSymbolTable
 70
     1
  0
VPORT
  5
29
330
8
100
AcDbSymbolTableRecord
100
AcDbViewportTableRecord
  2
*Active
 70
     0
 10
0.0
 20
0.0
 11
1.0
 21
1.0
 12
297.0
 22
210.0
 13
0.0
 23
0.0
 14
10.0
 24
10.0
 15
10.0
 25
10.0
 16
0.0
 26
0.0
 36
1.0
 17
0.0
 27
0.0
 37
0.0
 40
420.0
 41
1.4142857143
 42
50.0
 43
0.0
 44
0.0
 50
0.0
 51
0.0
 71
     0
 72
  2000
 73
     1
 74
     3
 75
     0
 76
     0
 77
     0
 78
     0
281
     0
 65
     1
110
0.0
120
0.0
130
0.0
111
1.0
121
0.0
131
0.0
112
0.0
122
1.0
132
0.0
 79
     0
146
0.0
  0
ENDTAB
  0
TABLE
  2
LTYPE
  5
5
330
0
100
AcDbSymbolTable
 70
     6
  0
LTYPE
  5
14
330
5
100
AcDbSymbolTableRecord
100
AcDbLinetypeTableRecord
  2
ByBlock
 70
     0
  3

 72
    65
 73
     0
 40
0.0
  0
LTYPE
  5
15
330
5
100
AcDbSymbolTableRecord
100
AcDbLinetypeTableRecord
  2
ByLayer
 70
     0
  3

 72
    65
 73
     0
 40
0.0
  0
LTYPE
  5
16
330
5
100
AcDbSymbolTableRecord
100
AcDbLinetypeTableRecord
  2
Continuous
 70
     0
  3
Solid line
 72
    65
 73
     0
 40
0.0
  0
LTYPE
  5
3F
330
5
100
AcDbSymbolTableRecord
100
AcDbLinetypeTableRecord
  2
HIDDEN
 70
     0
  3
Hidden __ __ __ __ __ __ __ __ __ __ __ __ __ __
 72
    65
 73
     2
 40
1.905
 49
1.27
 74
     0
 49
-0.635
 74
     0
  0
LTYPE
  5
40
330
5
100
AcDbSymbolTableRecord
100
AcDbLinetypeTableRecord
  2
PHANTOM
 70
     0
  3
Phantom ______  __  __  ______  __  __  ______
 72
    65
 73
     6
 40
12.7
 49
6.35
 74
     0
 49
-1.27
 74
     0
 49
1.27
 74
     0
 49
-1.27
 74
     0
 49
1.27
 74
     0
 49
-1.27
 74
     0
  0
LTYPE
  5
41
330
5
100
AcDbSymbolTableRecord
100
AcDbLinetypeTableRecord
  2
CENTER
 70
     0
  3
Center ____ _ ____ _ ____ _ ____ _ ____ _ ____
 72
    65
 73
     4
 40
10.16
 49
6.35
 74
     0
 49
-1.27
 74
     0
 49
1.27
 74
     0
 49
-1.27
 74
     0
  0
LTYPE
  5
42
330
5
100
AcDbSymbolTableRecord
100
AcDbLinetypeTableRecord
  2
CENTERX2
 70
     0
  3
Center (2x) ________  __  ________  __  _____
 72
    65
 73
     4
 40
20.32
 49
12.7
 74
     0
 49
-2.54
 74
     0
 49
2.54
 74
     0
 49
-2.54
 74
     0
  0
LTYPE
  5
43
330
5
100
AcDbSymbolTableRecord
100
AcDbLinetypeTableRecord
  2
DOT2
 70
     0
  3
Dot (.5x) ........................................
 72
    65
 73
     2
 40
0.635
 49
0.0
 74
     0
 49
-0.635
 74
     0
  0
ENDTAB
  0
TABLE
  2
LAYER
  5
2
330
0
100
AcDbSymbolTable
 70
     3
  0
LAYER
  5
10
330
2
100
AcDbSymbolTableRecord
100
AcDbLayerTableRecord
  2
0
 70
     0
 62
     7
  6
Continuous
370
    -3
390
F
  0
LAYER
  5
44
330
2
100
AcDbSymbolTableRecord
100
AcDbLayerTableRecord
  2
FORMAT
 70
     0
 62
     7
  6
Continuous
370
    -3
390
F
  0
LAYER
  5
45
330
2
100
AcDbSymbolTableRecord
100
AcDbLayerTableRecord
  2
PROTOTYPE
 70
     0
 62
    -7
  6
Continuous
370
    -3
390
F
  0
ENDTAB
  0
TABLE
  2
STYLE
  5
3
330
0
100
AcDbSymbolTable
 70
     2
  0
STYLE
  5
11
330
3
100
AcDbSymbolTableRecord
100
AcDbTextStyleTableRecord
  2
Standard
 70
     0
 40
0.0
 41
1.0
 50
0.0
 71
     0
 42
3.5
  3
txt
  4

  0
STYLE
  5
78
330
3
100
AcDbSymbolTableRecord
100
AcDbTextStyleTableRecord
  2
SLDTEXTSTYLE0
 70
     0
 40
0.0
 41
0.605
 50
0.0
 71
     0
 42
0.2
  3
TXT
  4

  0
ENDTAB
  0
TABLE
  2
VIEW
  5
6
330
0
100
AcDbSymbolTable
 70
     0
  0
ENDTAB
  0
TABLE
  2
UCS
  5
7
330
0
100
AcDbSymbolTable
 70
     0
  0
ENDTAB
  0
TABLE
  2
APPID
  5
9
330
0
100
AcDbSymbolTable
 70
     1
  0
APPID
  5
12
330
9
100
AcDbSymbolTableRecord
100
AcDbRegAppTableRecord
  2
ACAD
 70
     0
  0
ENDTAB
  0
TABLE
  2
DIMSTYLE
  5
A
330
0
100
AcDbSymbolTable
 70
     1
100
AcDbDimStyleTable
  0
DIMSTYLE
105
27
330
A
100
AcDbSymbolTableRecord
100
AcDbDimStyleTableRecord
  2
ISO-25
 70
     0
 41
2.5
 42
0.625
 43
3.75
 44
1.25
 73
     0
 74
     0
 77
     1
 78
     8
140
2.5
141
2.5
143
0.0393700787
147
0.625
171
     3
172
     1
178
     0
271
     2
272
     2
274
     3
278
    44
283
     0
284
     8
340
11
  0
ENDTAB
  0
TABLE
  2
BLOCK_RECORD
  5
1
330
0
100
AcDbSymbolTable
 70
     3
  0
BLOCK_RECORD
  5
1F
330
1
100
AcDbSymbolTableRecord
100
AcDbBlockTableRecord
  2
*Model_Space
340
22
  0
BLOCK_RECORD
  5
1B
330
1
100
AcDbSymbolTableRecord
100
AcDbBlockTableRecord
  2
*Paper_Space
340
1E
  0
BLOCK_RECORD
  5
23
330
1
100
AcDbSymbolTableRecord
100
AcDbBlockTableRecord
  2
*Paper_Space0
340
26
  0
BLOCK_RECORD
  5
2EB
330
1
100
AcDbSymbolTableRecord
100
AcDbBlockTableRecord
  2
SW_CENTERMARKSYMBOL_0
340
0
102
{BLKREFS
331
2F6
102
}
  0
BLOCK_RECORD
  5
396
330
1
100
AcDbSymbolTableRecord
100
AcDbBlockTableRecord
  2
SW_CENTERMARKSYMBOL_1
340
0
102
{BLKREFS
331
3A1
102
}
  0
ENDTAB
  0
ENDSEC
  0
SECTION
  2
BLOCKS
  0
BLOCK
  5
20
330
1F
100
AcDbEntity
  8
0
100
AcDbBlockBegin
  2
*Model_Space
 70
     0
 10
0.0
 20
0.0
 30
0.0
  3
*Model_Space
  1

  0
ENDBLK
  5
21
330
1F
100
AcDbEntity
  8
0
100
AcDbBlockEnd
  0
BLOCK
  5
1C
330
1B
100
AcDbEntity
 67
     1
  8
0
100
AcDbBlockBegin
  2
*Paper_Space
 70
     0
 10
0.0
 20
0.0
 30
0.0
  3
*Paper_Space
  1

  0
ENDBLK
  5
1D
330
1B
100
AcDbEntity
 67
     1
  8
0
100
AcDbBlockEnd
  0
BLOCK
  5
24
330
23
100
AcDbEntity
  8
0
100
AcDbBlockBegin
  2
*Paper_Space0
 70
     0
 10
0.0
 20
0.0
 30
0.0
  3
*Paper_Space0
  1

  0
ENDBLK
  5
25
330
23
100
AcDbEntity
  8
0
100
AcDbBlockEnd
  0
BLOCK
  5
2EC
330
2EB
100
AcDbEntity
  8
0
100
AcDbBlockBegin
  2
SW_CENTERMARKSYMBOL_0
 70
     0
 10
0.0
 20
0.0
 30
0.0
  3
SW_CENTERMARKSYMBOL_0
  1

  0
LINE
  5
2EE
330
2EB
100
AcDbEntity
  8
FORMAT
 62
     0
100
AcDbLine
 10
0.0
 20
0.0
 30
0.0
 11
0.0
 21
1.25
 31
0.0
  0
LINE
  5
2EF
330
2EB
100
AcDbEntity
  8
FORMAT
 62
     0
100
AcDbLine
 10
0.0
 20
0.0
 30
0.0
 11
-1.25
 21
0.0
 31
0.0
  0
LINE
  5
2F0
330
2EB
100
AcDbEntity
  8
FORMAT
 62
     0
100
AcDbLine
 10
0.0
 20
0.0
 30
0.0
 11
0.0
 21
-1.25
 31
0.0
  0
LINE
  5
2F1
330
2EB
100
AcDbEntity
  8
FORMAT
 62
     0
100
AcDbLine
 10
0.0
 20
0.0
 30
0.0
 11
1.25
 21
0.0
 31
0.0
  0
LINE
  5
2F2
330
2EB
100
AcDbEntity
  8
FORMAT
 62
     0
100
AcDbLine
 10
0.0
 20
2.5
 30
0.0
 11
0.0
 21
179.4147941324
 31
0.0
  0
LINE
  5
2F3
330
2EB
100
AcDbEntity
  8
FORMAT
 62
     0
100
AcDbLine
 10
-2.5
 20
0.0
 30
0.0
 11
-47.5
 21
0.0
 31
0.0
  0
LINE
  5
2F4
330
2EB
100
AcDbEntity
  8
FORMAT
 62
     0
100
AcDbLine
 10
0.0
 20
-2.5
 30
0.0
 11
0.0
 21
-47.5
 31
0.0
  0
LINE
  5
2F5
330
2EB
100
AcDbEntity
  8
FORMAT
 62
     0
100
AcDbLine
 10
2.5
 20
0.0
 30
0.0
 11
47.5
 21
0.0
 31
0.0
  0
ENDBLK
  5
2ED
330
2EB
100
AcDbEntity
  8
0
100
AcDbBlockEnd
  0
BLOCK
  5
397
330
396
100
AcDbEntity
  8
0
100
AcDbBlockBegin
  2
SW_CENTERMARKSYMBOL_1
 70
     0
 10
0.0
 20
0.0
 30
0.0
  3
SW_CENTERMARKSYMBOL_1
  1

  0
LINE
  5
399
330
396
100
AcDbEntity
  8
FORMAT
 62
     0
100
AcDbLine
 10
0.0
 20
0.0
 30
0.0
 11
0.0
 21
1.25
 31
0.0
  0
LINE
  5
39A
330
396
100
AcDbEntity
  8
FORMAT
 62
     0
100
AcDbLine
 10
0.0
 20
0.0
 30
0.0
 11
-1.25
 21
0.0
 31
0.0
  0
LINE
  5
39B
330
396
100
AcDbEntity
  8
FORMAT
 62
     0
100
AcDbLine
 10
0.0
 20
0.0
 30
0.0
 11
0.0
 21
-1.25
 31
0.0
  0
LINE
  5
39C
330
396
100
AcDbEntity
  8
FORMAT
 62
     0
100
AcDbLine
 10
0.0
 20
0.0
 30
0.0
 11
1.25
 21
0.0
 31
0.0
  0
LINE
  5
39D
330
396
100
AcDbEntity
  8
FORMAT
 62
     0
100
AcDbLine
 10
0.0
 20
2.5
 30
0.0
 11
0.0
 21
57.0567376077
 31
0.0
  0
LINE
  5
39E
330
396
100
AcDbEntity
  8
FORMAT
 62
     0
100
AcDbLine
 10
-2.5
 20
0.0
 30
0.0
 11
-57.0567376077
 21
0.0
 31
0.0
  0
LINE
  5
39F
330
396
100
AcDbEntity
  8
FORMAT
 62
     0
100
AcDbLine
 10
0.0
 20
-2.5
 30
0.0
 11
0.0
 21
-57.0567376077
 31
0.0
  0
LINE
  5
3A0
330
396
100
AcDbEntity
  8
FORMAT
 62
     0
100
AcDbLine
 10
2.5
 20
0.0
 30
0.0
 11
57.0567376077
 21
0.0
 31
0.0
  0
ENDBLK
  5
398
330
396
100
AcDbEntity
  8
0
100
AcDbBlockEnd
  0
ENDSEC
  0
SECTION
  2
ENTITIES
  0
LINE
  5
46
330
1F
100
AcDbEntity
  8
FORMAT
370
    30
100
AcDbLine
 10
13.0
 20
12.8671069427
 30
0.0
 11
581.0
 21
12.8671069427
 31
0.0
  0
LINE
  5
47
330
1F
100
AcDbEntity
  8
FORMAT
370
    30
100
AcDbLine
 10
13.0
 20
12.8671069427
 30
0.0
 11
13.0
 21
406.8671069427
 31
0.0
  0
LINE
  5
48
330
1F
100
AcDbEntity
  8
0
  6
Continuous
 62
     7
370
    30
100
AcDbLine
 10
322.84
 20
412.8671069427
 30
0.0
 11
322.84
 21
406.8671069427
 31
0.0
  0
LINE
  5
49
330
1F
100
AcDbEntity
  8
FORMAT
370
    30
100
AcDbLine
 10
581.0
 20
12.8671069427
 30
0.0
 11
581.0
 21
412.8671069427
 31
0.0
  0
LINE
  5
4A
330
1F
100
AcDbEntity
  8
FORMAT
370
    30
100
AcDbLine
 10
581.0
 20
12.8671069427
 30
0.0
 11
581.0
 21
6.8671069427
 31
0.0
  0
LINE
  5
4B
330
1F
100
AcDbEntity
  8
0
  6
Continuous
 62
     7
370
    30
100
AcDbLine
 10
116.28
 20
12.8671069427
 30
0.0
 11
116.28
 21
6.8671069427
 31
0.0
  0
LINE
  5
4C
330
1F
100
AcDbEntity
  8
0
  6
Continuous
 62
     7
370
    30
100
AcDbLine
 10
271.2
 20
412.8671069427
 30
0.0
 11
271.2
 21
406.8671069427
 31
0.0
  0
LINE
  5
4D
330
1F
100
AcDbEntity
  8
0
  6
Continuous
 62
     7
370
    30
100
AcDbLine
 10
477.76
 20
412.8671069427
 30
0.0
 11
477.76
 21
406.8671069427
 31
0.0
  0
LINE
  5
4E
330
1F
100
AcDbEntity
  8
0
  6
Continuous
 62
     7
370
    30
100
AcDbLine
 10
116.28
 20
412.8671069427
 30
0.0
 11
116.28
 21
406.8671069427
 31
0.0
  0
LINE
  5
4F
330
1F
100
AcDbEntity
  8
0
  6
Continuous
 62
     7
370
    30
100
AcDbLine
 10
374.48
 20
412.8671069427
 30
0.0
 11
374.48
 21
406.8671069427
 31
0.0
  0
LINE
  5
50
330
1F
100
AcDbEntity
  8
0
  6
Continuous
 62
     7
370
    30
100
AcDbLine
 10
167.92
 20
12.8671069427
 30
0.0
 11
167.92
 21
6.8671069427
 31
0.0
  0
LINE
  5
51
330
1F
100
AcDbEntity
  8
0
  6
Continuous
 62
     7
370
    30
100
AcDbLine
 10
219.56
 20
12.8671069427
 30
0.0
 11
219.56
 21
6.8671069427
 31
0.0
  0
LINE
  5
52
330
1F
100
AcDbEntity
  8
0
  6
Continuous
 62
     7
370
    30
100
AcDbLine
 10
271.2
 20
12.8671069427
 30
0.0
 11
271.2
 21
6.8671069427
 31
0.0
  0
LINE
  5
53
330
1F
100
AcDbEntity
  8
0
  6
Continuous
 62
     7
370
    30
100
AcDbLine
 10
322.84
 20
12.8671069427
 30
0.0
 11
322.84
 21
6.8671069427
 31
0.0
  0
LINE
  5
54
330
1F
100
AcDbEntity
  8
0
  6
Continuous
 62
     7
370
    30
100
AcDbLine
 10
7.0
 20
62.1171069427
 30
0.0
 11
13.0
 21
62.1171069427
 31
0.0
  0
LINE
  5
55
330
1F
100
AcDbEntity
  8
0
  6
Continuous
 62
     7
370
    30
100
AcDbLine
 10
374.48
 20
12.8671069427
 30
0.0
 11
374.48
 21
6.8671069427
 31
0.0
  0
LINE
  5
56
330
1F
100
AcDbEntity
  8
0
  6
Continuous
 62
     7
370
    30
100
AcDbLine
 10
167.92
 20
412.8671069427
 30
0.0
 11
167.92
 21
406.8671069427
 31
0.0
  0
LINE
  5
57
330
1F
100
AcDbEntity
  8
0
  6
Continuous
 62
     7
370
    30
100
AcDbLine
 10
529.4
 20
412.8671069427
 30
0.0
 11
529.4
 21
406.8671069427
 31
0.0
  0
LINE
  5
58
330
1F
100
AcDbEntity
  8
0
  6
Continuous
 62
     7
370
    30
100
AcDbLine
 10
64.64
 20
412.8671069427
 30
0.0
 11
64.64
 21
406.8671069427
 31
0.0
  0
LINE
  5
59
330
1F
100
AcDbEntity
  8
0
  6
Continuous
 62
     7
370
    30
100
AcDbLine
 10
426.12
 20
412.8671069427
 30
0.0
 11
426.12
 21
406.8671069427
 31
0.0
  0
LINE
  5
5A
330
1F
100
AcDbEntity
  8
0
  6
Continuous
 62
     7
370
    30
100
AcDbLine
 10
426.12
 20
12.8671069427
 30
0.0
 11
426.12
 21
6.8671069427
 31
0.0
  0
LINE
  5
5B
330
1F
100
AcDbEntity
  8
0
  6
Continuous
 62
     7
370
    30
100
AcDbLine
 10
219.56
 20
412.8671069427
 30
0.0
 11
219.56
 21
406.8671069427
 31
0.0
  0
LINE
  5
5C
330
1F
100
AcDbEntity
  8
0
  6
Continuous
 62
     7
370
    30
100
AcDbLine
 10
7.0
 20
308.3671069427
 30
0.0
 11
13.0
 21
308.3671069427
 31
0.0
  0
LINE
  5
5D
330
1F
100
AcDbEntity
  8
0
  6
Continuous
 62
     7
370
    30
100
AcDbLine
 10
64.64
 20
12.8671069427
 30
0.0
 11
64.64
 21
6.8671069427
 31
0.0
  0
LINE
  5
5E
330
1F
100
AcDbEntity
  8
0
  6
Continuous
 62
     7
370
    30
100
AcDbLine
 10
477.76
 20
12.8671069427
 30
0.0
 11
477.76
 21
6.8671069427
 31
0.0
  0
LINE
  5
5F
330
1F
100
AcDbEntity
  8
0
  6
Continuous
 62
     7
370
    30
100
AcDbLine
 10
13.0
 20
12.8671069427
 30
0.0
 11
13.0
 21
6.8671069427
 31
0.0
  0
LINE
  5
60
330
1F
100
AcDbEntity
  8
FORMAT
  6
Continuous
 62
     7
370
    30
100
AcDbLine
 10
581.0
 20
12.8671069427
 30
0.0
 11
587.0
 21
12.8671069427
 31
0.0
  0
LINE
  5
61
330
1F
100
AcDbEntity
  8
0
  6
Continuous
 62
     7
370
    30
100
AcDbLine
 10
529.4
 20
12.8671069427
 30
0.0
 11
529.4
 21
6.8671069427
 31
0.0
  0
LINE
  5
62
330
1F
100
AcDbEntity
  8
0
  6
Continuous
 62
     7
370
    30
100
AcDbLine
 10
7.0
 20
357.6171069427
 30
0.0
 11
13.0
 21
357.6171069427
 31
0.0
  0
LINE
  5
63
330
1F
100
AcDbEntity
  8
0
  6
Continuous
 62
     7
370
    30
100
AcDbLine
 10
581.0
 20
111.3671069427
 30
0.0
 11
587.0
 21
111.3671069427
 31
0.0
  0
LINE
  5
64
330
1F
100
AcDbEntity
  8
0
  6
Continuous
 62
     7
370
    30
100
AcDbLine
 10
581.0
 20
62.1171069427
 30
0.0
 11
587.0
 21
62.1171069427
 31
0.0
  0
LINE
  5
65
330
1F
100
AcDbEntity
  8
0
  6
Continuous
 62
     7
370
    30
100
AcDbLine
 10
7.0
 20
12.8671069427
 30
0.0
 11
13.0
 21
12.8671069427
 31
0.0
  0
LINE
  5
66
330
1F
100
AcDbEntity
  8
0
  6
Continuous
 62
     7
370
    30
100
AcDbLine
 10
581.0
 20
160.6171069427
 30
0.0
 11
587.0
 21
160.6171069427
 31
0.0
  0
LINE
  5
67
330
1F
100
AcDbEntity
  8
0
  6
Continuous
 62
     7
370
    30
100
AcDbLine
 10
581.0
 20
209.8671069427
 30
0.0
 11
587.0
 21
209.8671069427
 31
0.0
  0
LINE
  5
68
330
1F
100
AcDbEntity
  8
0
  6
Continuous
 62
     7
370
    30
100
AcDbLine
 10
7.0
 20
259.1171069427
 30
0.0
 11
13.0
 21
259.1171069427
 31
0.0
  0
LINE
  5
69
330
1F
100
AcDbEntity
  8
0
  6
Continuous
 62
     7
370
    30
100
AcDbLine
 10
7.0
 20
160.6171069427
 30
0.0
 11
13.0
 21
160.6171069427
 31
0.0
  0
LINE
  5
6A
330
1F
100
AcDbEntity
  8
0
  6
Continuous
 62
     7
370
    30
100
AcDbLine
 10
7.0
 20
209.8671069427
 30
0.0
 11
13.0
 21
209.8671069427
 31
0.0
  0
LINE
  5
6B
330
1F
100
AcDbEntity
  8
0
  6
Continuous
 62
     7
370
    30
100
AcDbLine
 10
7.0
 20
111.3671069427
 30
0.0
 11
13.0
 21
111.3671069427
 31
0.0
  0
LINE
  5
6C
330
1F
100
AcDbEntity
  8
0
  6
Continuous
 62
     7
370
    30
100
AcDbLine
 10
7.0
 20
406.8671069427
 30
0.0
 11
581.0
 21
406.8671069427
 31
0.0
  0
LINE
  5
6D
330
1F
100
AcDbEntity
  8
0
  6
Continuous
 62
     7
370
    30
100
AcDbLine
 10
13.0
 20
412.8671069427
 30
0.0
 11
13.0
 21
406.8671069427
 31
0.0
  0
LINE
  5
6E
330
1F
100
AcDbEntity
  8
0
  6
Continuous
 62
     7
370
     0
100
AcDbLine
 10
581.0
 20
296.8671069427
 30
0.0
 11
589.0
 21
296.8671069427
 31
0.0
  0
LINE
  5
6F
330
1F
100
AcDbEntity
  8
0
  6
Continuous
 62
     7
370
     0
100
AcDbLine
 10
383.75
 20
12.8671069427
 30
0.0
 11
383.75
 21
4.8671069427
 31
0.0
  0
LINE
  5
70
330
1F
100
AcDbEntity
  8
0
  6
Continuous
 62
     7
370
     0
100
AcDbLine
 10
186.5
 20
12.8671069427
 30
0.0
 11
186.5
 21
4.8671069427
 31
0.0
  0
LINE
  5
71
330
1F
100
AcDbEntity
  8
0
  6
Continuous
 62
     7
370
     0
100
AcDbLine
 10
383.75
 20
414.8671069427
 30
0.0
 11
383.75
 21
406.8671069427
 31
0.0
  0
LINE
  5
72
330
1F
100
AcDbEntity
  8
0
  6
Continuous
 62
     7
370
     0
100
AcDbLine
 10
186.5
 20
414.8671069427
 30
0.0
 11
186.5
 21
406.8671069427
 31
0.0
  0
LINE
  5
73
330
1F
100
AcDbEntity
  8
0
  6
Continuous
 62
     7
370
    30
100
AcDbLine
 10
581.0
 20
259.1171069427
 30
0.0
 11
587.0
 21
259.1171069427
 31
0.0
  0
LINE
  5
74
330
1F
100
AcDbEntity
  8
0
  6
Continuous
 62
     7
370
    30
100
AcDbLine
 10
581.0
 20
308.3671069427
 30
0.0
 11
587.0
 21
308.3671069427
 31
0.0
  0
LINE
  5
75
330
1F
100
AcDbEntity
  8
0
  6
Continuous
 62
     7
370
    30
100
AcDbLine
 10
581.0
 20
357.6171069427
 30
0.0
 11
587.0
 21
357.6171069427
 31
0.0
  0
LINE
  5
76
330
1F
100
AcDbEntity
  8
0
  6
Continuous
 62
     7
370
    30
100
AcDbLine
 10
581.0
 20
406.8671069427
 30
0.0
 11
587.0
 21
406.8671069427
 31
0.0
  0
LINE
  5
77
330
1F
100
AcDbEntity
  8
0
  6
Continuous
 62
     7
370
     0
100
AcDbLine
 10
5.0
 20
296.8671069427
 30
0.0
 11
13.0
 21
296.8671069427
 31
0.0
  0
MTEXT
  5
79
330
1F
100
AcDbEntity
  8
FORMAT
100
AcDbMText
 10
37.9004191961
 20
10.6375696681
 30
0.0
 40
2.0
 41
0.0
 71
     1
 72
     1
  1
A
  7
SLDTEXTSTYLE0
 73
     1
 44
1.0
  0
MTEXT
  5
7A
330
1F
100
AcDbEntity
  8
FORMAT
100
AcDbMText
 10
582.9767730496
 20
38.8659487504
 30
0.0
 40
2.0
 41
0.0
 71
     1
 72
     1
  1
8
  7
SLDTEXTSTYLE0
 73
     1
 44
1.0
  0
MTEXT
  5
7B
330
1F
100
AcDbEntity
  8
FORMAT
100
AcDbMText
 10
89.5404191961
 20
10.6375696681
 30
0.0
 40
2.0
 41
0.0
 71
     1
 72
     1
  1
B
  7
SLDTEXTSTYLE0
 73
     1
 44
1.0
  0
MTEXT
  5
7C
330
1F
100
AcDbEntity
  8
FORMAT
100
AcDbMText
 10
141.1804191961
 20
10.6375696681
 30
0.0
 40
2.0
 41
0.0
 71
     1
 72
     1
  1
C
  7
SLDTEXTSTYLE0
 73
     1
 44
1.0
  0
MTEXT
  5
7D
330
1F
100
AcDbEntity
  8
FORMAT
100
AcDbMText
 10
192.8204191961
 20
10.6375696681
 30
0.0
 40
2.0
 41
0.0
 71
     1
 72
     1
  1
D
  7
SLDTEXTSTYLE0
 73
     1
 44
1.0
  0
MTEXT
  5
7E
330
1F
100
AcDbEntity
  8
FORMAT
100
AcDbMText
 10
244.4604191961
 20
10.6375696681
 30
0.0
 40
2.0
 41
0.0
 71
     1
 72
     1
  1
E
  7
SLDTEXTSTYLE0
 73
     1
 44
1.0
  0
MTEXT
  5
7F
330
1F
100
AcDbEntity
  8
FORMAT
100
AcDbMText
 10
296.1004191961
 20
10.6375696681
 30
0.0
 40
2.0
 41
0.0
 71
     1
 72
     1
  1
F
  7
SLDTEXTSTYLE0
 73
     1
 44
1.0
  0
MTEXT
  5
80
330
1F
100
AcDbEntity
  8
FORMAT
100
AcDbMText
 10
347.7404191961
 20
10.6375696681
 30
0.0
 40
2.0
 41
0.0
 71
     1
 72
     1
  1
G
  7
SLDTEXTSTYLE0
 73
     1
 44
1.0
  0
MTEXT
  5
81
330
1F
100
AcDbEntity
  8
FORMAT
100
AcDbMText
 10
397.7250046897
 20
10.6375696681
 30
0.0
 40
2.0
 41
0.0
 71
     1
 72
     1
  1
H
  7
SLDTEXTSTYLE0
 73
     1
 44
1.0
  0
MTEXT
  5
82
330
1F
100
AcDbEntity
  8
FORMAT
100
AcDbMText
 10
451.0204191961
 20
10.6375696681
 30
0.0
 40
2.0
 41
0.0
 71
     1
 72
     1
  1
I
  7
SLDTEXTSTYLE0
 73
     1
 44
1.0
  0
MTEXT
  5
83
330
1F
100
AcDbEntity
  8
FORMAT
100
AcDbMText
 10
502.6604191961
 20
10.6375696681
 30
0.0
 40
2.0
 41
0.0
 71
     1
 72
     1
  1
J
  7
SLDTEXTSTYLE0
 73
     1
 44
1.0
  0
MTEXT
  5
84
330
1F
100
AcDbEntity
  8
FORMAT
100
AcDbMText
 10
554.3004191961
 20
10.6375696681
 30
0.0
 40
2.0
 41
0.0
 71
     1
 72
     1
  1
K
  7
SLDTEXTSTYLE0
 73
     1
 44
1.0
  0
MTEXT
  5
85
330
1F
100
AcDbEntity
  8
FORMAT
100
AcDbMText
 10
582.9767730496
 20
88.1159487504
 30
0.0
 40
2.0
 41
0.0
 71
     1
 72
     1
  1
7
  7
SLDTEXTSTYLE0
 73
     1
 44
1.0
  0
MTEXT
  5
86
330
1F
100
AcDbEntity
  8
FORMAT
100
AcDbMText
 10
582.9767730496
 20
137.3659487504
 30
0.0
 40
2.0
 41
0.0
 71
     1
 72
     1
  1
6
  7
SLDTEXTSTYLE0
 73
     1
 44
1.0
  0
MTEXT
  5
87
330
1F
100
AcDbEntity
  8
FORMAT
100
AcDbMText
 10
582.9767730496
 20
186.6159487504
 30
0.0
 40
2.0
 41
0.0
 71
     1
 72
     1
  1
5
  7
SLDTEXTSTYLE0
 73
     1
 44
1.0
  0
MTEXT
  5
88
330
1F
100
AcDbEntity
  8
FORMAT
100
AcDbMText
 10
582.9767730496
 20
235.8659487504
 30
0.0
 40
2.0
 41
0.0
 71
     1
 72
     1
  1
4
  7
SLDTEXTSTYLE0
 73
     1
 44
1.0
  0
MTEXT
  5
89
330
1F
100
AcDbEntity
  8
FORMAT
100
AcDbMText
 10
582.9767730496
 20
285.1159487504
 30
0.0
 40
2.0
 41
0.0
 71
     1
 72
     1
  1
3
  7
SLDTEXTSTYLE0
 73
     1
 44
1.0
  0
MTEXT
  5
8A
330
1F
100
AcDbEntity
  8
FORMAT
100
AcDbMText
 10
582.9767730496
 20
334.3659487504
 30
0.0
 40
2.0
 41
0.0
 71
     1
 72
     1
  1
2
  7
SLDTEXTSTYLE0
 73
     1
 44
1.0
  0
MTEXT
  5
8B
330
1F
100
AcDbEntity
  8
FORMAT
100
AcDbMText
 10
582.9767730496
 20
383.6159487504
 30
0.0
 40
2.0
 41
0.0
 71
     1
 72
     1
  1
1
  7
SLDTEXTSTYLE0
 73
     1
 44
1.0
  0
MTEXT
  5
8C
330
1F
100
AcDbEntity
  8
FORMAT
100
AcDbMText
 10
399.3804191961
 20
410.6375696681
 30
0.0
 40
2.0
 41
0.0
 71
     1
 72
     1
  1
H
  7
SLDTEXTSTYLE0
 73
     1
 44
1.0
  0
MTEXT
  5
8D
330
1F
100
AcDbEntity
  8
FORMAT
100
AcDbMText
 10
244.4604191961
 20
410.6375696681
 30
0.0
 40
2.0
 41
0.0
 71
     1
 72
     1
  1
E
  7
SLDTEXTSTYLE0
 73
     1
 44
1.0
  0
MTEXT
  5
8E
330
1F
100
AcDbEntity
  8
FORMAT
100
AcDbMText
 10
37.9004191961
 20
410.6375696681
 30
0.0
 40
2.0
 41
0.0
 71
     1
 72
     1
  1
A
  7
SLDTEXTSTYLE0
 73
     1
 44
1.0
  0
MTEXT
  5
8F
330
1F
100
AcDbEntity
  8
FORMAT
100
AcDbMText
 10
89.5404191961
 20
410.6375696681
 30
0.0
 40
2.0
 41
0.0
 71
     1
 72
     1
  1
B
  7
SLDTEXTSTYLE0
 73
     1
 44
1.0
  0
MTEXT
  5
90
330
1F
100
AcDbEntity
  8
FORMAT
100
AcDbMText
 10
451.0204191961
 20
410.6375696681
 30
0.0
 40
2.0
 41
0.0
 71
     1
 72
     1
  1
I
  7
SLDTEXTSTYLE0
 73
     1
 44
1.0
  0
MTEXT
  5
91
330
1F
100
AcDbEntity
  8
FORMAT
100
AcDbMText
 10
141.1804191961
 20
410.6375696681
 30
0.0
 40
2.0
 41
0.0
 71
     1
 72
     1
  1
C
  7
SLDTEXTSTYLE0
 73
     1
 44
1.0
  0
MTEXT
  5
92
330
1F
100
AcDbEntity
  8
FORMAT
100
AcDbMText
 10
296.1004191961
 20
410.6375696681
 30
0.0
 40
2.0
 41
0.0
 71
     1
 72
     1
  1
F
  7
SLDTEXTSTYLE0
 73
     1
 44
1.0
  0
MTEXT
  5
93
330
1F
100
AcDbEntity
  8
FORMAT
100
AcDbMText
 10
554.3004191961
 20
410.6375696681
 30
0.0
 40
2.0
 41
0.0
 71
     1
 72
     1
  1
K
  7
SLDTEXTSTYLE0
 73
     1
 44
1.0
  0
MTEXT
  5
94
330
1F
100
AcDbEntity
  8
FORMAT
100
AcDbMText
 10
502.6604191961
 20
410.6375696681
 30
0.0
 40
2.0
 41
0.0
 71
     1
 72
     1
  1
J
  7
SLDTEXTSTYLE0
 73
     1
 44
1.0
  0
MTEXT
  5
95
330
1F
100
AcDbEntity
  8
FORMAT
100
AcDbMText
 10
347.7404191961
 20
410.6375696681
 30
0.0
 40
2.0
 41
0.0
 71
     1
 72
     1
  1
G
  7
SLDTEXTSTYLE0
 73
     1
 44
1.0
  0
MTEXT
  5
96
330
1F
100
AcDbEntity
  8
FORMAT
100
AcDbMText
 10
192.8204191961
 20
410.6375696681
 30
0.0
 40
2.0
 41
0.0
 71
     1
 72
     1
  1
D
  7
SLDTEXTSTYLE0
 73
     1
 44
1.0
  0
MTEXT
  5
97
330
1F
100
AcDbEntity
  8
FORMAT
100
AcDbMText
 10
8.9767730496
 20
334.3659487504
 30
0.0
 40
2.0
 41
0.0
 71
     1
 72
     1
  1
2
  7
SLDTEXTSTYLE0
 73
     1
 44
1.0
  0
MTEXT
  5
98
330
1F
100
AcDbEntity
  8
FORMAT
100
AcDbMText
 10
8.9767730496
 20
186.6159487504
 30
0.0
 40
2.0
 41
0.0
 71
     1
 72
     1
  1
5
  7
SLDTEXTSTYLE0
 73
     1
 44
1.0
  0
MTEXT
  5
99
330
1F
100
AcDbEntity
  8
FORMAT
100
AcDbMText
 10
8.9767730496
 20
285.1159487504
 30
0.0
 40
2.0
 41
0.0
 71
     1
 72
     1
  1
3
  7
SLDTEXTSTYLE0
 73
     1
 44
1.0
  0
MTEXT
  5
9A
330
1F
100
AcDbEntity
  8
FORMAT
100
AcDbMText
 10
8.9767730496
 20
235.8659487504
 30
0.0
 40
2.0
 41
0.0
 71
     1
 72
     1
  1
4
  7
SLDTEXTSTYLE0
 73
     1
 44
1.0
  0
MTEXT
  5
9B
330
1F
100
AcDbEntity
  8
FORMAT
100
AcDbMText
 10
8.9767730496
 20
88.1159487504
 30
0.0
 40
2.0
 41
0.0
 71
     1
 72
     1
  1
7
  7
SLDTEXTSTYLE0
 73
     1
 44
1.0
  0
MTEXT
  5
9C
330
1F
100
AcDbEntity
  8
FORMAT
100
AcDbMText
 10
8.9767730496
 20
137.3659487504
 30
0.0
 40
2.0
 41
0.0
 71
     1
 72
     1
  1
6
  7
SLDTEXTSTYLE0
 73
     1
 44
1.0
  0
MTEXT
  5
9D
330
1F
100
AcDbEntity
  8
FORMAT
100
AcDbMText
 10
8.9767730496
 20
383.6159487504
 30
0.0
 40
2.0
 41
0.0
 71
     1
 72
     1
  1
1
  7
SLDTEXTSTYLE0
 73
     1
 44
1.0
  0
MTEXT
  5
9E
330
1F
100
AcDbEntity
  8
FORMAT
100
AcDbMText
 10
8.9767730496
 20
38.8659487504
 30
0.0
 40
2.0
 41
0.0
 71
     1
 72
     1
  1
8
  7
SLDTEXTSTYLE0
 73
     1
 44
1.0
  0
LINE
  5
9F
330
1F
100
AcDbEntity
  8
0
  6
Continuous
 62
     7
370
    15
100
AcDbLine
 10
257.6913472607
 20
376.4761045315
 30
0.0
 11
257.2480848684
 21
381.5426168593
 31
0.0
  0
LINE
  5
A0
330
1F
100
AcDbEntity
  8
0
  6
Continuous
 62
     7
370
    15
100
AcDbLine
 10
145.634609653
 20
381.5426168593
 30
0.0
 11
145.1913472607
 21
376.4761045315
 31
0.0
  0
ARC
  5
A1
330
1F
100
AcDbEntity
  8
0
  6
Continuous
 62
     7
370
    15
100
AcDbCircle
 10
152.1098751906
 20
380.9761045315
 30
0.0
 40
6.500000000000009
100
AcDbArc
 50
90.0
 51
175.0
  0
ARC
  5
A2
330
1F
100
AcDbEntity
  8
0
  6
Continuous
 62
     7
370
    15
100
AcDbCircle
 10
250.7728193308
 20
380.9761045315
 30
0.0
 40
6.500000000000037
100
AcDbArc
 50
5.0
 51
90.0
  0
LINE
  5
A3
330
1F
100
AcDbEntity
  8
0
  6
Continuous
 62
     7
370
    15
100
AcDbLine
 10
250.7728193308
 20
387.4761045315
 30
0.0
 11
152.1098751906
 21
387.4761045315
 31
0.0
  0
LINE
  5
A4
330
1F
100
AcDbEntity
  8
0
  6
Continuous
 62
     7
370
    15
100
AcDbLine
 10
181.245403521
 20
256.2261045315
 30
0.0
 11
160.4413472607
 21
256.2261045315
 31
0.0
  0
LINE
  5
A5
330
1F
100
AcDbEntity
  8
0
  6
Continuous
 62
     7
370
    15
100
AcDbLine
 10
160.4413472607
 20
163.7261045315
 30
0.0
 11
163.4413472607
 21
163.7261045315
 31
0.0
  0
LINE
  5
A6
330
1F
100
AcDbEntity
  8
0
  6
Continuous
 62
     7
370
    15
100
AcDbLine
 10
239.4413472607
 20
163.7261045315
 30
0.0
 11
242.4413472607
 21
163.7261045315
 31
0.0
  0
LINE
  5
A7
330
1F
100
AcDbEntity
  8
0
  6
Continuous
 62
     7
370
    15
100
AcDbLine
 10
242.4413472607
 20
256.2261045315
 30
0.0
 11
221.6372910004
 21
256.2261045315
 31
0.0
  0
LINE
  5
A8
330
1F
100
AcDbEntity
  8
0
  6
Continuous
 62
     7
370
    15
100
AcDbLine
 10
191.6913472607
 20
278.4918548333
 30
0.0
 11
191.6913472607
 21
282.4761045315
 31
0.0
  0
LINE
  5
A9
330
1F
100
AcDbEntity
  8
0
  6
Continuous
 62
     7
370
    15
100
AcDbLine
 10
211.1913472607
 20
282.4761045315
 30
0.0
 11
211.1913472607
 21
278.4588243482
 31
0.0
  0
LINE
  5
AA
330
1F
100
AcDbEntity
  8
0
  6
Continuous
 62
     7
370
    15
100
AcDbLine
 10
212.9351687454
 20
261.9912245215
 30
0.0
 11
214.2724316511
 21
252.4761045315
 31
0.0
  0
LINE
  5
AB
330
1F
100
AcDbEntity
  8
0
  6
Continuous
 62
     7
370
    15
100
AcDbLine
 10
188.6102628703
 20
252.4761045315
 30
0.0
 11
189.9471575425
 21
261.9886044042
 31
0.0
  0
LINE
  5
AC
330
1F
100
AcDbEntity
  8
0
  6
Continuous
 62
     7
370
    15
100
AcDbLine
 10
160.4413472607
 20
240.9761045315
 30
0.0
 11
158.9413472607
 21
239.4761045315
 31
0.0
  0
LINE
  5
AD
330
1F
100
AcDbEntity
  8
0
  6
Continuous
 62
     7
370
    15
100
AcDbLine
 10
158.9413472607
 20
180.4761045315
 30
0.0
 11
160.4413472607
 21
178.9761045315
 31
0.0
  0
LINE
  5
AE
330
1F
100
AcDbEntity
  8
0
  6
Continuous
 62
     7
370
    15
100
AcDbLine
 10
242.4413472607
 20
178.9761045315
 30
0.0
 11
243.9413472607
 21
180.4761045315
 31
0.0
  0
LINE
  5
AF
330
1F
100
AcDbEntity
  8
0
  6
Continuous
 62
     7
370
    15
100
AcDbLine
 10
243.9413472607
 20
239.4761045315
 30
0.0
 11
242.4413472607
 21
240.9761045315
 31
0.0
  0
LINE
  5
B0
330
1F
100
AcDbEntity
  8
0
  6
Continuous
 62
     7
370
    15
100
AcDbLine
 10
176.4413472607
 20
267.4761045315
 30
0.0
 11
176.9683753908
 21
263.7261045315
 31
0.0
  0
LINE
  5
B1
330
1F
100
AcDbEntity
  8
0
  6
Continuous
 62
     7
370
    15
100
AcDbLine
 10
225.9143191306
 20
263.7261045315
 30
0.0
 11
226.4413472607
 21
267.4761045315
 31
0.0
  0
LINE
  5
B2
330
1F
100
AcDbEntity
  8
0
  6
Continuous
 62
     7
370
    15
100
AcDbLine
 10
176.9683753908
 20
263.7261045315
 30
0.0
 11
180.3174661132
 21
262.828718377
 31
0.0
  0
LINE
  5
B3
330
1F
100
AcDbEntity
  8
0
  6
Continuous
 62
     7
370
    15
100
AcDbLine
 10
222.5652284082
 20
262.828718377
 30
0.0
 11
225.9143191306
 21
263.7261045315
 31
0.0
  0
LINE
  5
B4
330
1F
100
AcDbEntity
  8
0
  6
Continuous
 62
     7
370
    15
100
AcDbLine
 10
178.8662865632
 20
273.3534708229
 30
0.0
 11
176.4806181658
 21
271.9761045315
 31
0.0
  0
LINE
  5
B5
330
1F
100
AcDbEntity
  8
0
  6
Continuous
 62
     7
370
    15
100
AcDbLine
 10
226.4020763557
 20
271.9761045315
 30
0.0
 11
224.0164079582
 21
273.3534708229
 31
0.0
  0
LINE
  5
B6
330
1F
100
AcDbEntity
  8
0
  6
Continuous
 62
     7
370
    15
100
AcDbLine
 10
176.4806181658
 20
271.9761045315
 30
0.0
 11
176.4413472607
 21
267.4761045315
 31
0.0
  0
LINE
  5
B7
330
1F
100
AcDbEntity
  8
0
  6
Continuous
 62
     7
370
    15
100
AcDbLine
 10
226.4413472607
 20
267.4761045315
 30
0.0
 11
226.4020763557
 21
271.9761045315
 31
0.0
  0
LINE
  5
B8
330
1F
100
AcDbEntity
  8
0
  6
Continuous
 62
     7
370
    15
100
AcDbLine
 10
183.0943456672
 20
282.9150829625
 30
0.0
 11
183.0828506124
 21
282.4761045315
 31
0.0
  0
LINE
  5
B9
330
1F
100
AcDbEntity
  8
0
  6
Continuous
 62
     7
370
    15
100
AcDbLine
 10
219.799843909
 20
282.4761045315
 30
0.0
 11
219.7883488542
 21
282.9150829625
 31
0.0
  0
ARC
  5
BA
330
1F
100
AcDbEntity
  8
0
  6
Continuous
 62
     7
370
    15
100
AcDbCircle
 10
191.8413472607
 20
282.6860346648
 30
0.0
 40
8.749999999999991
100
AcDbArc
 50
158.0621915142
 51
178.5
  0
ARC
  5
BB
330
1F
100
AcDbEntity
  8
0
  6
Continuous
 62
     7
370
    15
100
AcDbCircle
 10
211.0413472607
 20
282.6860346648
 30
0.0
 40
8.750000000000007
100
AcDbArc
 50
1.5
 51
21.9349365385
  0
ARC
  5
BC
330
1F
100
AcDbEntity
  8
0
  6
Continuous
 62
     7
370
    15
100
AcDbCircle
 10
185.4413472607
 20
296.9761045315
 30
0.0
 40
1.5
100
AcDbArc
 50
90.0
 51
180.0
  0
ARC
  5
BD
330
1F
100
AcDbEntity
  8
0
  6
Continuous
 62
     7
370
    15
100
AcDbCircle
 10
217.4413472607
 20
296.9761045315
 30
0.0
 40
1.5
100
AcDbArc
 50
0.0
 51
90.0
  0
LINE
  5
BE
330
1F
100
AcDbEntity
  8
0
  6
Continuous
 62
     7
370
    15
100
AcDbLine
 10
183.9413472607
 20
296.9761045315
 30
0.0
 11
183.9413472607
 21
287.0738017507
 31
0.0
  0
LINE
  5
BF
330
1F
100
AcDbEntity
  8
0
  6
Continuous
 62
     7
370
    15
100
AcDbLine
 10
218.9413472607
 20
287.0738017507
 30
0.0
 11
218.9413472607
 21
296.9761045315
 31
0.0
  0
ARC
  5
C0
330
1F
100
AcDbEntity
  8
0
  6
Continuous
 62
     7
370
    15
100
AcDbCircle
 10
185.7740483672
 20
301.4761045315
 30
0.0
 40
3.0
100
AcDbArc
 50
270.0
 51
350.0
  0
ARC
  5
C1
330
1F
100
AcDbEntity
  8
0
  6
Continuous
 62
     7
370
    15
100
AcDbCircle
 10
217.1086461542
 20
301.4761045315
 30
0.0
 40
3.0
100
AcDbArc
 50
190.0
 51
270.0
  0
SPLINE
  5
C2
330
1F
100
AcDbEntity
  8
0
  6
Continuous
 62
     7
370
    15
100
AcDbSpline
210
0.0
220
0.0
230
1.0
 70
     8
 71
     3
 72
    12
 73
     8
 74
     0
 42
0.00000001
 43
0.00000001
 12
1.0
 22
0.0
 32
0.0
 13
1.0
 23
0.0
 33
0.0
 40
0.0
 40
0.0
 40
0.0
 40
0.0
 40
0.0670227489589879
 40
0.2825411205613302
 40
0.5485267871341636
 40
0.9250041963772798
 40
1.0
 40
1.0
 40
1.0
 40
1.0
 10
219.1587491791425
 20
285.9539743945861
 30
0.0
 10
219.1492164160445
 20
285.9776959969457
 30
0.0
 10
219.1090300970764
 20
286.0776967909496
 30
0.0
 10
219.0442080147857
 20
286.2779679641182
 30
0.0
 10
218.9746486746733
 20
286.5979655569253
 30
0.0
 10
218.9324177096342
 20
286.8725168067559
 30
0.0
 10
218.9459890785257
 20
287.0447538771598
 30
0.0
 10
218.9482434663549
 20
287.0733647828359
 30
0.0
  0
SPLINE
  5
C3
330
1F
100
AcDbEntity
  8
0
  6
Continuous
 62
     7
370
    15
100
AcDbSpline
210
0.0
220
0.0
230
1.0
 70
     8
 71
     3
 72
    12
 73
     8
 74
     0
 42
0.00000001
 43
0.00000001
 12
1.0
 22
0.0
 32
0.0
 13
1.0
 23
0.0
 33
0.0
 40
0.0
 40
0.0
 40
0.0
 40
0.0
 40
0.0962102526002333
 40
0.4227594726133639
 40
0.6986800762316789
 40
0.9159346933412519
 40
1.0
 40
1.0
 40
1.0
 40
1.0
 10
183.9355467913187
 20
287.0736142585295
 30
0.0
 10
183.9373018410878
 20
287.0368355645319
 30
0.0
 10
183.9450137417925
 20
286.8752255400532
 30
0.0
 10
183.9098540574831
 20
286.6083653482286
 30
0.0
 10
183.8447323739986
 20
286.3018346509942
 30
0.0
 10
183.7788869128794
 20
286.0905241586663
 30
0.0
 10
183.7353458967546
 20
285.9838122138584
 30
0.0
 10
183.7231983798331
 20
285.9540406267286
 30
0.0
  0
LINE
  5
C4
330
1F
100
AcDbEntity
  8
0
  6
Continuous
 62
     7
370
    15
100
AcDbLine
 10
189.7659675361
 20
306.8390916901
 30
0.0
 11
188.7284716262
 21
300.9551599985
 31
0.0
  0
LINE
  5
C5
330
1F
100
AcDbEntity
  8
0
  6
Continuous
 62
     7
370
    15
100
AcDbLine
 10
214.1542228952
 20
300.9551599985
 30
0.0
 11
213.1167269853
 21
306.8390916901
 31
0.0
  0
LINE
  5
C6
330
1F
100
AcDbEntity
  8
0
  6
Continuous
 62
     7
370
    15
100
AcDbLine
 10
188.9413472607
 20
365.9761045315
 30
0.0
 11
188.9413472607
 21
363.4761045315
 31
0.0
  0
LINE
  5
C7
330
1F
100
AcDbEntity
  8
0
  6
Continuous
 62
     7
370
    15
100
AcDbLine
 10
188.9413472607
 20
375.9761045315
 30
0.0
 11
188.9413472607
 21
373.9167234496
 31
0.0
  0
LINE
  5
C8
330
1F
100
AcDbEntity
  8
0
  6
Continuous
 62
     7
370
    15
100
AcDbLine
 10
213.9413472607
 20
363.4761045315
 30
0.0
 11
213.9413472607
 21
367.7228633483
 31
0.0
  0
LINE
  5
C9
330
1F
100
AcDbEntity
  8
0
  6
Continuous
 62
     7
370
    15
100
AcDbLine
 10
213.1167269853
 20
306.8390916901
 30
0.0
 11
212.5158447128
 21
318.3046084658
 31
0.0
  0
LINE
  5
CA
330
1F
100
AcDbEntity
  8
0
  6
Continuous
 62
     7
370
    15
100
AcDbLine
 10
190.3668498087
 20
318.3046084658
 30
0.0
 11
189.7659675361
 21
306.8390916901
 31
0.0
  0
LINE
  5
CB
330
1F
100
AcDbEntity
  8
0
  6
Continuous
 62
     7
370
    15
100
AcDbLine
 10
198.9413472607
 20
323.7261045315
 30
0.0
 11
198.9413472607
 21
323.4761045315
 31
0.0
  0
LINE
  5
CC
330
1F
100
AcDbEntity
  8
0
  6
Continuous
 62
     7
370
    15
100
AcDbLine
 10
203.9413472607
 20
323.4761045315
 30
0.0
 11
203.9413472607
 21
323.7261045315
 31
0.0
  0
ARC
  5
CD
330
1F
100
AcDbEntity
  8
0
  6
Continuous
 62
     7
370
    15
100
AcDbCircle
 10
191.8647941108
 20
318.2261045315
 30
0.0
 40
1.500000000000022
100
AcDbArc
 50
90.0
 51
177.0
  0
ARC
  5
CE
330
1F
100
AcDbEntity
  8
0
  6
Continuous
 62
     7
370
    15
100
AcDbCircle
 10
211.0179004106
 20
318.2261045315
 30
0.0
 40
1.500000000000022
100
AcDbArc
 50
3.0
 51
90.0
  0
LINE
  5
CF
330
1F
100
AcDbEntity
  8
0
  6
Continuous
 62
     7
370
    15
100
AcDbLine
 10
199.9413472607
 20
338.2261045315
 30
0.0
 11
199.9413472607
 21
326.0761045315
 31
0.0
  0
LINE
  5
D0
330
1F
100
AcDbEntity
  8
0
  6
Continuous
 62
     7
370
    15
100
AcDbLine
 10
202.9413472607
 20
326.0761045315
 30
0.0
 11
202.9413472607
 21
338.2261045315
 31
0.0
  0
ARC
  5
D1
330
1F
100
AcDbEntity
  8
0
  6
Continuous
 62
     7
370
    15
100
AcDbCircle
 10
199.3823302663
 20
338.7261045315
 30
0.0
 40
0.750000000000024
100
AcDbArc
 50
318.1896851042
 51
41.8103148958
  0
ARC
  5
D2
330
1F
100
AcDbEntity
  8
0
  6
Continuous
 62
     7
370
    15
100
AcDbCircle
 10
203.5003642551
 20
338.7261045315
 30
0.0
 40
0.7500000000000452
100
AcDbArc
 50
138.1896851042
 51
221.8103148958
  0
LINE
  5
D3
330
1F
100
AcDbEntity
  8
0
  6
Continuous
 62
     7
370
    15
100
AcDbLine
 10
199.9413472607
 20
343.4761045315
 30
0.0
 11
199.9413472607
 21
339.2261045315
 31
0.0
  0
LINE
  5
D4
330
1F
100
AcDbEntity
  8
0
  6
Continuous
 62
     7
370
    15
100
AcDbLine
 10
202.9413472607
 20
339.2261045315
 30
0.0
 11
202.9413472607
 21
343.4761045315
 31
0.0
  0
LINE
  5
D5
330
1F
100
AcDbEntity
  8
0
  6
Continuous
 62
     7
370
    15
100
AcDbLine
 10
199.9413472607
 20
355.7261045315
 30
0.0
 11
199.9413472607
 21
347.4761045315
 31
0.0
  0
LINE
  5
D6
330
1F
100
AcDbEntity
  8
0
  6
Continuous
 62
     7
370
    15
100
AcDbLine
 10
202.9413472607
 20
347.4761045315
 30
0.0
 11
202.9413472607
 21
355.7261045315
 31
0.0
  0
LINE
  5
D7
330
1F
100
AcDbEntity
  8
0
  6
Continuous
 62
     7
370
    15
100
AcDbLine
 10
199.9413472607
 20
362.3241807428
 30
0.0
 11
199.9413472607
 21
356.7261045315
 31
0.0
  0
LINE
  5
D8
330
1F
100
AcDbEntity
  8
0
  6
Continuous
 62
     7
370
    15
100
AcDbLine
 10
202.9413472607
 20
356.7261045315
 30
0.0
 11
202.9413472607
 21
362.3241807428
 31
0.0
  0
ARC
  5
D9
330
1F
100
AcDbEntity
  8
0
  6
Continuous
 62
     7
370
    15
100
AcDbCircle
 10
199.3823302663
 20
356.2261045315
 30
0.0
 40
0.7499999999999861
100
AcDbArc
 50
318.1896851042
 51
41.8103148958
  0
ARC
  5
DA
330
1F
100
AcDbEntity
  8
0
  6
Continuous
 62
     7
370
    15
100
AcDbCircle
 10
203.5003642551
 20
356.2261045315
 30
0.0
 40
0.7500000000000072
100
AcDbArc
 50
138.1896851042
 51
221.8103148958
  0
ARC
  5
DB
330
1F
100
AcDbEntity
  8
0
  6
Continuous
 62
     7
370
    15
100
AcDbCircle
 10
201.4413472607
 20
359.7261045315
 30
0.0
 40
3.0
100
AcDbArc
 50
60.0
 51
120.0
  0
LINE
  5
DC
330
1F
100
AcDbEntity
  8
0
  6
Continuous
 62
     7
370
    15
100
AcDbLine
 10
198.9413472607
 20
326.0761045315
 30
0.0
 11
198.5545959148
 21
325.8528135378
 31
0.0
  0
LINE
  5
DD
330
1F
100
AcDbEntity
  8
0
  6
Continuous
 62
     7
370
    15
100
AcDbLine
 10
204.3280986067
 20
325.8528135378
 30
0.0
 11
203.9413472607
 21
326.0761045315
 31
0.0
  0
LINE
  5
DE
330
1F
100
AcDbEntity
  8
0
  6
Continuous
 62
     7
370
    15
100
AcDbLine
 10
210.1913472607
 20
319.7261045315
 30
0.0
 11
210.1913472607
 21
323.4761045315
 31
0.0
  0
LINE
  5
DF
330
1F
100
AcDbEntity
  8
0
  6
Continuous
 62
     7
370
    15
100
AcDbLine
 10
192.6913472607
 20
323.4761045315
 30
0.0
 11
192.6913472607
 21
319.7261045315
 31
0.0
  0
LINE
  5
E0
330
1F
100
AcDbEntity
  8
0
  6
Continuous
 62
     7
370
    15
100
AcDbLine
 10
196.4413472607
 20
356.4683405609
 30
0.0
 11
196.4413472607
 21
347.4761045315
 31
0.0
  0
LINE
  5
E1
330
1F
100
AcDbEntity
  8
0
  6
Continuous
 62
     7
370
    15
100
AcDbLine
 10
206.4413472607
 20
347.4761045315
 30
0.0
 11
206.4413472607
 21
356.4683405609
 31
0.0
  0
LINE
  5
E2
330
1F
100
AcDbEntity
  8
0
  6
Continuous
 62
     7
370
    15
100
AcDbLine
 10
196.4413472607
 20
343.4761045315
 30
0.0
 11
196.4413472607
 21
323.4761045315
 31
0.0
  0
LINE
  5
E3
330
1F
100
AcDbEntity
  8
0
  6
Continuous
 62
     7
370
    15
100
AcDbLine
 10
206.4413472607
 20
323.4761045315
 30
0.0
 11
206.4413472607
 21
343.4761045315
 31
0.0
  0
LINE
  5
E4
330
1F
100
AcDbEntity
  8
0
  6
Continuous
 62
     7
370
    15
100
AcDbLine
 10
201.4413472607
 20
376.4761045315
 30
0.0
 11
257.6913472607
 21
376.4761045315
 31
0.0
  0
LINE
  5
E5
330
1F
100
AcDbEntity
  8
0
  6
Continuous
 62
     7
370
    15
100
AcDbLine
 10
145.1913472607
 20
376.4761045315
 30
0.0
 11
201.4413472607
 21
376.4761045315
 31
0.0
  0
LINE
  5
E6
330
1F
100
AcDbEntity
  8
0
  6
Continuous
 62
     7
370
    15
100
AcDbLine
 10
181.2590921781
 20
256.1287046749
 30
0.0
 11
168.4413472607
 21
256.1287046749
 31
0.0
  0
LINE
  5
E7
330
1F
100
AcDbEntity
  8
0
  6
Continuous
 62
     7
370
    15
100
AcDbLine
 10
168.4413472607
 20
256.1287046749
 30
0.0
 11
168.4413472607
 21
170.205350027
 31
0.0
  0
LINE
  5
E8
330
1F
100
AcDbEntity
  8
0
  6
Continuous
 62
     7
370
    15
100
AcDbLine
 10
163.4413472607
 20
170.205350027
 30
0.0
 11
168.4413472607
 21
170.205350027
 31
0.0
  0
LINE
  5
E9
330
1F
100
AcDbEntity
  8
0
  6
Continuous
 62
     7
370
    15
100
AcDbLine
 10
160.4413472607
 20
209.9761045315
 30
0.0
 11
160.4413472607
 21
256.2261045315
 31
0.0
  0
LINE
  5
EA
330
1F
100
AcDbEntity
  8
0
  6
Continuous
 62
     7
370
    15
100
AcDbLine
 10
160.4413472607
 20
163.7261045315
 30
0.0
 11
160.4413472607
 21
209.9761045315
 31
0.0
  0
LINE
  5
EB
330
1F
100
AcDbEntity
  8
0
  6
Continuous
 62
     7
370
    15
100
AcDbLine
 10
239.4413472607
 20
170.205350027
 30
0.0
 11
234.4413472607
 21
170.205350027
 31
0.0
  0
LINE
  5
EC
330
1F
100
AcDbEntity
  8
0
  6
Continuous
 62
     7
370
    15
100
AcDbLine
 10
234.4413472607
 20
256.1287046749
 30
0.0
 11
234.4413472607
 21
170.205350027
 31
0.0
  0
LINE
  5
ED
330
1F
100
AcDbEntity
  8
0
  6
Continuous
 62
     7
370
    15
100
AcDbLine
 10
221.6236023433
 20
256.1287046749
 30
0.0
 11
234.4413472607
 21
256.1287046749
 31
0.0
  0
LINE
  5
EE
330
1F
100
AcDbEntity
  8
0
  6
Continuous
 62
     7
370
    15
100
AcDbLine
 10
242.4413472607
 20
209.9761045315
 30
0.0
 11
242.4413472607
 21
256.2261045315
 31
0.0
  0
LINE
  5
EF
330
1F
100
AcDbEntity
  8
0
  6
Continuous
 62
     7
370
    15
100
AcDbLine
 10
242.4413472607
 20
163.7261045315
 30
0.0
 11
242.4413472607
 21
209.9761045315
 31
0.0
  0
LINE
  5
F0
330
1F
100
AcDbEntity
  8
0
  6
Continuous
 62
     7
370
    15
100
AcDbLine
 10
203.5399599176
 20
365.7026498999
 30
0.0
 11
218.8859478506
 21
376.4761045315
 31
0.0
  0
ELLIPSE
  5
F1
330
1F
100
AcDbEntity
  8
0
  6
Continuous
 62
     7
370
    15
100
AcDbEllipse
 10
201.4413472607
 20
309.0211978213
 30
0.0
 11
-10.65944417792159
 21
151.3324058897151
 31
0.0
210
0.0
220
0.0
230
1.0
 40
0.043142631
 41
5.093258956320554
 42
5.149864921232031
  0
LINE
  5
F2
330
1F
100
AcDbEntity
  8
0
  6
Continuous
 62
     7
370
    15
100
AcDbLine
 10
202.8394398605
 20
373.5504142038
 30
0.0
 11
207.006868972
 21
376.4761045315
 31
0.0
  0
ELLIPSE
  5
F3
330
1F
100
AcDbEntity
  8
0
  6
Continuous
 62
     7
370
    15
100
AcDbEllipse
 10
201.4413472607
 20
361.588371937
 30
0.0
 11
12.47997403585259
 21
2.405358989747299
 31
0.0
210
0.0
220
0.0
230
1.0
 40
0.2940443279
 41
1.182826080602846
 42
1.345495623027669
  0
LINE
  5
F4
330
1F
100
AcDbEntity
  8
0
  6
Continuous
 62
     7
370
    15
100
AcDbLine
 10
205.5079337883
 20
365.8952757931
 30
0.0
 11
220.5795404077
 21
376.4761045315
 31
0.0
  0
LINE
  5
F5
330
1F
100
AcDbEntity
  8
0
  6
Continuous
 62
     7
370
    15
100
AcDbLine
 10
209.6444916346
 20
365.8952757931
 30
0.0
 11
224.7160982539
 21
376.4761045315
 31
0.0
  0
ELLIPSE
  5
F6
330
1F
100
AcDbEntity
  8
0
  6
Continuous
 62
     7
370
    15
100
AcDbEllipse
 10
201.4413472607
 20
409.8359822665
 30
0.0
 11
-10.72205060528142
 21
252.5646938807357
 31
0.0
210
0.0
220
0.0
230
1.0
 40
0.0254411853
 41
4.536441166858832
 42
4.54780223126342
  0
ELLIPSE
  5
F7
330
1F
100
AcDbEntity
  8
0
  6
Continuous
 62
     7
370
    15
100
AcDbEllipse
 10
201.4413472607
 20
361.588371937
 30
0.0
 11
12.47997403585259
 21
2.405358989747299
 31
0.0
210
0.0
220
0.0
230
1.0
 40
0.2940443279
 41
0.6356738607156136
 42
0.7983434031404497
  0
LINE
  5
F8
330
1F
100
AcDbEntity
  8
0
  6
Continuous
 62
     7
370
    15
100
AcDbLine
 10
211.0637028781
 20
365.7026498999
 30
0.0
 11
226.4096908111
 21
376.4761045315
 31
0.0
  0
SPLINE
  5
F9
330
1F
100
AcDbEntity
  8
0
  6
Continuous
 62
     7
370
    15
100
AcDbSpline
210
0.0
220
0.0
230
1.0
 70
     8
 71
     3
 72
     8
 73
     4
 74
     0
 42
0.00000001
 43
0.00000001
 12
1.0
 22
0.0
 32
0.0
 13
1.0
 23
0.0
 33
0.0
 40
0.0
 40
0.0
 40
0.0
 40
0.0
 40
1.0
 40
1.0
 40
1.0
 40
1.0
 10
216.8736697650116
 20
271.9761045314536
 30
0.0
 10
216.9191821077225
 20
270.4760526377422
 30
0.0
 10
216.9662556217315
 20
268.9760488177972
 30
0.0
 10
217.0152625424958
 20
267.4761045314536
 30
0.0
  0
LINE
  5
FA
330
1F
100
AcDbEntity
  8
0
  6
Continuous
 62
     7
370
    15
100
AcDbLine
 10
217.0152625425
 20
267.4761045315
 30
0.0
 11
185.8674319789
 21
267.4761045315
 31
0.0
  0
SPLINE
  5
FB
330
1F
100
AcDbEntity
  8
0
  6
Continuous
 62
     7
370
    15
100
AcDbSpline
210
0.0
220
0.0
230
1.0
 70
     8
 71
     3
 72
     8
 73
     4
 74
     0
 42
0.00000001
 43
0.00000001
 12
1.0
 22
0.0
 32
0.0
 13
1.0
 23
0.0
 33
0.0
 40
0.0
 40
0.0
 40
0.0
 40
0.0
 40
1.0
 40
1.0
 40
1.0
 40
1.0
 10
186.009024756414
 20
271.9761045314536
 30
0.0
 10
185.963512413703
 20
270.4760526377422
 30
0.0
 10
185.916438899694
 20
268.9760488177972
 30
0.0
 10
185.8674319789297
 20
267.4761045314536
 30
0.0
  0
LINE
  5
FC
330
1F
100
AcDbEntity
  8
0
  6
Continuous
 62
     7
370
    15
100
AcDbLine
 10
216.873669765
 20
271.9761045315
 30
0.0
 11
186.0090247564
 21
271.9761045315
 31
0.0
  0
LINE
  5
FD
330
1F
100
AcDbEntity
  8
0
  6
Continuous
 62
     7
370
    15
100
AcDbLine
 10
185.8674319789
 20
267.4761045315
 30
0.0
 11
184.647556487
 21
267.4761045315
 31
0.0
  0
LINE
  5
FE
330
1F
100
AcDbEntity
  8
0
  6
Continuous
 62
     7
370
    15
100
AcDbLine
 10
218.2351380344
 20
267.4761045315
 30
0.0
 11
217.0152625425
 21
267.4761045315
 31
0.0
  0
LINE
  5
FF
330
1F
100
AcDbEntity
  8
0
  6
Continuous
 62
     7
370
    15
100
AcDbLine
 10
218.1419717171
 20
263.7261045315
 30
0.0
 11
184.7407228043
 21
263.7261045315
 31
0.0
  0
SPLINE
  5
100
330
1F
100
AcDbEntity
  8
0
  6
Continuous
 62
     7
370
    15
100
AcDbSpline
210
0.0
220
0.0
230
1.0
 70
     8
 71
     3
 72
    30
 73
    26
 74
     0
 42
0.00000001
 43
0.00000001
 12
1.0
 22
0.0
 32
0.0
 13
1.0
 23
0.0
 33
0.0
 40
0.0
 40
0.0
 40
0.0
 40
0.0
 40
0.0624999999999988
 40
0.0624999999999988
 40
0.1249999999999976
 40
0.1249999999999976
 40
0.2499999999999951
 40
0.2499999999999951
 40
0.3124999999999951
 40
0.3124999999999951
 40
0.374999999999995
 40
0.374999999999995
 40
0.4999999999999949
 40
0.4999999999999949
 40
0.6249999999999948
 40
0.6249999999999948
 40
0.6874999999999953
 40
0.6874999999999953
 40
0.7499999999999959
 40
0.7499999999999959
 40
0.874999999999998
 40
0.874999999999998
 40
0.937499999999999
 40
0.937499999999999
 40
1.0
 40
1.0
 40
1.0
 40
1.0
 10
211.2339632428654
 20
275.6852378409502
 30
0.0
 10
211.2535615779581
 20
275.586263195667
 30
0.0
 10
211.2800903710801
 20
275.4866544500418
 30
0.0
 10
211.3461143139208
 20
275.2894608552693
 30
0.0
 10
211.3856424708382
 20
275.1915526937875
 30
0.0
 10
211.5235206041738
 20
274.8998493856469
 30
0.0
 10
211.6410442096034
 20
274.7080666069299
 30
0.0
 10
211.8568667960336
 20
274.4244035018678
 30
0.0
 10
211.935426259161
 20
274.3305197984106
 30
0.0
 10
212.1063645425563
 20
274.1441192972391
 30
0.0
 10
212.1988602746794
 20
274.0515752549792
 30
0.0
 10
212.492715515011
 20
273.7808388974346
 30
0.0
 10
212.7117496452802
 20
273.6078536813117
 30
0.0
 10
213.1973029866543
 20
273.2769278560247
 30
0.0
 10
213.4637769357857
 20
273.1189752846467
 30
0.0
 10
213.9030997386162
 20
272.8942676538805
 30
0.0
 10
214.0555260599522
 20
272.821810481775
 30
0.0
 10
214.3675860341862
 20
272.6841048064582
 30
0.0
 10
214.5278968519798
 20
272.6185022612631
 30
0.0
 10
215.0218194246004
 20
272.4314781936436
 30
0.0
 10
215.3683029454235
 20
272.3197520071567
 30
0.0
 10
215.9162924774608
 20
272.1731378323808
 30
0.0
 10
216.1045234926785
 20
272.1276251561694
 30
0.0
 10
216.485344606508
 20
272.0453983291217
 30
0.0
 10
216.6782320583802
 20
272.0085596514745
 30
0.0
 10
216.8736697650116
 20
271.9761045314536
 30
0.0
  0
SPLINE
  5
101
330
1F
100
AcDbEntity
  8
0
  6
Continuous
 62
     7
370
    15
100
AcDbSpline
210
0.0
220
0.0
230
1.0
 70
     8
 71
     3
 72
    30
 73
    26
 74
     0
 42
0.00000001
 43
0.00000001
 12
1.0
 22
0.0
 32
0.0
 13
1.0
 23
0.0
 33
0.0
 40
0.0
 40
0.0
 40
0.0
 40
0.0
 40
0.0624999999999988
 40
0.0624999999999988
 40
0.1249999999999976
 40
0.1249999999999976
 40
0.2499999999999951
 40
0.2499999999999951
 40
0.3124999999999951
 40
0.3124999999999951
 40
0.374999999999995
 40
0.374999999999995
 40
0.4999999999999949
 40
0.4999999999999949
 40
0.6249999999999948
 40
0.6249999999999948
 40
0.6874999999999953
 40
0.6874999999999953
 40
0.7499999999999959
 40
0.7499999999999959
 40
0.874999999999998
 40
0.874999999999998
 40
0.937499999999999
 40
0.937499999999999
 40
1.0
 40
1.0
 40
1.0
 40
1.0
 10
191.6487312785601
 20
275.6852378409502
 30
0.0
 10
191.6291329434674
 20
275.586263195667
 30
0.0
 10
191.6026041503454
 20
275.4866544500418
 30
0.0
 10
191.5365802075047
 20
275.2894608552693
 30
0.0
 10
191.4970520505873
 20
275.1915526937875
 30
0.0
 10
191.3591739172518
 20
274.8998493856469
 30
0.0
 10
191.2416503118221
 20
274.7080666069299
 30
0.0
 10
191.0258277253919
 20
274.4244035018678
 30
0.0
 10
190.9472682622645
 20
274.3305197984106
 30
0.0
 10
190.7763299788692
 20
274.1441192972391
 30
0.0
 10
190.6838342467462
 20
274.0515752549792
 30
0.0
 10
190.3899790064145
 20
273.7808388974346
 30
0.0
 10
190.1709448761453
 20
273.6078536813117
 30
0.0
 10
189.6853915347712
 20
273.2769278560247
 30
0.0
 10
189.4189175856398
 20
273.1189752846467
 30
0.0
 10
188.9795947828093
 20
272.8942676538805
 30
0.0
 10
188.8271684614733
 20
272.821810481775
 30
0.0
 10
188.5151084872393
 20
272.6841048064582
 30
0.0
 10
188.3547976694457
 20
272.6185022612631
 30
0.0
 10
187.8608750968251
 20
272.4314781936436
 30
0.0
 10
187.514391576002
 20
272.3197520071567
 30
0.0
 10
186.9664020439648
 20
272.1731378323808
 30
0.0
 10
186.7781710287471
 20
272.1276251561694
 30
0.0
 10
186.3973499149175
 20
272.0453983291217
 30
0.0
 10
186.2044624630453
 20
272.0085596514745
 30
0.0
 10
186.009024756414
 20
271.9761045314536
 30
0.0
  0
LINE
  5
102
330
1F
100
AcDbEntity
  8
0
  6
Continuous
 62
     7
370
    15
100
AcDbLine
 10
191.6487312786
 20
275.685237841
 30
0.0
 11
211.2339632429
 21
275.685237841
 31
0.0
  0
SPLINE
  5
103
330
1F
100
AcDbEntity
  8
0
  6
Continuous
 62
     7
370
    15
100
AcDbSpline
210
0.0
220
0.0
230
1.0
 70
     8
 71
     3
 72
     8
 73
     4
 74
     0
 42
0.00000001
 43
0.00000001
 12
1.0
 22
0.0
 32
0.0
 13
1.0
 23
0.0
 33
0.0
 40
0.0
 40
0.0
 40
0.0
 40
0.0
 40
1.0
 40
1.0
 40
1.0
 40
1.0
 10
210.7550224836316
 20
261.9916769462936
 30
0.0
 10
211.5167524630978
 20
261.9916769462936
 30
0.0
 10
212.248175592988
 20
261.9654577661274
 30
0.0
 10
212.9501158863072
 20
261.913484669302
 30
0.0
  0
LINE
  5
104
330
1F
100
AcDbEntity
  8
0
  6
Continuous
 62
     7
370
    15
100
AcDbLine
 10
192.1276720378
 20
261.9916769463
 30
0.0
 11
210.7550224836
 21
261.9916769463
 31
0.0
  0
SPLINE
  5
105
330
1F
100
AcDbEntity
  8
0
  6
Continuous
 62
     7
370
    15
100
AcDbSpline
210
0.0
220
0.0
230
1.0
 70
     8
 71
     3
 72
     8
 73
     4
 74
     0
 42
0.00000001
 43
0.00000001
 12
1.0
 22
0.0
 32
0.0
 13
1.0
 23
0.0
 33
0.0
 40
0.0
 40
0.0
 40
0.0
 40
0.0
 40
1.0
 40
1.0
 40
1.0
 40
1.0
 10
192.1276720377939
 20
261.9916769462936
 30
0.0
 10
191.3659420583277
 20
261.9916769462936
 30
0.0
 10
190.6345189284374
 20
261.9654577661274
 30
0.0
 10
189.9325786351183
 20
261.913484669302
 30
0.0
  0
SPLINE
  5
106
330
1F
100
AcDbEntity
  8
0
  6
Continuous
 62
     7
370
    15
100
AcDbSpline
210
0.0
220
0.0
230
1.0
 70
     8
 71
     3
 72
    12
 73
     8
 74
     0
 42
0.00000001
 43
0.00000001
 12
1.0
 22
0.0
 32
0.0
 13
1.0
 23
0.0
 33
0.0
 40
0.0
 40
0.0
 40
0.0
 40
0.0
 40
0.1869829919248547
 40
0.3992089855190243
 40
0.6097537172731048
 40
0.8148047681157503
 40
1.0
 40
1.0
 40
1.0
 40
1.0
 10
189.9180518475204
 20
261.9926949428363
 30
0.0
 10
189.9046630338711
 20
262.1239881401731
 30
0.0
 10
189.8760778954087
 20
262.404299325564
 30
0.0
 10
189.1355353745945
 20
262.8215126004598
 30
0.0
 10
187.9407698449227
 20
263.1792427286112
 30
0.0
 10
186.4452077491125
 20
263.4290871341558
 30
0.0
 10
185.3836184240898
 20
263.4875213213355
 30
0.0
 10
184.8798307138272
 20
263.5152518426081
 30
0.0
  0
SPLINE
  5
107
330
1F
100
AcDbEntity
  8
0
  6
Continuous
 62
     7
370
    15
100
AcDbSpline
210
0.0
220
0.0
230
1.0
 70
     8
 71
     3
 72
    17
 73
    13
 74
     0
 42
0.00000001
 43
0.00000001
 12
1.0
 22
0.0
 32
0.0
 13
1.0
 23
0.0
 33
0.0
 40
0.0
 40
0.0
 40
0.0
 40
0.0
 40
0.0795105800023021
 40
0.1867954627115963
 40
0.2913948338784066
 40
0.3990706185493318
 40
0.5027999371758082
 40
0.6096938898249641
 40
0.7107025527267254
 40
0.8148307117786777
 40
0.906211809227575
 40
1.0
 40
1.0
 40
1.0
 40
1.0
 10
212.9477288239406
 20
261.9929897254684
 30
0.0
 10
212.9427780282008
 20
262.0483022644648
 30
0.0
 10
212.9311470454942
 20
262.1782488868552
 30
0.0
 10
213.0824694465829
 20
262.3840873133469
 30
0.0
 10
213.3721843536341
 20
262.6040536422152
 30
0.0
 10
213.7963982900645
 20
262.8108229936445
 30
0.0
 10
214.3447507013374
 20
263.0020664256547
 30
0.0
 10
214.9876326645841
 20
263.1674849830544
 30
0.0
 10
215.717301854253
 20
263.3066842761867
 30
0.0
 10
216.4724498637466
 20
263.4095486045458
 30
0.0
 10
217.2451401288855
 20
263.4822667599083
 30
0.0
 10
217.7481098100061
 20
263.5041619401611
 30
0.0
 10
218.0028638075983
 20
263.5152518426081
 30
0.0
  0
LINE
  5
108
330
1F
100
AcDbEntity
  8
0
  6
Continuous
 62
     7
370
    15
100
AcDbLine
 10
185.8674319789
 20
282.4761045315
 30
0.0
 11
191.6913472607
 21
282.4761045315
 31
0.0
  0
SPLINE
  5
109
330
1F
100
AcDbEntity
  8
0
  6
Continuous
 62
     7
370
    15
100
AcDbSpline
210
0.0
220
0.0
230
1.0
 70
     8
 71
     3
 72
     9
 73
     5
 74
     0
 42
0.00000001
 43
0.00000001
 12
1.0
 22
0.0
 32
0.0
 13
1.0
 23
0.0
 33
0.0
 40
0.0
 40
0.0
 40
0.0
 40
0.0
 40
0.2132348763426327
 40
1.0
 40
1.0
 40
1.0
 40
1.0
 10
191.6861690361482
 20
278.4918548333239
 30
0.0
 10
191.6877133930864
 20
278.4041360269099
 30
0.0
 10
191.6949559087796
 20
277.9927642667241
 30
0.0
 10
191.6716065327595
 20
277.5669315874756
 30
0.0
 10
191.6532360580477
 20
277.2319012869291
 30
0.0
  0
LINE
  5
10A
330
1F
100
AcDbEntity
  8
0
  6
Continuous
 62
     7
370
    15
100
AcDbLine
 10
191.653236058
 20
277.2319012869
 30
0.0
 11
191.6487312786
 21
275.685237841
 31
0.0
  0
LINE
  5
10B
330
1F
100
AcDbEntity
  8
0
  6
Continuous
 62
     7
370
    15
100
AcDbLine
 10
185.8674319789
 20
267.4761045315
 30
0.0
 11
185.8674319789
 21
282.4761045315
 31
0.0
  0
LINE
  5
10C
330
1F
100
AcDbEntity
  8
0
  6
Continuous
 62
     7
370
    15
100
AcDbLine
 10
211.2294584634
 20
277.2319012869
 30
0.0
 11
211.2339632429
 21
275.685237841
 31
0.0
  0
LINE
  5
10D
330
1F
100
AcDbEntity
  8
0
  6
Continuous
 62
     7
370
    15
100
AcDbLine
 10
211.2143208617
 20
278.4588243482
 30
0.0
 11
211.2294584634
 21
277.2319012869
 31
0.0
  0
LINE
  5
10E
330
1F
100
AcDbEntity
  8
0
  6
Continuous
 62
     7
370
    15
100
AcDbLine
 10
217.0152625425
 20
282.4761045315
 30
0.0
 11
211.1913472607
 21
282.4761045315
 31
0.0
  0
LINE
  5
10F
330
1F
100
AcDbEntity
  8
0
  6
Continuous
 62
     7
370
    15
100
AcDbLine
 10
217.0152625425
 20
267.4761045315
 30
0.0
 11
217.0152625425
 21
282.4761045315
 31
0.0
  0
LINE
  5
110
330
1F
100
AcDbEntity
  8
0
  6
Continuous
 62
     7
370
    15
100
AcDbLine
 10
185.8674319789
 20
282.4761045315
 30
0.0
 11
184.647556487
 21
282.4761045315
 31
0.0
  0
LINE
  5
111
330
1F
100
AcDbEntity
  8
0
  6
Continuous
 62
     7
370
    15
100
AcDbLine
 10
217.0152625425
 20
282.4761045315
 30
0.0
 11
218.2351380344
 21
282.4761045315
 31
0.0
  0
LINE
  5
112
330
1F
100
AcDbEntity
  8
0
  6
Continuous
 62
     7
370
    15
100
AcDbLine
 10
179.9675522454
 20
263.7261045315
 30
0.0
 11
184.7407228043
 21
263.7261045315
 31
0.0
  0
LINE
  5
113
330
1F
100
AcDbEntity
  8
0
  6
Continuous
 62
     7
370
    15
100
AcDbLine
 10
179.4532228606
 20
267.4761045315
 30
0.0
 11
184.647556487
 21
267.4761045315
 31
0.0
  0
LINE
  5
114
330
1F
100
AcDbEntity
  8
0
  6
Continuous
 62
     7
370
    15
100
AcDbLine
 10
223.4294716608
 20
267.4761045315
 30
0.0
 11
218.2351380344
 21
267.4761045315
 31
0.0
  0
LINE
  5
115
330
1F
100
AcDbEntity
  8
0
  6
Continuous
 62
     7
370
    15
100
AcDbLine
 10
218.2351380344
 20
282.4761045315
 30
0.0
 11
223.4294716608
 21
282.4761045315
 31
0.0
  0
LINE
  5
116
330
1F
100
AcDbEntity
  8
0
  6
Continuous
 62
     7
370
    15
100
AcDbLine
 10
184.647556487
 20
282.4761045315
 30
0.0
 11
179.4532228606
 21
282.4761045315
 31
0.0
  0
LINE
  5
117
330
1F
100
AcDbEntity
  8
0
  6
Continuous
 62
     7
370
    15
100
AcDbLine
 10
222.915142276
 20
263.7261045315
 30
0.0
 11
218.1419717171
 21
263.7261045315
 31
0.0
  0
SPLINE
  5
118
330
1F
100
AcDbEntity
  8
0
  6
Continuous
 62
     7
370
    15
100
AcDbSpline
210
0.0
220
0.0
230
1.0
 70
     8
 71
     3
 72
    26
 73
    22
 74
     0
 42
0.00000001
 43
0.00000001
 12
1.0
 22
0.0
 32
0.0
 13
1.0
 23
0.0
 33
0.0
 40
0.0
 40
0.0
 40
0.0
 40
0.0
 40
0.1250000000000002
 40
0.1250000000000002
 40
0.2500000000000004
 40
0.2500000000000004
 40
0.3750000000000006
 40
0.3750000000000006
 40
0.5000000000000008
 40
0.5000000000000008
 40
0.625000000000001
 40
0.625000000000001
 40
0.6875000000000011
 40
0.6875000000000011
 40
0.7500000000000011
 40
0.7500000000000011
 40
0.8750000000000013
 40
0.8750000000000013
 40
0.9375000000000007
 40
0.9375000000000007
 40
1.0
 40
1.0
 40
1.0
 40
1.0
 10
184.8798307138272
 20
263.5152518426081
 30
0.0
 10
184.6139760075984
 20
263.5237574993038
 30
0.0
 10
184.3482157271037
 20
263.5320134508967
 30
0.0
 10
183.8218443650733
 20
263.5478901961813
 30
0.0
 10
183.5668369434279
 20
263.5553437605852
 30
0.0
 10
183.0725698552973
 20
263.5693574622272
 30
0.0
 10
182.8333098923791
 20
263.5759174081552
 30
0.0
 10
182.3711938093111
 20
263.5881485132325
 30
0.0
 10
182.1540716040776
 20
263.5936675859479
 30
0.0
 10
181.7484701285028
 20
263.6035500921178
 30
0.0
 10
181.5596552034098
 20
263.6079221895859
 30
0.0
 10
181.2981359183501
 20
263.6136220993534
 30
0.0
 10
181.2149399294346
 20
263.6153702126679
 30
0.0
 10
181.0587480639373
 20
263.618521219736
 30
0.0
 10
180.9853831539019
 20
263.6199322324526
 30
0.0
 10
180.7792584762004
 20
263.623683709041
 30
0.0
 10
180.6603765692307
 20
263.6255460481219
 30
0.0
 10
180.510619326908
 20
263.6273667106187
 30
0.0
 10
180.4654720923024
 20
263.6278093441386
 30
0.0
 10
180.3864309610071
 20
263.6283517467636
 30
0.0
 10
180.3522907524136
 20
263.6284549531287
 30
0.0
 10
180.3234283309992
 20
263.6283934732971
 30
0.0
  0
SPLINE
  5
119
330
1F
100
AcDbEntity
  8
0
  6
Continuous
 62
     7
370
    15
100
AcDbSpline
210
0.0
220
0.0
230
1.0
 70
     8
 71
     3
 72
    26
 73
    22
 74
     0
 42
0.00000001
 43
0.00000001
 12
1.0
 22
0.0
 32
0.0
 13
1.0
 23
0.0
 33
0.0
 40
0.0
 40
0.0
 40
0.0
 40
0.0
 40
0.1250000000000002
 40
0.1250000000000002
 40
0.2500000000000004
 40
0.2500000000000004
 40
0.3750000000000006
 40
0.3750000000000006
 40
0.5000000000000008
 40
0.5000000000000008
 40
0.625000000000001
 40
0.625000000000001
 40
0.6875000000000011
 40
0.6875000000000011
 40
0.7500000000000011
 40
0.7500000000000011
 40
0.8750000000000013
 40
0.8750000000000013
 40
0.9375000000000007
 40
0.9375000000000007
 40
1.0
 40
1.0
 40
1.0
 40
1.0
 10
218.0028638075983
 20
263.5152518426081
 30
0.0
 10
218.2687185138271
 20
263.5237574993038
 30
0.0
 10
218.5344787943218
 20
263.5320134508967
 30
0.0
 10
219.0608501563522
 20
263.5478901961813
 30
0.0
 10
219.3158575779976
 20
263.5553437605852
 30
0.0
 10
219.8101246661282
 20
263.5693574622272
 30
0.0
 10
220.0493846290464
 20
263.5759174081552
 30
0.0
 10
220.5115007121144
 20
263.5881485132325
 30
0.0
 10
220.7286229173479
 20
263.5936675859479
 30
0.0
 10
221.1342243929226
 20
263.6035500921178
 30
0.0
 10
221.3230393180156
 20
263.6079221895859
 30
0.0
 10
221.5845586030754
 20
263.6136220993534
 30
0.0
 10
221.6677545919909
 20
263.6153702126679
 30
0.0
 10
221.8239464574881
 20
263.618521219736
 30
0.0
 10
221.8973113675235
 20
263.6199322324526
 30
0.0
 10
222.1034360452251
 20
263.623683709041
 30
0.0
 10
222.2223179521947
 20
263.6255460481219
 30
0.0
 10
222.3720751945175
 20
263.6273667106187
 30
0.0
 10
222.4172224291231
 20
263.6278093441386
 30
0.0
 10
222.4962635604184
 20
263.6283517467636
 30
0.0
 10
222.5304037690119
 20
263.6284549531287
 30
0.0
 10
222.5592661904263
 20
263.6283934732971
 30
0.0
  0
SPLINE
  5
11A
330
1F
100
AcDbEntity
  8
0
  6
Continuous
 62
     7
370
    15
100
AcDbSpline
210
0.0
220
0.0
230
1.0
 70
     8
 71
     3
 72
     8
 73
     4
 74
     0
 42
0.00000001
 43
0.00000001
 12
1.0
 22
0.0
 32
0.0
 13
1.0
 23
0.0
 33
0.0
 40
0.0
 40
0.0
 40
0.0
 40
0.0
 40
1.0
 40
1.0
 40
1.0
 40
1.0
 10
222.5592661904263
 20
263.6283934732971
 30
0.0
 10
222.6383294729132
 20
263.6282250606329
 30
0.0
 10
222.6760812428908
 20
263.617481170462
 30
0.0
 10
222.6731016158086
 20
263.5962800221373
 30
0.0
  0
LINE
  5
11B
330
1F
100
AcDbEntity
  8
0
  6
Continuous
 62
     7
370
    15
100
AcDbLine
 10
221.1102628703
 20
252.4761045315
 30
0.0
 11
222.6731016158
 21
263.5962800221
 31
0.0
  0
LINE
  5
11C
330
1F
100
AcDbEntity
  8
0
  6
Continuous
 62
     7
370
    15
100
AcDbLine
 10
221.1102628703
 20
252.4761045315
 30
0.0
 11
214.2724316511
 21
252.4761045315
 31
0.0
  0
LINE
  5
11D
330
1F
100
AcDbEntity
  8
0
  6
Continuous
 62
     7
370
    15
100
AcDbLine
 10
181.7724316511
 20
252.4761045315
 30
0.0
 11
188.6102628703
 21
252.4761045315
 31
0.0
  0
LINE
  5
11E
330
1F
100
AcDbEntity
  8
0
  6
Continuous
 62
     7
370
    15
100
AcDbLine
 10
181.7724316511
 20
252.4761045315
 30
0.0
 11
180.2095929056
 21
263.5962800221
 31
0.0
  0
SPLINE
  5
11F
330
1F
100
AcDbEntity
  8
0
  6
Continuous
 62
     7
370
    15
100
AcDbSpline
210
0.0
220
0.0
230
1.0
 70
     8
 71
     3
 72
     8
 73
     4
 74
     0
 42
0.00000001
 43
0.00000001
 12
1.0
 22
0.0
 32
0.0
 13
1.0
 23
0.0
 33
0.0
 40
0.0
 40
0.0
 40
0.0
 40
0.0
 40
1.0
 40
1.0
 40
1.0
 40
1.0
 10
180.3234283309992
 20
263.6283934732971
 30
0.0
 10
180.2443650485123
 20
263.6282250606329
 30
0.0
 10
180.2066132785347
 20
263.617481170462
 30
0.0
 10
180.2095929056169
 20
263.5962800221373
 30
0.0
  0
LINE
  5
120
330
1F
100
AcDbEntity
  8
0
  6
Continuous
 62
     7
370
    15
100
AcDbLine
 10
158.9413472607
 20
209.9761045315
 30
0.0
 11
158.9413472607
 21
239.4761045315
 31
0.0
  0
LINE
  5
121
330
1F
100
AcDbEntity
  8
0
  6
Continuous
 62
     7
370
    15
100
AcDbLine
 10
158.9413472607
 20
180.4761045315
 30
0.0
 11
158.9413472607
 21
209.9761045315
 31
0.0
  0
LINE
  5
122
330
1F
100
AcDbEntity
  8
0
  6
Continuous
 62
     7
370
    15
100
AcDbLine
 10
243.9413472607
 20
209.9761045315
 30
0.0
 11
243.9413472607
 21
239.4761045315
 31
0.0
  0
LINE
  5
123
330
1F
100
AcDbEntity
  8
0
  6
Continuous
 62
     7
370
    15
100
AcDbLine
 10
243.9413472607
 20
180.4761045315
 30
0.0
 11
243.9413472607
 21
209.9761045315
 31
0.0
  0
LINE
  5
124
330
1F
100
AcDbEntity
  8
0
  6
Continuous
 62
     7
370
    15
100
AcDbLine
 10
211.2294584634
 20
277.2319012869
 30
0.0
 11
191.653236058
 21
277.2319012869
 31
0.0
  0
LINE
  5
125
330
1F
100
AcDbEntity
  8
0
  6
Continuous
 62
     7
370
    15
100
AcDbLine
 10
224.0164079582
 20
282.4761045315
 30
0.0
 11
224.0164079582
 21
267.4761045315
 31
0.0
  0
LINE
  5
126
330
1F
100
AcDbEntity
  8
0
  6
Continuous
 62
     7
370
    15
100
AcDbLine
 10
223.4294716608
 20
267.4761045315
 30
0.0
 11
224.0164079582
 21
267.4761045315
 31
0.0
  0
LINE
  5
127
330
1F
100
AcDbEntity
  8
0
  6
Continuous
 62
     7
370
    15
100
AcDbLine
 10
223.4294716608
 20
282.4761045315
 30
0.0
 11
224.0164079582
 21
282.4761045315
 31
0.0
  0
LINE
  5
128
330
1F
100
AcDbEntity
  8
0
  6
Continuous
 62
     7
370
    15
100
AcDbLine
 10
179.9675522454
 20
263.7261045315
 30
0.0
 11
176.9683753908
 21
263.7261045315
 31
0.0
  0
LINE
  5
129
330
1F
100
AcDbEntity
  8
0
  6
Continuous
 62
     7
370
    15
100
AcDbLine
 10
178.8662865632
 20
267.4761045315
 30
0.0
 11
176.4413472607
 21
267.4761045315
 31
0.0
  0
LINE
  5
12A
330
1F
100
AcDbEntity
  8
0
  6
Continuous
 62
     7
370
    15
100
AcDbLine
 10
179.4532228606
 20
267.4761045315
 30
0.0
 11
178.8662865632
 21
267.4761045315
 31
0.0
  0
LINE
  5
12B
330
1F
100
AcDbEntity
  8
0
  6
Continuous
 62
     7
370
    15
100
AcDbLine
 10
224.0164079582
 20
267.4761045315
 30
0.0
 11
226.4413472607
 21
267.4761045315
 31
0.0
  0
LINE
  5
12C
330
1F
100
AcDbEntity
  8
0
  6
Continuous
 62
     7
370
    15
100
AcDbLine
 10
222.915142276
 20
263.7261045315
 30
0.0
 11
225.9143191306
 21
263.7261045315
 31
0.0
  0
LINE
  5
12D
330
1F
100
AcDbEntity
  8
0
  6
Continuous
 62
     7
370
    15
100
AcDbLine
 10
178.8662865632
 20
282.4761045315
 30
0.0
 11
178.8662865632
 21
267.4761045315
 31
0.0
  0
LINE
  5
12E
330
1F
100
AcDbEntity
  8
0
  6
Continuous
 62
     7
370
    15
100
AcDbLine
 10
179.4532228606
 20
282.4761045315
 30
0.0
 11
178.8662865632
 21
282.4761045315
 31
0.0
  0
SPLINE
  5
12F
330
1F
100
AcDbEntity
  8
0
  6
Continuous
 62
     7
370
    15
100
AcDbSpline
210
0.0
220
0.0
230
1.0
 70
     8
 71
     3
 72
    20
 73
    16
 74
     0
 42
0.00000001
 43
0.00000001
 12
1.0
 22
0.0
 32
0.0
 13
1.0
 23
0.0
 33
0.0
 40
0.0
 40
0.0
 40
0.0
 40
0.0
 40
0.1250000000000015
 40
0.1250000000000015
 40
0.2500000000000031
 40
0.2500000000000031
 40
0.4999999999999989
 40
0.4999999999999989
 40
0.6249999999999992
 40
0.6249999999999992
 40
0.7499999999999994
 40
0.7499999999999994
 40
0.8749999999999998
 40
0.8749999999999998
 40
1.0
 40
1.0
 40
1.0
 40
1.0
 10
189.7836558279708
 20
282.4761045314534
 30
0.0
 10
189.7184101599972
 20
282.5847630073034
 30
0.0
 10
189.6481952487393
 20
282.6915524123002
 30
0.0
 10
189.4988697571924
 20
282.8980175704761
 30
0.0
 10
189.4197259194698
 20
282.9978267595702
 30
0.0
 10
189.1677158674824
 20
283.2865514665173
 30
0.0
 10
188.9804401696231
 20
283.4648643365035
 30
0.0
 10
188.6638135726528
 20
283.7079963870243
 30
0.0
 10
188.551658014497
 20
283.7852928016183
 30
0.0
 10
188.3183098506706
 20
283.9281410304957
 30
0.0
 10
188.1968847787795
 20
283.9939644661995
 30
0.0
 10
187.9438958171816
 20
284.1139774961134
 30
0.0
 10
187.8123356256054
 20
284.168171127289
 30
0.0
 10
187.5381467642222
 20
284.2641449588501
 30
0.0
 10
187.3945698383854
 20
284.3060896450057
 30
0.0
 10
187.2484912364894
 20
284.3404412588254
 30
0.0
  0
SPLINE
  5
130
330
1F
100
AcDbEntity
  8
0
  6
Continuous
 62
     7
370
    15
100
AcDbSpline
210
0.0
220
0.0
230
1.0
 70
     8
 71
     3
 72
    20
 73
    16
 74
     0
 42
0.00000001
 43
0.00000001
 12
1.0
 22
0.0
 32
0.0
 13
1.0
 23
0.0
 33
0.0
 40
0.0
 40
0.0
 40
0.0
 40
0.0
 40
0.1250000000000015
 40
0.1250000000000015
 40
0.2500000000000031
 40
0.2500000000000031
 40
0.4999999999999989
 40
0.4999999999999989
 40
0.6249999999999992
 40
0.6249999999999992
 40
0.7499999999999994
 40
0.7499999999999994
 40
0.8749999999999998
 40
0.8749999999999998
 40
1.0
 40
1.0
 40
1.0
 40
1.0
 10
213.0990386934547
 20
282.4761045314534
 30
0.0
 10
213.1642843614283
 20
282.5847630073034
 30
0.0
 10
213.2344992726863
 20
282.6915524123002
 30
0.0
 10
213.3838247642331
 20
282.8980175704761
 30
0.0
 10
213.4629686019557
 20
282.9978267595702
 30
0.0
 10
213.7149786539431
 20
283.2865514665173
 30
0.0
 10
213.9022543518024
 20
283.4648643365035
 30
0.0
 10
214.2188809487727
 20
283.7079963870243
 30
0.0
 10
214.3310365069286
 20
283.7852928016183
 30
0.0
 10
214.5643846707549
 20
283.9281410304957
 30
0.0
 10
214.685809742646
 20
283.9939644661995
 30
0.0
 10
214.9387987042439
 20
284.1139774961134
 30
0.0
 10
215.0703588958201
 20
284.168171127289
 30
0.0
 10
215.3445477572033
 20
284.2641449588501
 30
0.0
 10
215.4881246830401
 20
284.3060896450057
 30
0.0
 10
215.6342032849361
 20
284.3404412588254
 30
0.0
  0
LINE
  5
131
330
1F
100
AcDbEntity
  8
0
  6
Continuous
 62
     7
370
    15
100
AcDbLine
 10
178.8662865632
 20
271.9761045315
 30
0.0
 11
176.4806181658
 21
271.9761045315
 31
0.0
  0
LINE
  5
132
330
1F
100
AcDbEntity
  8
0
  6
Continuous
 62
     7
370
    15
100
AcDbLine
 10
224.0164079582
 20
271.9761045315
 30
0.0
 11
226.4020763557
 21
271.9761045315
 31
0.0
  0
LINE
  5
133
330
1F
100
AcDbEntity
  8
0
  6
Continuous
 62
     7
370
    15
100
AcDbLine
 10
239.4413472607
 20
163.7261045315
 30
0.0
 11
234.4413472607
 21
163.7261045315
 31
0.0
  0
LINE
  5
134
330
1F
100
AcDbEntity
  8
0
  6
Continuous
 62
     7
370
    15
100
AcDbLine
 10
239.4413472607
 20
170.205350027
 30
0.0
 11
239.4413472607
 21
163.7261045315
 31
0.0
  0
LINE
  5
135
330
1F
100
AcDbEntity
  8
0
  6
Continuous
 62
     7
370
    15
100
AcDbLine
 10
234.4413472607
 20
170.205350027
 30
0.0
 11
234.4413472607
 21
163.7261045315
 31
0.0
  0
LINE
  5
136
330
1F
100
AcDbEntity
  8
0
  6
Continuous
 62
     7
370
    15
100
AcDbLine
 10
163.4413472607
 20
163.7261045315
 30
0.0
 11
168.4413472607
 21
163.7261045315
 31
0.0
  0
LINE
  5
137
330
1F
100
AcDbEntity
  8
0
  6
Continuous
 62
     7
370
    15
100
AcDbLine
 10
163.4413472607
 20
170.205350027
 30
0.0
 11
163.4413472607
 21
163.7261045315
 31
0.0
  0
LINE
  5
138
330
1F
100
AcDbEntity
  8
0
  6
Continuous
 62
     7
370
    15
100
AcDbLine
 10
168.4413472607
 20
170.205350027
 30
0.0
 11
168.4413472607
 21
163.7261045315
 31
0.0
  0
SPLINE
  5
139
330
1F
100
AcDbEntity
  8
0
  6
Continuous
 62
     7
370
    15
100
AcDbSpline
210
0.0
220
0.0
230
1.0
 70
     8
 71
     3
 72
    22
 73
    18
 74
     0
 42
0.00000001
 43
0.00000001
 12
1.0
 22
0.0
 32
0.0
 13
1.0
 23
0.0
 33
0.0
 40
0.0
 40
0.0
 40
0.0
 40
0.0
 40
0.2500000000000078
 40
0.2500000000000078
 40
0.375000000000006
 40
0.375000000000006
 40
0.5000000000000042
 40
0.5000000000000042
 40
0.6250000000000024
 40
0.6250000000000024
 40
0.7500000000000007
 40
0.7500000000000007
 40
0.8124999999999998
 40
0.8124999999999998
 40
0.8749999999999989
 40
0.8749999999999989
 40
1.0
 40
1.0
 40
1.0
 40
1.0
 10
217.834974578919
 20
282.4761045314536
 30
0.0
 10
217.7606997597817
 20
282.7330733799448
 30
0.0
 10
217.6633599611892
 20
282.9884702665076
 30
0.0
 10
217.4758382747828
 20
283.3472109571663
 30
0.0
 10
217.4063547019262
 20
283.4630084085736
 30
0.0
 10
217.2496747915388
 20
283.6849740613473
 30
0.0
 10
217.1640408832668
 20
283.7888518994941
 30
0.0
 10
216.9759208302622
 20
283.9784056699013
 30
0.0
 10
216.8730585578791
 20
284.0645192238363
 30
0.0
 10
216.6463488816716
 20
284.2119783597346
 30
0.0
 10
216.5269567433313
 20
284.270374206992
 30
0.0
 10
216.3380262652277
 20
284.3321454623738
 30
0.0
 10
216.27326249082
 20
284.3483386596333
 30
0.0
 10
216.1446932475905
 20
284.370902374183
 30
0.0
 10
216.0803658567635
 20
284.3774764878234
 30
0.0
 10
215.88734990308
 20
284.383750881075
 30
0.0
 10
215.7581987241115
 20
284.3695998309004
 30
0.0
 10
215.6342032849321
 20
284.3404412588246
 30
0.0
  0
SPLINE
  5
13A
330
1F
100
AcDbEntity
  8
0
  6
Continuous
 62
     7
370
    15
100
AcDbSpline
210
0.0
220
0.0
230
1.0
 70
     8
 71
     3
 72
    22
 73
    18
 74
     0
 42
0.00000001
 43
0.00000001
 12
1.0
 22
0.0
 32
0.0
 13
1.0
 23
0.0
 33
0.0
 40
0.0
 40
0.0
 40
0.0
 40
0.0
 40
0.2500000000000078
 40
0.2500000000000078
 40
0.375000000000006
 40
0.375000000000006
 40
0.5000000000000042
 40
0.5000000000000042
 40
0.6250000000000024
 40
0.6250000000000024
 40
0.7500000000000007
 40
0.7500000000000007
 40
0.8124999999999998
 40
0.8124999999999998
 40
0.8749999999999989
 40
0.8749999999999989
 40
1.0
 40
1.0
 40
1.0
 40
1.0
 10
185.0477199425065
 20
282.4761045314536
 30
0.0
 10
185.1219947616438
 20
282.7330733799448
 30
0.0
 10
185.2193345602363
 20
282.9884702665076
 30
0.0
 10
185.4068562466427
 20
283.3472109571663
 30
0.0
 10
185.4763398194993
 20
283.4630084085736
 30
0.0
 10
185.6330197298867
 20
283.6849740613473
 30
0.0
 10
185.7186536381588
 20
283.7888518994941
 30
0.0
 10
185.9067736911633
 20
283.9784056699013
 30
0.0
 10
186.0096359635464
 20
284.0645192238363
 30
0.0
 10
186.2363456397539
 20
284.2119783597346
 30
0.0
 10
186.3557377780942
 20
284.270374206992
 30
0.0
 10
186.5446682561978
 20
284.3321454623738
 30
0.0
 10
186.6094320306055
 20
284.3483386596333
 30
0.0
 10
186.738001273835
 20
284.370902374183
 30
0.0
 10
186.802328664662
 20
284.3774764878234
 30
0.0
 10
186.9953446183455
 20
284.383750881075
 30
0.0
 10
187.124495797314
 20
284.3695998309004
 30
0.0
 10
187.2484912364934
 20
284.3404412588246
 30
0.0
  0
LINE
  5
13B
330
1F
100
AcDbEntity
  8
0
  6
Continuous
 62
     7
370
    15
100
AcDbLine
 10
184.2005213136
 20
232.6686456194
 30
0.0
 11
183.574878899
 21
235.4907361795
 31
0.0
  0
LINE
  5
13C
330
1F
100
AcDbEntity
  8
0
  6
Continuous
 62
     7
370
    15
100
AcDbLine
 10
218.6821732078
 20
232.6686456194
 30
0.0
 11
219.3078156225
 21
235.4907361795
 31
0.0
  0
SPLINE
  5
13D
330
1F
100
AcDbEntity
  8
0
  6
Continuous
 62
     7
370
    15
100
AcDbSpline
210
0.0
220
0.0
230
1.0
 70
     8
 71
     3
 72
    26
 73
    22
 74
     0
 42
0.00000001
 43
0.00000001
 12
1.0
 22
0.0
 32
0.0
 13
1.0
 23
0.0
 33
0.0
 40
0.0
 40
0.0
 40
0.0
 40
0.0
 40
0.1250000000000011
 40
0.1250000000000011
 40
0.1875000000000012
 40
0.1875000000000012
 40
0.2500000000000013
 40
0.2500000000000013
 40
0.3750000000000014
 40
0.3750000000000014
 40
0.5000000000000016
 40
0.5000000000000016
 40
0.6250000000000017
 40
0.6250000000000017
 40
0.6875000000000021
 40
0.6875000000000021
 40
0.7500000000000026
 40
0.7500000000000026
 40
0.8750000000000013
 40
0.8750000000000013
 40
1.0
 40
1.0
 40
1.0
 40
1.0
 10
220.8176056143219
 20
229.0939669124766
 30
0.0
 10
220.6311458197132
 20
229.1444849176598
 30
0.0
 10
220.452674044991
 20
229.2122486883033
 30
0.0
 10
220.1964346586755
 20
229.338653821202
 30
0.0
 10
220.1129464605273
 20
229.384944701683
 30
0.0
 10
219.9498944703063
 20
229.4859990738439
 30
0.0
 10
219.870043378005
 20
229.5410306211153
 30
0.0
 10
219.6413310844712
 20
229.7155802278943
 30
0.0
 10
219.5017351863975
 20
229.845213648624
 30
0.0
 10
219.2477990521384
 20
230.1304971221923
 30
0.0
 10
219.1329101482921
 20
230.2876411075432
 30
0.0
 10
218.937899603253
 20
230.6159599690263
 30
0.0
 10
218.8564679462164
 20
230.788205203393
 30
0.0
 10
218.7586157975322
 20
231.0587947808607
 30
0.0
 10
218.7300138966525
 20
231.1514240874742
 30
0.0
 10
218.6821665507994
 20
231.3371660843564
 30
0.0
 10
218.6627537464308
 20
231.4306382939261
 30
0.0
 10
218.6177454224111
 20
231.7128182364378
 30
0.0
 10
218.6052593248963
 20
231.9032732006227
 30
0.0
 10
218.6166119758475
 20
232.2890245251375
 30
0.0
 10
218.6403742334998
 20
232.4801026306225
 30
0.0
 10
218.6821732077896
 20
232.6686456193959
 30
0.0
  0
SPLINE
  5
13E
330
1F
100
AcDbEntity
  8
0
  6
Continuous
 62
     7
370
    15
100
AcDbSpline
210
0.0
220
0.0
230
1.0
 70
     8
 71
     3
 72
    18
 73
    14
 74
     0
 42
0.00000001
 43
0.00000001
 12
1.0
 22
0.0
 32
0.0
 13
1.0
 23
0.0
 33
0.0
 40
0.0
 40
0.0
 40
0.0
 40
0.0
 40
0.1249999999999997
 40
0.1249999999999997
 40
0.2499999999999994
 40
0.2499999999999994
 40
0.4999999999999996
 40
0.4999999999999996
 40
0.6249999999999997
 40
0.6249999999999997
 40
0.7499999999999999
 40
0.7499999999999999
 40
1.0
 40
1.0
 40
1.0
 40
1.0
 10
220.2938237167944
 20
224.3192157049724
 30
0.0
 10
220.2938237167944
 20
224.6299372413692
 30
0.0
 10
220.3092740103944
 20
224.9284127940331
 30
0.0
 10
220.3481389446258
 20
225.4986691677528
 30
0.0
 10
220.3724618968938
 20
225.7705669606856
 30
0.0
 10
220.450026136155
 20
226.5457410689247
 30
0.0
 10
220.5077294619309
 20
227.008706249782
 30
0.0
 10
220.5893228315104
 20
227.6185504642466
 30
0.0
 10
220.6158839804152
 20
227.8078034717599
 30
0.0
 10
220.665853194156
 20
228.1524147906227
 30
0.0
 10
220.6893648154538
 20
228.3085156122323
 30
0.0
 10
220.7544649668794
 20
228.7285182607397
 30
0.0
 10
220.7905936232137
 20
228.9443811757115
 30
0.0
 10
220.817605614326
 20
229.0939669124773
 30
0.0
  0
SPLINE
  5
13F
330
1F
100
AcDbEntity
  8
0
  6
Continuous
 62
     7
370
    15
100
AcDbSpline
210
0.0
220
0.0
230
1.0
 70
     8
 71
     3
 72
    18
 73
    14
 74
     0
 42
0.00000001
 43
0.00000001
 12
1.0
 22
0.0
 32
0.0
 13
1.0
 23
0.0
 33
0.0
 40
0.0
 40
0.0
 40
0.0
 40
0.0
 40
0.1249999999999997
 40
0.1249999999999997
 40
0.2499999999999994
 40
0.2499999999999994
 40
0.4999999999999996
 40
0.4999999999999996
 40
0.6249999999999997
 40
0.6249999999999997
 40
0.7499999999999999
 40
0.7499999999999999
 40
1.0
 40
1.0
 40
1.0
 40
1.0
 10
182.5888708046311
 20
224.3192157049724
 30
0.0
 10
182.5888708046311
 20
224.6299372413692
 30
0.0
 10
182.5734205110311
 20
224.9284127940331
 30
0.0
 10
182.5345555767997
 20
225.4986691677528
 30
0.0
 10
182.5102326245318
 20
225.7705669606856
 30
0.0
 10
182.4326683852705
 20
226.5457410689247
 30
0.0
 10
182.3749650594946
 20
227.008706249782
 30
0.0
 10
182.2933716899151
 20
227.6185504642466
 30
0.0
 10
182.2668105410103
 20
227.8078034717599
 30
0.0
 10
182.2168413272695
 20
228.1524147906227
 30
0.0
 10
182.1933297059717
 20
228.3085156122323
 30
0.0
 10
182.1282295545461
 20
228.7285182607397
 30
0.0
 10
182.0921008982118
 20
228.9443811757115
 30
0.0
 10
182.0650889070995
 20
229.0939669124773
 30
0.0
  0
SPLINE
  5
140
330
1F
100
AcDbEntity
  8
0
  6
Continuous
 62
     7
370
    15
100
AcDbSpline
210
0.0
220
0.0
230
1.0
 70
     8
 71
     3
 72
    26
 73
    22
 74
     0
 42
0.00000001
 43
0.00000001
 12
1.0
 22
0.0
 32
0.0
 13
1.0
 23
0.0
 33
0.0
 40
0.0
 40
0.0
 40
0.0
 40
0.0
 40
0.1250000000000011
 40
0.1250000000000011
 40
0.1875000000000012
 40
0.1875000000000012
 40
0.2500000000000013
 40
0.2500000000000013
 40
0.3750000000000014
 40
0.3750000000000014
 40
0.5000000000000016
 40
0.5000000000000016
 40
0.6250000000000017
 40
0.6250000000000017
 40
0.6875000000000021
 40
0.6875000000000021
 40
0.7500000000000026
 40
0.7500000000000026
 40
0.8750000000000013
 40
0.8750000000000013
 40
1.0
 40
1.0
 40
1.0
 40
1.0
 10
182.0650889071036
 20
229.0939669124766
 30
0.0
 10
182.2515487017124
 20
229.1444849176598
 30
0.0
 10
182.4300204764345
 20
229.2122486883033
 30
0.0
 10
182.68625986275
 20
229.338653821202
 30
0.0
 10
182.7697480608983
 20
229.384944701683
 30
0.0
 10
182.9328000511192
 20
229.4859990738439
 30
0.0
 10
183.0126511434205
 20
229.5410306211153
 30
0.0
 10
183.2413634369543
 20
229.7155802278943
 30
0.0
 10
183.380959335028
 20
229.845213648624
 30
0.0
 10
183.6348954692871
 20
230.1304971221923
 30
0.0
 10
183.7497843731335
 20
230.2876411075432
 30
0.0
 10
183.9447949181725
 20
230.6159599690263
 30
0.0
 10
184.0262265752091
 20
230.788205203393
 30
0.0
 10
184.1240787238933
 20
231.0587947808607
 30
0.0
 10
184.152680624773
 20
231.1514240874742
 30
0.0
 10
184.2005279706261
 20
231.3371660843564
 30
0.0
 10
184.2199407749947
 20
231.4306382939261
 30
0.0
 10
184.2649490990144
 20
231.7128182364378
 30
0.0
 10
184.2774351965292
 20
231.9032732006227
 30
0.0
 10
184.266082545578
 20
232.2890245251375
 30
0.0
 10
184.2423202879257
 20
232.4801026306225
 30
0.0
 10
184.2005213136359
 20
232.6686456193959
 30
0.0
  0
SPLINE
  5
141
330
1F
100
AcDbEntity
  8
0
  6
Continuous
 62
     7
370
    15
100
AcDbSpline
210
0.0
220
0.0
230
1.0
 70
     8
 71
     3
 72
     8
 73
     4
 74
     0
 42
0.00000001
 43
0.00000001
 12
1.0
 22
0.0
 32
0.0
 13
1.0
 23
0.0
 33
0.0
 40
0.0
 40
0.0
 40
0.0
 40
0.0
 40
1.0
 40
1.0
 40
1.0
 40
1.0
 10
168.4413472607127
 20
188.2562979024801
 30
0.0
 10
173.1575172902295
 20
189.1848546473332
 30
0.0
 10
177.8734075009966
 20
190.1148305358497
 30
0.0
 10
182.5888708046311
 20
191.0469603352676
 30
0.0
  0
SPLINE
  5
142
330
1F
100
AcDbEntity
  8
0
  6
Continuous
 62
     7
370
    15
100
AcDbSpline
210
0.0
220
0.0
230
1.0
 70
     8
 71
     3
 72
     8
 73
     4
 74
     0
 42
0.00000001
 43
0.00000001
 12
1.0
 22
0.0
 32
0.0
 13
1.0
 23
0.0
 33
0.0
 40
0.0
 40
0.0
 40
0.0
 40
0.0
 40
1.0
 40
1.0
 40
1.0
 40
1.0
 10
182.0650889071036
 20
229.0939669124766
 30
0.0
 10
177.5240920731931
 20
229.9874488817161
 30
0.0
 10
172.9828136177198
 20
230.8795037588209
 30
0.0
 10
168.4413472607127
 20
231.770599249157
 30
0.0
  0
LINE
  5
143
330
1F
100
AcDbEntity
  8
0
  6
Continuous
 62
     7
370
    15
100
AcDbLine
 10
182.5888708046
 20
224.319215705
 30
0.0
 11
182.5888708046
 21
191.0469603353
 31
0.0
  0
SPLINE
  5
144
330
1F
100
AcDbEntity
  8
0
  6
Continuous
 62
     7
370
    15
100
AcDbSpline
210
0.0
220
0.0
230
1.0
 70
     8
 71
     3
 72
     8
 73
     4
 74
     0
 42
0.00000001
 43
0.00000001
 12
1.0
 22
0.0
 32
0.0
 13
1.0
 23
0.0
 33
0.0
 40
0.0
 40
0.0
 40
0.0
 40
0.0
 40
1.0
 40
1.0
 40
1.0
 40
1.0
 10
220.8176056143219
 20
229.0939669124766
 30
0.0
 10
225.3586024482324
 20
229.9874488817161
 30
0.0
 10
229.8998809037057
 20
230.8795037588209
 30
0.0
 10
234.4413472607127
 20
231.770599249157
 30
0.0
  0
SPLINE
  5
145
330
1F
100
AcDbEntity
  8
0
  6
Continuous
 62
     7
370
    15
100
AcDbSpline
210
0.0
220
0.0
230
1.0
 70
     8
 71
     3
 72
     8
 73
     4
 74
     0
 42
0.00000001
 43
0.00000001
 12
1.0
 22
0.0
 32
0.0
 13
1.0
 23
0.0
 33
0.0
 40
0.0
 40
0.0
 40
0.0
 40
0.0
 40
1.0
 40
1.0
 40
1.0
 40
1.0
 10
234.4413472607127
 20
188.2562979024801
 30
0.0
 10
229.725177231196
 20
189.1848546473332
 30
0.0
 10
225.0092870204288
 20
190.1148305358497
 30
0.0
 10
220.2938237167944
 20
191.0469603352676
 30
0.0
  0
LINE
  5
146
330
1F
100
AcDbEntity
  8
0
  6
Continuous
 62
     7
370
    15
100
AcDbLine
 10
220.2938237168
 20
224.319215705
 30
0.0
 11
220.2938237168
 21
191.0469603353
 31
0.0
  0
LINE
  5
147
330
1F
100
AcDbEntity
  8
0
  6
Continuous
 62
     7
370
    15
100
AcDbLine
 10
183.4794890183
 20
236.3615188252
 30
0.0
 11
183.4794890183
 21
252.4761045315
 31
0.0
  0
SPLINE
  5
148
330
1F
100
AcDbEntity
  8
0
  6
Continuous
 62
     7
370
    15
100
AcDbSpline
210
0.0
220
0.0
230
1.0
 70
     8
 71
     3
 72
     8
 73
     4
 74
     0
 42
0.00000001
 43
0.00000001
 12
1.0
 22
0.0
 32
0.0
 13
1.0
 23
0.0
 33
0.0
 40
0.0
 40
0.0
 40
0.0
 40
0.0
 40
1.0
 40
1.0
 40
1.0
 40
1.0
 10
219.3078156224617
 20
235.4907361795091
 30
0.0
 10
219.3713930957117
 20
235.7775156287392
 30
0.0
 10
219.4032055031124
 20
236.0677747819618
 30
0.0
 10
219.4032055031124
 20
236.3615188251873
 30
0.0
  0
SPLINE
  5
149
330
1F
100
AcDbEntity
  8
0
  6
Continuous
 62
     7
370
    15
100
AcDbSpline
210
0.0
220
0.0
230
1.0
 70
     8
 71
     3
 72
     8
 73
     4
 74
     0
 42
0.00000001
 43
0.00000001
 12
1.0
 22
0.0
 32
0.0
 13
1.0
 23
0.0
 33
0.0
 40
0.0
 40
0.0
 40
0.0
 40
0.0
 40
1.0
 40
1.0
 40
1.0
 40
1.0
 10
183.5748788989638
 20
235.4907361795091
 30
0.0
 10
183.5113014257138
 20
235.7775156287392
 30
0.0
 10
183.4794890183131
 20
236.0677747819618
 30
0.0
 10
183.4794890183131
 20
236.3615188251873
 30
0.0
  0
LINE
  5
14A
330
1F
100
AcDbEntity
  8
0
  6
Continuous
 62
     7
370
    15
100
AcDbLine
 10
219.4032055031
 20
236.3615188252
 30
0.0
 11
219.4032055031
 21
252.4761045315
 31
0.0
  0
LINE
  5
14B
330
1F
100
AcDbEntity
  8
0
  6
Continuous
 62
     7
370
    15
100
AcDbLine
 10
220.2938237168
 20
191.0469603353
 30
0.0
 11
182.5888708046
 21
191.0469603353
 31
0.0
  0
LINE
  5
14C
330
1F
100
AcDbEntity
  8
0
  6
Continuous
 62
     7
370
    15
100
AcDbLine
 10
185.4413472607
 20
298.4761045315
 30
0.0
 11
217.441289546
 21
298.4761045315
 31
0.0
  0
LINE
  5
14D
330
1F
100
AcDbEntity
  8
0
  6
Continuous
 62
     7
370
    15
100
AcDbLine
 10
200.3516225248
 20
323.4761045315
 30
0.0
 11
199.6913472607
 21
323.4761045315
 31
0.0
  0
LINE
  5
14E
330
1F
100
AcDbEntity
  8
0
  6
Continuous
 62
     7
370
    15
100
AcDbLine
 10
203.1913472607
 20
323.4761045315
 30
0.0
 11
202.5310719966
 21
323.4761045315
 31
0.0
  0
LINE
  5
14F
330
1F
100
AcDbEntity
  8
0
  6
Continuous
 62
     7
370
    15
100
AcDbLine
 10
199.6913472607
 20
323.4761045315
 30
0.0
 11
199.6913472607
 21
298.4761045315
 31
0.0
  0
LINE
  5
150
330
1F
100
AcDbEntity
  8
0
  6
Continuous
 62
     7
370
    15
100
AcDbLine
 10
203.1913472607
 20
323.4761045315
 30
0.0
 11
203.1913472607
 21
298.4761045315
 31
0.0
  0
LINE
  5
151
330
1F
100
AcDbEntity
  8
0
  6
Continuous
 62
     7
370
    15
100
AcDbLine
 10
210.1913472607
 20
347.4761045315
 30
0.0
 11
210.1913472607
 21
343.4761045315
 31
0.0
  0
CIRCLE
  5
152
330
1F
100
AcDbEntity
  8
0
  6
Continuous
 62
     7
370
    15
100
AcDbCircle
 10
205.9413472607
 20
345.4761045315
 30
0.0
 40
1.0
  0
CIRCLE
  5
153
330
1F
100
AcDbEntity
  8
0
  6
Continuous
 62
     7
370
    15
100
AcDbCircle
 10
196.9413472607
 20
345.4761045315
 30
0.0
 40
1.0
  0
LINE
  5
154
330
1F
100
AcDbEntity
  8
0
  6
Continuous
 62
     7
370
    15
100
AcDbLine
 10
192.6913472607
 20
347.4761045315
 30
0.0
 11
192.6913472607
 21
343.4761045315
 31
0.0
  0
LINE
  5
155
330
1F
100
AcDbEntity
  8
0
  6
Continuous
 62
     7
370
    15
100
AcDbLine
 10
192.6913472607
 20
343.4761045315
 30
0.0
 11
210.1913472607
 21
343.4761045315
 31
0.0
  0
LINE
  5
156
330
1F
100
AcDbEntity
  8
0
  6
Continuous
 62
     7
370
    15
100
AcDbLine
 10
192.6913472607
 20
347.4761045315
 30
0.0
 11
210.1913472607
 21
347.4761045315
 31
0.0
  0
LINE
  5
157
330
1F
100
AcDbEntity
  8
0
  6
Continuous
 62
     7
370
    15
100
AcDbLine
 10
189.7659675361
 20
306.8390916901
 30
0.0
 11
199.6913472607
 21
306.8390916901
 31
0.0
  0
LINE
  5
158
330
1F
100
AcDbEntity
  8
0
  6
Continuous
 62
     7
370
    15
100
AcDbLine
 10
203.1913472607
 20
306.8390916901
 30
0.0
 11
213.1167269853
 21
306.8390916901
 31
0.0
  0
ELLIPSE
  5
159
330
1F
100
AcDbEntity
  8
0
  6
Continuous
 62
     7
370
    15
100
AcDbEllipse
 10
201.4413472607
 20
309.0211978213
 30
0.0
 11
-0.3649109338315384
 21
151.3331016367745
 31
0.0
210
0.0
220
0.0
230
1.0
 40
0.0825640414
 41
1.130082457952149
 42
1.18668842286361
  0
LINE
  5
15A
330
1F
100
AcDbEntity
  8
0
  6
Continuous
 62
     7
370
    15
100
AcDbLine
 10
201.4413472607
 20
375.9761045315
 30
0.0
 11
206.2946560163
 21
375.9761045315
 31
0.0
  0
LINE
  5
15B
330
1F
100
AcDbEntity
  8
0
  6
Continuous
 62
     7
370
    15
100
AcDbLine
 10
188.9413472607
 20
375.9761045315
 30
0.0
 11
201.4413472607
 21
375.9761045315
 31
0.0
  0
LINE
  5
15C
330
1F
100
AcDbEntity
  8
0
  6
Continuous
 62
     7
370
    15
100
AcDbLine
 10
201.4413472607
 20
363.4761045315
 30
0.0
 11
213.9413472607
 21
363.4761045315
 31
0.0
  0
LINE
  5
15D
330
1F
100
AcDbEntity
  8
0
  6
Continuous
 62
     7
370
    15
100
AcDbLine
 10
188.9413472607
 20
363.4761045315
 30
0.0
 11
201.4413472607
 21
363.4761045315
 31
0.0
  0
LINE
  5
15E
330
1F
100
AcDbEntity
  8
0
  6
Continuous
 62
     7
370
    15
100
AcDbLine
 10
199.6913472607
 20
323.4761045315
 30
0.0
 11
198.9413472607
 21
323.4761045315
 31
0.0
  0
LINE
  5
15F
330
1F
100
AcDbEntity
  8
0
  6
Continuous
 62
     7
370
    15
100
AcDbLine
 10
203.9413472607
 20
323.4761045315
 30
0.0
 11
203.1913472607
 21
323.4761045315
 31
0.0
  0
LINE
  5
160
330
1F
100
AcDbEntity
  8
0
  6
Continuous
 62
     7
370
    15
100
AcDbLine
 10
202.5310719966
 20
323.4761045315
 30
0.0
 11
200.3516225248
 21
323.4761045315
 31
0.0
  0
SPLINE
  5
161
330
1F
100
AcDbEntity
  8
0
  6
Continuous
 62
     7
370
    15
100
AcDbSpline
210
0.0
220
0.0
230
1.0
 70
     8
 71
     3
 72
     8
 73
     4
 74
     0
 42
0.00000001
 43
0.00000001
 12
1.0
 22
0.0
 32
0.0
 13
1.0
 23
0.0
 33
0.0
 40
0.0
 40
0.0
 40
0.0
 40
0.0
 40
1.0
 40
1.0
 40
1.0
 40
1.0
 10
199.9979715877387
 20
325.8528135377613
 30
0.0
 10
199.7618546203613
 20
325.9891357324369
 30
0.0
 10
199.5221926366632
 20
326.0761045314536
 30
0.0
 10
199.2762837512516
 20
326.0761045314536
 30
0.0
  0
LINE
  5
162
330
1F
100
AcDbEntity
  8
0
  6
Continuous
 62
     7
370
    15
100
AcDbLine
 10
201.4413472607
 20
326.0761045315
 30
0.0
 11
199.2762837513
 21
326.0761045315
 31
0.0
  0
SPLINE
  5
163
330
1F
100
AcDbEntity
  8
0
  6
Continuous
 62
     7
370
    15
100
AcDbSpline
210
0.0
220
0.0
230
1.0
 70
     8
 71
     3
 72
    10
 73
     6
 74
     0
 42
0.00000001
 43
0.00000001
 12
1.0
 22
0.0
 32
0.0
 13
1.0
 23
0.0
 33
0.0
 40
0.0
 40
0.0
 40
0.0
 40
0.0
 40
0.5
 40
0.5
 40
1.0
 40
1.0
 40
1.0
 40
1.0
 10
199.9979715877386
 20
325.852813537761
 30
0.0
 10
200.2327249472505
 20
325.9205809954146
 30
0.0
 10
200.4731584401258
 20
325.9774199448311
 30
0.0
 10
200.9551139760702
 20
326.0551393120276
 30
0.0
 10
201.1974405092662
 20
326.0761045314536
 30
0.0
 10
201.4413472607127
 20
326.0761045314536
 30
0.0
  0
SPLINE
  5
164
330
1F
100
AcDbEntity
  8
0
  6
Continuous
 62
     7
370
    15
100
AcDbSpline
210
0.0
220
0.0
230
1.0
 70
     8
 71
     3
 72
    12
 73
     8
 74
     0
 42
0.00000001
 43
0.00000001
 12
1.0
 22
0.0
 32
0.0
 13
1.0
 23
0.0
 33
0.0
 40
0.0
 40
0.0
 40
0.0
 40
0.0
 40
0.2499999999999996
 40
0.2499999999999996
 40
0.4999999999999993
 40
0.4999999999999993
 40
1.0
 40
1.0
 40
1.0
 40
1.0
 10
203.6064107701739
 20
326.0761045314536
 30
0.0
 10
203.5451633336276
 20
326.0761045314536
 30
0.0
 10
203.4836413509919
 20
326.0708267511919
 30
0.0
 10
203.3619380051429
 20
326.0504023879117
 30
0.0
 10
203.3014933816563
 20
326.0352754328918
 30
0.0
 10
203.1212330612513
 20
325.9769323702676
 30
0.0
 10
203.002486737172
 20
325.9208045014042
 30
0.0
 10
202.8847229336868
 20
325.8528135377612
 30
0.0
  0
SPLINE
  5
165
330
1F
100
AcDbEntity
  8
0
  6
Continuous
 62
     7
370
    15
100
AcDbSpline
210
0.0
220
0.0
230
1.0
 70
     8
 71
     3
 72
    10
 73
     6
 74
     0
 42
0.00000001
 43
0.00000001
 12
1.0
 22
0.0
 32
0.0
 13
1.0
 23
0.0
 33
0.0
 40
0.0
 40
0.0
 40
0.0
 40
0.0
 40
0.5
 40
0.5
 40
1.0
 40
1.0
 40
1.0
 40
1.0
 10
201.4413472607127
 20
326.0761045314536
 30
0.0
 10
201.685398925762
 20
326.0761045314536
 30
0.0
 10
201.9327690107676
 20
326.0545593579363
 30
0.0
 10
202.4148899739212
 20
325.9762941778937
 30
0.0
 10
202.6513371342759
 20
325.9201862148184
 30
0.0
 10
202.8847229336868
 20
325.852813537761
 30
0.0
  0
LINE
  5
166
330
1F
100
AcDbEntity
  8
0
  6
Continuous
 62
     7
370
    15
100
AcDbLine
 10
201.4413472607
 20
326.0761045315
 30
0.0
 11
203.6064107702
 21
326.0761045315
 31
0.0
  0
LINE
  5
167
330
1F
100
AcDbEntity
  8
0
  6
Continuous
 62
     7
370
    15
100
AcDbLine
 10
198.5545959148
 20
323.7261045315
 30
0.0
 11
199.2762837513
 21
323.7261045315
 31
0.0
  0
LINE
  5
168
330
1F
100
AcDbEntity
  8
0
  6
Continuous
 62
     7
370
    15
100
AcDbLine
 10
198.5545959148
 20
323.7261045315
 30
0.0
 11
198.5545959148
 21
325.8528135378
 31
0.0
  0
SPLINE
  5
169
330
1F
100
AcDbEntity
  8
0
  6
Continuous
 62
     7
370
    15
100
AcDbSpline
210
0.0
220
0.0
230
1.0
 70
     8
 71
     3
 72
    12
 73
     8
 74
     0
 42
0.00000001
 43
0.00000001
 12
1.0
 22
0.0
 32
0.0
 13
1.0
 23
0.0
 33
0.0
 40
0.0
 40
0.0
 40
0.0
 40
0.0
 40
0.2500000000000011
 40
0.2500000000000011
 40
0.5000000000000021
 40
0.5000000000000021
 40
1.0
 40
1.0
 40
1.0
 40
1.0
 10
199.2762837512516
 20
326.0761045314536
 30
0.0
 10
199.2150363147054
 20
326.0761045314536
 30
0.0
 10
199.1535143320698
 20
326.0708267511919
 30
0.0
 10
199.0318109862207
 20
326.0504023879117
 30
0.0
 10
198.9713663627341
 20
326.0352754328917
 30
0.0
 10
198.7911060423291
 20
325.9769323702675
 30
0.0
 10
198.6723597182498
 20
325.9208045014042
 30
0.0
 10
198.5545959147646
 20
325.8528135377612
 30
0.0
  0
LINE
  5
16A
330
1F
100
AcDbEntity
  8
0
  6
Continuous
 62
     7
370
    15
100
AcDbLine
 10
199.9979715877
 20
323.7261045315
 30
0.0
 11
199.9979715877
 21
325.8528135378
 31
0.0
  0
LINE
  5
16B
330
1F
100
AcDbEntity
  8
0
  6
Continuous
 62
     7
370
    15
100
AcDbLine
 10
199.2762837513
 20
323.7261045315
 30
0.0
 11
199.9979715877
 21
323.7261045315
 31
0.0
  0
LINE
  5
16C
330
1F
100
AcDbEntity
  8
0
  6
Continuous
 62
     7
370
    15
100
AcDbLine
 10
202.8847229337
 20
323.7261045315
 30
0.0
 11
202.8847229337
 21
325.8528135378
 31
0.0
  0
LINE
  5
16D
330
1F
100
AcDbEntity
  8
0
  6
Continuous
 62
     7
370
    15
100
AcDbLine
 10
201.4413472607
 20
323.7261045315
 30
0.0
 11
199.9979715877
 21
323.7261045315
 31
0.0
  0
LINE
  5
16E
330
1F
100
AcDbEntity
  8
0
  6
Continuous
 62
     7
370
    15
100
AcDbLine
 10
202.8847229337
 20
323.7261045315
 30
0.0
 11
201.4413472607
 21
323.7261045315
 31
0.0
  0
LINE
  5
16F
330
1F
100
AcDbEntity
  8
0
  6
Continuous
 62
     7
370
    15
100
AcDbLine
 10
203.6064107702
 20
323.7261045315
 30
0.0
 11
204.3280986067
 21
323.7261045315
 31
0.0
  0
SPLINE
  5
170
330
1F
100
AcDbEntity
  8
0
  6
Continuous
 62
     7
370
    15
100
AcDbSpline
210
0.0
220
0.0
230
1.0
 70
     8
 71
     3
 72
     8
 73
     4
 74
     0
 42
0.00000001
 43
0.00000001
 12
1.0
 22
0.0
 32
0.0
 13
1.0
 23
0.0
 33
0.0
 40
0.0
 40
0.0
 40
0.0
 40
0.0
 40
1.0
 40
1.0
 40
1.0
 40
1.0
 10
204.3280986066609
 20
325.8528135377613
 30
0.0
 10
204.0919816392835
 20
325.9891357324369
 30
0.0
 10
203.8523196555854
 20
326.0761045314536
 30
0.0
 10
203.6064107701739
 20
326.0761045314536
 30
0.0
  0
LINE
  5
171
330
1F
100
AcDbEntity
  8
0
  6
Continuous
 62
     7
370
    15
100
AcDbLine
 10
204.3280986067
 20
323.7261045315
 30
0.0
 11
204.3280986067
 21
325.8528135378
 31
0.0
  0
LINE
  5
172
330
1F
100
AcDbEntity
  8
0
  6
Continuous
 62
     7
370
    15
100
AcDbLine
 10
202.8847229337
 20
323.7261045315
 30
0.0
 11
203.6064107702
 21
323.7261045315
 31
0.0
  0
LINE
  5
173
330
1F
100
AcDbEntity
  8
0
  6
Continuous
 62
     7
370
    15
100
AcDbLine
 10
191.8647941108
 20
319.7261045315
 30
0.0
 11
199.6913472607
 21
319.7261045315
 31
0.0
  0
LINE
  5
174
330
1F
100
AcDbEntity
  8
0
  6
Continuous
 62
     7
370
    15
100
AcDbLine
 10
203.1913472607
 20
319.7261045315
 30
0.0
 11
211.0179004106
 21
319.7261045315
 31
0.0
  0
LINE
  5
175
330
1F
100
AcDbEntity
  8
0
  6
Continuous
 62
     7
370
    15
100
AcDbLine
 10
199.9413472607
 20
338.2261045315
 30
0.0
 11
202.9413472607
 21
338.2261045315
 31
0.0
  0
LINE
  5
176
330
1F
100
AcDbEntity
  8
0
  6
Continuous
 62
     7
370
    15
100
AcDbLine
 10
199.9413472607
 20
339.2261045315
 30
0.0
 11
202.9413472607
 21
339.2261045315
 31
0.0
  0
LINE
  5
177
330
1F
100
AcDbEntity
  8
0
  6
Continuous
 62
     7
370
    15
100
AcDbLine
 10
199.9413472607
 20
355.7261045315
 30
0.0
 11
202.9413472607
 21
355.7261045315
 31
0.0
  0
LINE
  5
178
330
1F
100
AcDbEntity
  8
0
  6
Continuous
 62
     7
370
    15
100
AcDbLine
 10
199.9413472607
 20
356.7261045315
 30
0.0
 11
202.9413472607
 21
356.7261045315
 31
0.0
  0
LINE
  5
179
330
1F
100
AcDbEntity
  8
0
  6
Continuous
 62
     7
370
    15
100
AcDbLine
 10
199.9413472607
 20
362.3241807428
 30
0.0
 11
202.9413472607
 21
362.3241807428
 31
0.0
  0
LINE
  5
17A
330
1F
100
AcDbEntity
  8
0
  6
Continuous
 62
     7
370
    15
100
AcDbLine
 10
199.2762837513
 20
326.0761045315
 30
0.0
 11
198.9413472607
 21
326.0761045315
 31
0.0
  0
LINE
  5
17B
330
1F
100
AcDbEntity
  8
0
  6
Continuous
 62
     7
370
    15
100
AcDbLine
 10
203.9413472607
 20
326.0761045315
 30
0.0
 11
203.6064107702
 21
326.0761045315
 31
0.0
  0
LINE
  5
17C
330
1F
100
AcDbEntity
  8
0
  6
Continuous
 62
     7
370
    15
100
AcDbLine
 10
203.869816107
 20
323.4761045315
 30
0.0
 11
210.1913472607
 21
323.4761045315
 31
0.0
  0
LINE
  5
17D
330
1F
100
AcDbEntity
  8
0
  6
Continuous
 62
     7
370
    15
100
AcDbLine
 10
192.6913472607
 20
323.4761045315
 30
0.0
 11
199.0128784144
 21
323.4761045315
 31
0.0
  0
LINE
  5
17E
330
1F
100
AcDbEntity
  8
0
  6
Continuous
 62
     7
370
    15
100
AcDbLine
 10
189.9849080233
 20
373.5504142038
 30
0.0
 11
181.6500498003
 21
376.4761045315
 31
0.0
  0
LINE
  5
17F
330
1F
100
AcDbEntity
  8
0
  6
Continuous
 62
     7
370
    15
100
AcDbLine
 10
189.7203789864
 20
365.7026498999
 30
0.0
 11
159.0284031205
 21
376.4761045315
 31
0.0
  0
ELLIPSE
  5
180
330
1F
100
AcDbEntity
  8
0
  6
Continuous
 62
     7
370
    15
100
AcDbEllipse
 10
201.4413472607
 20
470.8171081123
 30
0.0
 11
0.0
 21
114.5188277421557
 31
0.0
210
0.0
220
0.0
230
1.0
 40
0.0436609429
 41
2.785659960268702
 42
2.836899999574402
  0
ELLIPSE
  5
181
330
1F
100
AcDbEntity
  8
0
  6
Continuous
 62
     7
370
    15
100
AcDbEllipse
 10
201.4413472607
 20
470.8171081123
 30
0.0
 11
0.0
 21
114.5188277421557
 31
0.0
210
0.0
220
0.0
230
1.0
 40
0.0436609429
 41
3.446285307605475
 42
3.497525346911165
  0
LINE
  5
182
330
1F
100
AcDbEntity
  8
0
  6
Continuous
 62
     7
370
    15
100
AcDbLine
 10
206.4335832902
 20
356.4761045315
 30
0.0
 11
206.1279566898
 21
363.4761045315
 31
0.0
  0
LINE
  5
183
330
1F
100
AcDbEntity
  8
0
  6
Continuous
 62
     7
370
    15
100
AcDbLine
 10
206.4413472607
 20
356.4683405609
 30
0.0
 11
206.4335832902
 21
356.4761045315
 31
0.0
  0
LINE
  5
184
330
1F
100
AcDbEntity
  8
0
  6
Continuous
 62
     7
370
    15
100
AcDbLine
 10
196.4491112313
 20
356.4761045315
 30
0.0
 11
196.4413472607
 21
356.4683405609
 31
0.0
  0
LINE
  5
185
330
1F
100
AcDbEntity
  8
0
  6
Continuous
 62
     7
370
    15
100
AcDbLine
 10
196.7547378316
 20
363.4761045315
 30
0.0
 11
196.4491112313
 21
356.4761045315
 31
0.0
  0
LINE
  5
186
330
1F
100
AcDbEntity
  8
0
  6
Continuous
 62
     7
370
    15
100
AcDbLine
 10
182.8777379492
 20
187.7261045315
 30
0.0
 11
220.0049565722
 21
187.7261045315
 31
0.0
  0
LINE
  5
187
330
1F
100
AcDbEntity
  8
0
  6
Continuous
 62
     7
370
    15
100
AcDbLine
 10
220.0049565722
 20
187.7261045315
 30
0.0
 11
234.4413472607
 21
184.9199544466
 31
0.0
  0
LINE
  5
188
330
1F
100
AcDbEntity
  8
0
  6
Continuous
 62
     7
370
    15
100
AcDbLine
 10
182.8777379492
 20
187.7261045315
 30
0.0
 11
168.4413472607
 21
184.9199544466
 31
0.0
  0
CIRCLE
  5
189
330
1F
100
AcDbEntity
  8
0
  6
Continuous
 62
     7
370
    15
100
AcDbCircle
 10
175.9413472607
 20
237.4761045315
 30
0.0
 40
4.0
  0
CIRCLE
  5
18A
330
1F
100
AcDbEntity
  8
0
  6
Continuous
 62
     7
370
    15
100
AcDbCircle
 10
226.9413472607
 20
237.4761045315
 30
0.0
 40
4.0
  0
LINE
  5
18B
330
1F
100
AcDbEntity
  8
0
  6
Continuous
 62
     7
370
    15
100
AcDbLine
 10
190.8235614681
 20
323.4761045315
 30
0.0
 11
187.0494296567
 21
298.760703536
 31
0.0
  0
LINE
  5
18C
330
1F
100
AcDbEntity
  8
0
  6
Continuous
 62
     7
370
    15
100
AcDbLine
 10
192.6913472607
 20
323.4761045315
 30
0.0
 11
190.8235614681
 21
323.4761045315
 31
0.0
  0
LINE
  5
18D
330
1F
100
AcDbEntity
  8
0
  6
Continuous
 62
     7
370
    15
100
AcDbLine
 10
212.0591330533
 20
323.4761045315
 30
0.0
 11
215.8332648647
 21
298.760703536
 31
0.0
  0
LINE
  5
18E
330
1F
100
AcDbEntity
  8
0
  6
Continuous
 62
     7
370
    15
100
AcDbLine
 10
210.1913472607
 20
323.4761045315
 30
0.0
 11
212.0591330533
 21
323.4761045315
 31
0.0
  0
LINE
  5
18F
330
1F
100
AcDbEntity
  8
0
  6
Continuous
 62
     8
370
     0
100
AcDbLine
 10
201.4413472607
 20
381.5426168593
 30
0.0
 11
257.2480848684
 21
381.5426168593
 31
0.0
  0
LINE
  5
190
330
1F
100
AcDbEntity
  8
0
  6
Continuous
 62
     8
370
     0
100
AcDbLine
 10
145.634609653
 20
381.5426168593
 30
0.0
 11
201.4413472607
 21
381.5426168593
 31
0.0
  0
LINE
  5
191
330
1F
100
AcDbEntity
  8
0
  6
Continuous
 62
     8
370
     0
100
AcDbLine
 10
184.7407228043
 20
263.7261045315
 30
0.0
 11
184.647556487
 21
267.4761045315
 31
0.0
  0
LINE
  5
192
330
1F
100
AcDbEntity
  8
0
  6
Continuous
 62
     8
370
     0
100
AcDbLine
 10
218.1419717171
 20
263.7261045315
 30
0.0
 11
218.2351380344
 21
267.4761045315
 31
0.0
  0
LINE
  5
193
330
1F
100
AcDbEntity
  8
0
  6
Continuous
 62
     8
370
     0
100
AcDbLine
 10
184.8798307138
 20
263.5152518426
 30
0.0
 11
184.7407228043
 21
263.7261045315
 31
0.0
  0
LINE
  5
194
330
1F
100
AcDbEntity
  8
0
  6
Continuous
 62
     8
370
     0
100
AcDbLine
 10
218.0028638076
 20
263.5152518426
 30
0.0
 11
218.1419717171
 21
263.7261045315
 31
0.0
  0
LINE
  5
195
330
1F
100
AcDbEntity
  8
0
  6
Continuous
 62
     8
370
     0
100
AcDbLine
 10
184.647556487
 20
282.4761045315
 30
0.0
 11
184.647556487
 21
267.4761045315
 31
0.0
  0
LINE
  5
196
330
1F
100
AcDbEntity
  8
0
  6
Continuous
 62
     8
370
     0
100
AcDbLine
 10
218.2351380344
 20
282.4761045315
 30
0.0
 11
218.2351380344
 21
267.4761045315
 31
0.0
  0
LINE
  5
197
330
1F
100
AcDbEntity
  8
0
  6
Continuous
 62
     8
370
     0
100
AcDbLine
 10
179.9675522454
 20
263.7261045315
 30
0.0
 11
179.4532228606
 21
267.4761045315
 31
0.0
  0
LINE
  5
198
330
1F
100
AcDbEntity
  8
0
  6
Continuous
 62
     8
370
     0
100
AcDbLine
 10
223.4294716608
 20
282.4761045315
 30
0.0
 11
223.4294716608
 21
267.4761045315
 31
0.0
  0
LINE
  5
199
330
1F
100
AcDbEntity
  8
0
  6
Continuous
 62
     8
370
     0
100
AcDbLine
 10
179.4532228606
 20
282.4761045315
 30
0.0
 11
179.4532228606
 21
267.4761045315
 31
0.0
  0
LINE
  5
19A
330
1F
100
AcDbEntity
  8
0
  6
Continuous
 62
     8
370
     0
100
AcDbLine
 10
222.915142276
 20
263.7261045315
 30
0.0
 11
223.4294716608
 21
267.4761045315
 31
0.0
  0
LINE
  5
19B
330
1F
100
AcDbEntity
  8
0
  6
Continuous
 62
     8
370
     0
100
AcDbLine
 10
180.323428331
 20
263.6283934733
 30
0.0
 11
179.9675522454
 21
263.7261045315
 31
0.0
  0
LINE
  5
19C
330
1F
100
AcDbEntity
  8
0
  6
Continuous
 62
     8
370
     0
100
AcDbLine
 10
222.5592661904
 20
263.6283934733
 30
0.0
 11
222.915142276
 21
263.7261045315
 31
0.0
  0
SPLINE
  5
19D
330
1F
100
AcDbEntity
  8
0
  6
Continuous
 62
     8
370
     0
100
AcDbSpline
210
0.0
220
0.0
230
1.0
 70
     8
 71
     3
 72
     8
 73
     4
 74
     0
 42
0.00000001
 43
0.00000001
 12
1.0
 22
0.0
 32
0.0
 13
1.0
 23
0.0
 33
0.0
 40
0.0
 40
0.0
 40
0.0
 40
0.0
 40
1.0
 40
1.0
 40
1.0
 40
1.0
 10
187.1724226222201
 20
284.9836275323293
 30
0.0
 10
187.1977046543891
 20
284.7724713389362
 30
0.0
 10
187.2230779595425
 20
284.5580803896586
 30
0.0
 10
187.2484912364924
 20
284.3404412588325
 30
0.0
  0
SPLINE
  5
19E
330
1F
100
AcDbEntity
  8
0
  6
Continuous
 62
     8
370
     0
100
AcDbSpline
210
0.0
220
0.0
230
1.0
 70
     8
 71
     3
 72
    16
 73
    12
 74
     0
 42
0.00000001
 43
0.00000001
 12
1.0
 22
0.0
 32
0.0
 13
1.0
 23
0.0
 33
0.0
 40
0.0
 40
0.0
 40
0.0
 40
0.0
 40
0.2500000000000003
 40
0.2500000000000003
 40
0.3750000000000014
 40
0.3750000000000014
 40
0.5000000000000024
 40
0.5000000000000024
 40
0.7500000000000012
 40
0.7500000000000012
 40
1.0
 40
1.0
 40
1.0
 40
1.0
 10
188.5385286738357
 20
289.6255433231469
 30
0.0
 10
188.2523141605876
 20
289.3152551052159
 30
0.0
 10
188.0183986274719
 20
288.9832489121536
 30
0.0
 10
187.7270623549058
 20
288.453127619183
 30
0.0
 10
187.6401587840271
 20
288.2710386092522
 30
0.0
 10
187.4859716834393
 20
287.8958909225855
 30
0.0
 10
187.4187071754
 20
287.7025777419901
 30
0.0
 10
187.2484098567658
 20
287.1137903388956
 30
0.0
 10
187.1754296770517
 20
286.707041839943
 30
0.0
 10
187.1106203864251
 20
285.8659212147897
 30
0.0
 10
187.1187921720433
 20
285.4315504537784
 30
0.0
 10
187.1724226222201
 20
284.9836275323293
 30
0.0
  0
SPLINE
  5
19F
330
1F
100
AcDbEntity
  8
0
  6
Continuous
 62
     8
370
     0
100
AcDbSpline
210
0.0
220
0.0
230
1.0
 70
     8
 71
     3
 72
    32
 73
    28
 74
     0
 42
0.00000001
 43
0.00000001
 12
1.0
 22
0.0
 32
0.0
 13
1.0
 23
0.0
 33
0.0
 40
0.0
 40
0.0
 40
0.0
 40
0.0
 40
0.1250000000000004
 40
0.1250000000000004
 40
0.2500000000000008
 40
0.2500000000000008
 40
0.312500000000001
 40
0.312500000000001
 40
0.3750000000000012
 40
0.3750000000000012
 40
0.5000000000000014
 40
0.5000000000000014
 40
0.5625000000000017
 40
0.5625000000000017
 40
0.6250000000000018
 40
0.6250000000000018
 40
0.750000000000002
 40
0.750000000000002
 40
0.781250000000002
 40
0.781250000000002
 40
0.8125000000000019
 40
0.8125000000000019
 40
0.8750000000000012
 40
0.8750000000000012
 40
0.9375000000000007
 40
0.9375000000000007
 40
1.0
 40
1.0
 40
1.0
 40
1.0
 10
188.5385286738357
 20
289.6255433231469
 30
0.0
 10
189.4367328224284
 20
289.3127724563252
 30
0.0
 10
190.3841691927369
 20
289.0181548527918
 30
0.0
 10
192.3776450911834
 20
288.4831748674992
 30
0.0
 10
193.4237373992468
 20
288.242676183635
 30
0.0
 10
195.0749636752771
 20
287.9388823078465
 30
0.0
 10
195.6357970956547
 20
287.8478337128716
 30
0.0
 10
196.772231806343
 20
287.6894917027488
 30
0.0
 10
197.3479196354765
 20
287.6222254530987
 30
0.0
 10
199.0814037565546
 20
287.4600111444144
 30
0.0
 10
200.251495374152
 20
287.4037606768906
 30
0.0
 10
202.0292186637499
 20
287.4035379854486
 30
0.0
 10
202.6221791267884
 20
287.4175730584836
 30
0.0
 10
203.7988707267985
 20
287.4730117983923
 30
0.0
 10
204.3805364642483
 20
287.5142328275296
 30
0.0
 10
206.1063215346737
 20
287.6756739748173
 30
0.0
 10
207.2313459518242
 20
287.833625226156
 30
0.0
 10
208.606661991933
 20
288.0856853279223
 30
0.0
 10
208.8802533961592
 20
288.1388658352802
 30
0.0
 10
209.4195329748345
 20
288.2494618854568
 30
0.0
 10
209.6858417179155
 20
288.3069859357124
 30
0.0
 10
210.4750544393797
 20
288.4857021805606
 30
0.0
 10
210.9882645340798
 20
288.6130291678937
 30
0.0
 10
211.9898101303662
 20
288.8814616358542
 30
0.0
 10
212.4781445435974
 20
289.0225703210335
 30
0.0
 10
213.4303070393713
 20
289.3162460237713
 30
0.0
 10
213.8950519851772
 20
289.4691537849016
 30
0.0
 10
214.3441658475897
 20
289.6255433231469
 30
0.0
  0
SPLINE
  5
1A0
330
1F
100
AcDbEntity
  8
0
  6
Continuous
 62
     8
370
     0
100
AcDbSpline
210
0.0
220
0.0
230
1.0
 70
     8
 71
     3
 72
    16
 73
    12
 74
     0
 42
0.00000001
 43
0.00000001
 12
1.0
 22
0.0
 32
0.0
 13
1.0
 23
0.0
 33
0.0
 40
0.0
 40
0.0
 40
0.0
 40
0.0
 40
0.2500000000000003
 40
0.2500000000000003
 40
0.3750000000000014
 40
0.3750000000000014
 40
0.5000000000000024
 40
0.5000000000000024
 40
0.7500000000000012
 40
0.7500000000000012
 40
1.0
 40
1.0
 40
1.0
 40
1.0
 10
214.3441658475897
 20
289.6255433231469
 30
0.0
 10
214.6303803608379
 20
289.3152551052159
 30
0.0
 10
214.8642958939537
 20
288.9832489121536
 30
0.0
 10
215.1556321665197
 20
288.453127619183
 30
0.0
 10
215.2425357373984
 20
288.2710386092522
 30
0.0
 10
215.3967228379862
 20
287.8958909225855
 30
0.0
 10
215.4639873460255
 20
287.7025777419901
 30
0.0
 10
215.6342846646597
 20
287.1137903388956
 30
0.0
 10
215.7072648443738
 20
286.707041839943
 30
0.0
 10
215.7720741350004
 20
285.8659212147897
 30
0.0
 10
215.7639023493822
 20
285.4315504537784
 30
0.0
 10
215.7102718992054
 20
284.9836275323293
 30
0.0
  0
SPLINE
  5
1A1
330
1F
100
AcDbEntity
  8
0
  6
Continuous
 62
     8
370
     0
100
AcDbSpline
210
0.0
220
0.0
230
1.0
 70
     8
 71
     3
 72
     8
 73
     4
 74
     0
 42
0.00000001
 43
0.00000001
 12
1.0
 22
0.0
 32
0.0
 13
1.0
 23
0.0
 33
0.0
 40
0.0
 40
0.0
 40
0.0
 40
0.0
 40
1.0
 40
1.0
 40
1.0
 40
1.0
 10
215.7102718992054
 20
284.9836275323293
 30
0.0
 10
215.6849898670364
 20
284.7724713389362
 30
0.0
 10
215.659616561883
 20
284.5580803896586
 30
0.0
 10
215.6342032849331
 20
284.3404412588325
 30
0.0
  0
ELLIPSE
  5
1A2
330
1F
100
AcDbEntity
  8
0
  6
Continuous
 62
     8
370
     0
100
AcDbEllipse
 10
201.4413472607
 20
170.7913476982
 30
0.0
 11
87.99683514385754
 21
378.9146116436021
 31
0.0
210
0.0
220
0.0
230
1.0
 40
0.0019696455
 41
1.456279420772513
 42
1.459094194605526
  0
ELLIPSE
  5
1A3
330
1F
100
AcDbEntity
  8
0
  6
Continuous
 62
     8
370
     0
100
AcDbEllipse
 10
201.4413472607
 20
114.8121324523
 30
0.0
 11
0.0
 21
98.91554818531901
 31
0.0
210
0.0
220
0.0
230
1.0
 40
0.8896478017
 41
6.179964270328688
 42
6.386406344030499
  0
ELLIPSE
  5
1A4
330
1F
100
AcDbEntity
  8
0
  6
Continuous
 62
     8
370
     0
100
AcDbEllipse
 10
201.4413472607
 20
170.7913476982
 30
0.0
 11
-87.99683514385752
 21
378.9146116436021
 31
0.0
210
0.0
220
0.0
230
1.0
 40
0.0019696455
 41
4.82409111257415
 42
4.826905886407165
  0
LINE
  5
1A5
330
1F
100
AcDbEntity
  8
0
  6
Continuous
 62
     8
370
     0
100
AcDbLine
 10
192.1276720378
 20
261.9916769463
 30
0.0
 11
192.1276720378
 21
214.2608845498
 31
0.0
  0
LINE
  5
1A6
330
1F
100
AcDbEntity
  8
0
  6
Continuous
 62
     8
370
     0
100
AcDbLine
 10
210.7550224836
 20
261.9916769463
 30
0.0
 11
210.7550224836
 21
214.2608845498
 31
0.0
  0
SPLINE
  5
1A7
330
1F
100
AcDbEntity
  8
0
  6
Continuous
 62
     8
370
     0
100
AcDbSpline
210
0.0
220
0.0
230
1.0
 70
     8
 71
     3
 72
     8
 73
     4
 74
     0
 42
0.00000001
 43
0.00000001
 12
1.0
 22
0.0
 32
0.0
 13
1.0
 23
0.0
 33
0.0
 40
0.0
 40
0.0
 40
0.0
 40
0.0
 40
1.0
 40
1.0
 40
1.0
 40
1.0
 10
210.0673683813858
 20
210.5396457414919
 30
0.0
 10
210.0302929860107
 20
210.3477978450804
 30
0.0
 10
209.9936615227549
 20
210.1651475027232
 30
0.0
 10
209.9575438924269
 20
209.9916863185937
 30
0.0
  0
ELLIPSE
  5
1A8
330
1F
100
AcDbEntity
  8
0
  6
Continuous
 62
     8
370
     0
100
AcDbEllipse
 10
201.4413472607
 20
111.5981944039
 30
0.0
 11
0.0
 21
98.915548185319
 31
0.0
210
0.0
220
0.0
230
1.0
 40
0.8390996312
 41
6.180399637449538
 42
6.385970976909651
  0
SPLINE
  5
1A9
330
1F
100
AcDbEntity
  8
0
  6
Continuous
 62
     8
370
     0
100
AcDbSpline
210
0.0
220
0.0
230
1.0
 70
     8
 71
     3
 72
     8
 73
     4
 74
     0
 42
0.00000001
 43
0.00000001
 12
1.0
 22
0.0
 32
0.0
 13
1.0
 23
0.0
 33
0.0
 40
0.0
 40
0.0
 40
0.0
 40
0.0
 40
1.0
 40
1.0
 40
1.0
 40
1.0
 10
192.8153261400397
 20
210.5396457414919
 30
0.0
 10
192.8524015354148
 20
210.3477978450804
 30
0.0
 10
192.8890329986706
 20
210.1651475027232
 30
0.0
 10
192.9251506289986
 20
209.9916863185937
 30
0.0
  0
SPLINE
  5
1AA
330
1F
100
AcDbEntity
  8
0
  6
Continuous
 62
     8
370
     0
100
AcDbSpline
210
0.0
220
0.0
230
1.0
 70
     8
 71
     3
 72
    12
 73
     8
 74
     0
 42
0.00000001
 43
0.00000001
 12
1.0
 22
0.0
 32
0.0
 13
1.0
 23
0.0
 33
0.0
 40
0.0
 40
0.0
 40
0.0
 40
0.0
 40
0.4999999999999996
 40
0.4999999999999996
 40
0.7499999999999998
 40
0.7499999999999998
 40
1.0
 40
1.0
 40
1.0
 40
1.0
 10
192.3740174904215
 20
213.2011964107562
 30
0.0
 10
192.4413681277828
 20
212.7296569845504
 30
0.0
 10
192.5122510214673
 20
212.2696164848307
 30
0.0
 10
192.6237901375487
 20
211.5963170209249
 30
0.0
 10
192.6620479452509
 20
211.3737103211682
 30
0.0
 10
192.7384616675604
 20
210.9456481644
 30
0.0
 10
192.7768134235323
 20
210.738931105067
 30
0.0
 10
192.8153261400397
 20
210.5396457414919
 30
0.0
  0
SPLINE
  5
1AB
330
1F
100
AcDbEntity
  8
0
  6
Continuous
 62
     8
370
     0
100
AcDbSpline
210
0.0
220
0.0
230
1.0
 70
     8
 71
     3
 72
    12
 73
     8
 74
     0
 42
0.00000001
 43
0.00000001
 12
1.0
 22
0.0
 32
0.0
 13
1.0
 23
0.0
 33
0.0
 40
0.0
 40
0.0
 40
0.0
 40
0.0
 40
0.4999999999999996
 40
0.4999999999999996
 40
0.7499999999999998
 40
0.7499999999999998
 40
1.0
 40
1.0
 40
1.0
 40
1.0
 10
210.508677031004
 20
213.2011964107562
 30
0.0
 10
210.4413263936427
 20
212.7296569845504
 30
0.0
 10
210.3704434999582
 20
212.2696164848307
 30
0.0
 10
210.2589043838768
 20
211.5963170209249
 30
0.0
 10
210.2206465761746
 20
211.3737103211682
 30
0.0
 10
210.1442328538651
 20
210.9456481644
 30
0.0
 10
210.1058810978932
 20
210.738931105067
 30
0.0
 10
210.0673683813858
 20
210.5396457414919
 30
0.0
  0
SPLINE
  5
1AC
330
1F
100
AcDbEntity
  8
0
  6
Continuous
 62
     8
370
     0
100
AcDbSpline
210
0.0
220
0.0
230
1.0
 70
     8
 71
     3
 72
    10
 73
     6
 74
     0
 42
0.00000001
 43
0.00000001
 12
1.0
 22
0.0
 32
0.0
 13
1.0
 23
0.0
 33
0.0
 40
0.0
 40
0.0
 40
0.0
 40
0.0
 40
0.5
 40
0.5
 40
1.0
 40
1.0
 40
1.0
 40
1.0
 10
188.9970880784599
 20
211.8065725517936
 30
0.0
 10
188.9798749700936
 20
211.8862226349083
 30
0.0
 10
188.9610446536105
 20
211.9726809411176
 30
0.0
 10
188.9219239826211
 20
212.1511091871258
 30
0.0
 10
188.9018110757065
 20
212.242286825138
 30
0.0
 10
188.8811335125785
 20
212.335470920433
 30
0.0
  0
ARC
  5
1AD
330
1F
100
AcDbEntity
  8
0
  6
Continuous
 62
     8
370
     0
100
AcDbCircle
 10
200.1292417391
 20
174.4326046903
 30
0.0
 40
39.53665649921372
100
AcDbArc
 50
101.3120724233
 51
106.5288568653
  0
LWPOLYLINE
  5
1AE
330
1F
100
AcDbEntity
  8
0
  6
Continuous
 62
     8
370
     0
100
AcDbPolyline
 90
        9
 70
   128
 43
0.0
 10
188.9970880785
 20
211.8065725518
 10
189.1441830644
 20
211.4604264332
 10
189.4104196082
 20
211.1527014332
 10
189.7873569593
 20
210.8931536501
 10
190.2630447145
 20
210.6900117742
 10
190.8224016921
 20
210.5497162057
 10
191.4476940659
 20
210.4767148685
 10
192.1190975969
 20
210.4733221933
 10
192.81532614
 20
210.5396457415
  0
ARC
  5
1AF
330
1F
100
AcDbEntity
  8
0
  6
Continuous
 62
     8
370
     0
100
AcDbCircle
 10
202.7534527823
 20
174.4326046903
 30
0.0
 40
39.53665649921108
100
AcDbArc
 50
73.4711431347
 51
78.6879275767
  0
SPLINE
  5
1B0
330
1F
100
AcDbEntity
  8
0
  6
Continuous
 62
     8
370
     0
100
AcDbSpline
210
0.0
220
0.0
230
1.0
 70
     8
 71
     3
 72
    10
 73
     6
 74
     0
 42
0.00000001
 43
0.00000001
 12
1.0
 22
0.0
 32
0.0
 13
1.0
 23
0.0
 33
0.0
 40
0.0
 40
0.0
 40
0.0
 40
0.0
 40
0.5
 40
0.5
 40
1.0
 40
1.0
 40
1.0
 40
1.0
 10
213.8856064429656
 20
211.8065725517936
 30
0.0
 10
213.9028195513319
 20
211.8862226349083
 30
0.0
 10
213.921649867815
 20
211.9726809411176
 30
0.0
 10
213.9607705388044
 20
212.1511091871258
 30
0.0
 10
213.9808834457189
 20
212.242286825138
 30
0.0
 10
214.001561008847
 20
212.335470920433
 30
0.0
  0
LWPOLYLINE
  5
1B1
330
1F
100
AcDbEntity
  8
0
  6
Continuous
 62
     8
370
     0
100
AcDbPolyline
 90
        9
 70
   128
 43
0.0
 10
213.885606443
 20
211.8065725518
 10
213.738511457
 20
211.4604264332
 10
213.4722749133
 20
211.1527014332
 10
213.0953375621
 20
210.8931536501
 10
212.6196498069
 20
210.6900117742
 10
212.0602928293
 20
210.5497162057
 10
211.4350004555
 20
210.4767148685
 10
210.7635969246
 20
210.4733221933
 10
210.0673683814
 20
210.5396457415
  0
ELLIPSE
  5
1B2
330
1F
100
AcDbEntity
  8
0
  6
Continuous
 62
     8
370
     0
100
AcDbEllipse
 10
192.9743697853
 20
212.1909066045
 30
0.0
 11
-7.9997767911604
 21
18.04353537010891
 31
0.0
210
0.0
220
0.0
230
1.0
 40
0.0033120053
 41
4.825894896208832
 42
6.123508407709527
  0
LINE
  5
1B3
330
1F
100
AcDbEntity
  8
0
  6
Continuous
 62
     8
370
     0
100
AcDbLine
 10
185.0858623326
 20
230.0091176187
 30
0.0
 11
185.0858623326
 21
252.4761045315
 31
0.0
  0
ELLIPSE
  5
1B4
330
1F
100
AcDbEntity
  8
0
  6
Continuous
 62
     8
370
     0
100
AcDbEllipse
 10
209.9083247361
 20
212.1909066045
 30
0.0
 11
7.9997767911604
 21
18.04353537010891
 31
0.0
210
0.0
220
0.0
230
1.0
 40
0.0033120053
 41
0.1596768994737974
 42
1.457290410970809
  0
LINE
  5
1B5
330
1F
100
AcDbEntity
  8
0
  6
Continuous
 62
     8
370
     0
100
AcDbLine
 10
217.7968321888
 20
230.0091176187
 30
0.0
 11
217.7968321888
 21
252.4761045315
 31
0.0
  0
ARC
  5
1B6
330
1F
100
AcDbEntity
  8
0
  6
Continuous
 62
     8
370
     0
100
AcDbCircle
 10
203.2579377826
 20
176.6758656936
 30
0.0
 40
38.32544743954444
100
AcDbArc
 50
73.3537613579
 51
78.7192678594
  0
ELLIPSE
  5
1B7
330
1F
100
AcDbEntity
  8
0
  6
Continuous
 62
     8
370
     0
100
AcDbEllipse
 10
205.3463825918
 20
169.9256222079
 30
0.0
 11
83.9969513428827
 21
378.9146180727843
 31
0.0
210
0.0
220
0.0
230
1.0
 40
0.0018887028
 41
1.456240685687573
 42
1.459055459520585
  0
ELLIPSE
  5
1B8
330
1F
100
AcDbEntity
  8
0
  6
Continuous
 62
     8
370
     0
100
AcDbEllipse
 10
197.5363119297
 20
169.9256222079
 30
0.0
 11
-83.99695134288272
 21
378.9146180727843
 31
0.0
210
0.0
220
0.0
230
1.0
 40
0.0018887028
 41
4.824129847659091
 42
4.826944621492112
  0
ARC
  5
1B9
330
1F
100
AcDbEntity
  8
0
  6
Continuous
 62
     8
370
     0
100
AcDbCircle
 10
199.6247567388
 20
176.6758656936
 30
0.0
 40
38.32544743954654
100
AcDbArc
 50
101.2807321406
 51
106.6462386421
  0
ARC
  5
1BA
330
1F
100
AcDbEntity
  8
0
  6
Continuous
 62
     8
370
     0
100
AcDbCircle
 10
215.1776395134
 20
229.6940190998
 30
0.0
 40
2.638078343704247
100
AcDbArc
 50
347.9524872582
 51
6.859925411
  0
ELLIPSE
  5
1BB
330
1F
100
AcDbEntity
  8
0
  6
Continuous
 62
     8
370
     0
100
AcDbEllipse
 10
213.8133600671
 20
211.3251811142
 30
0.0
 11
3.999854825855692
 21
18.0435532415799
 31
0.0
210
0.0
220
0.0
230
1.0
 40
0.0018887028
 41
0.158627174191367
 42
1.456240685687816
  0
ELLIPSE
  5
1BC
330
1F
100
AcDbEntity
  8
0
  6
Continuous
 62
     8
370
     0
100
AcDbEllipse
 10
189.0693344543
 20
211.3251811142
 30
0.0
 11
-3.999854825855692
 21
18.0435532415799
 31
0.0
210
0.0
220
0.0
230
1.0
 40
0.0018887028
 41
4.826944621491867
 42
6.124558132995287
  0
ARC
  5
1BD
330
1F
100
AcDbEntity
  8
0
  6
Continuous
 62
     8
370
     0
100
AcDbCircle
 10
187.705055008
 20
229.6940190998
 30
0.0
 40
2.638078343702908
100
AcDbArc
 50
173.140074589
 51
192.0475127418
  0
SPLINE
  5
1BE
330
1F
100
AcDbEntity
  8
0
  6
Continuous
 62
     8
370
     0
100
AcDbSpline
210
0.0
220
0.0
230
1.0
 70
     8
 71
     3
 72
    22
 73
    18
 74
     0
 42
0.00000001
 43
0.00000001
 12
1.0
 22
0.0
 32
0.0
 13
1.0
 23
0.0
 33
0.0
 40
0.0
 40
0.0
 40
0.0
 40
0.0
 40
0.1249999999999995
 40
0.1249999999999995
 40
0.2499999999999989
 40
0.2499999999999989
 40
0.3124999999999987
 40
0.3124999999999987
 40
0.3749999999999986
 40
0.3749999999999986
 40
0.4999999999999988
 40
0.4999999999999988
 40
0.7499999999999992
 40
0.7499999999999992
 40
0.8749999999999997
 40
0.8749999999999997
 40
1.0
 40
1.0
 40
1.0
 40
1.0
 10
209.9575438924269
 20
209.9916863185937
 30
0.0
 10
209.8486749509388
 20
209.4558276459411
 30
0.0
 10
209.7888105161906
 20
208.920247088246
 30
0.0
 10
209.7499221844427
 20
207.8495447666326
 30
0.0
 10
209.771042304195
 20
207.3144238200516
 30
0.0
 10
209.8549738310839
 20
206.5120389419106
 30
0.0
 10
209.8916905966591
 20
206.2446269156014
 30
0.0
 10
209.9814439838632
 20
205.7098954829557
 30
0.0
 10
210.0345816242988
 20
205.4422837384033
 30
0.0
 10
210.2151145661825
 20
204.6465423534318
 30
0.0
 10
210.363866452981
 20
204.123162103738
 30
0.0
 10
210.8792820256009
 20
202.570347521573
 30
0.0
 10
211.3149168046524
 20
201.5581920524679
 30
0.0
 10
212.0546676300621
 20
200.061578669959
 30
0.0
 10
212.3157284891944
 20
199.5663344305391
 30
0.0
 10
212.8585362881231
 20
198.5810282961372
 30
0.0
 10
213.140741192206
 20
198.0903088402963
 30
0.0
 10
213.4280908612131
 20
197.6024430449877
 30
0.0
  0
LINE
  5
1BF
330
1F
100
AcDbEntity
  8
0
  6
Continuous
 62
     8
370
     0
100
AcDbLine
 10
189.4546036602
 20
197.602443045
 30
0.0
 11
213.4280908612
 21
197.602443045
 31
0.0
  0
SPLINE
  5
1C0
330
1F
100
AcDbEntity
  8
0
  6
Continuous
 62
     8
370
     0
100
AcDbSpline
210
0.0
220
0.0
230
1.0
 70
     8
 71
     3
 72
    22
 73
    18
 74
     0
 42
0.00000001
 43
0.00000001
 12
1.0
 22
0.0
 32
0.0
 13
1.0
 23
0.0
 33
0.0
 40
0.0
 40
0.0
 40
0.0
 40
0.0
 40
0.1249999999999995
 40
0.1249999999999995
 40
0.2499999999999989
 40
0.2499999999999989
 40
0.3124999999999987
 40
0.3124999999999987
 40
0.3749999999999986
 40
0.3749999999999986
 40
0.4999999999999988
 40
0.4999999999999988
 40
0.7499999999999992
 40
0.7499999999999992
 40
0.8749999999999997
 40
0.8749999999999997
 40
1.0
 40
1.0
 40
1.0
 40
1.0
 10
192.9251506289986
 20
209.9916863185937
 30
0.0
 10
193.0340195704867
 20
209.4558276459411
 30
0.0
 10
193.0938840052349
 20
208.920247088246
 30
0.0
 10
193.1327723369828
 20
207.8495447666326
 30
0.0
 10
193.1116522172305
 20
207.3144238200516
 30
0.0
 10
193.0277206903416
 20
206.5120389419106
 30
0.0
 10
192.9910039247664
 20
206.2446269156014
 30
0.0
 10
192.9012505375624
 20
205.7098954829557
 30
0.0
 10
192.8481128971267
 20
205.4422837384033
 30
0.0
 10
192.6675799552431
 20
204.6465423534318
 30
0.0
 10
192.5188280684445
 20
204.123162103738
 30
0.0
 10
192.0034124958246
 20
202.570347521573
 30
0.0
 10
191.5677777167731
 20
201.5581920524679
 30
0.0
 10
190.8280268913634
 20
200.061578669959
 30
0.0
 10
190.5669660322311
 20
199.5663344305391
 30
0.0
 10
190.0241582333024
 20
198.5810282961372
 30
0.0
 10
189.7419533292195
 20
198.0903088402963
 30
0.0
 10
189.4546036602124
 20
197.6024430449877
 30
0.0
  0
SPLINE
  5
1C1
330
1F
100
AcDbEntity
  8
0
  6
Continuous
 62
     8
370
     0
100
AcDbSpline
210
0.0
220
0.0
230
1.0
 70
     8
 71
     3
 72
     8
 73
     4
 74
     0
 42
0.00000001
 43
0.00000001
 12
1.0
 22
0.0
 32
0.0
 13
1.0
 23
0.0
 33
0.0
 40
0.0
 40
0.0
 40
0.0
 40
0.0
 40
1.0
 40
1.0
 40
1.0
 40
1.0
 10
213.8623742532735
 20
211.6995054350568
 30
0.0
 10
213.8699103432197
 20
211.7347529443643
 30
0.0
 10
213.8776815286863
 20
211.7704712103921
 30
0.0
 10
213.8856064429656
 20
211.8065725517936
 30
0.0
  0
LWPOLYLINE
  5
1C2
330
1F
100
AcDbEntity
  8
0
  6
Continuous
 62
     8
370
     0
100
AcDbPolyline
 90
        9
 70
   128
 43
0.0
 10
213.8623742533
 20
211.6995054351
 10
213.6937854699
 20
211.2787132437
 10
213.4085377336
 20
210.8980160253
 10
213.0155375086
 20
210.5693005215
 10
212.5270556809
 20
210.3028304173
 10
211.9583444172
 20
210.1069258715
 10
211.3271609365
 20
209.9877037315
 10
210.6532130662
 20
209.9488865429
 10
209.9575438924
 20
209.9916863186
  0
SPLINE
  5
1C3
330
1F
100
AcDbEntity
  8
0
  6
Continuous
 62
     8
370
     0
100
AcDbSpline
210
0.0
220
0.0
230
1.0
 70
     8
 71
     3
 72
     8
 73
     4
 74
     0
 42
0.00000001
 43
0.00000001
 12
1.0
 22
0.0
 32
0.0
 13
1.0
 23
0.0
 33
0.0
 40
0.0
 40
0.0
 40
0.0
 40
0.0
 40
1.0
 40
1.0
 40
1.0
 40
1.0
 10
189.020320268152
 20
211.6995054350568
 30
0.0
 10
189.0127841782057
 20
211.7347529443643
 30
0.0
 10
189.0050129927392
 20
211.7704712103921
 30
0.0
 10
188.9970880784599
 20
211.8065725517936
 30
0.0
  0
LWPOLYLINE
  5
1C4
330
1F
100
AcDbEntity
  8
0
  6
Continuous
 62
     8
370
     0
100
AcDbPolyline
 90
        9
 70
   128
 43
0.0
 10
189.0203202682
 20
211.6995054351
 10
189.1889090515
 20
211.2787132437
 10
189.4741567878
 20
210.8980160253
 10
189.8671570129
 20
210.5693005215
 10
190.3556388405
 20
210.3028304173
 10
190.9243501042
 20
210.1069258715
 10
191.5555335849
 20
209.9877037315
 10
192.2294814552
 20
209.9488865429
 10
192.925150629
 20
209.9916863186
  0
SPLINE
  5
1C5
330
1F
100
AcDbEntity
  8
0
  6
Continuous
 62
     8
370
     0
100
AcDbSpline
210
0.0
220
0.0
230
1.0
 70
     8
 71
     3
 72
    24
 73
    20
 74
     0
 42
0.00000001
 43
0.00000001
 12
1.0
 22
0.0
 32
0.0
 13
1.0
 23
0.0
 33
0.0
 40
0.0
 40
0.0
 40
0.0
 40
0.0
 40
0.125
 40
0.125
 40
0.25
 40
0.25
 40
0.375
 40
0.375
 40
0.5000000000000001
 40
0.5000000000000001
 40
0.7500000000000004
 40
0.7500000000000004
 40
0.8750000000000002
 40
0.8750000000000002
 40
0.9375000000000001
 40
0.9375000000000001
 40
0.9687500000000001
 40
0.9687500000000001
 40
1.0
 40
1.0
 40
1.0
 40
1.0
 10
213.8623742532735
 20
211.6995054350568
 30
0.0
 10
213.7286725856959
 20
211.0741611509512
 30
0.0
 10
213.6245289406712
 20
210.4480402605569
 30
0.0
 10
213.4563386146397
 20
209.1979397833923
 30
0.0
 10
213.3924428036167
 20
208.573953578293
 30
0.0
 10
213.2933282162831
 20
207.3312071559499
 30
0.0
 10
213.2581916683818
 20
206.7118483190916
 30
0.0
 10
213.2094314017148
 20
205.4902282674474
 30
0.0
 10
213.1957332319371
 20
204.8868370545013
 30
0.0
 10
213.1787764060215
 20
203.1017305829836
 30
0.0
 10
213.1990802564833
 20
201.9451698102212
 30
0.0
 10
213.2615697579848
 20
200.2699789141702
 30
0.0
 10
213.2879137483267
 20
199.7215003330463
 30
0.0
 10
213.3349313431532
 20
198.9146724890994
 30
0.0
 10
213.3518599737191
 20
198.6483773714332
 30
0.0
 10
213.379083791665
 20
198.2530256790873
 30
0.0
 10
213.38846379021
 20
198.1219235688995
 30
0.0
 10
213.4078282794439
 20
197.861102356482
 30
0.0
 10
213.41787028689
 20
197.7308060549056
 30
0.0
 10
213.4280908612131
 20
197.6024430449877
 30
0.0
  0
SPLINE
  5
1C6
330
1F
100
AcDbEntity
  8
0
  6
Continuous
 62
     8
370
     0
100
AcDbSpline
210
0.0
220
0.0
230
1.0
 70
     8
 71
     3
 72
    24
 73
    20
 74
     0
 42
0.00000001
 43
0.00000001
 12
1.0
 22
0.0
 32
0.0
 13
1.0
 23
0.0
 33
0.0
 40
0.0
 40
0.0
 40
0.0
 40
0.0
 40
0.125
 40
0.125
 40
0.25
 40
0.25
 40
0.375
 40
0.375
 40
0.5000000000000001
 40
0.5000000000000001
 40
0.7500000000000004
 40
0.7500000000000004
 40
0.8750000000000002
 40
0.8750000000000002
 40
0.9375000000000001
 40
0.9375000000000001
 40
0.9687500000000001
 40
0.9687500000000001
 40
1.0
 40
1.0
 40
1.0
 40
1.0
 10
189.020320268152
 20
211.6995054350568
 30
0.0
 10
189.1540219357296
 20
211.0741611509512
 30
0.0
 10
189.2581655807543
 20
210.4480402605569
 30
0.0
 10
189.4263559067858
 20
209.1979397833923
 30
0.0
 10
189.4902517178087
 20
208.573953578293
 30
0.0
 10
189.5893663051424
 20
207.3312071559499
 30
0.0
 10
189.6245028530437
 20
206.7118483190916
 30
0.0
 10
189.6732631197107
 20
205.4902282674474
 30
0.0
 10
189.6869612894884
 20
204.8868370545013
 30
0.0
 10
189.703918115404
 20
203.1017305829836
 30
0.0
 10
189.6836142649422
 20
201.9451698102212
 30
0.0
 10
189.6211247634407
 20
200.2699789141702
 30
0.0
 10
189.5947807730988
 20
199.7215003330463
 30
0.0
 10
189.5477631782723
 20
198.9146724890994
 30
0.0
 10
189.5308345477064
 20
198.6483773714332
 30
0.0
 10
189.5036107297605
 20
198.2530256790873
 30
0.0
 10
189.4942307312155
 20
198.1219235688995
 30
0.0
 10
189.4748662419816
 20
197.861102356482
 30
0.0
 10
189.4648242345355
 20
197.7308060549056
 30
0.0
 10
189.4546036602124
 20
197.6024430449877
 30
0.0
  0
ELLIPSE
  5
1C7
330
1F
100
AcDbEntity
  8
0
  6
Continuous
 62
     8
370
     0
100
AcDbEllipse
 10
189.0603412455
 20
210.6253986492
 30
0.0
 11
-4.933073136039326
 21
22.24996030350124
 31
0.0
210
0.0
220
0.0
230
1.0
 40
0.0085199758
 41
4.763611439296822
 42
6.144865413498189
  0
ELLIPSE
  5
1C8
330
1F
100
AcDbEntity
  8
0
  6
Continuous
 62
     8
370
     0
100
AcDbEllipse
 10
297.5363119297
 20
-278.675621775
 30
0.0
 11
-113.9958625369659
 21
514.2412673853793
 31
0.0
210
0.0
220
0.0
230
1.0
 40
0.0018887028
 41
6.124558132995719
 42
6.265692608897201
  0
ELLIPSE
  5
1C9
330
1F
100
AcDbEntity
  8
0
  6
Continuous
 62
     8
370
     0
100
AcDbEllipse
 10
105.3463825918
 20
-278.675621775
 30
0.0
 11
113.9958625369659
 21
514.2412673853793
 31
0.0
210
0.0
220
0.0
230
1.0
 40
0.0018887028
 41
0.017492698289937
 42
0.1586271741911141
  0
ELLIPSE
  5
1CA
330
1F
100
AcDbEntity
  8
0
  6
Continuous
 62
     8
370
     0
100
AcDbEllipse
 10
213.8223532759
 20
210.6253986492
 30
0.0
 11
4.933073136039326
 21
22.24996030350124
 31
0.0
210
0.0
220
0.0
230
1.0
 40
0.0085199758
 41
0.1383198936830918
 42
1.519573867882769
  0
ELLIPSE
  5
1CB
330
1F
100
AcDbEntity
  8
0
  6
Continuous
 62
     8
370
     0
100
AcDbEllipse
 10
216.7511297742
 20
209.9761045315
 30
0.0
 11
4.933185167758183
 21
19.24994058399926
 31
0.0
210
0.0
220
0.0
230
1.0
 40
0.0096951452
 41
0.7326011051415141
 42
2.27141259879332
  0
ELLIPSE
  5
1CC
330
1F
100
AcDbEntity
  8
0
  6
Continuous
 62
     8
370
     0
100
AcDbEllipse
 10
186.1315647473
 20
209.9761045315
 30
0.0
 11
-4.933185167758183
 21
19.24994058399926
 31
0.0
210
0.0
220
0.0
230
1.0
 40
0.0096951452
 41
4.011772708386865
 42
5.550584202038867
  0
ARC
  5
1CD
330
1F
100
AcDbEntity
  8
0
  6
Continuous
 62
     8
370
     0
100
AcDbCircle
 10
215.4996881139
 20
282.0505001634
 30
0.0
 40
2.940677080743121
100
AcDbArc
 50
17.0980665699
 51
85.8934973559
  0
SPLINE
  5
1CE
330
1F
100
AcDbEntity
  8
0
  6
Continuous
 62
     8
370
     0
100
AcDbSpline
210
0.0
220
0.0
230
1.0
 70
     8
 71
     3
 72
     9
 73
     5
 74
     0
 42
0.00000001
 43
0.00000001
 12
1.0
 22
0.0
 32
0.0
 13
1.0
 23
0.0
 33
0.0
 40
0.0
 40
0.0
 40
0.0
 40
0.0
 40
0.2432177717980271
 40
1.0
 40
1.0
 40
1.0
 40
1.0
 10
218.2405088743969
 20
282.4357113714553
 30
0.0
 10
218.2461749139061
 20
282.4752423130437
 30
0.0
 10
218.2694710713674
 20
282.6377754260487
 30
0.0
 10
218.2927664070664
 20
282.795625119672
 30
0.0
 10
218.3103959031234
 20
282.9150829625333
 30
0.0
  0
SPLINE
  5
1CF
330
1F
100
AcDbEntity
  8
0
  6
Continuous
 62
     8
370
     0
100
AcDbSpline
210
0.0
220
0.0
230
1.0
 70
     8
 71
     3
 72
     9
 73
     5
 74
     0
 42
0.00000001
 43
0.00000001
 12
1.0
 22
0.0
 32
0.0
 13
1.0
 23
0.0
 33
0.0
 40
0.0
 40
0.0
 40
0.0
 40
0.0
 40
0.2432177717980271
 40
1.0
 40
1.0
 40
1.0
 40
1.0
 10
184.6421856470286
 20
282.4357113714553
 30
0.0
 10
184.6365196075194
 20
282.4752423130437
 30
0.0
 10
184.6132234500581
 20
282.6377754260487
 30
0.0
 10
184.5899281143591
 20
282.795625119672
 30
0.0
 10
184.5722986183021
 20
282.9150829625333
 30
0.0
  0
ARC
  5
1D0
330
1F
100
AcDbEntity
  8
0
  6
Continuous
 62
     8
370
     0
100
AcDbCircle
 10
187.3830064076
 20
282.0505001634
 30
0.0
 40
2.940677080743077
100
AcDbArc
 50
94.1065026441
 51
162.9019334301
  0
SPLINE
  5
1D1
330
1F
100
AcDbEntity
  8
0
  6
Continuous
 62
     8
370
     0
100
AcDbSpline
210
0.0
220
0.0
230
1.0
 70
     8
 71
     3
 72
    20
 73
    16
 74
     0
 42
0.00000001
 43
0.00000001
 12
1.0
 22
0.0
 32
0.0
 13
1.0
 23
0.0
 33
0.0
 40
0.0
 40
0.0
 40
0.0
 40
0.0
 40
0.2500000000000024
 40
0.2500000000000024
 40
0.5000000000000049
 40
0.5000000000000049
 40
0.5625000000000041
 40
0.5625000000000041
 40
0.6250000000000034
 40
0.6250000000000034
 40
0.750000000000002
 40
0.750000000000002
 40
0.875000000000001
 40
0.875000000000001
 40
1.0
 40
1.0
 40
1.0
 40
1.0
 10
184.5722986183021
 20
282.9150829625333
 30
0.0
 10
184.5140673655386
 20
283.5745357682007
 30
0.0
 10
184.5310421367288
 20
284.213274958586
 30
0.0
 10
184.7008458408775
 20
285.4505031225426
 30
0.0
 10
184.8536491297978
 20
286.0489758513352
 30
0.0
 10
185.1332979496528
 20
286.7710742711845
 30
0.0
 10
185.1938967821361
 20
286.9145433186777
 30
0.0
 10
185.3230038987164
 20
287.1959065988819
 30
0.0
 10
185.3915835810863
 20
287.3340538888903
 30
0.0
 10
185.6093811263599
 20
287.7410394827626
 30
0.0
 10
185.7705985475064
 20
288.002439660355
 30
0.0
 10
186.126265258175
 20
288.5057403989091
 30
0.0
 10
186.3206862151572
 20
288.7476455102079
 30
0.0
 10
186.7461340549616
 20
289.2116734422597
 30
0.0
 10
186.9777698456986
 20
289.4343714251712
 30
0.0
 10
187.229709818657
 20
289.6453806624259
 30
0.0
  0
SPLINE
  5
1D2
330
1F
100
AcDbEntity
  8
0
  6
Continuous
 62
     8
370
     0
100
AcDbSpline
210
0.0
220
0.0
230
1.0
 70
     8
 71
     3
 72
    12
 73
     8
 74
     0
 42
0.00000001
 43
0.00000001
 12
1.0
 22
0.0
 32
0.0
 13
1.0
 23
0.0
 33
0.0
 40
0.0
 40
0.0
 40
0.0
 40
0.0
 40
0.5000000000000001
 40
0.5000000000000001
 40
0.75
 40
0.75
 40
1.0
 40
1.0
 40
1.0
 40
1.0
 10
188.5385286738357
 20
289.6255433231469
 30
0.0
 10
188.3228334937354
 20
289.7535743437234
 30
0.0
 10
188.09891728573
 20
289.8231710549194
 30
0.0
 10
187.7602400845694
 20
289.831455200518
 30
0.0
 10
187.648880667707
 20
289.8176112641588
 30
0.0
 10
187.4343847011187
 20
289.7569827962419
 30
0.0
 10
187.3304677909996
 20
289.7102726699981
 30
0.0
 10
187.229709818657
 20
289.6453806624259
 30
0.0
  0
SPLINE
  5
1D3
330
1F
100
AcDbEntity
  8
0
  6
Continuous
 62
     8
370
     0
100
AcDbSpline
210
0.0
220
0.0
230
1.0
 70
     8
 71
     3
 72
    12
 73
     8
 74
     0
 42
0.00000001
 43
0.00000001
 12
1.0
 22
0.0
 32
0.0
 13
1.0
 23
0.0
 33
0.0
 40
0.0
 40
0.0
 40
0.0
 40
0.0
 40
0.5000000000000001
 40
0.5000000000000001
 40
0.75
 40
0.75
 40
1.0
 40
1.0
 40
1.0
 40
1.0
 10
214.3441658475897
 20
289.6255433231469
 30
0.0
 10
214.5598610276901
 20
289.7535743437234
 30
0.0
 10
214.7837772356955
 20
289.8231710549194
 30
0.0
 10
215.1224544368561
 20
289.831455200518
 30
0.0
 10
215.2338138537185
 20
289.8176112641588
 30
0.0
 10
215.4483098203068
 20
289.7569827962419
 30
0.0
 10
215.5522267304258
 20
289.7102726699981
 30
0.0
 10
215.6529847027685
 20
289.6453806624259
 30
0.0
  0
SPLINE
  5
1D4
330
1F
100
AcDbEntity
  8
0
  6
Continuous
 62
     8
370
     0
100
AcDbSpline
210
0.0
220
0.0
230
1.0
 70
     8
 71
     3
 72
    20
 73
    16
 74
     0
 42
0.00000001
 43
0.00000001
 12
1.0
 22
0.0
 32
0.0
 13
1.0
 23
0.0
 33
0.0
 40
0.0
 40
0.0
 40
0.0
 40
0.0
 40
0.2500000000000024
 40
0.2500000000000024
 40
0.5000000000000049
 40
0.5000000000000049
 40
0.5625000000000041
 40
0.5625000000000041
 40
0.6250000000000034
 40
0.6250000000000034
 40
0.750000000000002
 40
0.750000000000002
 40
0.875000000000001
 40
0.875000000000001
 40
1.0
 40
1.0
 40
1.0
 40
1.0
 10
218.3103959031234
 20
282.9150829625333
 30
0.0
 10
218.3686271558869
 20
283.5745357682007
 30
0.0
 10
218.3516523846966
 20
284.213274958586
 30
0.0
 10
218.181848680548
 20
285.4505031225426
 30
0.0
 10
218.0290453916277
 20
286.0489758513352
 30
0.0
 10
217.7493965717727
 20
286.7710742711845
 30
0.0
 10
217.6887977392894
 20
286.9145433186777
 30
0.0
 10
217.5596906227091
 20
287.1959065988819
 30
0.0
 10
217.4911109403392
 20
287.3340538888903
 30
0.0
 10
217.2733133950656
 20
287.7410394827626
 30
0.0
 10
217.1120959739191
 20
288.002439660355
 30
0.0
 10
216.7564292632505
 20
288.5057403989091
 30
0.0
 10
216.5620083062683
 20
288.7476455102079
 30
0.0
 10
216.1365604664639
 20
289.2116734422597
 30
0.0
 10
215.9049246757269
 20
289.4343714251712
 30
0.0
 10
215.6529847027685
 20
289.6453806624259
 30
0.0
  0
ARC
  5
1D5
330
1F
100
AcDbEntity
  8
0
  6
Continuous
 62
     8
370
     0
100
AcDbCircle
 10
186.1292073808
 20
293.0140736324
 30
0.0
 40
4.157759823492801
100
AcDbArc
 50
305.4136832195
 51
349.0667156208
  0
SPLINE
  5
1D6
330
1F
100
AcDbEntity
  8
0
  6
Continuous
 62
     8
370
     0
100
AcDbSpline
210
0.0
220
0.0
230
1.0
 70
     8
 71
     3
 72
    36
 73
    32
 74
     0
 42
0.00000001
 43
0.00000001
 12
1.0
 22
0.0
 32
0.0
 13
1.0
 23
0.0
 33
0.0
 40
0.0
 40
0.0
 40
0.0
 40
0.0
 40
0.0625000000000004
 40
0.0625000000000004
 40
0.1250000000000009
 40
0.1250000000000009
 40
0.1875000000000013
 40
0.1875000000000013
 40
0.2187500000000014
 40
0.2187500000000014
 40
0.2500000000000016
 40
0.2500000000000016
 40
0.3750000000000012
 40
0.3750000000000012
 40
0.4375000000000009
 40
0.4375000000000009
 40
0.4687500000000007
 40
0.4687500000000007
 40
0.5000000000000006
 40
0.5000000000000006
 40
0.6249999999999998
 40
0.6249999999999998
 40
0.6874999999999992
 40
0.6874999999999992
 40
0.718749999999999
 40
0.718749999999999
 40
0.7499999999999987
 40
0.7499999999999987
 40
0.8749999999999993
 40
0.8749999999999993
 40
1.0
 40
1.0
 40
1.0
 40
1.0
 10
212.6711960741791
 20
292.225488571117
 30
0.0
 10
212.2906873779302
 20
292.0570836058424
 30
0.0
 10
211.8956402589947
 20
291.8919420051408
 30
0.0
 10
211.0836291403692
 20
291.5738556762006
 30
0.0
 10
210.6658776235467
 20
291.4205362747575
 30
0.0
 10
209.8060962907609
 20
291.1278939471303
 30
0.0
 10
209.3640694625439
 20
290.9885662975656
 30
0.0
 10
208.6817213840514
 20
290.7922589223942
 30
0.0
 10
208.4510484597194
 20
290.7289405055353
 30
0.0
 10
207.9829973123343
 20
290.6069518803429
 30
0.0
 10
207.7450075893674
 20
290.5481432351776
 30
0.0
 10
206.5459491113797
 20
290.2687765019253
 30
0.0
 10
205.5608530533328
 20
290.09254318848
 30
0.0
 10
204.0422008444964
 20
289.9115715722335
 30
0.0
 10
203.5291158188728
 20
289.8651672123341
 30
0.0
 10
202.7485802513723
 20
289.8182510543796
 30
0.0
 10
202.4864334183585
 20
289.8064095190202
 30
0.0
 10
201.9625123479869
 20
289.7906754907208
 30
0.0
 10
201.7002299334862
 20
289.7867465263365
 30
0.0
 10
200.3873895576908
 20
289.7869320669479
 30
0.0
 10
199.3536713705292
 20
289.8504679791196
 30
0.0
 10
197.826486036568
 20
290.0323819369566
 30
0.0
 10
197.3197160239653
 20
290.1077755970128
 30
0.0
 10
196.5720137373256
 20
290.2403328242266
 30
0.0
 10
196.3250011789757
 20
290.2877083586736
 30
0.0
 10
195.8353137410316
 20
290.3885021630742
 30
0.0
 10
195.5921813264256
 20
290.4420308779214
 30
0.0
 10
194.3935230878346
 20
290.7224672577998
 30
0.0
 10
193.4901870795374
 20
290.9867177010394
 30
0.0
 10
191.7796038529347
 20
291.569759062676
 30
0.0
 10
190.9724581625332
 20
291.888704167261
 30
0.0
 10
190.2114984472464
 20
292.225488571117
 30
0.0
  0
ARC
  5
1D7
330
1F
100
AcDbEntity
  8
0
  6
Continuous
 62
     8
370
     0
100
AcDbCircle
 10
216.7534871406
 20
293.0140736324
 30
0.0
 40
4.157759823492801
100
AcDbArc
 50
190.9332843792
 51
234.5863167805
  0
ELLIPSE
  5
1D8
330
1F
100
AcDbEntity
  8
0
  6
Continuous
 62
     8
370
     0
100
AcDbEllipse
 10
301.4413472607
 20
-277.8098962847
 30
0.0
 11
-117.9957458679118
 21
514.2412610622694
 31
0.0
210
0.0
220
0.0
230
1.0
 40
0.0019484562
 41
6.12452973146823
 42
6.266250267632743
  0
ELLIPSE
  5
1D9
330
1F
100
AcDbEntity
  8
0
  6
Continuous
 62
     8
370
     0
100
AcDbEllipse
 10
101.4413472607
 20
-277.8098962847
 30
0.0
 11
117.9957458679118
 21
514.2412610622694
 31
0.0
210
0.0
220
0.0
230
1.0
 40
0.0019484562
 41
0.0169350395538407
 42
0.1586555757185067
  0
LINE
  5
1DA
330
1F
100
AcDbEntity
  8
0
  6
Continuous
 62
     8
370
     0
100
AcDbLine
 10
184.5722986183
 20
282.9150829625
 30
0.0
 11
183.0943456672
 21
282.9150829625
 31
0.0
  0
LINE
  5
1DB
330
1F
100
AcDbEntity
  8
0
  6
Continuous
 62
     8
370
     0
100
AcDbLine
 10
218.3103959031
 20
282.9150829625
 30
0.0
 11
219.7883488542
 21
282.9150829625
 31
0.0
  0
SPLINE
  5
1DC
330
1F
100
AcDbEntity
  8
0
  6
Continuous
 62
     8
370
     0
100
AcDbSpline
210
0.0
220
0.0
230
1.0
 70
     8
 71
     3
 72
    14
 73
    10
 74
     0
 42
0.00000001
 43
0.00000001
 12
1.0
 22
0.0
 32
0.0
 13
1.0
 23
0.0
 33
0.0
 40
0.0
 40
0.0
 40
0.0
 40
0.0
 40
0.0000478426221366
 40
0.0447496008173939
 40
0.1726289717221429
 40
0.302762085260703
 40
0.4593848547339586
 40
0.726922892964581
 40
0.9999999999999999
 40
0.9999999999999999
 40
0.9999999999999999
 40
0.9999999999999999
 10
183.7243459761096
 20
285.9535593308335
 30
0.0
 10
183.7243393073082
 20
285.9535464754778
 30
0.0
 10
183.7181016432792
 20
285.9415222174475
 30
0.0
 10
183.7426782396364
 20
285.989169657636
 30
0.0
 10
183.8147872374201
 20
286.129935794323
 30
0.0
 10
184.0618908485055
 20
286.5653198004097
 30
0.0
 10
184.5701023252442
 20
287.3138059371596
 30
0.0
 10
185.5040406763139
 20
288.4230207500083
 30
0.0
 10
186.6505710401342
 20
289.2351536906255
 30
0.0
 10
187.229709818657
 20
289.6453806624259
 30
0.0
  0
SPLINE
  5
1DD
330
1F
100
AcDbEntity
  8
0
  6
Continuous
 62
     8
370
     0
100
AcDbSpline
210
0.0
220
0.0
230
1.0
 70
     8
 71
     3
 72
    19
 73
    15
 74
     0
 42
0.00000001
 43
0.00000001
 12
1.0
 22
0.0
 32
0.0
 13
1.0
 23
0.0
 33
0.0
 40
0.0
 40
0.0
 40
0.0
 40
0.0
 40
0.0000153404889262
 40
0.0446942019962277
 40
0.1084753549717873
 40
0.1725887340873611
 40
0.2375406990115028
 40
0.3027059583103142
 40
0.3808989955998294
 40
0.4592975480276609
 40
0.5927432322319167
 40
0.7268648188662337
 40
0.8630448455975162
 40
0.9999999999999999
 40
0.9999999999999999
 40
0.9999999999999999
 40
0.9999999999999999
 10
219.158365314672
 20
285.9535270767228
 30
0.0
 10
219.1583663891916
 20
285.9535249814239
 30
0.0
 10
219.1614969801744
 20
285.9474203709233
 30
0.0
 10
219.1500938265299
 20
285.9697273287973
 30
0.0
 10
219.1192604204105
 20
286.0296037848933
 30
0.0
 10
219.0502502037173
 20
286.1591166421068
 30
0.0
 10
218.9515902727411
 20
286.3347743860636
 30
0.0
 10
218.8138368519041
 20
286.5647045841563
 30
0.0
 10
218.6311579441702
 20
286.8462677370334
 30
0.0
 10
218.341608274866
 20
287.2515387422737
 30
0.0
 10
217.916114362021
 20
287.7745717232117
 30
0.0
 10
217.2980917888439
 20
288.4057240080272
 30
0.0
 10
216.5607942214039
 20
289.042166511433
 30
0.0
 10
215.9561598376572
 20
289.4439292259297
 30
0.0
 10
215.6529847027685
 20
289.6453806624259
 30
0.0
  0
LINE
  5
1DE
330
1F
100
AcDbEntity
  8
0
  6
Continuous
 62
     8
370
     0
100
AcDbLine
 10
218.9413472607
 20
296.9761045315
 30
0.0
 11
183.9413472607
 21
296.9761045315
 31
0.0
  0
SPLINE
  5
1DF
330
1F
100
AcDbEntity
  8
0
  6
Continuous
 62
     8
370
     0
100
AcDbSpline
210
0.0
220
0.0
230
1.0
 70
     8
 71
     3
 72
    16
 73
    12
 74
     0
 42
0.00000001
 43
0.00000001
 12
1.0
 22
0.0
 32
0.0
 13
1.0
 23
0.0
 33
0.0
 40
0.0
 40
0.0
 40
0.0
 40
0.0
 40
0.2500000000000007
 40
0.2500000000000007
 40
0.3750000000000006
 40
0.3750000000000006
 40
0.5000000000000004
 40
0.5000000000000004
 40
0.7500000000000002
 40
0.7500000000000002
 40
1.0
 40
1.0
 40
1.0
 40
1.0
 10
215.116205968848
 20
292.0314421473127
 30
0.0
 10
214.9455873075851
 20
292.1619405835061
 30
0.0
 10
214.7653856834888
 20
292.2635660588265
 30
0.0
 10
214.4797948969869
 20
292.3743379405149
 30
0.0
 10
214.3820420239937
 20
292.4042724292303
 30
0.0
 10
214.1811643021789
 20
292.4498967065218
 30
0.0
 10
214.0775532895263
 20
292.4656189599346
 30
0.0
 10
213.761512893827
 20
292.4902186793251
 30
0.0
 10
213.5474626797829
 20
292.4767419281792
 30
0.0
 10
213.1130263562292
 20
292.3934695653861
 30
0.0
 10
212.8911878192229
 20
292.322852186062
 30
0.0
 10
212.6711960741791
 20
292.225488571117
 30
0.0
  0
SPLINE
  5
1E0
330
1F
100
AcDbEntity
  8
0
  6
Continuous
 62
     8
370
     0
100
AcDbSpline
210
0.0
220
0.0
230
1.0
 70
     8
 71
     3
 72
    16
 73
    12
 74
     0
 42
0.00000001
 43
0.00000001
 12
1.0
 22
0.0
 32
0.0
 13
1.0
 23
0.0
 33
0.0
 40
0.0
 40
0.0
 40
0.0
 40
0.0
 40
0.2500000000000007
 40
0.2500000000000007
 40
0.3750000000000006
 40
0.3750000000000006
 40
0.5000000000000004
 40
0.5000000000000004
 40
0.7500000000000002
 40
0.7500000000000002
 40
1.0
 40
1.0
 40
1.0
 40
1.0
 10
187.7664885525775
 20
292.0314421473127
 30
0.0
 10
187.9371072138404
 20
292.1619405835061
 30
0.0
 10
188.1173088379367
 20
292.2635660588265
 30
0.0
 10
188.4028996244386
 20
292.3743379405149
 30
0.0
 10
188.5006524974318
 20
292.4042724292303
 30
0.0
 10
188.7015302192466
 20
292.4498967065218
 30
0.0
 10
188.8051412318992
 20
292.4656189599346
 30
0.0
 10
189.1211816275985
 20
292.4902186793251
 30
0.0
 10
189.3352318416426
 20
292.4767419281792
 30
0.0
 10
189.7696681651963
 20
292.3934695653861
 30
0.0
 10
189.9915067022025
 20
292.322852186062
 30
0.0
 10
190.2114984472464
 20
292.225488571117
 30
0.0
  0
SPLINE
  5
1E1
330
1F
100
AcDbEntity
  8
0
  6
Continuous
 62
     8
370
     0
100
AcDbSpline
210
0.0
220
0.0
230
1.0
 70
     8
 71
     3
 72
    22
 73
    18
 74
     0
 42
0.00000001
 43
0.00000001
 12
1.0
 22
0.0
 32
0.0
 13
1.0
 23
0.0
 33
0.0
 40
0.0
 40
0.0
 40
0.0
 40
0.0
 40
0.2500000000000002
 40
0.2500000000000002
 40
0.5000000000000003
 40
0.5000000000000003
 40
0.6250000000000003
 40
0.6250000000000003
 40
0.6875000000000003
 40
0.6875000000000003
 40
0.7500000000000004
 40
0.7500000000000004
 40
0.8750000000000007
 40
0.8750000000000007
 40
0.9375000000000004
 40
0.9375000000000004
 40
1.0
 40
1.0
 40
1.0
 40
1.0
 10
187.7664885525775
 20
292.0314421473127
 30
0.0
 10
187.1567814836418
 20
291.565105004334
 30
0.0
 10
186.628556275206
 20
291.0706859494964
 30
0.0
 10
185.708935532082
 20
290.0638696720732
 30
0.0
 10
185.3176718380006
 20
289.549969113785
 30
0.0
 10
184.8286029338695
 20
288.8064165938196
 30
0.0
 10
184.6818369497831
 20
288.5629328123343
 30
0.0
 10
184.4893943428229
 20
288.2199666479044
 30
0.0
 10
184.4297629128971
 20
288.1092509143219
 30
0.0
 10
184.3197322334658
 20
287.8977375049152
 30
0.0
 10
184.2693143857999
 20
287.7968817107725
 30
0.0
 10
184.1337012123602
 20
287.5170801526834
 30
0.0
 10
184.0635176345161
 20
287.3596953472114
 30
0.0
 10
183.9913422609572
 20
287.1930802600464
 30
0.0
 10
183.9728302006303
 20
287.1492041836395
 30
0.0
 10
183.9477917051833
 20
287.0894499943529
 30
0.0
 10
183.9413472607128
 20
287.0738017507271
 30
0.0
 10
183.9413472607128
 20
287.0738017507272
 30
0.0
  0
SPLINE
  5
1E2
330
1F
100
AcDbEntity
  8
0
  6
Continuous
 62
     8
370
     0
100
AcDbSpline
210
0.0
220
0.0
230
1.0
 70
     8
 71
     3
 72
    22
 73
    18
 74
     0
 42
0.00000001
 43
0.00000001
 12
1.0
 22
0.0
 32
0.0
 13
1.0
 23
0.0
 33
0.0
 40
0.0
 40
0.0
 40
0.0
 40
0.0
 40
0.2500000000000002
 40
0.2500000000000002
 40
0.5000000000000003
 40
0.5000000000000003
 40
0.6250000000000003
 40
0.6250000000000003
 40
0.6875000000000003
 40
0.6875000000000003
 40
0.7500000000000004
 40
0.7500000000000004
 40
0.8750000000000007
 40
0.8750000000000007
 40
0.9375000000000004
 40
0.9375000000000004
 40
1.0
 40
1.0
 40
1.0
 40
1.0
 10
215.116205968848
 20
292.0314421473127
 30
0.0
 10
215.7259130377837
 20
291.565105004334
 30
0.0
 10
216.2541382462195
 20
291.0706859494964
 30
0.0
 10
217.1737589893436
 20
290.0638696720732
 30
0.0
 10
217.5650226834249
 20
289.549969113785
 30
0.0
 10
218.0540915875559
 20
288.8064165938196
 30
0.0
 10
218.2008575716424
 20
288.5629328123343
 30
0.0
 10
218.3933001786026
 20
288.2199666479044
 30
0.0
 10
218.4529316085284
 20
288.1092509143219
 30
0.0
 10
218.5629622879597
 20
287.8977375049152
 30
0.0
 10
218.6133801356256
 20
287.7968817107725
 30
0.0
 10
218.7489933090653
 20
287.5170801526834
 30
0.0
 10
218.8191768869094
 20
287.3596953472114
 30
0.0
 10
218.8913522604683
 20
287.1930802600464
 30
0.0
 10
218.9098643207952
 20
287.1492041836395
 30
0.0
 10
218.9349028162422
 20
287.0894499943529
 30
0.0
 10
218.9413472607127
 20
287.0738017507271
 30
0.0
 10
218.9413472607127
 20
287.0738017507272
 30
0.0
  0
LINE
  5
1E3
330
1F
100
AcDbEntity
  8
0
  6
Continuous
 62
     8
370
     0
100
AcDbLine
 10
188.7284716262
 20
300.9551599985
 30
0.0
 11
199.6913472607
 21
300.9551599985
 31
0.0
  0
LINE
  5
1E4
330
1F
100
AcDbEntity
  8
0
  6
Continuous
 62
     8
370
     0
100
AcDbLine
 10
203.1913472607
 20
300.9551599985
 30
0.0
 11
214.1542228952
 21
300.9551599985
 31
0.0
  0
ARC
  5
1E5
330
1F
100
AcDbEntity
  8
0
  6
Continuous
 62
     8
370
     0
100
AcDbCircle
 10
185.5494882924
 20
291.2767793576
 30
0.0
 40
2.341923585385591
100
AcDbArc
 50
315.8446438103
 51
18.7984792728
  0
ARC
  5
1E6
330
1F
100
AcDbEntity
  8
0
  6
Continuous
 62
     8
370
     0
100
AcDbCircle
 10
217.333206229
 20
291.2767793576
 30
0.0
 40
2.341923585385712
100
AcDbArc
 50
161.2015207272
 51
224.1553561897
  0
LINE
  5
1E7
330
1F
100
AcDbEntity
  8
0
  6
Continuous
 62
     8
370
     0
100
AcDbLine
 10
203.1913472607
 20
318.3046084658
 30
0.0
 11
212.5158447128
 21
318.3046084658
 31
0.0
  0
LINE
  5
1E8
330
1F
100
AcDbEntity
  8
0
  6
Continuous
 62
     8
370
     0
100
AcDbLine
 10
190.3668498087
 20
318.3046084658
 30
0.0
 11
199.6913472607
 21
318.3046084658
 31
0.0
  0
LINE
  5
1E9
330
1F
100
AcDbEntity
  8
FORMAT
  6
CENTERX2
370
     0
100
AcDbLine
 10
245.8970234542
 20
209.9761045315
 30
0.0
 11
158.4413472607
 21
209.9761045315
 31
0.0
  0
LINE
  5
1EA
330
1F
100
AcDbEntity
  8
FORMAT
  6
CENTERX2
370
     0
100
AcDbLine
 10
201.4413472607
 20
389.0467479937
 30
0.0
 11
201.4413472607
 21
184.4415895154
 31
0.0
  0
LINE
  5
1EB
330
1F
100
AcDbEntity
  8
0
  6
Continuous
 62
     7
370
    15
100
AcDbLine
 10
471.7106213989
 20
376.4761066772
 30
0.0
 11
471.2673602821
 21
381.5426206924
 31
0.0
  0
LINE
  5
1EC
330
1F
100
AcDbEntity
  8
0
  6
Continuous
 62
     7
370
    15
100
AcDbLine
 10
359.6538854958
 20
381.5426206924
 30
0.0
 11
359.2106243791
 21
376.4761066772
 31
0.0
  0
ARC
  5
1ED
330
1F
100
AcDbEntity
  8
0
  6
Continuous
 62
     7
370
    15
100
AcDbCircle
 10
366.1291508189
 20
380.9761045315
 30
0.0
 40
6.5
100
AcDbArc
 50
90.0
 51
175.0
  0
ARC
  5
1EE
330
1F
100
AcDbEntity
  8
0
  6
Continuous
 62
     7
370
    15
100
AcDbCircle
 10
464.7920949591
 20
380.9761045315
 30
0.0
 40
6.5
100
AcDbArc
 50
5.0
 51
90.0
  0
LINE
  5
1EF
330
1F
100
AcDbEntity
  8
0
  6
Continuous
 62
     7
370
    15
100
AcDbLine
 10
464.792094213
 20
387.476099167
 30
0.0
 11
366.129151565
 21
387.476099167
 31
0.0
  0
LINE
  5
1F0
330
1F
100
AcDbEntity
  8
0
  6
Continuous
 62
     7
370
    15
100
AcDbLine
 10
444.8795383992
 20
252.4761049785
 30
0.0
 11
446.4271730008
 21
263.4880891778
 31
0.0
  0
LINE
  5
1F1
330
1F
100
AcDbEntity
  8
0
  6
Continuous
 62
     7
370
    15
100
AcDbLine
 10
384.4940727772
 20
263.4880891778
 30
0.0
 11
386.0417073788
 21
252.4761049785
 31
0.0
  0
LINE
  5
1F2
330
1F
100
AcDbEntity
  8
0
  6
Continuous
 62
     7
370
    15
100
AcDbLine
 10
397.9606228145
 20
296.9761020281
 30
0.0
 11
397.9606228145
 21
289.7867834903
 31
0.0
  0
LINE
  5
1F3
330
1F
100
AcDbEntity
  8
0
  6
Continuous
 62
     7
370
    15
100
AcDbLine
 10
432.9606229635
 20
289.7867834903
 30
0.0
 11
432.9606229635
 21
296.9761020281
 31
0.0
  0
ARC
  5
1F4
330
1F
100
AcDbEntity
  8
0
  6
Continuous
 62
     7
370
    15
100
AcDbCircle
 10
399.460622889
 20
296.9761045315
 30
0.0
 40
1.5
100
AcDbArc
 50
90.0
 51
180.0
  0
ARC
  5
1F5
330
1F
100
AcDbEntity
  8
0
  6
Continuous
 62
     7
370
    15
100
AcDbCircle
 10
431.460622889
 20
296.9761045315
 30
0.0
 40
1.5
100
AcDbArc
 50
0.0
 51
90.0
  0
LINE
  5
1F6
330
1F
100
AcDbEntity
  8
0
  6
Continuous
 62
     7
370
    15
100
AcDbLine
 10
446.3736349912
 20
263.1071521677
 30
0.0
 11
448.6835962357
 21
263.7261054255
 31
0.0
  0
LINE
  5
1F7
330
1F
100
AcDbEntity
  8
0
  6
Continuous
 62
     7
370
    15
100
AcDbLine
 10
382.2376495423
 20
263.7261054255
 30
0.0
 11
384.5476107867
 21
263.1071521677
 31
0.0
  0
LINE
  5
1F8
330
1F
100
AcDbEntity
  8
0
  6
Continuous
 62
     7
370
    15
100
AcDbLine
 10
448.6835962357
 20
263.7261054255
 30
0.0
 11
449.2106242301
 21
267.4761055745
 31
0.0
  0
LINE
  5
1F9
330
1F
100
AcDbEntity
  8
0
  6
Continuous
 62
     7
370
    15
100
AcDbLine
 10
381.7106215479
 20
267.4761055745
 30
0.0
 11
382.2376495423
 21
263.7261054255
 31
0.0
  0
LINE
  5
1FA
330
1F
100
AcDbEntity
  8
0
  6
Continuous
 62
     7
370
    15
100
AcDbLine
 10
449.1713522198
 20
271.9761035182
 30
0.0
 11
447.9253655495
 21
272.695471976
 31
0.0
  0
LINE
  5
1FB
330
1F
100
AcDbEntity
  8
0
  6
Continuous
 62
     7
370
    15
100
AcDbLine
 10
382.9958802285
 20
272.695471976
 30
0.0
 11
381.7498935582
 21
271.9761035182
 31
0.0
  0
LINE
  5
1FC
330
1F
100
AcDbEntity
  8
0
  6
Continuous
 62
     7
370
    15
100
AcDbLine
 10
449.2106242301
 20
267.4761055745
 30
0.0
 11
449.1713522198
 21
271.9761035182
 31
0.0
  0
LINE
  5
1FD
330
1F
100
AcDbEntity
  8
0
  6
Continuous
 62
     7
370
    15
100
AcDbLine
 10
381.7498935582
 20
271.9761035182
 30
0.0
 11
381.7106215479
 21
267.4761055745
 31
0.0
  0
ARC
  5
1FE
330
1F
100
AcDbEntity
  8
0
  6
Continuous
 62
     7
370
    15
100
AcDbCircle
 10
415.460622889
 20
262.9761045315
 30
0.0
 40
30.75000000000001
100
AcDbArc
 50
39.3566989273
 51
52.5977545117
  0
ARC
  5
1FF
330
1F
100
AcDbEntity
  8
0
  6
Continuous
 62
     7
370
    15
100
AcDbCircle
 10
415.460622889
 20
262.9761045315
 30
0.0
 40
30.75000000000004
100
AcDbArc
 50
127.4009135408
 51
140.6433010727
  0
SPLINE
  5
200
330
1F
100
AcDbEntity
  8
0
  6
Continuous
 62
     7
370
    15
100
AcDbSpline
210
0.0
220
0.0
230
1.0
 70
     8
 71
     3
 72
    13
 73
     9
 74
     0
 42
0.00000001
 43
0.00000001
 12
1.0
 22
0.0
 32
0.0
 13
1.0
 23
0.0
 33
0.0
 40
0.0
 40
0.0
 40
0.0
 40
0.0
 40
0.011897853036908
 40
0.2392298342343332
 40
0.4527540631047628
 40
0.6799551425679952
 40
0.8818526844955996
 40
1.0
 40
1.0
 40
1.0
 40
1.0
 10
434.1390775712144
 20
287.4047211148009
 30
0.0
 10
434.1301787615168
 20
287.4110176995755
 30
0.0
 10
433.9512506168979
 20
287.5376229725767
 30
0.0
 10
433.6575653294424
 20
287.8379999186057
 30
0.0
 10
433.3056954321893
 20
288.3425637690391
 30
0.0
 10
433.0812881610956
 20
288.8905995661305
 30
0.0
 10
432.9660582228701
 20
289.3844270831318
 30
0.0
 10
432.9736194512111
 20
289.6783582317436
 30
0.0
 10
432.9764107437742
 20
289.786865446733
 30
0.0
  0
SPLINE
  5
201
330
1F
100
AcDbEntity
  8
0
  6
Continuous
 62
     7
370
    15
100
AcDbSpline
210
0.0
220
0.0
230
1.0
 70
     8
 71
     3
 72
    15
 73
    11
 74
     0
 42
0.00000001
 43
0.00000001
 12
1.0
 22
0.0
 32
0.0
 13
1.0
 23
0.0
 33
0.0
 40
0.0
 40
0.0
 40
0.0
 40
0.0
 40
0.0648488958318088
 40
0.258843494300059
 40
0.4371884221128141
 40
0.5994577614734032
 40
0.7442538945007499
 40
0.8692623108700039
 40
0.971368490437791
 40
1.0
 40
1.0
 40
1.0
 40
1.0
 10
397.9486907096517
 20
289.7863439060912
 30
0.0
 10
397.9521223017319
 20
289.7268897744863
 30
0.0
 10
397.9658194553016
 20
289.4895794089386
 30
0.0
 10
397.8896133809838
 20
289.0906442619186
 30
0.0
 10
397.740066638654
 20
288.6231829470886
 30
0.0
 10
397.5340312087957
 20
288.2261397761582
 30
0.0
 10
397.3046788103777
 20
287.9016048268035
 30
0.0
 10
397.0731044329258
 20
287.6504735733508
 30
0.0
 10
396.899410927847
 20
287.491941117141
 30
0.0
 10
396.8030007447277
 20
287.420641237956
 30
0.0
 10
396.781886947335
 20
287.4050265886054
 30
0.0
  0
ARC
  5
202
330
1F
100
AcDbEntity
  8
0
  6
Continuous
 62
     7
370
    15
100
AcDbCircle
 10
431.1279217825
 20
301.4761045315
 30
0.0
 40
3.0
100
AcDbArc
 50
190.0
 51
270.0
  0
LINE
  5
203
330
1F
100
AcDbEntity
  8
0
  6
Continuous
 62
     7
370
    15
100
AcDbLine
 10
402.9606227027
 20
375.9760982134
 30
0.0
 11
402.9606227027
 21
375.6088143923
 31
0.0
  0
LINE
  5
204
330
1F
100
AcDbEntity
  8
0
  6
Continuous
 62
     7
370
    15
100
AcDbLine
 10
402.9606227027
 20
365.774569545
 30
0.0
 11
402.9606227027
 21
363.4761101343
 31
0.0
  0
LINE
  5
205
330
1F
100
AcDbEntity
  8
0
  6
Continuous
 62
     7
370
    15
100
AcDbLine
 10
427.9606230752
 20
363.4761101343
 30
0.0
 11
427.9606230752
 21
365.774569545
 31
0.0
  0
LINE
  5
206
330
1F
100
AcDbEntity
  8
0
  6
Continuous
 62
     7
370
    15
100
AcDbLine
 10
427.9606230752
 20
375.6088143923
 30
0.0
 11
427.9606230752
 21
375.9760982134
 31
0.0
  0
LINE
  5
207
330
1F
100
AcDbEntity
  8
0
  6
Continuous
 62
     7
370
    15
100
AcDbLine
 10
428.1734982701
 20
300.9551591017
 30
0.0
 11
427.1360030593
 21
306.8390912153
 31
0.0
  0
LINE
  5
208
330
1F
100
AcDbEntity
  8
0
  6
Continuous
 62
     7
370
    15
100
AcDbLine
 10
442.2106230827
 20
247.70540509
 30
0.0
 11
442.2106230827
 21
252.4761049785
 31
0.0
  0
LINE
  5
209
330
1F
100
AcDbEntity
  8
0
  6
Continuous
 62
     7
370
    15
100
AcDbLine
 10
388.7106226953
 20
252.4761049785
 30
0.0
 11
388.7106226953
 21
247.70540509
 31
0.0
  0
LINE
  5
20A
330
1F
100
AcDbEntity
  8
0
  6
Continuous
 62
     7
370
    15
100
AcDbLine
 10
427.1360030593
 20
306.8390912153
 30
0.0
 11
426.5351202534
 21
318.304610882
 31
0.0
  0
ARC
  5
20B
330
1F
100
AcDbEntity
  8
0
  6
Continuous
 62
     7
370
    15
100
AcDbCircle
 10
425.0371760389
 20
318.2261045315
 30
0.0
 40
1.5
100
AcDbArc
 50
3.0
 51
90.0
  0
LINE
  5
20C
330
1F
100
AcDbEntity
  8
0
  6
Continuous
 62
     7
370
    15
100
AcDbLine
 10
424.2106229262
 20
319.7261071541
 30
0.0
 11
424.2106229262
 21
323.4761035778
 31
0.0
  0
LINE
  5
20D
330
1F
100
AcDbEntity
  8
0
  6
Continuous
 62
     7
370
    15
100
AcDbLine
 10
410.4606230007
 20
343.4760994055
 30
0.0
 11
410.4606230007
 21
323.4761035778
 31
0.0
  0
LINE
  5
20E
330
1F
100
AcDbEntity
  8
0
  6
Continuous
 62
     7
370
    15
100
AcDbLine
 10
420.4606227772
 20
323.4761035778
 30
0.0
 11
420.4606227772
 21
343.4760994055
 31
0.0
  0
LINE
  5
20F
330
1F
100
AcDbEntity
  8
0
  6
Continuous
 62
     7
370
    15
100
AcDbLine
 10
410.4606230007
 20
356.4683473446
 30
0.0
 11
410.4606230007
 21
347.4761075117
 31
0.0
  0
LINE
  5
210
330
1F
100
AcDbEntity
  8
0
  6
Continuous
 62
     7
370
    15
100
AcDbLine
 10
420.4606227772
 20
347.4761075117
 30
0.0
 11
420.4606227772
 21
356.4683473446
 31
0.0
  0
LINE
  5
211
330
1F
100
AcDbEntity
  8
0
  6
Continuous
 62
     7
370
    15
100
AcDbLine
 10
403.9606228666
 20
323.7261078097
 30
0.0
 11
403.9606228666
 21
323.4761035778
 31
0.0
  0
LINE
  5
212
330
1F
100
AcDbEntity
  8
0
  6
Continuous
 62
     7
370
    15
100
AcDbLine
 10
408.9606227549
 20
323.4761035778
 30
0.0
 11
408.9606227549
 21
323.7261078097
 31
0.0
  0
LINE
  5
213
330
1F
100
AcDbEntity
  8
0
  6
Continuous
 62
     7
370
    15
100
AcDbLine
 10
404.9606230305
 20
343.4760994055
 30
0.0
 11
404.9606230305
 21
339.226109419
 31
0.0
  0
LINE
  5
214
330
1F
100
AcDbEntity
  8
0
  6
Continuous
 62
     7
370
    15
100
AcDbLine
 10
407.9606230566
 20
339.226109419
 30
0.0
 11
407.9606230566
 21
343.4760994055
 31
0.0
  0
ARC
  5
215
330
1F
100
AcDbEntity
  8
0
  6
Continuous
 62
     7
370
    15
100
AcDbCircle
 10
404.4016058946
 20
338.7261045315
 30
0.0
 40
0.750000000000024
100
AcDbArc
 50
318.1896851042
 51
41.8103148958
  0
ARC
  5
216
330
1F
100
AcDbEntity
  8
0
  6
Continuous
 62
     7
370
    15
100
AcDbCircle
 10
408.5196398834
 20
338.7261045315
 30
0.0
 40
0.750000000000024
100
AcDbArc
 50
138.1896851042
 51
221.8103148958
  0
LINE
  5
217
330
1F
100
AcDbEntity
  8
0
  6
Continuous
 62
     7
370
    15
100
AcDbLine
 10
404.9606230305
 20
338.2261073925
 30
0.0
 11
404.9606230305
 21
326.0761028864
 31
0.0
  0
LINE
  5
218
330
1F
100
AcDbEntity
  8
0
  6
Continuous
 62
     7
370
    15
100
AcDbLine
 10
407.9606230566
 20
326.0761028864
 30
0.0
 11
407.9606230566
 21
338.2261073925
 31
0.0
  0
LINE
  5
219
330
1F
100
AcDbEntity
  8
0
  6
Continuous
 62
     7
370
    15
100
AcDbLine
 10
404.9606230305
 20
355.7261056043
 30
0.0
 11
404.9606230305
 21
347.4761075117
 31
0.0
  0
LINE
  5
21A
330
1F
100
AcDbEntity
  8
0
  6
Continuous
 62
     7
370
    15
100
AcDbLine
 10
407.9606230566
 20
347.4761075117
 30
0.0
 11
407.9606230566
 21
355.7261056043
 31
0.0
  0
LINE
  5
21B
330
1F
100
AcDbEntity
  8
0
  6
Continuous
 62
     7
370
    15
100
AcDbLine
 10
404.9606230305
 20
362.3241758682
 30
0.0
 11
404.9606230305
 21
356.7261076309
 31
0.0
  0
LINE
  5
21C
330
1F
100
AcDbEntity
  8
0
  6
Continuous
 62
     7
370
    15
100
AcDbLine
 10
407.9606230566
 20
356.7261076309
 30
0.0
 11
407.9606230566
 21
362.3241758682
 31
0.0
  0
ARC
  5
21D
330
1F
100
AcDbEntity
  8
0
  6
Continuous
 62
     7
370
    15
100
AcDbCircle
 10
404.4016058946
 20
356.2261045315
 30
0.0
 40
0.7499999999999861
100
AcDbArc
 50
318.1896851042
 51
41.8103148958
  0
ARC
  5
21E
330
1F
100
AcDbEntity
  8
0
  6
Continuous
 62
     7
370
    15
100
AcDbCircle
 10
408.5196398834
 20
356.2261045315
 30
0.0
 40
0.7499999999999861
100
AcDbArc
 50
138.1896851042
 51
221.8103148958
  0
ARC
  5
21F
330
1F
100
AcDbEntity
  8
0
  6
Continuous
 62
     7
370
    15
100
AcDbCircle
 10
406.460622889
 20
359.7261045315
 30
0.0
 40
3.0
100
AcDbArc
 50
60.0
 51
120.0
  0
LINE
  5
220
330
1F
100
AcDbEntity
  8
0
  6
Continuous
 62
     7
370
    15
100
AcDbLine
 10
359.2106243791
 20
376.4761066772
 30
0.0
 11
471.7106213989
 21
376.4761066772
 31
0.0
  0
CIRCLE
  5
221
330
1F
100
AcDbEntity
  8
0
  6
Continuous
 62
     7
370
    15
100
AcDbCircle
 10
415.460622889
 20
209.9761045315
 30
0.0
 40
30.99999999999994
  0
CIRCLE
  5
222
330
1F
100
AcDbEntity
  8
0
  6
Continuous
 62
     7
370
    15
100
AcDbCircle
 10
415.460622889
 20
209.9761045315
 30
0.0
 40
29.5
  0
CIRCLE
  5
223
330
1F
100
AcDbEntity
  8
0
  6
Continuous
 62
     7
370
    15
100
AcDbCircle
 10
415.460622889
 20
209.9761045315
 30
0.0
 40
25.69999999999999
  0
CIRCLE
  5
224
330
1F
100
AcDbEntity
  8
0
  6
Continuous
 62
     7
370
    15
100
AcDbCircle
 10
415.460622889
 20
209.9761045315
 30
0.0
 40
24.45000000000005
  0
CIRCLE
  5
225
330
1F
100
AcDbEntity
  8
0
  6
Continuous
 62
     7
370
    15
100
AcDbCircle
 10
415.460622889
 20
209.9761045315
 30
0.0
 40
21.29999999999995
  0
CIRCLE
  5
226
330
1F
100
AcDbEntity
  8
0
  6
Continuous
 62
     7
370
    15
100
AcDbCircle
 10
415.460622889
 20
209.9761045315
 30
0.0
 40
20.05000000000001
  0
CIRCLE
  5
227
330
1F
100
AcDbEntity
  8
0
  6
Continuous
 62
     7
370
    15
100
AcDbCircle
 10
415.460622889
 20
209.9761045315
 30
0.0
 40
46.25
  0
LINE
  5
228
330
1F
100
AcDbEntity
  8
0
  6
Continuous
 62
     7
370
    15
100
AcDbLine
 10
436.7106231125
 20
163.7261039354
 30
0.0
 11
415.460622889
 21
163.7261039354
 31
0.0
  0
LINE
  5
229
330
1F
100
AcDbEntity
  8
0
  6
Continuous
 62
     7
370
    15
100
AcDbLine
 10
439.0688752951
 20
170.2053486146
 30
0.0
 11
436.7106231125
 21
163.7261039354
 31
0.0
  0
LINE
  5
22A
330
1F
100
AcDbEntity
  8
0
  6
Continuous
 62
     7
370
    15
100
AcDbLine
 10
391.8523704829
 20
170.2053486146
 30
0.0
 11
394.2106226655
 21
163.7261039354
 31
0.0
  0
LINE
  5
22B
330
1F
100
AcDbEntity
  8
0
  6
Continuous
 62
     7
370
    15
100
AcDbLine
 10
394.2106226655
 20
163.7261039354
 30
0.0
 11
415.460622889
 21
163.7261039354
 31
0.0
  0
LINE
  5
22C
330
1F
100
AcDbEntity
  8
0
  6
Continuous
 62
     7
370
    15
100
AcDbLine
 10
408.0390553186
 20
373.5504126884
 30
0.0
 11
400.8208569335
 21
376.4761066772
 31
0.0
  0
ELLIPSE
  5
22D
330
1F
100
AcDbEntity
  8
0
  6
Continuous
 62
     7
370
    15
100
AcDbEllipse
 10
415.460622889
 20
309.0211978213
 30
0.0
 11
5.964958520827167
 21
151.3324852173917
 31
0.0
210
0.0
220
0.0
230
1.0
 40
0.0725882252
 41
1.133142692962947
 42
1.189748657874409
  0
LINE
  5
22E
330
1F
100
AcDbEntity
  8
0
  6
Continuous
 62
     7
370
    15
100
AcDbLine
 10
407.4818836721
 20
365.702656541
 30
0.0
 11
380.9018535735
 21
376.4761066772
 31
0.0
  0
LINE
  5
22F
330
1F
100
AcDbEntity
  8
0
  6
Continuous
 62
     7
370
    15
100
AcDbLine
 10
423.4393621059
 20
365.702656541
 30
0.0
 11
450.0193922045
 21
376.4761066772
 31
0.0
  0
ELLIPSE
  5
230
330
1F
100
AcDbEntity
  8
0
  6
Continuous
 62
     7
370
    15
100
AcDbEllipse
 10
415.460622889
 20
309.0211978213
 30
0.0
 11
-5.964958520826997
 21
151.3324852173918
 31
0.0
210
0.0
220
0.0
230
1.0
 40
0.0725882252
 41
5.093436649305203
 42
5.150042614216676
  0
LINE
  5
231
330
1F
100
AcDbEntity
  8
0
  6
Continuous
 62
     7
370
    15
100
AcDbLine
 10
422.8821904594
 20
373.5504126884
 30
0.0
 11
430.1003888445
 21
376.4761066772
 31
0.0
  0
LINE
  5
232
330
1F
100
AcDbEntity
  8
0
  6
Continuous
 62
     7
370
    15
100
AcDbLine
 10
390.958490801
 20
267.4761055745
 30
0.0
 11
439.9627549769
 21
267.4761055745
 31
0.0
  0
LINE
  5
233
330
1F
100
AcDbEntity
  8
0
  6
Continuous
 62
     7
370
    15
100
AcDbLine
 10
439.9627549769
 20
267.4761055745
 30
0.0
 11
442.7351067038
 21
267.4761055745
 31
0.0
  0
LINE
  5
234
330
1F
100
AcDbEntity
  8
0
  6
Continuous
 62
     7
370
    15
100
AcDbLine
 10
388.3011331977
 20
263.7261054255
 30
0.0
 11
442.6201125802
 21
263.7261054255
 31
0.0
  0
LINE
  5
235
330
1F
100
AcDbEntity
  8
0
  6
Continuous
 62
     7
370
    15
100
AcDbLine
 10
388.1861390741
 20
267.4761055745
 30
0.0
 11
390.958490801
 21
267.4761055745
 31
0.0
  0
SPLINE
  5
236
330
1F
100
AcDbEntity
  8
0
  6
Continuous
 62
     7
370
    15
100
AcDbSpline
210
0.0
220
0.0
230
1.0
 70
     8
 71
     3
 72
     8
 73
     4
 74
     0
 42
0.00000001
 43
0.00000001
 12
1.0
 22
0.0
 32
0.0
 13
1.0
 23
0.0
 33
0.0
 40
0.00004520990958
 40
0.00004520990958
 40
0.00004520990958
 40
0.00004520990958
 40
0.0090471260529706
 40
0.0090471260529706
 40
0.0090471260529706
 40
0.0090471260529706
 10
390.9584904307661
 20
267.4761045314536
 30
0.0
 10
390.9890580769506
 20
268.9760949952461
 30
0.0
 10
391.0191134605116
 20
270.4760954324168
 30
0.0
 10
391.0486991095997
 20
271.9761045314536
 30
0.0
  0
LINE
  5
237
330
1F
100
AcDbEntity
  8
0
  6
Continuous
 62
     7
370
    15
100
AcDbLine
 10
391.0486987056
 20
271.9761035182
 30
0.0
 11
439.8725470724
 21
271.9761035182
 31
0.0
  0
SPLINE
  5
238
330
1F
100
AcDbEntity
  8
0
  6
Continuous
 62
     7
370
    15
100
AcDbSpline
210
0.0
220
0.0
230
1.0
 70
     8
 71
     3
 72
     8
 73
     4
 74
     0
 42
0.00000001
 43
0.00000001
 12
1.0
 22
0.0
 32
0.0
 13
1.0
 23
0.0
 33
0.0
 40
0.00004520990958
 40
0.00004520990958
 40
0.00004520990958
 40
0.00004520990958
 40
0.0090471260529706
 40
0.0090471260529706
 40
0.0090471260529706
 40
0.0090471260529706
 10
439.9627553472009
 20
267.4761045314536
 30
0.0
 10
439.9321877010164
 20
268.9760949952461
 30
0.0
 10
439.9021323174554
 20
270.4760954324168
 30
0.0
 10
439.8725466683673
 20
271.9761045314536
 30
0.0
  0
ELLIPSE
  5
239
330
1F
100
AcDbEntity
  8
0
  6
Continuous
 62
     7
370
    15
100
AcDbEllipse
 10
415.460622889
 20
361.588371937
 30
0.0
 11
12.48432270774111
 21
-3.904964395875424
 31
0.0
210
0.0
220
0.0
230
1.0
 40
0.1602700008
 41
2.313171830542856
 42
2.475841372967682
  0
LINE
  5
23A
330
1F
100
AcDbEntity
  8
0
  6
Continuous
 62
     7
370
    15
100
AcDbLine
 10
406.028845367
 20
365.8952689506
 30
0.0
 11
379.9240580024
 21
376.4761066772
 31
0.0
  0
LINE
  5
23B
330
1F
100
AcDbEntity
  8
0
  6
Continuous
 62
     7
370
    15
100
AcDbLine
 10
424.892400411
 20
365.8952689506
 30
0.0
 11
450.9971877756
 21
376.4761066772
 31
0.0
  0
ELLIPSE
  5
23C
330
1F
100
AcDbEntity
  8
0
  6
Continuous
 62
     7
370
    15
100
AcDbEllipse
 10
415.460622889
 20
361.588371937
 30
0.0
 11
12.48432270774111
 21
3.904964395875424
 31
0.0
210
0.0
220
0.0
230
1.0
 40
0.1602700008
 41
0.6657512806221189
 42
0.8284208230469288
  0
SPLINE
  5
23D
330
1F
100
AcDbEntity
  8
0
  6
Continuous
 62
     7
370
    15
100
AcDbSpline
210
0.0
220
0.0
230
1.0
 70
     8
 71
     3
 72
    26
 73
    22
 74
     0
 42
0.00000001
 43
0.00000001
 12
1.0
 22
0.0
 32
0.0
 13
1.0
 23
0.0
 33
0.0
 40
0.0
 40
0.0
 40
0.0
 40
0.0
 40
0.1250000000000009
 40
0.1250000000000009
 40
0.2500000000000019
 40
0.2500000000000019
 40
0.3125000000000023
 40
0.3125000000000023
 40
0.3750000000000028
 40
0.3750000000000028
 40
0.5000000000000046
 40
0.5000000000000046
 40
0.5625000000000047
 40
0.5625000000000047
 40
0.6250000000000049
 40
0.6250000000000049
 40
0.7500000000000032
 40
0.7500000000000032
 40
0.8750000000000016
 40
0.8750000000000016
 40
1.0
 40
1.0
 40
1.0
 40
1.0
 10
391.0486991095997
 20
271.9761045314536
 30
0.0
 10
391.3972462756757
 20
272.0651418591416
 30
0.0
 10
391.7296966124904
 20
272.1666111287637
 30
0.0
 10
392.3656394384648
 20
272.3921422006804
 30
0.0
 10
392.6691050754528
 20
272.5162238327703
 30
0.0
 10
393.1030971246296
 20
272.71907809203
 30
0.0
 10
393.2434844552496
 20
272.7891917543344
 30
0.0
 10
393.5129738338964
 20
272.9326506544677
 30
0.0
 10
393.6425757342279
 20
273.006227087444
 30
0.0
 10
394.0165866077152
 20
273.2323163213499
 30
0.0
 10
394.2462815805538
 20
273.3901606163408
 30
0.0
 10
394.5622383974811
 20
273.6374544230347
 30
0.0
 10
394.6627360236765
 20
273.7216709383466
 30
0.0
 10
394.8515808974192
 20
273.8912393037302
 30
0.0
 10
394.9403172331138
 20
273.976883258372
 30
0.0
 10
395.1900614758432
 20
274.2363373586523
 30
0.0
 10
395.3346895740926
 20
274.4126583758526
 30
0.0
 10
395.5811274079661
 20
274.7719958643682
 30
0.0
 10
395.6830197496303
 20
274.9558258331891
 30
0.0
 10
395.839051534606
 20
275.3209126678646
 30
0.0
 10
395.8940920657835
 20
275.5032003398799
 30
0.0
 10
395.9264464369431
 20
275.6852378409502
 30
0.0
  0
LINE
  5
23E
330
1F
100
AcDbEntity
  8
0
  6
Continuous
 62
     7
370
    15
100
AcDbLine
 10
395.9264466735
 20
275.6852409579
 30
0.0
 11
434.9947991045
 21
275.6852409579
 31
0.0
  0
SPLINE
  5
23F
330
1F
100
AcDbEntity
  8
0
  6
Continuous
 62
     7
370
    15
100
AcDbSpline
210
0.0
220
0.0
230
1.0
 70
     8
 71
     3
 72
    26
 73
    22
 74
     0
 42
0.00000001
 43
0.00000001
 12
1.0
 22
0.0
 32
0.0
 13
1.0
 23
0.0
 33
0.0
 40
0.0
 40
0.0
 40
0.0
 40
0.0
 40
0.1250000000000009
 40
0.1250000000000009
 40
0.2500000000000019
 40
0.2500000000000019
 40
0.3125000000000023
 40
0.3125000000000023
 40
0.3750000000000028
 40
0.3750000000000028
 40
0.5000000000000046
 40
0.5000000000000046
 40
0.5625000000000047
 40
0.5625000000000047
 40
0.6250000000000049
 40
0.6250000000000049
 40
0.7500000000000032
 40
0.7500000000000032
 40
0.8750000000000016
 40
0.8750000000000016
 40
1.0
 40
1.0
 40
1.0
 40
1.0
 10
439.8725466683673
 20
271.9761045314536
 30
0.0
 10
439.5239995022912
 20
272.0651418591416
 30
0.0
 10
439.1915491654765
 20
272.1666111287637
 30
0.0
 10
438.5556063395022
 20
272.3921422006804
 30
0.0
 10
438.2521407025142
 20
272.5162238327703
 30
0.0
 10
437.8181486533373
 20
272.71907809203
 30
0.0
 10
437.6777613227173
 20
272.7891917543344
 30
0.0
 10
437.4082719440707
 20
272.9326506544677
 30
0.0
 10
437.2786700437391
 20
273.006227087444
 30
0.0
 10
436.9046591702518
 20
273.2323163213499
 30
0.0
 10
436.6749641974131
 20
273.3901606163408
 30
0.0
 10
436.3590073804859
 20
273.6374544230347
 30
0.0
 10
436.2585097542905
 20
273.7216709383466
 30
0.0
 10
436.0696648805477
 20
273.8912393037302
 30
0.0
 10
435.9809285448532
 20
273.976883258372
 30
0.0
 10
435.7311843021238
 20
274.2363373586523
 30
0.0
 10
435.5865562038744
 20
274.4126583758526
 30
0.0
 10
435.3401183700009
 20
274.7719958643682
 30
0.0
 10
435.2382260283367
 20
274.9558258331891
 30
0.0
 10
435.082194243361
 20
275.3209126678646
 30
0.0
 10
435.0271537121835
 20
275.5032003398799
 30
0.0
 10
434.9947993410238
 20
275.6852378409502
 30
0.0
  0
SPLINE
  5
240
330
1F
100
AcDbEntity
  8
0
  6
Continuous
 62
     7
370
    15
100
AcDbSpline
210
0.0
220
0.0
230
1.0
 70
     8
 71
     3
 72
     8
 73
     4
 74
     0
 42
0.00000001
 43
0.00000001
 12
1.0
 22
0.0
 32
0.0
 13
1.0
 23
0.0
 33
0.0
 40
0.0
 40
0.0
 40
0.0
 40
0.0
 40
1.0
 40
1.0
 40
1.0
 40
1.0
 10
388.3807016253522
 20
263.6283934732971
 30
0.0
 10
388.7372013829555
 20
263.6282250606329
 30
0.0
 10
389.0971918086914
 20
263.617481170462
 30
0.0
 10
389.4606228889836
 20
263.5962800221373
 30
0.0
  0
SPLINE
  5
241
330
1F
100
AcDbEntity
  8
0
  6
Continuous
 62
     7
370
    15
100
AcDbSpline
210
0.0
220
0.0
230
1.0
 70
     8
 71
     3
 72
     8
 73
     4
 74
     0
 42
0.00000001
 43
0.00000001
 12
1.0
 22
0.0
 32
0.0
 13
1.0
 23
0.0
 33
0.0
 40
0.0
 40
0.0
 40
0.0
 40
0.0
 40
1.0
 40
1.0
 40
1.0
 40
1.0
 10
442.5405441526148
 20
263.6283934732971
 30
0.0
 10
442.1840443950115
 20
263.6282250606329
 30
0.0
 10
441.8240539692756
 20
263.617481170462
 30
0.0
 10
441.4606228889835
 20
263.5962800221373
 30
0.0
  0
SPLINE
  5
242
330
1F
100
AcDbEntity
  8
0
  6
Continuous
 62
     7
370
    15
100
AcDbSpline
210
0.0
220
0.0
230
1.0
 70
     8
 71
     3
 72
    14
 73
    10
 74
     0
 42
0.00000001
 43
0.00000001
 12
1.0
 22
0.0
 32
0.0
 13
1.0
 23
0.0
 33
0.0
 40
0.0
 40
0.0
 40
0.0
 40
0.0
 40
0.25
 40
0.25
 40
0.5
 40
0.5
 40
0.75
 40
0.75
 40
1.0
 40
1.0
 40
1.0
 40
1.0
 10
441.4606228889835
 20
263.5962800221373
 30
0.0
 10
437.1310419377787
 20
263.343709196724
 30
0.0
 10
432.7996501786631
 20
263.1512886952791
 30
0.0
 10
424.1330333999193
 20
262.8937786259071
 30
0.0
 10
419.7978075022052
 20
262.8287182257079
 30
0.0
 10
411.1234384581923
 20
262.828718223889
 30
0.0
 10
406.7882124554302
 20
262.8937786240692
 30
0.0
 10
398.1215956162857
 20
263.1512886943132
 30
0.0
 10
393.7902038417265
 20
263.3437091966342
 30
0.0
 10
389.4606228889836
 20
263.5962800221373
 30
0.0
  0
SPLINE
  5
243
330
1F
100
AcDbEntity
  8
0
  6
Continuous
 62
     7
370
    15
100
AcDbSpline
210
0.0
220
0.0
230
1.0
 70
     8
 71
     3
 72
     8
 73
     4
 74
     0
 42
0.00000001
 43
0.00000001
 12
1.0
 22
0.0
 32
0.0
 13
1.0
 23
0.0
 33
0.0
 40
0.0008586917146499
 40
0.0008586917146499
 40
0.0008586917146499
 40
0.0008586917146499
 40
0.0136545488171273
 40
0.0136545488171273
 40
0.0136545488171273
 40
0.0136545488171273
 10
434.9797581715448
 20
282.0809613001891
 30
0.0
 10
434.9840556187643
 20
279.949055056902
 30
0.0
 10
434.9890707472578
 20
277.8171469855
 30
0.0
 10
434.9947993410238
 20
275.6852378409502
 30
0.0
  0
SPLINE
  5
244
330
1F
100
AcDbEntity
  8
0
  6
Continuous
 62
     7
370
    15
100
AcDbSpline
210
0.0
220
0.0
230
1.0
 70
     8
 71
     3
 72
     8
 73
     4
 74
     0
 42
0.00000001
 43
0.00000001
 12
1.0
 22
0.0
 32
0.0
 13
1.0
 23
0.0
 33
0.0
 40
0.0
 40
0.0
 40
0.0
 40
0.0
 40
1.0
 40
1.0
 40
1.0
 40
1.0
 10
434.9779768226148
 20
282.4761045314536
 30
0.0
 10
434.9788879217111
 20
282.3446637795971
 30
0.0
 10
434.9794921228245
 20
282.2129445216379
 30
0.0
 10
434.9797581715448
 20
282.0809613001891
 30
0.0
  0
LINE
  5
245
330
1F
100
AcDbEntity
  8
0
  6
Continuous
 62
     7
370
    15
100
AcDbLine
 10
434.9779775562
 20
282.4761024453
 30
0.0
 11
439.9627549769
 21
282.4761024453
 31
0.0
  0
LINE
  5
246
330
1F
100
AcDbEntity
  8
0
  6
Continuous
 62
     7
370
    15
100
AcDbLine
 10
439.9627549769
 20
282.4761024453
 30
0.0
 11
439.9627549769
 21
267.4761055745
 31
0.0
  0
LINE
  5
247
330
1F
100
AcDbEntity
  8
0
  6
Continuous
 62
     7
370
    15
100
AcDbLine
 10
395.9432682218
 20
282.4761024453
 30
0.0
 11
390.958490801
 21
282.4761024453
 31
0.0
  0
SPLINE
  5
248
330
1F
100
AcDbEntity
  8
0
  6
Continuous
 62
     7
370
    15
100
AcDbSpline
210
0.0
220
0.0
230
1.0
 70
     8
 71
     3
 72
     8
 73
     4
 74
     0
 42
0.00000001
 43
0.00000001
 12
1.0
 22
0.0
 32
0.0
 13
1.0
 23
0.0
 33
0.0
 40
0.0
 40
0.0
 40
0.0
 40
0.0
 40
1.0
 40
1.0
 40
1.0
 40
1.0
 10
395.9432689553522
 20
282.4761045314536
 30
0.0
 10
395.9423578562559
 20
282.3446637795971
 30
0.0
 10
395.9417536551426
 20
282.2129445216379
 30
0.0
 10
395.9414876064222
 20
282.0809613001891
 30
0.0
  0
SPLINE
  5
249
330
1F
100
AcDbEntity
  8
0
  6
Continuous
 62
     7
370
    15
100
AcDbSpline
210
0.0
220
0.0
230
1.0
 70
     8
 71
     3
 72
     8
 73
     4
 74
     0
 42
0.00000001
 43
0.00000001
 12
1.0
 22
0.0
 32
0.0
 13
1.0
 23
0.0
 33
0.0
 40
0.0008586917146499
 40
0.0008586917146499
 40
0.0008586917146499
 40
0.0008586917146499
 40
0.0136545488171273
 40
0.0136545488171273
 40
0.0136545488171273
 40
0.0136545488171273
 10
395.9414876064222
 20
282.0809613001891
 30
0.0
 10
395.9371901592027
 20
279.949055056902
 30
0.0
 10
395.9321750307093
 20
277.8171469855
 30
0.0
 10
395.9264464369431
 20
275.6852378409502
 30
0.0
  0
LINE
  5
24A
330
1F
100
AcDbEntity
  8
0
  6
Continuous
 62
     7
370
    15
100
AcDbLine
 10
390.958490801
 20
282.4761024453
 30
0.0
 11
390.958490801
 21
267.4761055745
 31
0.0
  0
LINE
  5
24B
330
1F
100
AcDbEntity
  8
0
  6
Continuous
 62
     7
370
    15
100
AcDbLine
 10
442.7351067038
 20
282.4761024453
 30
0.0
 11
439.9627549769
 21
282.4761024453
 31
0.0
  0
LINE
  5
24C
330
1F
100
AcDbEntity
  8
0
  6
Continuous
 62
     7
370
    15
100
AcDbLine
 10
388.1861390741
 20
282.4761024453
 30
0.0
 11
390.958490801
 21
282.4761024453
 31
0.0
  0
LINE
  5
24D
330
1F
100
AcDbEntity
  8
0
  6
Continuous
 62
     7
370
    15
100
AcDbLine
 10
397.2174739661
 20
252.4761049785
 30
0.0
 11
389.4606223525
 21
252.4761049785
 31
0.0
  0
LINE
  5
24E
330
1F
100
AcDbEntity
  8
0
  6
Continuous
 62
     7
370
    15
100
AcDbLine
 10
433.7037718119
 20
252.4761049785
 30
0.0
 11
441.4606234254
 21
252.4761049785
 31
0.0
  0
LINE
  5
24F
330
1F
100
AcDbEntity
  8
0
  6
Continuous
 62
     7
370
    15
100
AcDbLine
 10
442.7351067038
 20
267.4761055745
 30
0.0
 11
447.7144656898
 21
267.4761055745
 31
0.0
  0
LINE
  5
250
330
1F
100
AcDbEntity
  8
0
  6
Continuous
 62
     7
370
    15
100
AcDbLine
 10
447.7144656898
 20
282.4761024453
 30
0.0
 11
442.7351067038
 21
282.4761024453
 31
0.0
  0
LINE
  5
251
330
1F
100
AcDbEntity
  8
0
  6
Continuous
 62
     7
370
    15
100
AcDbLine
 10
442.6201125802
 20
263.7261054255
 30
0.0
 11
447.1957376422
 21
263.7261054255
 31
0.0
  0
LINE
  5
252
330
1F
100
AcDbEntity
  8
0
  6
Continuous
 62
     7
370
    15
100
AcDbLine
 10
388.1861390741
 20
267.4761055745
 30
0.0
 11
383.2067800881
 21
267.4761055745
 31
0.0
  0
LINE
  5
253
330
1F
100
AcDbEntity
  8
0
  6
Continuous
 62
     7
370
    15
100
AcDbLine
 10
383.2067800881
 20
282.4761024453
 30
0.0
 11
388.1861390741
 21
282.4761024453
 31
0.0
  0
LINE
  5
254
330
1F
100
AcDbEntity
  8
0
  6
Continuous
 62
     7
370
    15
100
AcDbLine
 10
388.3011331977
 20
263.7261054255
 30
0.0
 11
383.7255081357
 21
263.7261054255
 31
0.0
  0
SPLINE
  5
255
330
1F
100
AcDbEntity
  8
0
  6
Continuous
 62
     7
370
    15
100
AcDbSpline
210
0.0
220
0.0
230
1.0
 70
     8
 71
     3
 72
    26
 73
    22
 74
     0
 42
0.00000001
 43
0.00000001
 12
1.0
 22
0.0
 32
0.0
 13
1.0
 23
0.0
 33
0.0
 40
0.0
 40
0.0
 40
0.0
 40
0.0
 40
0.1250000000000002
 40
0.1250000000000002
 40
0.2500000000000004
 40
0.2500000000000004
 40
0.3750000000000006
 40
0.3750000000000006
 40
0.5000000000000008
 40
0.5000000000000008
 40
0.625000000000001
 40
0.625000000000001
 40
0.6875000000000011
 40
0.6875000000000011
 40
0.7500000000000011
 40
0.7500000000000011
 40
0.8750000000000013
 40
0.8750000000000013
 40
0.9375000000000007
 40
0.9375000000000007
 40
1.0
 40
1.0
 40
1.0
 40
1.0
 10
446.4212177576742
 20
263.5152518426081
 30
0.0
 10
446.4057203011832
 20
263.5237574993038
 30
0.0
 10
446.3687621161719
 20
263.5320134508967
 30
0.0
 10
446.2509631517617
 20
263.5478901961813
 30
0.0
 10
446.1715119231017
 20
263.5553437605852
 30
0.0
 10
445.9730386377632
 20
263.5693574622272
 30
0.0
 10
445.8540173111244
 20
263.5759174081552
 30
0.0
 10
445.5747582022038
 20
263.5881485132325
 30
0.0
 10
445.417911229491
 20
263.5936675859479
 30
0.0
 10
445.0724936867878
 20
263.6035500921178
 30
0.0
 10
444.8837177773511
 20
263.6079221895859
 30
0.0
 10
444.5756217167406
 20
263.6136220993534
 30
0.0
 10
444.4690677799749
 20
263.6153702126679
 30
0.0
 10
444.2514282690138
 20
263.618521219736
 30
0.0
 10
444.1399186553066
 20
263.6199322324526
 30
0.0
 10
443.7974470781202
 20
263.623683709041
 30
0.0
 10
443.5585947971609
 20
263.6255460481219
 30
0.0
 10
443.1840753829656
 20
263.6273667106187
 30
0.0
 10
443.0562886628873
 20
263.6278093441386
 30
0.0
 10
442.7998707820438
 20
263.6283517467636
 30
0.0
 10
442.6706860581165
 20
263.6284549531287
 30
0.0
 10
442.5405441526149
 20
263.6283934732971
 30
0.0
  0
SPLINE
  5
256
330
1F
100
AcDbEntity
  8
0
  6
Continuous
 62
     7
370
    15
100
AcDbSpline
210
0.0
220
0.0
230
1.0
 70
     8
 71
     3
 72
    26
 73
    22
 74
     0
 42
0.00000001
 43
0.00000001
 12
1.0
 22
0.0
 32
0.0
 13
1.0
 23
0.0
 33
0.0
 40
0.0
 40
0.0
 40
0.0
 40
0.0
 40
0.1250000000000002
 40
0.1250000000000002
 40
0.2500000000000004
 40
0.2500000000000004
 40
0.3750000000000006
 40
0.3750000000000006
 40
0.5000000000000008
 40
0.5000000000000008
 40
0.625000000000001
 40
0.625000000000001
 40
0.6875000000000011
 40
0.6875000000000011
 40
0.7500000000000011
 40
0.7500000000000011
 40
0.8750000000000013
 40
0.8750000000000013
 40
0.9375000000000007
 40
0.9375000000000007
 40
1.0
 40
1.0
 40
1.0
 40
1.0
 10
384.5000280202928
 20
263.5152518426081
 30
0.0
 10
384.5155254767838
 20
263.5237574993038
 30
0.0
 10
384.5524836617951
 20
263.5320134508967
 30
0.0
 10
384.6702826262053
 20
263.5478901961813
 30
0.0
 10
384.7497338548653
 20
263.5553437605852
 30
0.0
 10
384.9482071402038
 20
263.5693574622272
 30
0.0
 10
385.0672284668426
 20
263.5759174081552
 30
0.0
 10
385.3464875757632
 20
263.5881485132325
 30
0.0
 10
385.503334548476
 20
263.5936675859479
 30
0.0
 10
385.8487520911792
 20
263.6035500921178
 30
0.0
 10
386.0375280006159
 20
263.6079221895859
 30
0.0
 10
386.3456240612265
 20
263.6136220993534
 30
0.0
 10
386.4521779979921
 20
263.6153702126679
 30
0.0
 10
386.6698175089532
 20
263.618521219736
 30
0.0
 10
386.7813271226603
 20
263.6199322324526
 30
0.0
 10
387.1237986998468
 20
263.623683709041
 30
0.0
 10
387.3626509808061
 20
263.6255460481219
 30
0.0
 10
387.7371703950014
 20
263.6273667106187
 30
0.0
 10
387.8649571150797
 20
263.6278093441386
 30
0.0
 10
388.1213749959232
 20
263.6283517467636
 30
0.0
 10
388.2505597198505
 20
263.6284549531287
 30
0.0
 10
388.3807016253522
 20
263.6283934732971
 30
0.0
  0
LINE
  5
257
330
1F
100
AcDbEntity
  8
0
  6
Continuous
 62
     7
370
    15
100
AcDbLine
 10
446.3906930955
 20
263.4932151772
 30
0.0
 11
446.4212181242
 21
263.5152502693
 31
0.0
  0
LINE
  5
258
330
1F
100
AcDbEntity
  8
0
  6
Continuous
 62
     7
370
    15
100
AcDbLine
 10
441.4606234254
 20
252.4761049785
 30
0.0
 11
444.8795383992
 21
252.4761049785
 31
0.0
  0
LINE
  5
259
330
1F
100
AcDbEntity
  8
0
  6
Continuous
 62
     7
370
    15
100
AcDbLine
 10
389.4606223525
 20
252.4761049785
 30
0.0
 11
386.0417073788
 21
252.4761049785
 31
0.0
  0
LINE
  5
25A
330
1F
100
AcDbEntity
  8
0
  6
Continuous
 62
     7
370
    15
100
AcDbLine
 10
384.5305526825
 20
263.4932151772
 30
0.0
 11
384.5000276538
 21
263.5152502693
 31
0.0
  0
LINE
  5
25B
330
1F
100
AcDbEntity
  8
0
  6
Continuous
 62
     7
370
    15
100
AcDbLine
 10
427.2806430431
 20
365.8952689506
 30
0.0
 11
453.3854304077
 21
376.4761066772
 31
0.0
  0
ELLIPSE
  5
25C
330
1F
100
AcDbEntity
  8
0
  6
Continuous
 62
     7
370
    15
100
AcDbEllipse
 10
415.460622889
 20
409.8359822665
 30
0.0
 11
-6.072359070544961
 21
252.564704578234
 31
0.0
210
0.0
220
0.0
230
1.0
 40
0.0432600165
 41
4.536481122254715
 42
4.540346112315113
  0
ELLIPSE
  5
25D
330
1F
100
AcDbEntity
  8
0
  6
Continuous
 62
     7
370
    15
100
AcDbEllipse
 10
415.460622889
 20
409.8359822665
 30
0.0
 11
6.072359070545133
 21
252.5647045782338
 31
0.0
210
0.0
220
0.0
230
1.0
 40
0.0432600165
 41
1.742839194864483
 42
1.746704184924881
  0
LINE
  5
25E
330
1F
100
AcDbEntity
  8
0
  6
Continuous
 62
     7
370
    15
100
AcDbLine
 10
403.6406027349
 20
365.8952689506
 30
0.0
 11
377.5358153703
 21
376.4761066772
 31
0.0
  0
ELLIPSE
  5
25F
330
1F
100
AcDbEntity
  8
0
  6
Continuous
 62
     7
370
    15
100
AcDbEllipse
 10
415.460622889
 20
361.588371937
 30
0.0
 11
12.48432270774111
 21
-3.904964395875424
 31
0.0
210
0.0
220
0.0
230
1.0
 40
0.1602700008
 41
2.860324050430076
 42
3.022993592854919
  0
LINE
  5
260
330
1F
100
AcDbEntity
  8
0
  6
Continuous
 62
     7
370
    15
100
AcDbLine
 10
403.1380489664
 20
365.702656541
 30
0.0
 11
376.5580197992
 21
376.4761066772
 31
0.0
  0
LINE
  5
261
330
1F
100
AcDbEntity
  8
0
  6
Continuous
 62
     7
370
    15
100
AcDbLine
 10
427.7831968116
 20
365.702656541
 30
0.0
 11
454.3632259788
 21
376.4761066772
 31
0.0
  0
ELLIPSE
  5
262
330
1F
100
AcDbEntity
  8
0
  6
Continuous
 62
     7
370
    15
100
AcDbEllipse
 10
415.460622889
 20
361.588371937
 30
0.0
 11
12.48432270774111
 21
3.904964395875424
 31
0.0
210
0.0
220
0.0
230
1.0
 40
0.1602700008
 41
0.1185990607348733
 42
0.281268603159722
  0
LINE
  5
263
330
1F
100
AcDbEntity
  8
0
  6
Continuous
 62
     7
370
    15
100
AcDbLine
 10
399.460622129
 20
298.4761050679
 30
0.0
 11
431.4606236489
 21
298.4761050679
 31
0.0
  0
SPLINE
  5
264
330
1F
100
AcDbEntity
  8
0
  6
Continuous
 62
     7
370
    15
100
AcDbSpline
210
0.0
220
0.0
230
1.0
 70
     8
 71
     3
 72
    22
 73
    18
 74
     0
 42
0.00000001
 43
0.00000001
 12
1.0
 22
0.0
 32
0.0
 13
1.0
 23
0.0
 33
0.0
 40
0.0
 40
0.0
 40
0.0
 40
0.0
 40
0.2500000000000078
 40
0.2500000000000078
 40
0.375000000000006
 40
0.375000000000006
 40
0.5000000000000042
 40
0.5000000000000042
 40
0.6250000000000024
 40
0.6250000000000024
 40
0.7500000000000007
 40
0.7500000000000007
 40
0.8124999999999998
 40
0.8124999999999998
 40
0.8749999999999989
 40
0.8749999999999989
 40
1.0
 40
1.0
 40
1.0
 40
1.0
 10
435.9624985548614
 20
282.4761045314536
 30
0.0
 10
435.9605582762438
 20
282.7330733799448
 30
0.0
 10
435.9592723793774
 20
282.9884702665076
 30
0.0
 10
435.9644909712978
 20
283.3472109571663
 30
0.0
 10
435.9674504640705
 20
283.4630084085736
 30
0.0
 10
435.9778234691285
 20
283.6849740613473
 30
0.0
 10
435.9851402933325
 20
283.7888518994941
 30
0.0
 10
436.006530233593
 20
283.9784056699013
 30
0.0
 10
436.0206199024727
 20
284.0645192238363
 30
0.0
 10
436.0595852773544
 20
284.2119783597346
 30
0.0
 10
436.0837294463937
 20
284.270374206992
 30
0.0
 10
436.1293266698955
 20
284.3321454623738
 30
0.0
 10
436.1461622572191
 20
284.3483386596333
 30
0.0
 10
436.1821460646649
 20
284.370902374183
 30
0.0
 10
436.2014117569199
 20
284.3774764878234
 30
0.0
 10
436.2631384209334
 20
284.383750881075
 30
0.0
 10
436.3098159308831
 20
284.3695998309004
 30
0.0
 10
436.3598230827855
 20
284.3404412588246
 30
0.0
  0
SPLINE
  5
265
330
1F
100
AcDbEntity
  8
0
  6
Continuous
 62
     7
370
    15
100
AcDbSpline
210
0.0
220
0.0
230
1.0
 70
     8
 71
     3
 72
    22
 73
    18
 74
     0
 42
0.00000001
 43
0.00000001
 12
1.0
 22
0.0
 32
0.0
 13
1.0
 23
0.0
 33
0.0
 40
0.0
 40
0.0
 40
0.0
 40
0.0
 40
0.2500000000000078
 40
0.2500000000000078
 40
0.375000000000006
 40
0.375000000000006
 40
0.5000000000000042
 40
0.5000000000000042
 40
0.6250000000000024
 40
0.6250000000000024
 40
0.7500000000000007
 40
0.7500000000000007
 40
0.8124999999999998
 40
0.8124999999999998
 40
0.8749999999999989
 40
0.8749999999999989
 40
1.0
 40
1.0
 40
1.0
 40
1.0
 10
394.9587472231055
 20
282.4761045314536
 30
0.0
 10
394.9606875017233
 20
282.7330733799448
 30
0.0
 10
394.9619733985896
 20
282.9884702665076
 30
0.0
 10
394.9567548066692
 20
283.3472109571663
 30
0.0
 10
394.9537953138965
 20
283.4630084085736
 30
0.0
 10
394.9434223088385
 20
283.6849740613473
 30
0.0
 10
394.9361054846345
 20
283.7888518994941
 30
0.0
 10
394.914715544374
 20
283.9784056699013
 30
0.0
 10
394.9006258754943
 20
284.0645192238363
 30
0.0
 10
394.8616605006127
 20
284.2119783597346
 30
0.0
 10
394.8375163315733
 20
284.270374206992
 30
0.0
 10
394.7919191080716
 20
284.3321454623738
 30
0.0
 10
394.7750835207479
 20
284.3483386596333
 30
0.0
 10
394.7390997133021
 20
284.370902374183
 30
0.0
 10
394.7198340210471
 20
284.3774764878234
 30
0.0
 10
394.6581073570335
 20
284.383750881075
 30
0.0
 10
394.6114298470839
 20
284.3695998309004
 30
0.0
 10
394.5614226951815
 20
284.3404412588246
 30
0.0
  0
LINE
  5
266
330
1F
100
AcDbEntity
  8
0
  6
Continuous
 62
     7
370
    15
100
AcDbLine
 10
447.1957376422
 20
263.7261054255
 30
0.0
 11
448.6835962357
 21
263.7261054255
 31
0.0
  0
LINE
  5
267
330
1F
100
AcDbEntity
  8
0
  6
Continuous
 62
     7
370
    15
100
AcDbLine
 10
383.7255081357
 20
263.7261054255
 30
0.0
 11
382.2376495423
 21
263.7261054255
 31
0.0
  0
LINE
  5
268
330
1F
100
AcDbEntity
  8
0
  6
Continuous
 62
     7
370
    15
100
AcDbLine
 10
447.7144656898
 20
267.4761055745
 30
0.0
 11
447.9253655495
 21
267.4761055745
 31
0.0
  0
LINE
  5
269
330
1F
100
AcDbEntity
  8
0
  6
Continuous
 62
     7
370
    15
100
AcDbLine
 10
447.9253655495
 20
267.4761055745
 30
0.0
 11
449.2106242301
 21
267.4761055745
 31
0.0
  0
LINE
  5
26A
330
1F
100
AcDbEntity
  8
0
  6
Continuous
 62
     7
370
    15
100
AcDbLine
 10
447.9253655495
 20
267.4761055745
 30
0.0
 11
447.9253655495
 21
282.4761024453
 31
0.0
  0
LINE
  5
26B
330
1F
100
AcDbEntity
  8
0
  6
Continuous
 62
     7
370
    15
100
AcDbLine
 10
447.9253655495
 20
282.4761024453
 30
0.0
 11
447.7144656898
 21
282.4761024453
 31
0.0
  0
LINE
  5
26C
330
1F
100
AcDbEntity
  8
0
  6
Continuous
 62
     7
370
    15
100
AcDbLine
 10
383.2067800881
 20
267.4761055745
 30
0.0
 11
382.9958802285
 21
267.4761055745
 31
0.0
  0
LINE
  5
26D
330
1F
100
AcDbEntity
  8
0
  6
Continuous
 62
     7
370
    15
100
AcDbLine
 10
382.9958802285
 20
267.4761055745
 30
0.0
 11
382.9958802285
 21
282.4761024453
 31
0.0
  0
LINE
  5
26E
330
1F
100
AcDbEntity
  8
0
  6
Continuous
 62
     7
370
    15
100
AcDbLine
 10
382.9958802285
 20
282.4761024453
 30
0.0
 11
383.2067800881
 21
282.4761024453
 31
0.0
  0
LINE
  5
26F
330
1F
100
AcDbEntity
  8
0
  6
Continuous
 62
     7
370
    15
100
AcDbLine
 10
382.9958802285
 20
267.4761055745
 30
0.0
 11
381.7106215479
 21
267.4761055745
 31
0.0
  0
SPLINE
  5
270
330
1F
100
AcDbEntity
  8
0
  6
Continuous
 62
     7
370
    15
100
AcDbSpline
210
0.0
220
0.0
230
1.0
 70
     8
 71
     3
 72
    20
 73
    16
 74
     0
 42
0.00000001
 43
0.00000001
 12
1.0
 22
0.0
 32
0.0
 13
1.0
 23
0.0
 33
0.0
 40
0.0
 40
0.0
 40
0.0
 40
0.0
 40
0.1250000000000015
 40
0.1250000000000015
 40
0.2500000000000031
 40
0.2500000000000031
 40
0.4999999999999989
 40
0.4999999999999989
 40
0.6249999999999992
 40
0.6249999999999992
 40
0.7499999999999994
 40
0.7499999999999994
 40
0.8749999999999998
 40
0.8749999999999998
 40
1.0
 40
1.0
 40
1.0
 40
1.0
 10
438.4339577236425
 20
282.4761045314534
 30
0.0
 10
438.3349615599957
 20
282.5847630073034
 30
0.0
 10
438.2354451432444
 20
282.6915524123002
 30
0.0
 10
438.0385598529907
 20
282.8980175704761
 30
0.0
 10
437.9410858644982
 20
282.9978267595702
 30
0.0
 10
437.6522373390014
 20
283.2865514665173
 30
0.0
 10
437.4643715938051
 20
283.4648643365035
 30
0.0
 10
437.1931540743249
 20
283.7079963870243
 30
0.0
 10
437.1041123508691
 20
283.7852928016183
 30
0.0
 10
436.9337059036939
 20
283.9281410304957
 30
0.0
 10
436.8520673277424
 20
283.9939644661995
 30
0.0
 10
436.6966417200624
 20
284.1139774961134
 30
0.0
 10
436.6228516659021
 20
284.168171127289
 30
0.0
 10
436.484063584996
 20
284.2641449588501
 30
0.0
 10
436.4187363370377
 20
284.3060896450057
 30
0.0
 10
436.3598230827839
 20
284.3404412588254
 30
0.0
  0
SPLINE
  5
271
330
1F
100
AcDbEntity
  8
0
  6
Continuous
 62
     7
370
    15
100
AcDbSpline
210
0.0
220
0.0
230
1.0
 70
     8
 71
     3
 72
    20
 73
    16
 74
     0
 42
0.00000001
 43
0.00000001
 12
1.0
 22
0.0
 32
0.0
 13
1.0
 23
0.0
 33
0.0
 40
0.0
 40
0.0
 40
0.0
 40
0.0
 40
0.1250000000000015
 40
0.1250000000000015
 40
0.2500000000000031
 40
0.2500000000000031
 40
0.4999999999999989
 40
0.4999999999999989
 40
0.6249999999999992
 40
0.6249999999999992
 40
0.7499999999999994
 40
0.7499999999999994
 40
0.8749999999999998
 40
0.8749999999999998
 40
1.0
 40
1.0
 40
1.0
 40
1.0
 10
392.4872880543246
 20
282.4761045314534
 30
0.0
 10
392.5862842179712
 20
282.5847630073034
 30
0.0
 10
392.6858006347226
 20
282.6915524123002
 30
0.0
 10
392.8826859249763
 20
282.8980175704761
 30
0.0
 10
392.9801599134688
 20
282.9978267595702
 30
0.0
 10
393.2690084389656
 20
283.2865514665173
 30
0.0
 10
393.4568741841619
 20
283.4648643365035
 30
0.0
 10
393.7280917036421
 20
283.7079963870243
 30
0.0
 10
393.8171334270979
 20
283.7852928016183
 30
0.0
 10
393.9875398742731
 20
283.9281410304957
 30
0.0
 10
394.0691784502247
 20
283.9939644661995
 30
0.0
 10
394.2246040579046
 20
284.1139774961134
 30
0.0
 10
394.2983941120649
 20
284.168171127289
 30
0.0
 10
394.437182192971
 20
284.2641449588501
 30
0.0
 10
394.5025094409294
 20
284.3060896450057
 30
0.0
 10
394.5614226951831
 20
284.3404412588254
 30
0.0
  0
LINE
  5
272
330
1F
100
AcDbEntity
  8
0
  6
Continuous
 62
     7
370
    15
100
AcDbLine
 10
447.9253655495
 20
271.9761035182
 30
0.0
 11
449.1713522198
 21
271.9761035182
 31
0.0
  0
LINE
  5
273
330
1F
100
AcDbEntity
  8
0
  6
Continuous
 62
     7
370
    15
100
AcDbLine
 10
382.9958802285
 20
271.9761035182
 30
0.0
 11
381.7498935582
 21
271.9761035182
 31
0.0
  0
SPLINE
  5
274
330
1F
100
AcDbEntity
  8
0
  6
Continuous
 62
     7
370
    15
100
AcDbSpline
210
0.0
220
0.0
230
1.0
 70
     8
 71
     3
 72
    22
 73
    18
 74
     0
 42
0.00000001
 43
0.00000001
 12
1.0
 22
0.0
 32
0.0
 13
1.0
 23
0.0
 33
0.0
 40
0.0
 40
0.0
 40
0.0
 40
0.0
 40
0.125
 40
0.125
 40
0.25
 40
0.25
 40
0.375
 40
0.375
 40
0.5
 40
0.5
 40
0.625
 40
0.625
 40
0.75
 40
0.75
 40
0.875
 40
0.875
 40
1.0
 40
1.0
 40
1.0
 40
1.0
 10
399.8913661752138
 20
298.4761045314536
 30
0.0
 10
400.0658304618005
 20
298.4761045314536
 30
0.0
 10
400.2427637458417
 20
298.4914055624683
 30
0.0
 10
400.588165717266
 20
298.5518727930227
 30
0.0
 10
400.7565981431658
 20
298.5966408689279
 30
0.0
 10
401.0850369462929
 20
298.7148677450245
 30
0.0
 10
401.2465027722787
 20
298.7892915542468
 30
0.0
 10
401.5506764687469
 20
298.9630655145949
 30
0.0
 10
401.693923551583
 20
299.0622456898575
 30
0.0
 10
401.9628460591417
 20
299.285042415275
 30
0.0
 10
402.0893267154155
 20
299.4097905837103
 30
0.0
 10
402.3169517939585
 20
299.677793192167
 30
0.0
 10
402.4193461132247
 20
299.8223147693542
 30
0.0
 10
402.5966150036021
 20
300.1260726733519
 30
0.0
 10
402.6709295614941
 20
300.2838941856241
 30
0.0
 10
402.7915049049859
 20
300.6111791476564
 30
0.0
 10
402.8380109161156
 20
300.7823655815225
 30
0.0
 10
402.8687720759322
 20
300.9551599984528
 30
0.0
  0
SPLINE
  5
275
330
1F
100
AcDbEntity
  8
0
  6
Continuous
 62
     7
370
    15
100
AcDbSpline
210
0.0
220
0.0
230
1.0
 70
     8
 71
     3
 72
    22
 73
    18
 74
     0
 42
0.00000001
 43
0.00000001
 12
1.0
 22
0.0
 32
0.0
 13
1.0
 23
0.0
 33
0.0
 40
0.0
 40
0.0
 40
0.0
 40
0.0
 40
0.125
 40
0.125
 40
0.25
 40
0.25
 40
0.375
 40
0.375
 40
0.5
 40
0.5
 40
0.625
 40
0.625
 40
0.75
 40
0.75
 40
0.875
 40
0.875
 40
1.0
 40
1.0
 40
1.0
 40
1.0
 10
421.7297067892457
 20
298.4761045314536
 30
0.0
 10
421.6424991740855
 20
298.4761045314536
 30
0.0
 10
421.5546499700657
 20
298.4912011941202
 30
0.0
 10
421.3810060945534
 20
298.551957793318
 30
0.0
 10
421.2966049859598
 20
298.5969349437151
 30
0.0
 10
421.1324963157548
 20
298.7151937581702
 30
0.0
 10
421.0522038948805
 20
298.7891684802455
 30
0.0
 10
420.8993571164106
 20
298.9639076207058
 30
0.0
 10
420.8276314512787
 20
299.0634290674063
 30
0.0
 10
420.6933524427024
 20
299.2861985393902
 30
0.0
 10
420.6302985649144
 20
299.4106836580903
 30
0.0
 10
420.5165166169235
 20
299.6788443862808
 30
0.0
 10
420.4661051583595
 20
299.8212873815939
 30
0.0
 10
420.3780088325202
 20
300.1225986420929
 30
0.0
 10
420.3400704376572
 20
300.2830109154735
 30
0.0
 10
420.2793007650164
 20
300.6131013258772
 30
0.0
 10
420.2564049482119
 20
300.7821349420609
 30
0.0
 10
420.2410038388865
 20
300.9551599984528
 30
0.0
  0
SPLINE
  5
276
330
1F
100
AcDbEntity
  8
0
  6
Continuous
 62
     7
370
    15
100
AcDbSpline
210
0.0
220
0.0
230
1.0
 70
     8
 71
     3
 72
    20
 73
    16
 74
     0
 42
0.00000001
 43
0.00000001
 12
1.0
 22
0.0
 32
0.0
 13
1.0
 23
0.0
 33
0.0
 40
0.0
 40
0.0
 40
0.0
 40
0.0
 40
0.1249999999999969
 40
0.1249999999999969
 40
0.2499999999999938
 40
0.2499999999999938
 40
0.3749999999999908
 40
0.3749999999999908
 40
0.4999999999999877
 40
0.4999999999999877
 40
0.7499999999999937
 40
0.7499999999999937
 40
0.8749999999999969
 40
0.8749999999999969
 40
1.0
 40
1.0
 40
1.0
 40
1.0
 10
418.6527283299581
 20
319.7261045314536
 30
0.0
 10
418.7004381655246
 20
319.7261045314536
 30
0.0
 10
418.7488543822005
 20
319.7171038695847
 30
0.0
 10
418.8426137158459
 20
319.6818669168047
 30
0.0
 10
418.8883547626335
 20
319.6557634597977
 30
0.0
 10
418.9775233632464
 20
319.5863164285028
 30
0.0
 10
419.0208846240666
 20
319.5427546684032
 30
0.0
 10
419.1015784754107
 20
319.441697996896
 30
0.0
 10
419.1394125921153
 20
319.3838749959862
 30
0.0
 10
419.245094277697
 20
319.1877026641136
 30
0.0
 10
419.3020830834656
 20
319.0323329008519
 30
0.0
 10
419.3636022205719
 20
318.7708685157048
 30
0.0
 10
419.3796122106201
 20
318.6810918069502
 30
0.0
 10
419.4029105666378
 20
318.4964526760454
 30
0.0
 10
419.4102020649059
 20
318.4008494984706
 30
0.0
 10
419.412756043003
 20
318.304608465818
 30
0.0
  0
LINE
  5
277
330
1F
100
AcDbEntity
  8
0
  6
Continuous
 62
     7
370
    15
100
AcDbLine
 10
418.2316854326
 20
323.4761035778
 30
0.0
 11
418.2316854326
 21
319.7261071541
 31
0.0
  0
LINE
  5
278
330
1F
100
AcDbEntity
  8
0
  6
Continuous
 62
     7
370
    15
100
AcDbLine
 10
418.2316854326
 20
323.4761035778
 30
0.0
 11
419.5700786272
 21
323.4761035778
 31
0.0
  0
LINE
  5
279
330
1F
100
AcDbEntity
  8
0
  6
Continuous
 62
     7
370
    15
100
AcDbLine
 10
419.5700786272
 20
323.4761035778
 30
0.0
 11
421.7741657244
 21
298.4761050679
 31
0.0
  0
SPLINE
  5
27A
330
1F
100
AcDbEntity
  8
0
  6
Continuous
 62
     7
370
    15
100
AcDbSpline
210
0.0
220
0.0
230
1.0
 70
     8
 71
     3
 72
     8
 73
     4
 74
     0
 42
0.00000001
 43
0.00000001
 12
1.0
 22
0.0
 32
0.0
 13
1.0
 23
0.0
 33
0.0
 40
0.0000002031556783
 40
0.0000002031556783
 40
0.0000002031556783
 40
0.0000002031556783
 40
0.0119533998754937
 40
0.0119533998754937
 40
0.0119533998754937
 40
0.0119533998754937
 10
419.7168197578562
 20
306.839091690139
 30
0.0
 10
419.8917064552001
 20
304.877837694832
 30
0.0
 10
420.0664212837457
 20
302.9165223789173
 30
0.0
 10
420.2410038388865
 20
300.9551599984528
 30
0.0
  0
LINE
  5
27B
330
1F
100
AcDbEntity
  8
0
  6
Continuous
 62
     7
370
    15
100
AcDbLine
 10
419.4127558926
 20
318.304610882
 30
0.0
 11
419.7168196747
 21
306.8390912153
 31
0.0
  0
LINE
  5
27C
330
1F
100
AcDbEntity
  8
0
  6
Continuous
 62
     7
370
    15
100
AcDbLine
 10
422.6011671321
 20
323.4761035778
 30
0.0
 11
419.5700786272
 21
323.4761035778
 31
0.0
  0
LINE
  5
27D
330
1F
100
AcDbEntity
  8
0
  6
Continuous
 62
     7
370
    15
100
AcDbLine
 10
422.6011671321
 20
323.4761035778
 30
0.0
 11
424.805254695
 21
298.4761050679
 31
0.0
  0
SPLINE
  5
27E
330
1F
100
AcDbEntity
  8
0
  6
Continuous
 62
     7
370
    15
100
AcDbSpline
210
0.0
220
0.0
230
1.0
 70
     8
 71
     3
 72
     8
 73
     4
 74
     0
 42
0.00000001
 43
0.00000001
 12
1.0
 22
0.0
 32
0.0
 13
1.0
 23
0.0
 33
0.0
 40
0.0
 40
0.0
 40
0.0
 40
0.0
 40
1.0
 40
1.0
 40
1.0
 40
1.0
 10
403.9171402379927
 20
306.839091690139
 30
0.0
 10
403.5673668395493
 20
304.8778376737728
 30
0.0
 10
403.2179371755776
 20
302.9165223191714
 30
0.0
 10
402.8687720759322
 20
300.9551599984528
 30
0.0
  0
LINE
  5
27F
330
1F
100
AcDbEntity
  8
0
  6
Continuous
 62
     7
370
    15
100
AcDbLine
 10
403.9171403469
 20
306.8390912153
 30
0.0
 11
419.7168196747
 21
306.8390912153
 31
0.0
  0
LINE
  5
280
330
1F
100
AcDbEntity
  8
0
  6
Continuous
 62
     7
370
    15
100
AcDbLine
 10
402.9606227027
 20
375.9760982134
 30
0.0
 11
427.9606230752
 21
375.9760982134
 31
0.0
  0
LINE
  5
281
330
1F
100
AcDbEntity
  8
0
  6
Continuous
 62
     7
370
    15
100
AcDbLine
 10
402.9606227027
 20
363.4761101343
 30
0.0
 11
427.9606230752
 21
363.4761101343
 31
0.0
  0
LWPOLYLINE
  5
282
330
1F
100
AcDbEntity
  8
0
  6
Continuous
 62
     7
370
    15
100
AcDbPolyline
 90
        3
 70
   128
 43
0.0
 10
404.5252679111
 20
318.304610882
 10
404.0765436562
 20
309.845847521
 10
403.9171403469
 20
306.8390912153
  0
SPLINE
  5
283
330
1F
100
AcDbEntity
  8
0
  6
Continuous
 62
     7
370
    15
100
AcDbSpline
210
0.0
220
0.0
230
1.0
 70
     8
 71
     3
 72
    20
 73
    16
 74
     0
 42
0.00000001
 43
0.00000001
 12
1.0
 22
0.0
 32
0.0
 13
1.0
 23
0.0
 33
0.0
 40
0.0
 40
0.0
 40
0.0
 40
0.0
 40
0.250000000000005
 40
0.250000000000005
 40
0.3750000000000042
 40
0.3750000000000042
 40
0.5000000000000033
 40
0.5000000000000033
 40
0.6250000000000024
 40
0.6250000000000024
 40
0.7500000000000017
 40
0.7500000000000017
 40
0.8750000000000008
 40
0.8750000000000008
 40
1.0
 40
1.0
 40
1.0
 40
1.0
 10
406.045323093789
 20
319.7261045314536
 30
0.0
 10
405.8548357727744
 20
319.7261045314536
 30
0.0
 10
405.6620718843857
 20
319.6900652035703
 30
0.0
 10
405.3959734834702
 20
319.5863937075359
 30
0.0
 10
405.3098747920204
 20
319.5432965606667
 30
0.0
 10
405.1467426243972
 20
319.4411461533944
 30
0.0
 10
405.0711146652591
 20
319.3831195278869
 30
0.0
 10
404.9314750044113
 20
319.2534677907527
 30
0.0
 10
404.8668688593759
 20
319.1809400519654
 30
0.0
 10
404.7538191494012
 20
319.0262862145253
 30
0.0
 10
404.7052292473515
 20
318.9443989358703
 30
0.0
 10
404.6238876855296
 20
318.7715218563281
 30
0.0
 10
404.591127175019
 20
318.679805566811
 30
0.0
 10
404.544617947721
 20
318.4946856072781
 30
0.0
 10
404.5303562358029
 20
318.4004841997538
 30
0.0
 10
404.525267667699
 20
318.304608465818
 30
0.0
  0
LINE
  5
284
330
1F
100
AcDbEntity
  8
0
  6
Continuous
 62
     7
370
    15
100
AcDbLine
 10
406.0453232573
 20
319.7261071541
 30
0.0
 11
418.6527282195
 21
319.7261071541
 31
0.0
  0
LINE
  5
285
330
1F
100
AcDbEntity
  8
0
  6
Continuous
 62
     7
370
    15
100
AcDbLine
 10
424.0679443078
 20
306.8390912153
 30
0.0
 11
427.1360030593
 21
306.8390912153
 31
0.0
  0
LINE
  5
286
330
1F
100
AcDbEntity
  8
0
  6
Continuous
 62
     7
370
    15
100
AcDbLine
 10
401.2106228815
 20
347.4761075117
 30
0.0
 11
401.2106228815
 21
343.4760994055
 31
0.0
  0
LINE
  5
287
330
1F
100
AcDbEntity
  8
0
  6
Continuous
 62
     7
370
    15
100
AcDbLine
 10
424.2106229262
 20
347.4761075117
 30
0.0
 11
424.2106229262
 21
343.4760994055
 31
0.0
  0
LINE
  5
288
330
1F
100
AcDbEntity
  8
0
  6
Continuous
 62
     7
370
    15
100
AcDbLine
 10
401.2106228815
 20
347.4761075117
 30
0.0
 11
424.2106229262
 21
347.4761075117
 31
0.0
  0
LINE
  5
289
330
1F
100
AcDbEntity
  8
0
  6
Continuous
 62
     7
370
    15
100
AcDbLine
 10
401.2106228815
 20
343.4760994055
 30
0.0
 11
424.2106229262
 21
343.4760994055
 31
0.0
  0
LINE
  5
28A
330
1F
100
AcDbEntity
  8
0
  6
Continuous
 62
     7
370
    15
100
AcDbLine
 10
406.8874083655
 20
323.4761035778
 30
0.0
 11
406.8874083655
 21
319.7261071541
 31
0.0
  0
LINE
  5
28B
330
1F
100
AcDbEntity
  8
0
  6
Continuous
 62
     7
370
    15
100
AcDbLine
 10
407.0543730827
 20
323.4761035778
 30
0.0
 11
418.2316854326
 21
323.4761035778
 31
0.0
  0
LINE
  5
28C
330
1F
100
AcDbEntity
  8
0
  6
Continuous
 62
     7
370
    15
100
AcDbLine
 10
422.9317805925
 20
319.7261071541
 30
0.0
 11
425.0371763678
 21
319.7261071541
 31
0.0
  0
LINE
  5
28D
330
1F
100
AcDbEntity
  8
0
  6
Continuous
 62
     7
370
    15
100
AcDbLine
 10
422.6011671321
 20
323.4761035778
 30
0.0
 11
424.2106229262
 21
323.4761035778
 31
0.0
  0
LWPOLYLINE
  5
28E
330
1F
100
AcDbEntity
  8
0
  6
Continuous
 62
     7
370
    15
100
AcDbPolyline
 90
        3
 70
   128
 43
0.0
 10
410.4683869714
 20
356.4761108495
 10
410.4614858711
 20
356.4691967108
 10
410.4606230007
 20
356.4683473446
  0
LWPOLYLINE
  5
28F
330
1F
100
AcDbEntity
  8
0
  6
Continuous
 62
     7
370
    15
100
AcDbPolyline
 90
        8
 70
   128
 43
0.0
 10
410.7740135128
 20
363.4761101343
 10
410.7036250839
 20
361.8639535047
 10
410.641984568
 20
360.4521429874
 10
410.589204655
 20
359.2432862856
 10
410.5453826683
 20
358.2396036722
 10
410.5105991671
 20
357.4429279901
 10
410.4849179471
 20
356.8547344543
 10
410.4683869714
 20
356.4761108495
  0
ELLIPSE
  5
290
330
1F
100
AcDbEntity
  8
0
  6
Continuous
 62
     7
370
    15
100
AcDbEllipse
 10
415.460622889
 20
470.8171081123
 30
0.0
 11
0.0
 21
114.5188277421557
 31
0.0
210
0.0
220
0.0
230
1.0
 40
0.0436609429
 41
2.7856599602687
 42
3.085857635169788
  0
ARC
  5
291
330
1F
100
AcDbEntity
  8
0
  6
Continuous
 62
     7
370
    15
100
AcDbCircle
 10
415.460622889
 20
361.4683405609
 30
0.0
 40
5.000000000000023
100
AcDbArc
 50
266.8066186735
 51
273.1933813266
  0
ELLIPSE
  5
292
330
1F
100
AcDbEntity
  8
0
  6
Continuous
 62
     7
370
    15
100
AcDbEllipse
 10
415.460622889
 20
470.8171081123
 30
0.0
 11
0.0
 21
114.5188277421557
 31
0.0
210
0.0
220
0.0
230
1.0
 40
0.0436609429
 41
3.197327672010127
 42
3.497525346911167
  0
LWPOLYLINE
  5
293
330
1F
100
AcDbEntity
  8
0
  6
Continuous
 62
     7
370
    15
100
AcDbPolyline
 90
        8
 70
   128
 43
0.0
 10
420.4528588066
 20
356.4761108495
 10
420.4363278309
 20
356.8547344543
 10
420.4106466109
 20
357.4429279901
 10
420.3758631097
 20
358.2396036722
 10
420.3320411229
 20
359.2432862856
 10
420.27926121
 20
360.4521429874
 10
420.2176206941
 20
361.8639535047
 10
420.1472322652
 20
363.4761101343
  0
LWPOLYLINE
  5
294
330
1F
100
AcDbEntity
  8
0
  6
Continuous
 62
     7
370
    15
100
AcDbPolyline
 90
        3
 70
   128
 43
0.0
 10
420.4606227772
 20
356.4683473446
 10
420.4597599069
 20
356.4691967108
 10
420.4528588066
 20
356.4761108495
  0
LINE
  5
295
330
1F
100
AcDbEntity
  8
0
  6
Continuous
 62
     7
370
    15
100
AcDbLine
 10
415.7391537351
 20
356.4761108495
 30
0.0
 11
415.1820920429
 21
356.4761108495
 31
0.0
  0
LINE
  5
296
330
1F
100
AcDbEntity
  8
0
  6
Continuous
 62
     7
370
    15
100
AcDbLine
 10
407.7106230156
 20
323.7261078097
 30
0.0
 11
408.9606227549
 21
323.7261078097
 31
0.0
  0
LINE
  5
297
330
1F
100
AcDbEntity
  8
0
  6
Continuous
 62
     7
370
    15
100
AcDbLine
 10
406.4606232764
 20
323.7261078097
 30
0.0
 11
407.7106230156
 21
323.7261078097
 31
0.0
  0
LINE
  5
298
330
1F
100
AcDbEntity
  8
0
  6
Continuous
 62
     7
370
    15
100
AcDbLine
 10
406.4606232764
 20
323.7261078097
 30
0.0
 11
406.4606232764
 21
325.8528164365
 31
0.0
  0
SPLINE
  5
299
330
1F
100
AcDbEntity
  8
0
  6
Continuous
 62
     7
370
    15
100
AcDbSpline
210
0.0
220
0.0
230
1.0
 70
     8
 71
     3
 72
    12
 73
     8
 74
     0
 42
0.00000001
 43
0.00000001
 12
1.0
 22
0.0
 32
0.0
 13
1.0
 23
0.0
 33
0.0
 40
0.0
 40
0.0
 40
0.0
 40
0.0
 40
0.2499999999999989
 40
0.2499999999999989
 40
0.4999999999999978
 40
0.4999999999999978
 40
1.0
 40
1.0
 40
1.0
 40
1.0
 10
407.7106228889835
 20
326.0761045314536
 30
0.0
 10
407.6045392170521
 20
326.0761045314536
 30
0.0
 10
407.4979800173447
 20
326.0708267511919
 30
0.0
 10
407.2871836388831
 20
326.0504023879117
 30
0.0
 10
407.1824904799599
 20
326.0352754328917
 30
0.0
 10
406.8702704464298
 20
325.9769323702675
 30
0.0
 10
406.6645957799124
 20
325.9208045014042
 30
0.0
 10
406.4606228889835
 20
325.8528135377612
 30
0.0
  0
SPLINE
  5
29A
330
1F
100
AcDbEntity
  8
0
  6
Continuous
 62
     7
370
    15
100
AcDbSpline
210
0.0
220
0.0
230
1.0
 70
     8
 71
     3
 72
     8
 73
     4
 74
     0
 42
0.00000001
 43
0.00000001
 12
1.0
 22
0.0
 32
0.0
 13
1.0
 23
0.0
 33
0.0
 40
0.0
 40
0.0
 40
0.0
 40
0.0
 40
1.0
 40
1.0
 40
1.0
 40
1.0
 10
408.9606228889836
 20
325.8528135377613
 30
0.0
 10
408.5516563049569
 20
325.9891357324369
 30
0.0
 10
408.136549572549
 20
326.0761045314536
 30
0.0
 10
407.7106228889835
 20
326.0761045314536
 30
0.0
  0
LINE
  5
29B
330
1F
100
AcDbEntity
  8
0
  6
Continuous
 62
     7
370
    15
100
AcDbLine
 10
408.9606227549
 20
323.7261078097
 30
0.0
 11
408.9606227549
 21
325.8528164365
 31
0.0
  0
SPLINE
  5
29C
330
1F
100
AcDbEntity
  8
0
  6
Continuous
 62
     7
370
    15
100
AcDbSpline
210
0.0
220
0.0
230
1.0
 70
     8
 71
     3
 72
     8
 73
     4
 74
     0
 42
0.00000001
 43
0.00000001
 12
1.0
 22
0.0
 32
0.0
 13
1.0
 23
0.0
 33
0.0
 40
0.0
 40
0.0
 40
0.0
 40
0.0
 40
1.0
 40
1.0
 40
1.0
 40
1.0
 10
406.4606228889836
 20
325.8528135377613
 30
0.0
 10
406.0516563049569
 20
325.9891357324369
 30
0.0
 10
405.636549572549
 20
326.0761045314536
 30
0.0
 10
405.2106228889835
 20
326.0761045314536
 30
0.0
  0
LINE
  5
29D
330
1F
100
AcDbEntity
  8
0
  6
Continuous
 62
     7
370
    15
100
AcDbLine
 10
407.7106230156
 20
326.0761028864
 30
0.0
 11
405.2106226059
 21
326.0761028864
 31
0.0
  0
LINE
  5
29E
330
1F
100
AcDbEntity
  8
0
  6
Continuous
 62
     7
370
    15
100
AcDbLine
 10
403.9606228666
 20
323.7261078097
 30
0.0
 11
405.2106226059
 21
323.7261078097
 31
0.0
  0
LINE
  5
29F
330
1F
100
AcDbEntity
  8
0
  6
Continuous
 62
     7
370
    15
100
AcDbLine
 10
403.9606228666
 20
323.7261078097
 30
0.0
 11
403.9606228666
 21
325.8528164365
 31
0.0
  0
SPLINE
  5
2A0
330
1F
100
AcDbEntity
  8
0
  6
Continuous
 62
     7
370
    15
100
AcDbSpline
210
0.0
220
0.0
230
1.0
 70
     8
 71
     3
 72
    12
 73
     8
 74
     0
 42
0.00000001
 43
0.00000001
 12
1.0
 22
0.0
 32
0.0
 13
1.0
 23
0.0
 33
0.0
 40
0.0
 40
0.0
 40
0.0
 40
0.0
 40
0.2499999999999996
 40
0.2499999999999996
 40
0.4999999999999993
 40
0.4999999999999993
 40
1.0
 40
1.0
 40
1.0
 40
1.0
 10
405.2106228889835
 20
326.0761045314536
 30
0.0
 10
405.1045392170521
 20
326.0761045314536
 30
0.0
 10
404.9979800173447
 20
326.0708267511919
 30
0.0
 10
404.7871836388831
 20
326.0504023879117
 30
0.0
 10
404.6824904799599
 20
326.0352754328918
 30
0.0
 10
404.3702704464298
 20
325.9769323702676
 30
0.0
 10
404.1645957799124
 20
325.9208045014042
 30
0.0
 10
403.9606228889835
 20
325.8528135377612
 30
0.0
  0
LINE
  5
2A1
330
1F
100
AcDbEntity
  8
0
  6
Continuous
 62
     7
370
    15
100
AcDbLine
 10
405.2106226059
 20
323.7261078097
 30
0.0
 11
406.4606232764
 21
323.7261078097
 31
0.0
  0
LINE
  5
2A2
330
1F
100
AcDbEntity
  8
0
  6
Continuous
 62
     7
370
    15
100
AcDbLine
 10
407.0543730827
 20
323.4761035778
 30
0.0
 11
404.6752657937
 21
323.4761035778
 31
0.0
  0
LINE
  5
2A3
330
1F
100
AcDbEntity
  8
0
  6
Continuous
 62
     7
370
    15
100
AcDbLine
 10
404.2106224419
 20
323.4761035778
 30
0.0
 11
403.9606228666
 21
323.4761035778
 31
0.0
  0
SPLINE
  5
2A4
330
1F
100
AcDbEntity
  8
0
  6
Continuous
 62
     7
370
    15
100
AcDbSpline
210
0.0
220
0.0
230
1.0
 70
    24
 71
     3
 72
    10
 73
     6
 74
     0
 42
0.00000001
 43
0.00000001
 12
1.0
 22
0.0
 32
0.0
 13
1.0
 23
0.0
 33
0.0
 40
0.0
 40
0.0
 40
0.0
 40
0.0
 40
0.5
 40
0.5
 40
1.0
 40
1.0
 40
1.0
 40
1.0
 10
408.9606228889835
 20
326.0761045314536
 30
0.0
 10
408.9606228889835
 20
326.0761045314536
 30
0.0
 10
408.9606228889835
 20
326.0545593579363
 30
0.0
 10
408.9606228889835
 20
325.9762941778937
 30
0.0
 10
408.9606228889835
 20
325.9201862148184
 30
0.0
 10
408.9606228889835
 20
325.852813537761
 30
0.0
  0
LINE
  5
2A5
330
1F
100
AcDbEntity
  8
0
  6
Continuous
 62
     7
370
    15
100
AcDbLine
 10
408.9606227549
 20
326.0761028864
 30
0.0
 11
407.7106230156
 21
326.0761028864
 31
0.0
  0
SPLINE
  5
2A6
330
1F
100
AcDbEntity
  8
0
  6
Continuous
 62
     7
370
    15
100
AcDbSpline
210
0.0
220
0.0
230
1.0
 70
    24
 71
     3
 72
    10
 73
     6
 74
     0
 42
0.00000001
 43
0.00000001
 12
1.0
 22
0.0
 32
0.0
 13
1.0
 23
0.0
 33
0.0
 40
0.0
 40
0.0
 40
0.0
 40
0.0
 40
0.5
 40
0.5
 40
1.0
 40
1.0
 40
1.0
 40
1.0
 10
403.9606228889835
 20
326.0761045314536
 30
0.0
 10
403.9606228889835
 20
326.0761045314536
 30
0.0
 10
403.9606228889835
 20
326.0545593579363
 30
0.0
 10
403.9606228889835
 20
325.9762941778937
 30
0.0
 10
403.9606228889835
 20
325.9201862148184
 30
0.0
 10
403.9606228889835
 20
325.852813537761
 30
0.0
  0
LINE
  5
2A7
330
1F
100
AcDbEntity
  8
0
  6
Continuous
 62
     7
370
    15
100
AcDbLine
 10
403.9606228666
 20
326.0761028864
 30
0.0
 11
405.2106226059
 21
326.0761028864
 31
0.0
  0
LINE
  5
2A8
330
1F
100
AcDbEntity
  8
0
  6
Continuous
 62
     7
370
    15
100
AcDbLine
 10
404.2106224419
 20
323.4761035778
 30
0.0
 11
399.8024491789
 21
298.4761050679
 31
0.0
  0
LINE
  5
2A9
330
1F
100
AcDbEntity
  8
0
  6
Continuous
 62
     7
370
    15
100
AcDbLine
 10
404.6752657937
 20
323.4761035778
 30
0.0
 11
404.2106224419
 21
323.4761035778
 31
0.0
  0
LINE
  5
2AA
330
1F
100
AcDbEntity
  8
0
  6
Continuous
 62
     7
370
    15
100
AcDbLine
 10
407.9166399511
 20
339.226109419
 30
0.0
 11
407.9606230566
 21
339.226109419
 31
0.0
  0
LINE
  5
2AB
330
1F
100
AcDbEntity
  8
0
  6
Continuous
 62
     7
370
    15
100
AcDbLine
 10
404.9606230305
 20
339.226109419
 30
0.0
 11
407.9166399511
 21
339.226109419
 31
0.0
  0
LINE
  5
2AC
330
1F
100
AcDbEntity
  8
0
  6
Continuous
 62
     7
370
    15
100
AcDbLine
 10
407.9166399511
 20
338.2261073925
 30
0.0
 11
407.9606230566
 21
338.2261073925
 31
0.0
  0
LINE
  5
2AD
330
1F
100
AcDbEntity
  8
0
  6
Continuous
 62
     7
370
    15
100
AcDbLine
 10
404.9606230305
 20
338.2261073925
 30
0.0
 11
407.9166399511
 21
338.2261073925
 31
0.0
  0
LINE
  5
2AE
330
1F
100
AcDbEntity
  8
0
  6
Continuous
 62
     7
370
    15
100
AcDbLine
 10
407.9166399511
 20
355.7261056043
 30
0.0
 11
407.9606230566
 21
355.7261056043
 31
0.0
  0
LINE
  5
2AF
330
1F
100
AcDbEntity
  8
0
  6
Continuous
 62
     7
370
    15
100
AcDbLine
 10
404.9606230305
 20
355.7261056043
 30
0.0
 11
407.9166399511
 21
355.7261056043
 31
0.0
  0
LINE
  5
2B0
330
1F
100
AcDbEntity
  8
0
  6
Continuous
 62
     7
370
    15
100
AcDbLine
 10
407.9166399511
 20
356.7261076309
 30
0.0
 11
407.9606230566
 21
356.7261076309
 31
0.0
  0
LINE
  5
2B1
330
1F
100
AcDbEntity
  8
0
  6
Continuous
 62
     7
370
    15
100
AcDbLine
 10
404.9606230305
 20
356.7261076309
 30
0.0
 11
407.9166399511
 21
356.7261076309
 31
0.0
  0
LINE
  5
2B2
330
1F
100
AcDbEntity
  8
0
  6
Continuous
 62
     7
370
    15
100
AcDbLine
 10
407.9166399511
 20
362.3241758682
 30
0.0
 11
407.9606230566
 21
362.3241758682
 31
0.0
  0
LINE
  5
2B3
330
1F
100
AcDbEntity
  8
0
  6
Continuous
 62
     7
370
    15
100
AcDbLine
 10
404.9606230305
 20
362.3241758682
 30
0.0
 11
407.9166399511
 21
362.3241758682
 31
0.0
  0
LINE
  5
2B4
330
1F
100
AcDbEntity
  8
0
  6
Continuous
 62
     7
370
    15
100
AcDbLine
 10
410.4606230007
 20
375.9760982134
 30
0.0
 11
410.4606230007
 21
376.4761066772
 31
0.0
  0
LINE
  5
2B5
330
1F
100
AcDbEntity
  8
0
  6
Continuous
 62
     7
370
    15
100
AcDbLine
 10
420.4606227772
 20
375.9760982134
 30
0.0
 11
420.4606227772
 21
376.4761066772
 31
0.0
  0
LINE
  5
2B6
330
1F
100
AcDbEntity
  8
0
  6
Continuous
 62
     8
370
     0
100
AcDbLine
 10
359.6538854958
 20
381.5426206924
 30
0.0
 11
471.2673602821
 21
381.5426206924
 31
0.0
  0
CIRCLE
  5
2B7
330
1F
100
AcDbEntity
  8
0
  6
Continuous
 62
     8
370
     0
100
AcDbCircle
 10
415.460622889
 20
209.9761045315
 30
0.0
 40
25.33480762113533
  0
CIRCLE
  5
2B8
330
1F
100
AcDbEntity
  8
0
  6
Continuous
 62
     8
370
     0
100
AcDbCircle
 10
415.460622889
 20
209.9761045315
 30
0.0
 40
24.81519237886465
  0
CIRCLE
  5
2B9
330
1F
100
AcDbEntity
  8
0
  6
Continuous
 62
     8
370
     0
100
AcDbCircle
 10
415.460622889
 20
209.9761045315
 30
0.0
 40
20.93480762113535
  0
CIRCLE
  5
2BA
330
1F
100
AcDbEntity
  8
0
  6
Continuous
 62
     8
370
     0
100
AcDbCircle
 10
415.460622889
 20
209.9761045315
 30
0.0
 40
20.41519237886467
  0
LINE
  5
2BB
330
1F
100
AcDbEntity
  8
0
  6
Continuous
 62
     8
370
     0
100
AcDbLine
 10
442.6201125802
 20
263.7261054255
 30
0.0
 11
442.7351067038
 21
267.4761055745
 31
0.0
  0
LINE
  5
2BC
330
1F
100
AcDbEntity
  8
0
  6
Continuous
 62
     8
370
     0
100
AcDbLine
 10
388.3011331977
 20
263.7261054255
 30
0.0
 11
388.1861390741
 21
267.4761055745
 31
0.0
  0
LINE
  5
2BD
330
1F
100
AcDbEntity
  8
0
  6
Continuous
 62
     8
370
     0
100
AcDbLine
 10
388.3807016732
 20
263.6283947863
 30
0.0
 11
388.3011331977
 21
263.7261054255
 31
0.0
  0
LINE
  5
2BE
330
1F
100
AcDbEntity
  8
0
  6
Continuous
 62
     8
370
     0
100
AcDbLine
 10
442.5405441048
 20
263.6283947863
 30
0.0
 11
442.6201125802
 21
263.7261054255
 31
0.0
  0
LINE
  5
2BF
330
1F
100
AcDbEntity
  8
0
  6
Continuous
 62
     8
370
     0
100
AcDbLine
 10
442.7351067038
 20
282.4761024453
 30
0.0
 11
442.7351067038
 21
267.4761055745
 31
0.0
  0
LINE
  5
2C0
330
1F
100
AcDbEntity
  8
0
  6
Continuous
 62
     8
370
     0
100
AcDbLine
 10
388.1861390741
 20
282.4761024453
 30
0.0
 11
388.1861390741
 21
267.4761055745
 31
0.0
  0
LINE
  5
2C1
330
1F
100
AcDbEntity
  8
0
  6
Continuous
 62
     8
370
     0
100
AcDbLine
 10
389.4606223525
 20
252.4761049785
 30
0.0
 11
389.4606223525
 21
263.5962790586
 31
0.0
  0
LINE
  5
2C2
330
1F
100
AcDbEntity
  8
0
  6
Continuous
 62
     8
370
     0
100
AcDbLine
 10
441.4606234254
 20
252.4761049785
 30
0.0
 11
441.4606234254
 21
263.5962790586
 31
0.0
  0
LINE
  5
2C3
330
1F
100
AcDbEntity
  8
0
  6
Continuous
 62
     8
370
     0
100
AcDbLine
 10
447.7144656898
 20
282.4761024453
 30
0.0
 11
447.7144656898
 21
267.4761055745
 31
0.0
  0
LINE
  5
2C4
330
1F
100
AcDbEntity
  8
0
  6
Continuous
 62
     8
370
     0
100
AcDbLine
 10
447.1957376422
 20
263.7261054255
 30
0.0
 11
447.7144656898
 21
267.4761055745
 31
0.0
  0
LINE
  5
2C5
330
1F
100
AcDbEntity
  8
0
  6
Continuous
 62
     8
370
     0
100
AcDbLine
 10
383.2067800881
 20
282.4761024453
 30
0.0
 11
383.2067800881
 21
267.4761055745
 31
0.0
  0
LINE
  5
2C6
330
1F
100
AcDbEntity
  8
0
  6
Continuous
 62
     8
370
     0
100
AcDbLine
 10
383.7255081357
 20
263.7261054255
 30
0.0
 11
383.2067800881
 21
267.4761055745
 31
0.0
  0
LINE
  5
2C7
330
1F
100
AcDbEntity
  8
0
  6
Continuous
 62
     8
370
     0
100
AcDbLine
 10
446.4212181242
 20
263.5152502693
 30
0.0
 11
447.1957376422
 21
263.7261054255
 31
0.0
  0
LINE
  5
2C8
330
1F
100
AcDbEntity
  8
0
  6
Continuous
 62
     8
370
     0
100
AcDbLine
 10
384.5000276538
 20
263.5152502693
 30
0.0
 11
383.7255081357
 21
263.7261054255
 31
0.0
  0
SPLINE
  5
2C9
330
1F
100
AcDbEntity
  8
0
  6
Continuous
 62
     8
370
     0
100
AcDbSpline
210
0.0
220
0.0
230
1.0
 70
     8
 71
     3
 72
    20
 73
    16
 74
     0
 42
0.00000001
 43
0.00000001
 12
1.0
 22
0.0
 32
0.0
 13
1.0
 23
0.0
 33
0.0
 40
0.0
 40
0.0
 40
0.0
 40
0.0
 40
0.2500000000000024
 40
0.2500000000000024
 40
0.5000000000000049
 40
0.5000000000000049
 40
0.5625000000000041
 40
0.5625000000000041
 40
0.6250000000000034
 40
0.6250000000000034
 40
0.750000000000002
 40
0.750000000000002
 40
0.875000000000001
 40
0.875000000000001
 40
1.0
 40
1.0
 40
1.0
 40
1.0
 10
434.1056827064872
 20
282.9150829625333
 30
0.0
 10
433.6310748410065
 20
283.5745357682007
 30
0.0
 10
433.1450612285091
 20
284.213274958586
 30
0.0
 10
432.1489410484355
 20
285.4505031225426
 30
0.0
 10
431.6388096584801
 20
286.0489758513352
 30
0.0
 10
430.9857582960502
 20
286.7710742711845
 30
0.0
 10
430.854044452022
 20
286.9145433186777
 30
0.0
 10
430.5918445910322
 20
287.1959065988819
 30
0.0
 10
430.461139846408
 20
287.3340538888903
 30
0.0
 10
430.0703407365554
 20
287.7410394827626
 30
0.0
 10
429.8115371463662
 20
288.002439660355
 30
0.0
 10
429.2985818834922
 20
288.5057403989091
 30
0.0
 10
429.044414417252
 20
288.7476455102079
 30
0.0
 10
428.5428661331357
 20
289.2116734422597
 30
0.0
 10
428.2948068102086
 20
289.4343714251712
 30
0.0
 10
428.0534311357935
 20
289.6453806624259
 30
0.0
  0
LINE
  5
2CA
330
1F
100
AcDbEntity
  8
0
  6
Continuous
 62
     8
370
     0
100
AcDbLine
 10
396.8155635716
 20
282.9150832035
 30
0.0
 11
434.1056822063
 21
282.9150832035
 31
0.0
  0
SPLINE
  5
2CB
330
1F
100
AcDbEntity
  8
0
  6
Continuous
 62
     8
370
     0
100
AcDbSpline
210
0.0
220
0.0
230
1.0
 70
     8
 71
     3
 72
    20
 73
    16
 74
     0
 42
0.00000001
 43
0.00000001
 12
1.0
 22
0.0
 32
0.0
 13
1.0
 23
0.0
 33
0.0
 40
0.0
 40
0.0
 40
0.0
 40
0.0
 40
0.2500000000000024
 40
0.2500000000000024
 40
0.5000000000000049
 40
0.5000000000000049
 40
0.5625000000000041
 40
0.5625000000000041
 40
0.6250000000000034
 40
0.6250000000000034
 40
0.750000000000002
 40
0.750000000000002
 40
0.875000000000001
 40
0.875000000000001
 40
1.0
 40
1.0
 40
1.0
 40
1.0
 10
396.8155630714798
 20
282.9150829625333
 30
0.0
 10
397.2901709369605
 20
283.5745357682007
 30
0.0
 10
397.776184549458
 20
284.213274958586
 30
0.0
 10
398.7723047295315
 20
285.4505031225426
 30
0.0
 10
399.2824361194869
 20
286.0489758513352
 30
0.0
 10
399.9354874819168
 20
286.7710742711845
 30
0.0
 10
400.067201325945
 20
286.9145433186777
 30
0.0
 10
400.3294011869348
 20
287.1959065988819
 30
0.0
 10
400.460105931559
 20
287.3340538888903
 30
0.0
 10
400.8509050414116
 20
287.7410394827626
 30
0.0
 10
401.1097086316008
 20
288.002439660355
 30
0.0
 10
401.6226638944748
 20
288.5057403989091
 30
0.0
 10
401.876831360715
 20
288.7476455102079
 30
0.0
 10
402.3783796448313
 20
289.2116734422597
 30
0.0
 10
402.6264389677584
 20
289.4343714251712
 30
0.0
 10
402.8678146421735
 20
289.6453806624259
 30
0.0
  0
SPLINE
  5
2CC
330
1F
100
AcDbEntity
  8
0
  6
Continuous
 62
     8
370
     0
100
AcDbSpline
210
0.0
220
0.0
230
1.0
 70
     8
 71
     3
 72
    36
 73
    32
 74
     0
 42
0.00000001
 43
0.00000001
 12
1.0
 22
0.0
 32
0.0
 13
1.0
 23
0.0
 33
0.0
 40
0.0
 40
0.0
 40
0.0
 40
0.0
 40
0.1250000000000003
 40
0.1250000000000003
 40
0.1875000000000006
 40
0.1875000000000006
 40
0.2500000000000009
 40
0.2500000000000009
 40
0.3125000000000012
 40
0.3125000000000012
 40
0.3750000000000014
 40
0.3750000000000014
 40
0.4062500000000014
 40
0.4062500000000014
 40
0.4375000000000014
 40
0.4375000000000014
 40
0.5000000000000012
 40
0.5000000000000012
 40
0.5312500000000012
 40
0.5312500000000012
 40
0.5625000000000011
 40
0.5625000000000011
 40
0.625000000000001
 40
0.625000000000001
 40
0.6875000000000008
 40
0.6875000000000008
 40
0.7500000000000007
 40
0.7500000000000007
 40
0.8750000000000003
 40
0.8750000000000003
 40
1.0
 40
1.0
 40
1.0
 40
1.0
 10
428.0534311357935
 20
289.6453806624259
 30
0.0
 10
427.1216700378541
 20
289.284468557517
 30
0.0
 10
426.1613727301843
 20
288.9005881905856
 30
0.0
 10
424.6752307156135
 20
288.3172815388171
 30
0.0
 10
424.1721623501983
 20
288.1215867654711
 30
0.0
 10
423.1489175336212
 20
287.7334156007925
 30
0.0
 10
422.6303731725943
 20
287.5415401120819
 30
0.0
 10
421.5826888025169
 20
287.1722060751791
 30
0.0
 10
421.0527517204281
 20
286.9943653217199
 30
0.0
 10
419.9770629269175
 20
286.6641918370846
 30
0.0
 10
419.4313352496301
 20
286.5117957033954
 30
0.0
 10
418.5965380452162
 20
286.3156522557994
 30
0.0
 10
418.3149918200144
 20
286.2556561215234
 30
0.0
 10
417.7505546744545
 20
286.1503022540118
 30
0.0
 10
417.4672489670609
 20
286.1048353974311
 30
0.0
 10
416.6136673338817
 20
285.9936135297845
 30
0.0
 10
416.0396738102059
 20
285.9534934996395
 30
0.0
 10
415.1701969096432
 20
285.9535344603341
 30
0.0
 10
414.880092681695
 20
285.9635300986755
 30
0.0
 10
414.3037009461488
 20
286.0024509440639
 30
0.0
 10
414.0175553015349
 20
286.0312994030007
 30
0.0
 10
413.1646749647238
 20
286.1427454231961
 30
0.0
 10
412.6034837704899
 20
286.2501947613711
 30
0.0
 10
411.4923709623472
 20
286.5111741623548
 30
0.0
 10
410.9419822721987
 20
286.6647608026045
 30
0.0
 10
409.8595585022657
 20
286.9972155988783
 30
0.0
 10
409.3248962882614
 20
287.1768469514503
 30
0.0
 10
407.7489110424503
 20
287.732952019308
 30
0.0
 10
406.734501802943
 20
288.1255362242055
 30
0.0
 10
404.7604248537459
 20
288.9003872714746
 30
0.0
 10
403.8011289705093
 20
289.2838669229853
 30
0.0
 10
402.8678146421735
 20
289.6453806624259
 30
0.0
  0
ARC
  5
2CD
330
1F
100
AcDbEntity
  8
0
  6
Continuous
 62
     8
370
     0
100
AcDbCircle
 10
400.0522869998
 20
293.3985289104
 30
0.0
 40
4.691836548909686
100
AcDbArc
 50
306.8763948501
 51
343.059671336
  0
SPLINE
  5
2CE
330
1F
100
AcDbEntity
  8
0
  6
Continuous
 62
     8
370
     0
100
AcDbSpline
210
0.0
220
0.0
230
1.0
 70
     8
 71
     3
 72
    38
 73
    34
 74
     0
 42
0.00000001
 43
0.00000001
 12
1.0
 22
0.0
 32
0.0
 13
1.0
 23
0.0
 33
0.0
 40
0.0
 40
0.0
 40
0.0
 40
0.0
 40
0.1250000000000004
 40
0.1250000000000004
 40
0.250000000000001
 40
0.250000000000001
 40
0.3125000000000016
 40
0.3125000000000016
 40
0.3437500000000015
 40
0.3437500000000015
 40
0.3750000000000014
 40
0.3750000000000014
 40
0.4375000000000013
 40
0.4375000000000013
 40
0.4687500000000013
 40
0.4687500000000013
 40
0.5000000000000012
 40
0.5000000000000012
 40
0.5625000000000011
 40
0.5625000000000011
 40
0.593750000000001
 40
0.593750000000001
 40
0.6250000000000009
 40
0.6250000000000009
 40
0.6875000000000008
 40
0.6875000000000008
 40
0.7500000000000007
 40
0.7500000000000007
 40
0.8125000000000006
 40
0.8125000000000006
 40
0.8750000000000004
 40
0.8750000000000004
 40
1.0
 40
1.0
 40
1.0
 40
1.0
 10
404.5405386717013
 20
292.0314421473127
 30
0.0
 10
405.3042543180537
 20
291.564983009204
 30
0.0
 10
406.0952354225277
 20
291.0704272170435
 30
0.0
 10
407.7395683085779
 20
290.0633382428218
 30
0.0
 10
408.5922402409741
 20
289.5492993765976
 30
0.0
 10
409.9399483998238
 20
288.805584394766
 30
0.0
 10
410.4018616495009
 20
288.5620574052842
 30
0.0
 10
411.1104094842867
 20
288.2190586495347
 30
0.0
 10
411.3494991256775
 20
288.1083369678058
 30
0.0
 10
411.8348305937574
 20
287.8968257266091
 30
0.0
 10
412.0813086437688
 20
287.7959815718276
 30
0.0
 10
412.8267661968854
 20
287.5162459977431
 30
0.0
 10
413.3337004997873
 20
287.3589437742235
 30
0.0
 10
414.1160434114313
 20
287.1925414236995
 30
0.0
 10
414.3805069074571
 20
287.1487510909892
 30
0.0
 10
414.9181155147186
 20
287.0892009455497
 30
0.0
 10
415.191403499733
 20
287.073673778467
 30
0.0
 10
416.0093301236381
 20
287.0740601203644
 30
0.0
 10
416.5420799303961
 20
287.136648353573
 30
0.0
 10
417.3262355147967
 20
287.3033277668007
 30
0.0
 10
417.5851483156325
 20
287.3708770789178
 30
0.0
 10
418.0987695131395
 20
287.5257727212497
 30
0.0
 10
418.3530516435834
 20
287.6130526545082
 30
0.0
 10
419.0988574801485
 20
287.8936032336105
 30
0.0
 10
419.5782387341737
 20
288.1064879167513
 30
0.0
 10
420.5139122017919
 20
288.5593818619375
 30
0.0
 10
420.9700813700951
 20
288.7996150985919
 30
0.0
 10
421.8658945715997
 20
289.2935236606116
 30
0.0
 10
422.306645243029
 20
289.5480217291689
 30
0.0
 10
423.169147023199
 20
290.0582319785381
 30
0.0
 10
423.5903145521932
 20
290.3136164666479
 30
0.0
 10
424.8280294592704
 20
291.0716555655239
 30
0.0
 10
425.6191475312439
 20
291.5662998856873
 30
0.0
 10
426.3807071062657
 20
292.0314421473127
 30
0.0
  0
ARC
  5
2CF
330
1F
100
AcDbEntity
  8
0
  6
Continuous
 62
     8
370
     0
100
AcDbCircle
 10
430.8689587781
 20
293.3985289104
 30
0.0
 40
4.691836548909581
100
AcDbArc
 50
196.940328664
 51
233.1236051499
  0
SPLINE
  5
2D0
330
1F
100
AcDbEntity
  8
0
  6
Continuous
 62
     8
370
     0
100
AcDbSpline
210
0.0
220
0.0
230
1.0
 70
     8
 71
     3
 72
     8
 73
     4
 74
     0
 42
0.00000001
 43
0.00000001
 12
1.0
 22
0.0
 32
0.0
 13
1.0
 23
0.0
 33
0.0
 40
0.0
 40
0.0
 40
0.0
 40
0.0
 40
1.0
 40
1.0
 40
1.0
 40
1.0
 10
395.9414876064222
 20
282.0809613001891
 30
0.0
 10
396.2267909235344
 20
282.3649648313916
 30
0.0
 10
396.5183551697588
 20
282.6431741358528
 30
0.0
 10
396.8155630714798
 20
282.9150829625333
 30
0.0
  0
SPLINE
  5
2D1
330
1F
100
AcDbEntity
  8
0
  6
Continuous
 62
     8
370
     0
100
AcDbSpline
210
0.0
220
0.0
230
1.0
 70
     8
 71
     3
 72
     8
 73
     4
 74
     0
 42
0.00000001
 43
0.00000001
 12
1.0
 22
0.0
 32
0.0
 13
1.0
 23
0.0
 33
0.0
 40
0.0
 40
0.0
 40
0.0
 40
0.0
 40
1.0
 40
1.0
 40
1.0
 40
1.0
 10
434.9797581715448
 20
282.0809613001891
 30
0.0
 10
434.6944548544326
 20
282.3649648313916
 30
0.0
 10
434.4028906082082
 20
282.6431741358528
 30
0.0
 10
434.1056827064872
 20
282.9150829625333
 30
0.0
  0
LINE
  5
2D2
330
1F
100
AcDbEntity
  8
0
  6
Continuous
 62
     8
370
     0
100
AcDbLine
 10
435.0922582867
 20
251.8528452851
 30
0.0
 11
435.0922582867
 21
252.4761049785
 31
0.0
  0
LINE
  5
2D3
330
1F
100
AcDbEntity
  8
0
  6
Continuous
 62
     8
370
     0
100
AcDbLine
 10
395.8289874913
 20
251.8528452851
 30
0.0
 11
395.8289874913
 21
252.4761049785
 31
0.0
  0
ARC
  5
2D4
330
1F
100
AcDbEntity
  8
0
  6
Continuous
 62
     8
370
     0
100
AcDbCircle
 10
428.0810187773
 20
289.1963874119
 30
0.0
 40
8.703525262317452
100
AcDbArc
 50
313.805270524
 51
331.05109795
  0
SPLINE
  5
2D5
330
1F
100
AcDbEntity
  8
0
  6
Continuous
 62
     8
370
     0
100
AcDbSpline
210
0.0
220
0.0
230
1.0
 70
     8
 71
     3
 72
    12
 73
     8
 74
     0
 42
0.00000001
 43
0.00000001
 12
1.0
 22
0.0
 32
0.0
 13
1.0
 23
0.0
 33
0.0
 40
0.0
 40
0.0
 40
0.0
 40
0.0
 40
0.5000000000000001
 40
0.5000000000000001
 40
0.75
 40
0.75
 40
1.0
 40
1.0
 40
1.0
 40
1.0
 10
429.70775217865
 20
289.6255433231469
 30
0.0
 10
429.4452678713915
 20
289.7535743437234
 30
0.0
 10
429.175787769277
 20
289.8231710549194
 30
0.0
 10
428.7513226247088
 20
289.831455200518
 30
0.0
 10
428.6090576139811
 20
289.8176112641588
 30
0.0
 10
428.3290505128654
 20
289.7569827962419
 30
0.0
 10
428.1903267254937
 20
289.7102726699981
 30
0.0
 10
428.0534311357935
 20
289.6453806624259
 30
0.0
  0
SPLINE
  5
2D6
330
1F
100
AcDbEntity
  8
0
  6
Continuous
 62
     8
370
     0
100
AcDbSpline
210
0.0
220
0.0
230
1.0
 70
     8
 71
     3
 72
    16
 73
    12
 74
     0
 42
0.00000001
 43
0.00000001
 12
1.0
 22
0.0
 32
0.0
 13
1.0
 23
0.0
 33
0.0
 40
0.0
 40
0.0
 40
0.0
 40
0.0
 40
0.2500000000000003
 40
0.2500000000000003
 40
0.3750000000000014
 40
0.3750000000000014
 40
0.5000000000000024
 40
0.5000000000000024
 40
0.7500000000000012
 40
0.7500000000000012
 40
1.0
 40
1.0
 40
1.0
 40
1.0
 10
429.70775217865
 20
289.6255433231469
 30
0.0
 10
430.20563806988
 20
289.3152551052159
 30
0.0
 10
430.7115696495462
 20
288.9832489121536
 30
0.0
 10
431.4746295143552
 20
288.453127619183
 30
0.0
 10
431.7297805038813
 20
288.2710386092522
 30
0.0
 10
432.2411922328864
 20
287.8958909225855
 30
0.0
 10
432.4977347594398
 20
287.7025777419901
 30
0.0
 10
433.2585327188295
 20
287.1137903388956
 30
0.0
 10
433.7573500559514
 20
286.707041839943
 30
0.0
 10
434.7389210696634
 20
285.8659212147897
 30
0.0
 10
435.2216759777645
 20
285.4315504537784
 30
0.0
 10
435.6970535663868
 20
284.9836275323293
 30
0.0
  0
SPLINE
  5
2D7
330
1F
100
AcDbEntity
  8
0
  6
Continuous
 62
     8
370
     0
100
AcDbSpline
210
0.0
220
0.0
230
1.0
 70
     8
 71
     3
 72
    12
 73
     8
 74
     0
 42
0.00000001
 43
0.00000001
 12
1.0
 22
0.0
 32
0.0
 13
1.0
 23
0.0
 33
0.0
 40
0.0
 40
0.0
 40
0.0
 40
0.0
 40
0.5000000000000001
 40
0.5000000000000001
 40
0.75
 40
0.75
 40
1.0
 40
1.0
 40
1.0
 40
1.0
 10
401.213493599317
 20
289.6255433231469
 30
0.0
 10
401.4759779065755
 20
289.7535743437234
 30
0.0
 10
401.74545800869
 20
289.8231710549194
 30
0.0
 10
402.1699231532582
 20
289.831455200518
 30
0.0
 10
402.312188163986
 20
289.8176112641588
 30
0.0
 10
402.5921952651016
 20
289.7569827962419
 30
0.0
 10
402.7309190524733
 20
289.7102726699981
 30
0.0
 10
402.8678146421735
 20
289.6453806624259
 30
0.0
  0
ARC
  5
2D8
330
1F
100
AcDbEntity
  8
0
  6
Continuous
 62
     8
370
     0
100
AcDbCircle
 10
402.8402270006
 20
289.1963874119
 30
0.0
 40
8.703525262317452
100
AcDbArc
 50
208.94890205
 51
226.194729476
  0
SPLINE
  5
2D9
330
1F
100
AcDbEntity
  8
0
  6
Continuous
 62
     8
370
     0
100
AcDbSpline
210
0.0
220
0.0
230
1.0
 70
     8
 71
     3
 72
    16
 73
    12
 74
     0
 42
0.00000001
 43
0.00000001
 12
1.0
 22
0.0
 32
0.0
 13
1.0
 23
0.0
 33
0.0
 40
0.0
 40
0.0
 40
0.0
 40
0.0
 40
0.2500000000000003
 40
0.2500000000000003
 40
0.3750000000000014
 40
0.3750000000000014
 40
0.5000000000000024
 40
0.5000000000000024
 40
0.7500000000000012
 40
0.7500000000000012
 40
1.0
 40
1.0
 40
1.0
 40
1.0
 10
401.213493599317
 20
289.6255433231469
 30
0.0
 10
400.715607708087
 20
289.3152551052159
 30
0.0
 10
400.2096761284208
 20
288.9832489121536
 30
0.0
 10
399.4466162636118
 20
288.453127619183
 30
0.0
 10
399.1914652740857
 20
288.2710386092522
 30
0.0
 10
398.6800535450806
 20
287.8958909225855
 30
0.0
 10
398.4235110185272
 20
287.7025777419901
 30
0.0
 10
397.6627130591375
 20
287.1137903388956
 30
0.0
 10
397.1638957220156
 20
286.707041839943
 30
0.0
 10
396.1823247083036
 20
285.8659212147897
 30
0.0
 10
395.6995698002025
 20
285.4315504537784
 30
0.0
 10
395.2241922115801
 20
284.9836275323293
 30
0.0
  0
SPLINE
  5
2DA
330
1F
100
AcDbEntity
  8
0
  6
Continuous
 62
     8
370
     0
100
AcDbSpline
210
0.0
220
0.0
230
1.0
 70
     8
 71
     3
 72
    16
 73
    12
 74
     0
 42
0.00000001
 43
0.00000001
 12
1.0
 22
0.0
 32
0.0
 13
1.0
 23
0.0
 33
0.0
 40
0.0
 40
0.0
 40
0.0
 40
0.0
 40
0.2500000000000007
 40
0.2500000000000007
 40
0.3750000000000006
 40
0.3750000000000006
 40
0.5000000000000004
 40
0.5000000000000004
 40
0.7500000000000002
 40
0.7500000000000002
 40
1.0
 40
1.0
 40
1.0
 40
1.0
 10
404.5405386717012
 20
292.0314421473127
 30
0.0
 10
404.3268785900282
 20
292.1619405835061
 30
0.0
 10
404.1114820644453
 20
292.2635660588265
 30
0.0
 10
403.7871644223233
 20
292.3743379405149
 30
0.0
 10
403.6788457987614
 20
292.4042724292303
 30
0.0
 10
403.4619182043078
 20
292.4498967065218
 30
0.0
 10
403.352812484457
 20
292.4656189599346
 30
0.0
 10
403.0286230035686
 20
292.4902186793251
 30
0.0
 10
402.8202274742684
 20
292.4767419281792
 30
0.0
 10
402.4180183227366
 20
292.3934695653861
 30
0.0
 10
402.2230465244201
 20
292.322852186062
 30
0.0
 10
402.0389800824308
 20
292.225488571117
 30
0.0
  0
SPLINE
  5
2DB
330
1F
100
AcDbEntity
  8
0
  6
Continuous
 62
     8
370
     0
100
AcDbSpline
210
0.0
220
0.0
230
1.0
 70
     8
 71
     3
 72
    24
 73
    20
 74
     0
 42
0.00000001
 43
0.00000001
 12
1.0
 22
0.0
 32
0.0
 13
1.0
 23
0.0
 33
0.0
 40
0.0
 40
0.0
 40
0.0
 40
0.0
 40
0.1250000000000004
 40
0.1250000000000004
 40
0.2500000000000008
 40
0.2500000000000008
 40
0.3750000000000009
 40
0.3750000000000009
 40
0.4375000000000012
 40
0.4375000000000012
 40
0.5000000000000016
 40
0.5000000000000016
 40
0.7500000000000009
 40
0.7500000000000009
 40
0.8750000000000003
 40
0.8750000000000003
 40
0.9375000000000002
 40
0.9375000000000002
 40
1.0
 40
1.0
 40
1.0
 40
1.0
 10
402.0389800824308
 20
292.225488571117
 30
0.0
 10
401.7207026774699
 20
292.057132849306
 30
0.0
 10
401.4178770333365
 20
291.8920383720391
 30
0.0
 10
400.8485428437767
 20
291.5740383480653
 30
0.0
 10
400.5813147511486
 20
291.4207584097438
 30
0.0
 10
400.0816398705823
 20
291.1281852575379
 30
0.0
 10
399.8491905583361
 20
290.9888873278321
 30
0.0
 10
399.5272700950509
 20
290.7926150585241
 30
0.0
 10
399.4244301191157
 20
290.7293067598825
 30
0.0
 10
399.2278990883308
 20
290.6073347715765
 30
0.0
 10
399.1339898646365
 20
290.5485329094001
 30
0.0
 10
398.6910733994054
 20
290.2691786058488
 30
0.0
 10
398.4218940986154
 20
290.0929232710756
 30
0.0
 10
398.1477597638057
 20
289.9118579866962
 30
0.0
 10
398.0781198840691
 20
289.8654122681597
 30
0.0
 10
398.0078083813787
 20
289.8184169066689
 30
0.0
 10
397.990091552841
 20
289.8065454993804
 30
0.0
 10
397.9665261831908
 20
289.7907470010593
 30
0.0
 10
397.9606228889835
 20
289.7867833740342
 30
0.0
 10
397.9606228889835
 20
289.7867833740342
 30
0.0
  0
SPLINE
  5
2DC
330
1F
100
AcDbEntity
  8
0
  6
Continuous
 62
     8
370
     0
100
AcDbSpline
210
0.0
220
0.0
230
1.0
 70
     8
 71
     3
 72
    24
 73
    20
 74
     0
 42
0.00000001
 43
0.00000001
 12
1.0
 22
0.0
 32
0.0
 13
1.0
 23
0.0
 33
0.0
 40
0.0
 40
0.0
 40
0.0
 40
0.0
 40
0.1250000000000004
 40
0.1250000000000004
 40
0.2500000000000008
 40
0.2500000000000008
 40
0.3750000000000009
 40
0.3750000000000009
 40
0.4375000000000012
 40
0.4375000000000012
 40
0.5000000000000016
 40
0.5000000000000016
 40
0.7500000000000009
 40
0.7500000000000009
 40
0.8750000000000003
 40
0.8750000000000003
 40
0.9375000000000002
 40
0.9375000000000002
 40
1.0
 40
1.0
 40
1.0
 40
1.0
 10
428.8822656955361
 20
292.225488571117
 30
0.0
 10
429.200543100497
 20
292.057132849306
 30
0.0
 10
429.5033687446304
 20
291.8920383720391
 30
0.0
 10
430.0727029341903
 20
291.5740383480653
 30
0.0
 10
430.3399310268184
 20
291.4207584097438
 30
0.0
 10
430.8396059073847
 20
291.1281852575379
 30
0.0
 10
431.0720552196309
 20
290.9888873278321
 30
0.0
 10
431.3939756829161
 20
290.7926150585241
 30
0.0
 10
431.4968156588513
 20
290.7293067598825
 30
0.0
 10
431.6933466896361
 20
290.6073347715765
 30
0.0
 10
431.7872559133305
 20
290.5485329094001
 30
0.0
 10
432.2301723785616
 20
290.2691786058488
 30
0.0
 10
432.4993516793516
 20
290.0929232710756
 30
0.0
 10
432.7734860141613
 20
289.9118579866962
 30
0.0
 10
432.8431258938979
 20
289.8654122681597
 30
0.0
 10
432.9134373965883
 20
289.8184169066689
 30
0.0
 10
432.931154225126
 20
289.8065454993804
 30
0.0
 10
432.9547195947762
 20
289.7907470010593
 30
0.0
 10
432.9606228889835
 20
289.7867833740342
 30
0.0
 10
432.9606228889835
 20
289.7867833740342
 30
0.0
  0
SPLINE
  5
2DD
330
1F
100
AcDbEntity
  8
0
  6
Continuous
 62
     8
370
     0
100
AcDbSpline
210
0.0
220
0.0
230
1.0
 70
     8
 71
     3
 72
    16
 73
    12
 74
     0
 42
0.00000001
 43
0.00000001
 12
1.0
 22
0.0
 32
0.0
 13
1.0
 23
0.0
 33
0.0
 40
0.0
 40
0.0
 40
0.0
 40
0.0
 40
0.2500000000000007
 40
0.2500000000000007
 40
0.3750000000000006
 40
0.3750000000000006
 40
0.5000000000000004
 40
0.5000000000000004
 40
0.7500000000000002
 40
0.7500000000000002
 40
1.0
 40
1.0
 40
1.0
 40
1.0
 10
426.3807071062658
 20
292.0314421473127
 30
0.0
 10
426.5943671879388
 20
292.1619405835061
 30
0.0
 10
426.8097637135217
 20
292.2635660588265
 30
0.0
 10
427.1340813556437
 20
292.3743379405149
 30
0.0
 10
427.2423999792056
 20
292.4042724292303
 30
0.0
 10
427.4593275736592
 20
292.4498967065218
 30
0.0
 10
427.5684332935099
 20
292.4656189599346
 30
0.0
 10
427.8926227743984
 20
292.4902186793251
 30
0.0
 10
428.1010183036986
 20
292.4767419281792
 30
0.0
 10
428.5032274552304
 20
292.3934695653861
 30
0.0
 10
428.698199253547
 20
292.322852186062
 30
0.0
 10
428.8822656955361
 20
292.225488571117
 30
0.0
  0
LINE
  5
2DE
330
1F
100
AcDbEntity
  8
0
  6
Continuous
 62
     8
370
     0
100
AcDbLine
 10
432.9606229635
 20
296.9761020281
 30
0.0
 11
397.9606228145
 21
296.9761020281
 31
0.0
  0
SPLINE
  5
2DF
330
1F
100
AcDbEntity
  8
0
  6
Continuous
 62
     8
370
     0
100
AcDbSpline
210
0.0
220
0.0
230
1.0
 70
     8
 71
     3
 72
     8
 73
     4
 74
     0
 42
0.00000001
 43
0.00000001
 12
1.0
 22
0.0
 32
0.0
 13
1.0
 23
0.0
 33
0.0
 40
0.0
 40
0.0
 40
0.0
 40
0.0
 40
1.0
 40
1.0
 40
1.0
 40
1.0
 10
435.6970535663868
 20
284.9836275323293
 30
0.0
 10
435.9211522164696
 20
284.7724713389362
 30
0.0
 10
436.1420777930998
 20
284.5580803896586
 30
0.0
 10
436.3598230827774
 20
284.3404412588325
 30
0.0
  0
SPLINE
  5
2E0
330
1F
100
AcDbEntity
  8
0
  6
Continuous
 62
     8
370
     0
100
AcDbSpline
210
0.0
220
0.0
230
1.0
 70
     8
 71
     3
 72
     8
 73
     4
 74
     0
 42
0.00000001
 43
0.00000001
 12
1.0
 22
0.0
 32
0.0
 13
1.0
 23
0.0
 33
0.0
 40
0.0
 40
0.0
 40
0.0
 40
0.0
 40
1.0
 40
1.0
 40
1.0
 40
1.0
 10
395.2241922115801
 20
284.9836275323293
 30
0.0
 10
395.0000935614974
 20
284.7724713389362
 30
0.0
 10
394.7791679848672
 20
284.5580803896586
 30
0.0
 10
394.5614226951895
 20
284.3404412588325
 30
0.0
  0
LINE
  5
2E1
330
1F
100
AcDbEntity
  8
0
  6
Continuous
 62
     8
370
     0
100
AcDbLine
 10
441.7163683297
 20
252.4761049785
 30
0.0
 11
441.7163683297
 21
248.0510077216
 31
0.0
  0
LINE
  5
2E2
330
1F
100
AcDbEntity
  8
0
  6
Continuous
 62
     8
370
     0
100
AcDbLine
 10
389.2048774483
 20
252.4761049785
 30
0.0
 11
389.2048774483
 21
248.0510077216
 31
0.0
  0
LINE
  5
2E3
330
1F
100
AcDbEntity
  8
0
  6
Continuous
 62
     8
370
     0
100
AcDbLine
 10
402.8687719451
 20
300.9551591017
 30
0.0
 11
420.2410038756
 21
300.9551591017
 31
0.0
  0
SPLINE
  5
2E4
330
1F
100
AcDbEntity
  8
0
  6
Continuous
 62
     8
370
     0
100
AcDbSpline
210
0.0
220
0.0
230
1.0
 70
     8
 71
     3
 72
    14
 73
    10
 74
     0
 42
0.00000001
 43
0.00000001
 12
1.0
 22
0.0
 32
0.0
 13
1.0
 23
0.0
 33
0.0
 40
0.0
 40
0.0
 40
0.0
 40
0.0
 40
0.0000581902656991
 40
0.1031416815127077
 40
0.3103037089488569
 40
0.522619630248576
 40
0.7338251319356429
 40
0.9495595985236548
 40
0.9999999999999999
 40
0.9999999999999999
 40
0.9999999999999999
 40
0.9999999999999999
 10
434.1383530022514
 20
287.4036407806144
 30
0.0
 10
434.1383691519563
 20
287.4036308424277
 30
0.0
 10
434.166994347288
 20
287.3860155029736
 30
0.0
 10
434.0608530732092
 20
287.4486883294082
 30
0.0
 10
433.758531114268
 20
287.6162069022657
 30
0.0
 10
432.9378709099561
 20
288.0631720202641
 30
0.0
 10
431.7385802177839
 20
288.6798829218428
 30
0.0
 10
430.5824212679867
 20
289.2343860077576
 30
0.0
 10
429.8470972003346
 20
289.5632293383683
 30
0.0
 10
429.7077525602591
 20
289.6255454756484
 30
0.0
  0
SPLINE
  5
2E5
330
1F
100
AcDbEntity
  8
0
  6
Continuous
 62
     8
370
     0
100
AcDbSpline
210
0.0
220
0.0
230
1.0
 70
     8
 71
     3
 72
    14
 73
    10
 74
     0
 42
0.00000001
 43
0.00000001
 12
1.0
 22
0.0
 32
0.0
 13
1.0
 23
0.0
 33
0.0
 40
0.0
 40
0.0
 40
0.0
 40
0.0
 40
0.0000610579224148
 40
0.1031442535441549
 40
0.3103056868761539
 40
0.5226209992912643
 40
0.73382589527821
 40
0.9495597431778283
 40
0.9999999999999999
 40
0.9999999999999999
 40
0.9999999999999999
 40
0.9999999999999999
 10
396.7828946383607
 20
287.4036407806144
 30
0.0
 10
396.7828778671465
 20
287.4036308421753
 30
0.0
 10
396.7545465005968
 20
287.386841982673
 30
0.0
 10
396.8601093541241
 20
287.4478967503661
 30
0.0
 10
397.1628136969404
 20
287.6164835652727
 30
0.0
 10
397.9833481581727
 20
288.0630974026504
 30
0.0
 10
399.1826731469658
 20
288.6799041165657
 30
0.0
 10
400.338824154822
 20
289.2343850155739
 30
0.0
 10
401.0741485210515
 20
289.5632291803021
 30
0.0
 10
401.2134932177079
 20
289.6255454756484
 30
0.0
  0
ARC
  5
2E6
330
1F
100
AcDbEntity
  8
0
  6
Continuous
 62
     8
370
     0
100
AcDbCircle
 10
431.3100418328
 20
291.5652930668
 30
0.0
 40
2.515939512431865
100
AcDbArc
 50
164.7872563631
 51
230.4422793261
  0
ARC
  5
2E7
330
1F
100
AcDbEntity
  8
0
  6
Continuous
 62
     8
370
     0
100
AcDbCircle
 10
399.6112039452
 20
291.5652930668
 30
0.0
 40
2.515939512431781
100
AcDbArc
 50
309.5577206739
 51
15.2127436369
  0
LINE
  5
2E8
330
1F
100
AcDbEntity
  8
0
  6
Continuous
 62
     8
370
     0
100
AcDbLine
 10
424.5866928445
 20
300.9551591017
 30
0.0
 11
428.1734982701
 21
300.9551591017
 31
0.0
  0
LINE
  5
2E9
330
1F
100
AcDbEntity
  8
0
  6
Continuous
 62
     8
370
     0
100
AcDbLine
 10
404.5252679111
 20
318.304610882
 30
0.0
 11
419.4127558926
 21
318.304610882
 31
0.0
  0
LINE
  5
2EA
330
1F
100
AcDbEntity
  8
0
  6
Continuous
 62
     8
370
     0
100
AcDbLine
 10
423.0571044804
 20
318.304610882
 30
0.0
 11
426.5351202534
 21
318.304610882
 31
0.0
  0
INSERT
  5
2F6
330
1F
100
AcDbEntity
  8
FORMAT
100
AcDbBlockReference
  2
SW_CENTERMARKSYMBOL_0
 10
415.460622889
 20
209.9761045315
 30
0.0
  0
LINE
  5
2F7
330
1F
100
AcDbEntity
  8
0
  6
Continuous
 62
     7
370
    15
100
AcDbLine
 10
168.4413474395
 20
130.9091288439
 30
0.0
 11
160.4413461282
 21
130.9091288439
 31
0.0
  0
LINE
  5
2F8
330
1F
100
AcDbEntity
  8
0
  6
Continuous
 62
     7
370
    15
100
AcDbLine
 10
160.4413461282
 20
38.4091276518
 30
0.0
 11
168.4413474395
 21
38.4091276518
 31
0.0
  0
LINE
  5
2F9
330
1F
100
AcDbEntity
  8
0
  6
Continuous
 62
     7
370
    15
100
AcDbLine
 10
234.4413470819
 20
38.4091276518
 30
0.0
 11
242.4413483932
 21
38.4091276518
 31
0.0
  0
LINE
  5
2FA
330
1F
100
AcDbEntity
  8
0
  6
Continuous
 62
     7
370
    15
100
AcDbLine
 10
242.4413483932
 20
130.9091288439
 30
0.0
 11
234.4413470819
 21
130.9091288439
 31
0.0
  0
LINE
  5
2FB
330
1F
100
AcDbEntity
  8
0
  6
Continuous
 62
     7
370
    15
100
AcDbLine
 10
234.4413470819
 20
106.6591281286
 30
0.0
 11
224.810177122
 21
104.7870188794
 31
0.0
  0
LINE
  5
2FC
330
1F
100
AcDbEntity
  8
0
  6
Continuous
 62
     7
370
    15
100
AcDbLine
 10
178.0725173994
 20
104.7870188794
 30
0.0
 11
168.4413474395
 21
106.6591281286
 31
0.0
  0
LINE
  5
2FD
330
1F
100
AcDbEntity
  8
0
  6
Continuous
 62
     7
370
    15
100
AcDbLine
 10
168.4413474395
 20
62.659128367
 30
0.0
 11
178.0725173994
 21
64.5312376163
 31
0.0
  0
LINE
  5
2FE
330
1F
100
AcDbEntity
  8
0
  6
Continuous
 62
     7
370
    15
100
AcDbLine
 10
224.810177122
 20
64.5312376163
 30
0.0
 11
234.4413470819
 21
62.659128367
 31
0.0
  0
SPLINE
  5
2FF
330
1F
100
AcDbEntity
  8
0
  6
Continuous
 62
     7
370
    15
100
AcDbSpline
210
0.0
220
0.0
230
1.0
 70
     8
 71
     3
 72
    14
 73
    10
 74
     0
 42
0.00000001
 43
0.00000001
 12
1.0
 22
0.0
 32
0.0
 13
1.0
 23
0.0
 33
0.0
 40
0.0
 40
0.0
 40
0.0
 40
0.0
 40
0.5000000000000004
 40
0.5000000000000004
 40
0.7500000000000001
 40
0.7500000000000001
 40
0.8750000000000001
 40
0.8750000000000001
 40
1.0
 40
1.0
 40
1.0
 40
1.0
 10
227.7181568839206
 20
120.1718975760436
 30
0.0
 10
226.4112025448426
 20
121.225969681444
 30
0.0
 10
225.037539758486
 20
122.1724312167748
 30
0.0
 10
222.8724850848984
 20
123.4234520121763
 30
0.0
 10
222.1334263096508
 20
123.8124323050218
 30
0.0
 10
220.9987903203263
 20
124.3538837561701
 30
0.0
 10
220.6162414372575
 20
124.5273715350665
 30
0.0
 10
219.8425174191833
 20
124.860431675452
 30
0.0
 10
219.4510093486876
 20
125.0201042368381
 30
0.0
 10
219.0579028460756
 20
125.1718975760437
 30
0.0
  0
SPLINE
  5
300
330
1F
100
AcDbEntity
  8
0
  6
Continuous
 62
     7
370
    15
100
AcDbSpline
210
0.0
220
0.0
230
1.0
 70
     8
 71
     3
 72
     9
 73
     5
 74
     0
 42
0.00000001
 43
0.00000001
 12
1.0
 22
0.0
 32
0.0
 13
1.0
 23
0.0
 33
0.0
 40
0.0
 40
0.0
 40
0.0
 40
0.0
 40
0.5
 40
1.0
 40
1.0
 40
1.0
 40
1.0
 10
157.5479820521408
 20
79.65912824783194
 30
0.0
 10
157.2873903477584
 20
81.32579491449862
 30
0.0
 10
157.0229763735641
 20
84.65912824783193
 30
0.0
 10
157.2873903477584
 20
87.99246158116527
 30
0.0
 10
157.5479820521408
 20
89.65912824783194
 30
0.0
  0
SPLINE
  5
301
330
1F
100
AcDbEntity
  8
0
  6
Continuous
 62
     7
370
    15
100
AcDbSpline
210
0.0
220
0.0
230
1.0
 70
     8
 71
     3
 72
    12
 73
     8
 74
     0
 42
0.00000001
 43
0.00000001
 12
1.0
 22
0.0
 32
0.0
 13
1.0
 23
0.0
 33
0.0
 40
0.0
 40
0.0
 40
0.0
 40
0.0
 40
0.5000000000000006
 40
0.5000000000000006
 40
0.7500000000000002
 40
0.7500000000000002
 40
1.0
 40
1.0
 40
1.0
 40
1.0
 10
219.0579028460768
 20
44.14635891962062
 30
0.0
 10
220.6050598050474
 20
44.74377493669731
 30
0.0
 10
222.1069436190449
 20
45.45497136621025
 30
0.0
 10
224.2849673089211
 20
46.70975838337453
 30
0.0
 10
225.0008061249968
 20
47.16101599443423
 30
0.0
 10
226.389202747951
 20
48.11494254752251
 30
0.0
 10
227.0632524446845
 20
48.61817175924197
 30
0.0
 10
227.7181568839213
 20
49.14635891962081
 30
0.0
  0
LINE
  5
302
330
1F
100
AcDbEntity
  8
0
  6
Continuous
 62
     7
370
    15
100
AcDbLine
 10
189.9849079891
 20
89.6591281361
 30
0.0
 11
157.5479802086
 21
89.6591281361
 31
0.0
  0
LINE
  5
303
330
1F
100
AcDbEntity
  8
0
  6
Continuous
 62
     7
370
    15
100
AcDbLine
 10
189.9849079891
 20
79.6591283596
 30
0.0
 11
157.5479802086
 21
79.6591283596
 31
0.0
  0
LINE
  5
304
330
1F
100
AcDbEntity
  8
0
  6
Continuous
 62
     7
370
    15
100
AcDbLine
 10
211.4996934652
 20
92.0806958183
 30
0.0
 11
227.7181573554
 21
120.17189598
 31
0.0
  0
LINE
  5
305
330
1F
100
AcDbEntity
  8
0
  6
Continuous
 62
     7
370
    15
100
AcDbLine
 10
202.8394398622
 20
97.0806952408
 30
0.0
 11
219.0579023554
 21
125.1718986622
 31
0.0
  0
LINE
  5
306
330
1F
100
AcDbEntity
  8
0
  6
Continuous
 62
     7
370
    15
100
AcDbLine
 10
202.8394398622
 20
72.2375612548
 30
0.0
 11
219.0579023554
 21
44.1463578335
 31
0.0
  0
LINE
  5
307
330
1F
100
AcDbEntity
  8
0
  6
Continuous
 62
     7
370
    15
100
AcDbLine
 10
211.4996934652
 20
77.2375606774
 30
0.0
 11
227.7181573554
 21
49.1463605157
 31
0.0
  0
CIRCLE
  5
308
330
1F
100
AcDbEntity
  8
0
  6
Continuous
 62
     7
370
    15
100
AcDbCircle
 10
201.4413472607
 20
84.6591282478
 30
0.0
 40
56.25
  0
ARC
  5
309
330
1F
100
AcDbEntity
  8
0
  6
Continuous
 62
     7
370
    15
100
AcDbCircle
 10
201.4413472607
 20
84.6591282478
 30
0.0
 40
42.41294414020325
100
AcDbArc
 50
66.770259755
 51
173.229740245
  0
ARC
  5
30A
330
1F
100
AcDbEntity
  8
0
  6
Continuous
 62
     7
370
    15
100
AcDbCircle
 10
201.4413472607
 20
84.6591282478
 30
0.0
 40
42.41294414020323
100
AcDbArc
 50
306.770259755
 51
53.229740245
  0
ARC
  5
30B
330
1F
100
AcDbEntity
  8
0
  6
Continuous
 62
     7
370
    15
100
AcDbCircle
 10
201.4413472607
 20
84.6591282478
 30
0.0
 40
42.41294414020324
100
AcDbArc
 50
186.770259755
 51
293.229740245
  0
CIRCLE
  5
30C
330
1F
100
AcDbEntity
  8
0
  6
Continuous
 62
     7
370
    15
100
AcDbCircle
 10
201.4413472607
 20
84.6591282478
 30
0.0
 40
12.5
  0
LINE
  5
30D
330
1F
100
AcDbEntity
  8
0
  6
Continuous
 62
     7
370
    15
100
AcDbLine
 10
192.6913472235
 20
70.4091282404
 30
0.0
 11
203.8950858514
 21
70.4091282404
 31
0.0
  0
LINE
  5
30E
330
1F
100
AcDbEntity
  8
0
  6
Continuous
 62
     7
370
    15
100
AcDbLine
 10
192.6913472235
 20
75.7323426968
 30
0.0
 11
192.6913472235
 21
70.4091282404
 31
0.0
  0
LINE
  5
30F
330
1F
100
AcDbEntity
  8
0
  6
Continuous
 62
     7
370
    15
100
AcDbLine
 10
214.7344105288
 20
92.9512156016
 30
0.0
 11
214.1267244115
 21
94.0037600538
 31
0.0
  0
LINE
  5
310
330
1F
100
AcDbEntity
  8
0
  6
Continuous
 62
     7
370
    15
100
AcDbLine
 10
214.7344105288
 20
92.9512156016
 30
0.0
 11
215.2690371841
 21
92.0252155355
 31
0.0
  0
LINE
  5
311
330
1F
100
AcDbEntity
  8
0
  6
Continuous
 62
     7
370
    15
100
AcDbLine
 10
215.8767242327
 20
90.9726710832
 30
0.0
 11
215.2690371841
 21
92.0252155355
 31
0.0
  0
LINE
  5
312
330
1F
100
AcDbEntity
  8
0
  6
Continuous
 62
     7
370
    15
100
AcDbLine
 10
211.8516011506
 20
92.6902171067
 30
0.0
 11
214.1267244115
 21
94.0037600538
 31
0.0
  0
LINE
  5
313
330
1F
100
AcDbEntity
  8
0
  6
Continuous
 62
     7
370
    15
100
AcDbLine
 10
213.0350513726
 20
89.3320308841
 30
0.0
 11
215.8767242327
 21
90.9726710832
 31
0.0
  0
LINE
  5
314
330
1F
100
AcDbEntity
  8
0
  6
Continuous
 62
     7
370
    15
100
AcDbLine
 10
189.2810935497
 20
89.6591281361
 30
0.0
 11
187.0059702888
 21
90.9726710832
 31
0.0
  0
LINE
  5
315
330
1F
100
AcDbEntity
  8
0
  6
Continuous
 62
     7
370
    15
100
AcDbLine
 10
187.6136573374
 20
92.0252155355
 30
0.0
 11
187.0059702888
 21
90.9726710832
 31
0.0
  0
LINE
  5
316
330
1F
100
AcDbEntity
  8
0
  6
Continuous
 62
     7
370
    15
100
AcDbLine
 10
187.6136573374
 20
92.0252155355
 30
0.0
 11
188.1482839926
 21
92.9512156016
 31
0.0
  0
LINE
  5
317
330
1F
100
AcDbEntity
  8
0
  6
Continuous
 62
     7
370
    15
100
AcDbLine
 10
188.7559701099
 20
94.0037600538
 30
0.0
 11
188.1482839926
 21
92.9512156016
 31
0.0
  0
LINE
  5
318
330
1F
100
AcDbEntity
  8
0
  6
Continuous
 62
     7
370
    15
100
AcDbLine
 10
191.59764297
 20
92.363119389
 30
0.0
 11
188.7559701099
 21
94.0037600538
 31
0.0
  0
LINE
  5
319
330
1F
100
AcDbEntity
  8
0
  6
Continuous
 62
     7
370
    15
100
AcDbLine
 10
201.9759736832
 20
69.0009545377
 30
0.0
 11
203.1913473147
 21
69.0009545377
 31
0.0
  0
LINE
  5
31A
330
1F
100
AcDbEntity
  8
0
  6
Continuous
 62
     7
370
    15
100
AcDbLine
 10
201.9759736832
 20
69.0009545377
 30
0.0
 11
200.9067208383
 21
69.0009545377
 31
0.0
  0
LINE
  5
31B
330
1F
100
AcDbEntity
  8
0
  6
Continuous
 62
     7
370
    15
100
AcDbLine
 10
199.6913472067
 20
69.0009545377
 30
0.0
 11
200.9067208383
 21
69.0009545377
 31
0.0
  0
LINE
  5
31C
330
1F
100
AcDbEntity
  8
0
  6
Continuous
 62
     7
370
    15
100
AcDbLine
 10
199.6913472067
 20
70.4091282404
 30
0.0
 11
199.6913472067
 21
69.0009545377
 31
0.0
  0
LINE
  5
31D
330
1F
100
AcDbEntity
  8
0
  6
Continuous
 62
     7
370
    15
100
AcDbLine
 10
203.1913473147
 20
70.4091282404
 30
0.0
 11
203.1913473147
 21
69.0009545377
 31
0.0
  0
ARC
  5
31E
330
1F
100
AcDbEntity
  8
0
  6
Continuous
 62
     7
370
    15
100
AcDbCircle
 10
201.4413472607
 20
84.6591282478
 30
0.0
 40
17.5
100
AcDbArc
 50
76.601549599
 51
163.398450401
  0
ARC
  5
31F
330
1F
100
AcDbEntity
  8
0
  6
Continuous
 62
     7
370
    15
100
AcDbCircle
 10
201.4413472607
 20
84.6591282478
 30
0.0
 40
17.50000000000001
100
AcDbArc
 50
316.601549599
 51
43.398450401
  0
ARC
  5
320
330
1F
100
AcDbEntity
  8
0
  6
Continuous
 62
     7
370
    15
100
AcDbCircle
 10
201.4413472607
 20
84.6591282478
 30
0.0
 40
17.5
100
AcDbArc
 50
196.601549599
 51
283.398450401
  0
SPLINE
  5
321
330
1F
100
AcDbEntity
  8
0
  6
Continuous
 62
     7
370
    15
100
AcDbSpline
210
0.0
220
0.0
230
1.0
 70
     8
 71
     3
 72
    10
 73
     6
 74
     0
 42
0.00000001
 43
0.00000001
 12
1.0
 22
0.0
 32
0.0
 13
1.0
 23
0.0
 33
0.0
 40
0.0
 40
0.0
 40
0.0
 40
0.0
 40
0.0033699588729715
 40
0.966973917037858
 40
1.0
 40
1.0
 40
1.0
 40
1.0
 10
187.7664883031837
 20
73.73904416624177
 30
0.0
 10
187.7641428842706
 20
73.741983095981
 30
0.0
 10
187.0911498303547
 20
74.58527777967618
 30
0.0
 10
186.4049365926867
 20
75.46091615739681
 30
0.0
 10
185.9829351641239
 20
76.4660308156258
 30
0.0
 10
185.9689509838215
 20
76.49933805975783
 30
0.0
  0
LINE
  5
322
330
1F
100
AcDbEntity
  8
0
  6
Continuous
 62
     7
370
    15
100
AcDbLine
 10
187.2671317651
 20
94.860416635
 30
0.0
 11
187.7664883032
 21
95.5792123294
 31
0.0
  0
SPLINE
  5
323
330
1F
100
AcDbEntity
  8
0
  6
Continuous
 62
     7
370
    15
100
AcDbSpline
210
0.0
220
0.0
230
1.0
 70
     8
 71
     3
 72
    20
 73
    16
 74
     0
 42
0.00000001
 43
0.00000001
 12
1.0
 22
0.0
 32
0.0
 13
1.0
 23
0.0
 33
0.0
 40
0.0
 40
0.0
 40
0.0
 40
0.0
 40
0.1250000000000015
 40
0.1250000000000015
 40
0.2500000000000031
 40
0.2500000000000031
 40
0.4999999999999989
 40
0.4999999999999989
 40
0.6249999999999992
 40
0.6249999999999992
 40
0.7499999999999994
 40
0.7499999999999994
 40
0.8749999999999998
 40
0.8749999999999998
 40
1.0
 40
1.0
 40
1.0
 40
1.0
 10
189.7836558279708
 20
107.6324630824909
 30
0.0
 10
189.7184101599972
 20
107.5334669188442
 30
0.0
 10
189.6481952487393
 20
107.4339505020929
 30
0.0
 10
189.4988697571924
 20
107.2370652118392
 30
0.0
 10
189.4197259194698
 20
107.1395912233467
 30
0.0
 10
189.1677158674824
 20
106.8507426978498
 30
0.0
 10
188.9804401696231
 20
106.6628769526535
 30
0.0
 10
188.6638135726528
 20
106.3916594331733
 30
0.0
 10
188.551658014497
 20
106.3026177097175
 30
0.0
 10
188.3183098506706
 20
106.1322112625423
 30
0.0
 10
188.1968847787795
 20
106.0505726865908
 30
0.0
 10
187.9438958171816
 20
105.8951470789108
 30
0.0
 10
187.8123356256054
 20
105.8213570247506
 30
0.0
 10
187.5381467642222
 20
105.6825689438444
 30
0.0
 10
187.3945698383854
 20
105.6172416958861
 30
0.0
 10
187.2484912364894
 20
105.5583284416323
 30
0.0
  0
ARC
  5
324
330
1F
100
AcDbEntity
  8
0
  6
Continuous
 62
     7
370
    15
100
AcDbCircle
 10
201.4413472607
 20
23.4091282478
 30
0.0
 40
85.02630122622122
100
AcDbArc
 50
97.0358936823
 51
97.8804686283
  0
ARC
  5
325
330
1F
100
AcDbEntity
  8
0
  6
Continuous
 62
     7
370
    15
100
AcDbCircle
 10
201.4413472607
 20
23.4091282478
 30
0.0
 40
88.49582094315701
100
AcDbArc
 50
83.7384008091
 51
96.3502124795
  0
ARC
  5
326
330
1F
100
AcDbEntity
  8
0
  6
Continuous
 62
     7
370
    15
100
AcDbCircle
 10
201.4413472607
 20
145.9091282478
 30
0.0
 40
88.49582094315704
100
AcDbArc
 50
263.6497875205
 51
276.2615991909
  0
ARC
  5
327
330
1F
100
AcDbEntity
  8
0
  6
Continuous
 62
     7
370
    15
100
AcDbCircle
 10
201.4413472607
 20
145.9091282478
 30
0.0
 40
85.02630122622122
100
AcDbArc
 50
262.1195313717
 51
262.9641063177
  0
SPLINE
  5
328
330
1F
100
AcDbEntity
  8
0
  6
Continuous
 62
     7
370
    15
100
AcDbSpline
210
0.0
220
0.0
230
1.0
 70
     8
 71
     3
 72
    20
 73
    16
 74
     0
 42
0.00000001
 43
0.00000001
 12
1.0
 22
0.0
 32
0.0
 13
1.0
 23
0.0
 33
0.0
 40
0.0
 40
0.0
 40
0.0
 40
0.0
 40
0.1250000000000015
 40
0.1250000000000015
 40
0.2500000000000031
 40
0.2500000000000031
 40
0.4999999999999989
 40
0.4999999999999989
 40
0.6249999999999992
 40
0.6249999999999992
 40
0.7499999999999994
 40
0.7499999999999994
 40
0.8749999999999998
 40
0.8749999999999998
 40
1.0
 40
1.0
 40
1.0
 40
1.0
 10
189.7836558279708
 20
61.685793413173
 30
0.0
 10
189.7184101599972
 20
61.78478957681968
 30
0.0
 10
189.6481952487393
 20
61.88430599357103
 30
0.0
 10
189.4988697571924
 20
62.08119128382473
 30
0.0
 10
189.4197259194698
 20
62.17866527231717
 30
0.0
 10
189.1677158674824
 20
62.46751379781405
 30
0.0
 10
188.9804401696231
 20
62.65537954301038
 30
0.0
 10
188.6638135726528
 20
62.9265970624906
 30
0.0
 10
188.551658014497
 20
63.01563878594641
 30
0.0
 10
188.3183098506706
 20
63.18604523312162
 30
0.0
 10
188.1968847787795
 20
63.26768380907308
 30
0.0
 10
187.9438958171816
 20
63.42310941675304
 30
0.0
 10
187.8123356256054
 20
63.49689947091333
 30
0.0
 10
187.5381467642222
 20
63.63568755181947
 30
0.0
 10
187.3945698383854
 20
63.70101479977777
 30
0.0
 10
187.2484912364894
 20
63.75992805403155
 30
0.0
  0
SPLINE
  5
329
330
1F
100
AcDbEntity
  8
0
  6
Continuous
 62
     7
370
    15
100
AcDbSpline
210
0.0
220
0.0
230
1.0
 70
     8
 71
     3
 72
     8
 73
     4
 74
     0
 42
0.00000001
 43
0.00000001
 12
1.0
 22
0.0
 32
0.0
 13
1.0
 23
0.0
 33
0.0
 40
0.0
 40
0.0
 40
0.0
 40
0.0
 40
1.0
 40
1.0
 40
1.0
 40
1.0
 10
185.0477199425065
 20
105.1610039137099
 30
0.0
 10
184.9053661850911
 20
104.8442762785199
 30
0.0
 10
184.7964930847471
 20
104.5155765887627
 30
0.0
 10
184.7166895122302
 20
104.1764821814632
 30
0.0
  0
SPLINE
  5
32A
330
1F
100
AcDbEntity
  8
0
  6
Continuous
 62
     7
370
    15
100
AcDbSpline
210
0.0
220
0.0
230
1.0
 70
     8
 71
     3
 72
    22
 73
    18
 74
     0
 42
0.00000001
 43
0.00000001
 12
1.0
 22
0.0
 32
0.0
 13
1.0
 23
0.0
 33
0.0
 40
0.0
 40
0.0
 40
0.0
 40
0.0
 40
0.2500000000000078
 40
0.2500000000000078
 40
0.375000000000006
 40
0.375000000000006
 40
0.5000000000000042
 40
0.5000000000000042
 40
0.6250000000000024
 40
0.6250000000000024
 40
0.7500000000000007
 40
0.7500000000000007
 40
0.8124999999999998
 40
0.8124999999999998
 40
0.8749999999999989
 40
0.8749999999999989
 40
1.0
 40
1.0
 40
1.0
 40
1.0
 10
185.0477199425065
 20
105.1610039137099
 30
0.0
 10
185.1219947616438
 20
105.1590636350922
 30
0.0
 10
185.2193345602363
 20
105.1577777382259
 30
0.0
 10
185.4068562466427
 20
105.1629963301463
 30
0.0
 10
185.4763398194993
 20
105.1659558229189
 30
0.0
 10
185.6330197298867
 20
105.176328827977
 30
0.0
 10
185.7186536381588
 20
105.183645652181
 30
0.0
 10
185.9067736911633
 20
105.2050355924414
 30
0.0
 10
186.0096359635464
 20
105.2191252613212
 30
0.0
 10
186.2363456397539
 20
105.2580906362028
 30
0.0
 10
186.3557377780942
 20
105.2822348052422
 30
0.0
 10
186.5446682561978
 20
105.3278320287439
 30
0.0
 10
186.6094320306055
 20
105.3446676160675
 30
0.0
 10
186.738001273835
 20
105.3806514235133
 30
0.0
 10
186.802328664662
 20
105.3999171157683
 30
0.0
 10
186.9953446183455
 20
105.4616437797819
 30
0.0
 10
187.124495797314
 20
105.5083212897316
 30
0.0
 10
187.2484912364934
 20
105.5583284416339
 30
0.0
  0
SPLINE
  5
32B
330
1F
100
AcDbEntity
  8
0
  6
Continuous
 62
     7
370
    15
100
AcDbSpline
210
0.0
220
0.0
230
1.0
 70
     8
 71
     3
 72
    22
 73
    18
 74
     0
 42
0.00000001
 43
0.00000001
 12
1.0
 22
0.0
 32
0.0
 13
1.0
 23
0.0
 33
0.0
 40
0.0
 40
0.0
 40
0.0
 40
0.0
 40
0.2500000000000078
 40
0.2500000000000078
 40
0.375000000000006
 40
0.375000000000006
 40
0.5000000000000042
 40
0.5000000000000042
 40
0.6250000000000024
 40
0.6250000000000024
 40
0.7500000000000007
 40
0.7500000000000007
 40
0.8124999999999998
 40
0.8124999999999998
 40
0.8749999999999989
 40
0.8749999999999989
 40
1.0
 40
1.0
 40
1.0
 40
1.0
 10
185.0477199425065
 20
64.15725258195398
 30
0.0
 10
185.1219947616438
 20
64.1591928605717
 30
0.0
 10
185.2193345602363
 20
64.16047875743801
 30
0.0
 10
185.4068562466427
 20
64.15526016551759
 30
0.0
 10
185.4763398194993
 20
64.15230067274496
 30
0.0
 10
185.6330197298867
 20
64.14192766768691
 30
0.0
 10
185.7186536381588
 20
64.1346108434829
 30
0.0
 10
185.9067736911633
 20
64.11322090322244
 30
0.0
 10
186.0096359635464
 20
64.09913123434274
 30
0.0
 10
186.2363456397539
 20
64.06016585946112
 30
0.0
 10
186.3557377780942
 20
64.03602169042169
 30
0.0
 10
186.5446682561978
 20
63.99042446692002
 30
0.0
 10
186.6094320306055
 20
63.97358887959636
 30
0.0
 10
186.738001273835
 20
63.93760507215055
 30
0.0
 10
186.802328664662
 20
63.91833937989552
 30
0.0
 10
186.9953446183455
 20
63.856612715882
 30
0.0
 10
187.124495797314
 20
63.80993520593231
 30
0.0
 10
187.2484912364934
 20
63.75992805402994
 30
0.0
  0
SPLINE
  5
32C
330
1F
100
AcDbEntity
  8
0
  6
Continuous
 62
     7
370
    15
100
AcDbSpline
210
0.0
220
0.0
230
1.0
 70
     8
 71
     3
 72
     8
 73
     4
 74
     0
 42
0.00000001
 43
0.00000001
 12
1.0
 22
0.0
 32
0.0
 13
1.0
 23
0.0
 33
0.0
 40
0.0
 40
0.0
 40
0.0
 40
0.0
 40
1.0
 40
1.0
 40
1.0
 40
1.0
 10
185.0477199425065
 20
64.15725258195398
 30
0.0
 10
184.9053661850911
 20
64.473980217144
 30
0.0
 10
184.7964930847471
 20
64.80267990690116
 30
0.0
 10
184.7166895122302
 20
65.14177431420065
 30
0.0
  0
ARC
  5
32D
330
1F
100
AcDbEntity
  8
0
  6
Continuous
 62
     7
370
    15
100
AcDbCircle
 10
101.4413472607
 20
84.6591282478
 30
0.0
 40
118.5363217508473
100
AcDbArc
 50
350.6042227333
 51
9.3957772667
  0
ARC
  5
32E
330
1F
100
AcDbEntity
  8
0
  6
Continuous
 62
     7
370
    15
100
AcDbCircle
 10
301.4413472607
 20
84.6591282478
 30
0.0
 40
118.5363217508473
100
AcDbArc
 50
182.4175199161
 51
189.4853176331
  0
ARC
  5
32F
330
1F
100
AcDbEntity
  8
0
  6
Continuous
 62
     7
370
    15
100
AcDbCircle
 10
301.4413472607
 20
84.6591282478
 30
0.0
 40
118.5363217508473
100
AcDbArc
 50
170.5146823669
 51
177.5824800839
  0
ARC
  5
330
330
1F
100
AcDbEntity
  8
0
  6
Continuous
 62
     7
370
    15
100
AcDbCircle
 10
185.7966053294
 20
110.5153395643
 30
0.0
 40
6.500000000000027
100
AcDbArc
 50
100.1820702957
 51
167.3969098145
  0
ARC
  5
331
330
1F
100
AcDbEntity
  8
0
  6
Continuous
 62
     7
370
    15
100
AcDbCircle
 10
185.1913472607
 20
110.6591282478
 30
0.0
 40
6.500000000000013
100
AcDbArc
 50
193.3230460795
 51
265.8122900879
  0
ARC
  5
332
330
1F
100
AcDbEntity
  8
0
  6
Continuous
 62
     7
370
    15
100
AcDbCircle
 10
301.4413472607
 20
84.6591282478
 30
0.0
 40
125.0
100
AcDbArc
 50
167.3969098145
 51
168.6958564929
  0
ARC
  5
333
330
1F
100
AcDbEntity
  8
0
  6
Continuous
 62
     7
370
    15
100
AcDbCircle
 10
201.4413472607
 20
23.4091282478
 30
0.0
 40
95.0
100
AcDbArc
 50
99.4354272457
 51
100.1820702957
  0
ARC
  5
334
330
1F
100
AcDbEntity
  8
0
  6
Continuous
 62
     7
370
    15
100
AcDbCircle
 10
185.1913472607
 20
110.6591282478
 30
0.0
 40
6.499999999999998
100
AcDbArc
 50
333.8570450857
 51
84.029693809
  0
LINE
  5
335
330
1F
100
AcDbEntity
  8
0
  6
Continuous
 62
     7
370
    15
100
AcDbLine
 10
223.2803512707
 20
112.4853927484
 30
0.0
 11
223.429470916
 21
111.9336120627
 31
0.0
  0
ARC
  5
336
330
1F
100
AcDbEntity
  8
0
  6
Continuous
 62
     7
370
    15
100
AcDbCircle
 10
217.6913472607
 20
110.6591282478
 30
0.0
 40
6.499999999999999
100
AcDbArc
 50
277.1689423014
 51
346.6769539205
  0
ARC
  5
337
330
1F
100
AcDbEntity
  8
0
  6
Continuous
 62
     7
370
    15
100
AcDbCircle
 10
101.4413472607
 20
84.6591282478
 30
0.0
 40
125.0
100
AcDbArc
 50
11.3041435071
 51
12.6030901855
  0
ARC
  5
338
330
1F
100
AcDbEntity
  8
0
  6
Continuous
 62
     7
370
    15
100
AcDbCircle
 10
217.6913472607
 20
110.6591282478
 30
0.0
 40
6.499999999999999
100
AcDbArc
 50
129.1144282601
 51
170.8855717399
  0
ARC
  5
339
330
1F
100
AcDbEntity
  8
0
  6
Continuous
 62
     7
370
    15
100
AcDbCircle
 10
185.7966053294
 20
58.8029169314
 30
0.0
 40
6.500000000000028
100
AcDbArc
 50
192.6030901855
 51
259.8179297043
  0
ARC
  5
33A
330
1F
100
AcDbEntity
  8
0
  6
Continuous
 62
     7
370
    15
100
AcDbCircle
 10
201.4413472607
 20
145.9091282478
 30
0.0
 40
95.0
100
AcDbArc
 50
259.8179297043
 51
260.5645727543
  0
ARC
  5
33B
330
1F
100
AcDbEntity
  8
0
  6
Continuous
 62
     7
370
    15
100
AcDbCircle
 10
301.4413472607
 20
84.6591282478
 30
0.0
 40
125.0
100
AcDbArc
 50
191.3041435071
 51
192.6030901855
  0
ARC
  5
33C
330
1F
100
AcDbEntity
  8
0
  6
Continuous
 62
     7
370
    15
100
AcDbCircle
 10
185.1913472607
 20
58.6591282478
 30
0.0
 40
6.499999999999998
100
AcDbArc
 50
275.970306191
 51
26.1429549143
  0
ARC
  5
33D
330
1F
100
AcDbEntity
  8
0
  6
Continuous
 62
     7
370
    15
100
AcDbCircle
 10
185.1913472607
 20
58.6591282478
 30
0.0
 40
6.500000000000006
100
AcDbArc
 50
94.1877099121
 51
166.6769539205
  0
LINE
  5
33E
330
1F
100
AcDbEntity
  8
0
  6
Continuous
 62
     7
370
    15
100
AcDbLine
 10
223.2803512707
 20
56.8328637472
 30
0.0
 11
223.429470916
 21
57.384644433
 31
0.0
  0
ARC
  5
33F
330
1F
100
AcDbEntity
  8
0
  6
Continuous
 62
     7
370
    15
100
AcDbCircle
 10
217.6913472607
 20
58.6591282478
 30
0.0
 40
6.500000000000004
100
AcDbArc
 50
189.1144282601
 51
230.88557174
  0
ARC
  5
340
330
1F
100
AcDbEntity
  8
0
  6
Continuous
 62
     7
370
    15
100
AcDbCircle
 10
101.4413472607
 20
84.6591282478
 30
0.0
 40
125.0
100
AcDbArc
 50
347.3969098145
 51
348.6958564929
  0
ARC
  5
341
330
1F
100
AcDbEntity
  8
0
  6
Continuous
 62
     7
370
    15
100
AcDbCircle
 10
217.6913472607
 20
58.6591282478
 30
0.0
 40
6.499999999999999
100
AcDbArc
 50
13.3230460795
 51
82.8310576986
  0
ARC
  5
342
330
1F
100
AcDbEntity
  8
0
  6
Continuous
 62
     7
370
    15
100
AcDbCircle
 10
201.4413472607
 20
23.4091282478
 30
0.0
 40
88.53632175084734
100
AcDbArc
 50
83.7268750335
 51
96.350228871
  0
ARC
  5
343
330
1F
100
AcDbEntity
  8
0
  6
Continuous
 62
     7
370
    15
100
AcDbCircle
 10
201.4413472607
 20
145.9091282478
 30
0.0
 40
88.53632175084734
100
AcDbArc
 50
263.649771129
 51
276.2731249665
  0
ARC
  5
344
330
1F
100
AcDbEntity
  8
0
  6
Continuous
 62
     7
370
    15
100
AcDbCircle
 10
101.4413472607
 20
84.6591282478
 30
0.0
 40
124.9607290949416
100
AcDbArc
 50
348.7344344451
 51
11.2655655549
  0
ARC
  5
345
330
1F
100
AcDbEntity
  8
0
  6
Continuous
 62
     7
370
    15
100
AcDbCircle
 10
301.4413472607
 20
84.6591282478
 30
0.0
 40
124.9607290949416
100
AcDbArc
 50
182.2931635976
 51
191.2655655549
  0
ARC
  5
346
330
1F
100
AcDbEntity
  8
0
  6
Continuous
 62
     7
370
    15
100
AcDbCircle
 10
301.4413472607
 20
84.6591282478
 30
0.0
 40
124.9607290949416
100
AcDbArc
 50
168.7344344451
 51
177.7068364024
  0
ARC
  5
347
330
1F
100
AcDbEntity
  8
0
  6
Continuous
 62
     7
370
    15
100
AcDbCircle
 10
201.4413472607
 20
23.4091282478
 30
0.0
 40
94.96072909494158
100
AcDbArc
 50
82.0338981017
 51
99.352771309
  0
ARC
  5
348
330
1F
100
AcDbEntity
  8
0
  6
Continuous
 62
     7
370
    15
100
AcDbCircle
 10
201.4413472607
 20
145.9091282478
 30
0.0
 40
94.9607290949416
100
AcDbArc
 50
260.647228691
 51
277.9661018983
  0
ARC
  5
349
330
1F
100
AcDbEntity
  8
0
  6
Continuous
 62
     7
370
    15
100
AcDbCircle
 10
201.4413472607
 20
23.4091282478
 30
0.0
 40
95.00000000000003
100
AcDbArc
 50
82.024312837
 51
99.4354272457
  0
ARC
  5
34A
330
1F
100
AcDbEntity
  8
0
  6
Continuous
 62
     7
370
    15
100
AcDbCircle
 10
101.4413472607
 20
84.6591282478
 30
0.0
 40
125.0
100
AcDbArc
 50
348.6958564929
 51
11.3041435071
  0
ARC
  5
34B
330
1F
100
AcDbEntity
  8
0
  6
Continuous
 62
     7
370
    15
100
AcDbCircle
 10
301.4413472607
 20
84.6591282478
 30
0.0
 40
125.0
100
AcDbArc
 50
182.292442776
 51
191.3041435071
  0
ARC
  5
34C
330
1F
100
AcDbEntity
  8
0
  6
Continuous
 62
     7
370
    15
100
AcDbCircle
 10
301.4413472607
 20
84.6591282478
 30
0.0
 40
125.0
100
AcDbArc
 50
168.6958564929
 51
177.707557224
  0
ARC
  5
34D
330
1F
100
AcDbEntity
  8
0
  6
Continuous
 62
     7
370
    15
100
AcDbCircle
 10
201.4413472607
 20
145.9091282478
 30
0.0
 40
95.00000000000001
100
AcDbArc
 50
260.5645727543
 51
277.975687163
  0
LINE
  5
34E
330
1F
100
AcDbEntity
  8
0
  6
Continuous
 62
     7
370
    15
100
AcDbLine
 10
168.4413474395
 20
79.6591283596
 30
0.0
 11
168.4413474395
 21
58.0159712425
 31
0.0
  0
LINE
  5
34F
330
1F
100
AcDbEntity
  8
0
  6
Continuous
 62
     7
370
    15
100
AcDbLine
 10
168.4413474395
 20
39.1062747529
 30
0.0
 11
168.4413474395
 21
38.4091276518
 31
0.0
  0
LINE
  5
350
330
1F
100
AcDbEntity
  8
0
  6
Continuous
 62
     7
370
    15
100
AcDbLine
 10
168.4413474395
 20
89.6591281361
 30
0.0
 11
168.4413474395
 21
111.3022852531
 31
0.0
  0
LINE
  5
351
330
1F
100
AcDbEntity
  8
0
  6
Continuous
 62
     7
370
    15
100
AcDbLine
 10
168.4413474395
 20
130.2119817427
 30
0.0
 11
168.4413474395
 21
130.9091288439
 31
0.0
  0
LINE
  5
352
330
1F
100
AcDbEntity
  8
0
  6
Continuous
 62
     7
370
    15
100
AcDbLine
 10
160.4413461282
 20
38.4091276518
 30
0.0
 11
160.4413461282
 21
46.1485784343
 31
0.0
  0
LINE
  5
353
330
1F
100
AcDbEntity
  8
0
  6
Continuous
 62
     7
370
    15
100
AcDbLine
 10
160.4413461282
 20
73.8028937793
 30
0.0
 11
160.4413461282
 21
79.6591283596
 31
0.0
  0
LINE
  5
354
330
1F
100
AcDbEntity
  8
0
  6
Continuous
 62
     7
370
    15
100
AcDbLine
 10
160.4413461282
 20
89.6591281361
 30
0.0
 11
160.4413461282
 21
95.5153627164
 31
0.0
  0
LINE
  5
355
330
1F
100
AcDbEntity
  8
0
  6
Continuous
 62
     7
370
    15
100
AcDbLine
 10
160.4413461282
 20
123.1696780613
 30
0.0
 11
160.4413461282
 21
130.9091288439
 31
0.0
  0
LINE
  5
356
330
1F
100
AcDbEntity
  8
0
  6
Continuous
 62
     7
370
    15
100
AcDbLine
 10
234.4413470819
 20
81.6591282218
 30
0.0
 11
234.4413470819
 21
58.0159712425
 31
0.0
  0
LINE
  5
357
330
1F
100
AcDbEntity
  8
0
  6
Continuous
 62
     7
370
    15
100
AcDbLine
 10
234.4413470819
 20
39.1062747529
 30
0.0
 11
234.4413470819
 21
38.4091276518
 31
0.0
  0
LINE
  5
358
330
1F
100
AcDbEntity
  8
0
  6
Continuous
 62
     7
370
    15
100
AcDbLine
 10
226.4053427025
 20
81.6591282218
 30
0.0
 11
234.4413470819
 21
81.6591282218
 31
0.0
  0
LINE
  5
359
330
1F
100
AcDbEntity
  8
0
  6
Continuous
 62
     7
370
    15
100
AcDbLine
 10
226.4053427025
 20
87.6591282739
 30
0.0
 11
234.4413470819
 21
87.6591282739
 31
0.0
  0
LINE
  5
35A
330
1F
100
AcDbEntity
  8
0
  6
Continuous
 62
     7
370
    15
100
AcDbLine
 10
234.4413470819
 20
87.6591282739
 30
0.0
 11
234.4413470819
 21
111.3022852531
 31
0.0
  0
LINE
  5
35B
330
1F
100
AcDbEntity
  8
0
  6
Continuous
 62
     7
370
    15
100
AcDbLine
 10
234.4413470819
 20
130.2119817427
 30
0.0
 11
234.4413470819
 21
130.9091288439
 31
0.0
  0
LINE
  5
35C
330
1F
100
AcDbEntity
  8
0
  6
Continuous
 62
     7
370
    15
100
AcDbLine
 10
242.4413483932
 20
38.4091276518
 30
0.0
 11
242.4413483932
 21
46.1485784343
 31
0.0
  0
LINE
  5
35D
330
1F
100
AcDbEntity
  8
0
  6
Continuous
 62
     7
370
    15
100
AcDbLine
 10
242.4413483932
 20
73.8028937793
 30
0.0
 11
242.4413483932
 21
95.5153627164
 31
0.0
  0
LINE
  5
35E
330
1F
100
AcDbEntity
  8
0
  6
Continuous
 62
     7
370
    15
100
AcDbLine
 10
242.4413483932
 20
123.1696780613
 30
0.0
 11
242.4413483932
 21
130.9091288439
 31
0.0
  0
ARC
  5
35F
330
1F
100
AcDbEntity
  8
0
  6
Continuous
 62
     8
370
     0
100
AcDbCircle
 10
201.4413472607
 20
84.6591282478
 30
0.0
 40
42.85620653250528
100
AcDbArc
 50
66.6999122254
 51
173.3000877746
  0
ARC
  5
360
330
1F
100
AcDbEntity
  8
0
  6
Continuous
 62
     8
370
     0
100
AcDbCircle
 10
201.4413472607
 20
84.6591282478
 30
0.0
 40
42.85620653250529
100
AcDbArc
 50
186.6999122254
 51
293.3000877746
  0
ARC
  5
361
330
1F
100
AcDbEntity
  8
0
  6
Continuous
 62
     8
370
     0
100
AcDbCircle
 10
201.4413472607
 20
84.6591282478
 30
0.0
 40
42.85620653250529
100
AcDbArc
 50
306.6999122254
 51
53.3000877746
  0
CIRCLE
  5
362
330
1F
100
AcDbEntity
  8
0
  6
Continuous
 62
     8
370
     0
100
AcDbCircle
 10
201.4413472607
 20
84.6591282478
 30
0.0
 40
55.80673760769795
  0
ARC
  5
363
330
1F
100
AcDbEntity
  8
0
  6
Continuous
 62
     8
370
     0
100
AcDbCircle
 10
201.4413472607
 20
84.6591282478
 30
0.0
 40
12.71287563449521
100
AcDbArc
 50
83.1601190315
 51
142.0877847343
  0
ARC
  5
364
330
1F
100
AcDbEntity
  8
0
  6
Continuous
 62
     8
370
     0
100
AcDbCircle
 10
201.4413472607
 20
84.6591282478
 30
0.0
 40
12.71287563449523
100
AcDbArc
 50
203.1601190315
 51
226.5060023742
  0
ARC
  5
365
330
1F
100
AcDbEntity
  8
0
  6
Continuous
 62
     8
370
     0
100
AcDbCircle
 10
201.4413472607
 20
84.6591282478
 30
0.0
 40
12.71287563449522
100
AcDbArc
 50
323.1601190315
 51
22.0877847343
  0
ARC
  5
366
330
1F
100
AcDbEntity
  8
0
  6
Continuous
 62
     8
370
     0
100
AcDbCircle
 10
201.4413472607
 20
84.6591282478
 30
0.0
 40
15.66729889353185
100
AcDbArc
 50
78.6106853549
 51
143.5868148077
  0
LINE
  5
367
330
1F
100
AcDbEntity
  8
0
  6
Continuous
 62
     8
370
     0
100
AcDbLine
 10
213.1954940378
 20
95.0179070077
 30
0.0
 11
214.0497189357
 21
93.9593015081
 31
0.0
  0
ARC
  5
368
330
1F
100
AcDbEntity
  8
0
  6
Continuous
 62
     8
370
     0
100
AcDbCircle
 10
201.4413472607
 20
84.6591282478
 30
0.0
 40
15.66729889353184
100
AcDbArc
 50
245.4415518661
 51
263.5868148077
  0
ARC
  5
369
330
1F
100
AcDbEntity
  8
0
  6
Continuous
 62
     8
370
     0
100
AcDbCircle
 10
201.4413472607
 20
84.6591282478
 30
0.0
 40
15.66729889353186
100
AcDbArc
 50
198.6106853549
 51
236.0486958211
  0
LINE
  5
36A
330
1F
100
AcDbEntity
  8
0
  6
Continuous
 62
     8
370
     0
100
AcDbLine
 10
186.5933087065
 20
89.6591281361
 30
0.0
 11
187.0829757645
 21
90.9282120718
 31
0.0
  0
ARC
  5
36B
330
1F
100
AcDbEntity
  8
0
  6
Continuous
 62
     8
370
     0
100
AcDbCircle
 10
201.4413472607
 20
84.6591282478
 30
0.0
 40
15.66729889353185
100
AcDbArc
 50
318.6106853549
 51
23.5868148077
  0
LINE
  5
36C
330
1F
100
AcDbEntity
  8
0
  6
Continuous
 62
     8
370
     0
100
AcDbLine
 10
204.5352395035
 20
69.3003495998
 30
0.0
 11
203.1913473147
 21
69.0898716292
 31
0.0
  0
ARC
  5
36D
330
1F
100
AcDbEntity
  8
0
  6
Continuous
 62
     8
370
     0
100
AcDbCircle
 10
201.4413472607
 20
84.6591282478
 30
0.0
 40
15.66729889353187
100
AcDbArc
 50
28.0444756517
 51
31.9555243483
  0
ARC
  5
36E
330
1F
100
AcDbEntity
  8
0
  6
Continuous
 62
     8
370
     0
100
AcDbCircle
 10
201.4413472607
 20
84.6591282478
 30
0.0
 40
15.66729889353185
100
AcDbArc
 50
148.0444756517
 51
151.9555243483
  0
ARC
  5
36F
330
1F
100
AcDbEntity
  8
0
  6
Continuous
 62
     8
370
     0
100
AcDbCircle
 10
201.4413472607
 20
84.6591282478
 30
0.0
 40
15.66729889353184
100
AcDbArc
 50
268.0444756517
 51
271.9555243483
  0
ARC
  5
370
330
1F
100
AcDbEntity
  8
0
  6
Continuous
 62
     8
370
     0
100
AcDbCircle
 10
201.4413472607
 20
84.6591282478
 30
0.0
 40
16.0
100
AcDbArc
 50
198.2099568643
 51
236.8471120714
  0
ARC
  5
371
330
1F
100
AcDbEntity
  8
0
  6
Continuous
 62
     8
370
     0
100
AcDbCircle
 10
201.4413472607
 20
84.6591282478
 30
0.0
 40
16.0
100
AcDbArc
 50
242.9518894536
 51
281.7900431357
  0
ARC
  5
372
330
1F
100
AcDbEntity
  8
0
  6
Continuous
 62
     8
370
     0
100
AcDbCircle
 10
201.4413472607
 20
84.6591282478
 30
0.0
 40
16.00000000000002
100
AcDbArc
 50
318.2099568643
 51
41.7900431357
  0
ARC
  5
373
330
1F
100
AcDbEntity
  8
0
  6
Continuous
 62
     8
370
     0
100
AcDbCircle
 10
201.4413472607
 20
84.6591282478
 30
0.0
 40
16.0
100
AcDbArc
 50
78.2099568643
 51
161.7900431357
  0
SPLINE
  5
374
330
1F
100
AcDbEntity
  8
0
  6
Continuous
 62
     8
370
     0
100
AcDbSpline
210
0.0
220
0.0
230
1.0
 70
     8
 71
     3
 72
    16
 73
    12
 74
     0
 42
0.00000001
 43
0.00000001
 12
1.0
 22
0.0
 32
0.0
 13
1.0
 23
0.0
 33
0.0
 40
0.0
 40
0.0
 40
0.0
 40
0.0
 40
0.0006860207686387
 40
0.1889064005489855
 40
0.3827449432953015
 40
0.4896696993932488
 40
0.6178263038359093
 40
0.7481856058224758
 40
0.8253253316705302
 40
0.9803493981746361
 40
1.0
 40
1.0
 40
1.0
 40
1.0
 10
188.5385286405078
 20
98.90625791910756
 30
0.0
 10
188.5418000937915
 20
98.90882340927608
 30
0.0
 10
189.4426452177873
 20
99.61527069999015
 30
0.0
 10
191.3982526591389
 20
100.9003412335041
 30
0.0
 10
194.1705602058766
 20
102.1120337632989
 30
0.0
 10
196.7381668003116
 20
102.8459380993994
 30
0.0
 10
198.9953859423648
 20
103.2408450669717
 30
0.0
 10
201.1084016049126
 20
103.3689874624324
 30
0.0
 10
203.3813384992816
 20
103.2754426031031
 30
0.0
 10
204.9740185187487
 20
103.125182867866
 30
0.0
 10
206.0159579638241
 20
102.8199487128941
 30
0.0
 10
206.1331743716589
 20
102.7856103918301
 30
0.0
  0
LWPOLYLINE
  5
375
330
1F
100
AcDbEntity
  8
0
  6
Continuous
 62
     8
370
     0
100
AcDbPolyline
 90
        9
 70
   128
 43
0.0
 10
190.2114987715
 20
98.0807708419
 10
190.102732402
 20
98.0283848784
 10
189.9581026628
 20
98.0224644608
 10
189.7804640576
 20
98.0631260044
 10
189.5733239471
 20
98.1495667091
 10
189.3407736316
 20
98.2800803921
 10
189.0874026685
 20
98.4520900837
 10
188.8182169169
 20
98.6621983192
 10
188.5385286405
 20
98.9062579191
  0
LWPOLYLINE
  5
376
330
1F
100
AcDbEntity
  8
0
  6
Continuous
 62
     8
370
     0
100
AcDbPolyline
 90
        9
 70
   128
 43
0.0
 10
190.2114987715
 20
71.2374856538
 10
190.102732402
 20
71.2898716173
 10
189.9581026628
 20
71.2957920349
 10
189.7804640576
 20
71.2551304913
 10
189.5733239471
 20
71.1686897865
 10
189.3407736316
 20
71.0381761036
 10
189.0874026685
 20
70.866166412
 10
188.8182169169
 20
70.6560581765
 10
188.5385286405
 20
70.4119985766
  0
SPLINE
  5
377
330
1F
100
AcDbEntity
  8
0
  6
Continuous
 62
     8
370
     0
100
AcDbSpline
210
0.0
220
0.0
230
1.0
 70
     8
 71
     3
 72
    16
 73
    12
 74
     0
 42
0.00000001
 43
0.00000001
 12
1.0
 22
0.0
 32
0.0
 13
1.0
 23
0.0
 33
0.0
 40
0.0
 40
0.0
 40
0.0
 40
0.0
 40
0.0006860372386527
 40
0.1917581146637465
 40
0.3827377003868306
 40
0.4896650235386014
 40
0.6189301739300259
 40
0.748180875212379
 40
0.8253224530340585
 40
0.982247377825748
 40
1.0
 40
1.0
 40
1.0
 40
1.0
 10
188.5385286405078
 20
70.41199857655633
 30
0.0
 10
188.541800089107
 20
70.40943308083405
 30
0.0
 10
189.45622102758
 20
69.6923369887246
 30
0.0
 10
191.4158986276628
 20
68.41212109094596
 30
0.0
 10
194.1874707293618
 20
67.20105629705775
 30
0.0
 10
196.744780190753
 20
66.47027392569939
 30
0.0
 10
199.002602491267
 20
66.07775433414467
 30
0.0
 10
201.115330337737
 20
65.94948489700091
 30
0.0
 10
203.3932990854244
 20
66.04305758025649
 30
0.0
 10
204.9857365303351
 20
66.19594690164989
 30
0.0
 10
206.027785562079
 20
66.50077237193818
 30
0.0
 10
206.133689858704
 20
66.53175203416217
 30
0.0
  0
LWPOLYLINE
  5
378
330
1F
100
AcDbEntity
  8
0
  6
Continuous
 62
     8
370
     0
100
AcDbPolyline
 90
        9
 70
   128
 43
0.0
 10
187.7664883032
 20
73.7390441662
 10
187.8379244699
 20
73.6095642513
 10
187.8691396087
 20
73.4510717756
 10
187.8596140414
 20
73.2662051759
 10
187.8095060929
 20
73.0580434046
 10
187.7196511596
 20
72.8300509817
 10
187.5915449455
 20
72.586023978
 10
187.427319248
 20
72.3300266853
 10
187.2297093614
 20
72.0663199044
  0
SPLINE
  5
379
330
1F
100
AcDbEntity
  8
0
  6
Continuous
 62
     8
370
     0
100
AcDbSpline
210
0.0
220
0.0
230
1.0
 70
     8
 71
     3
 72
    11
 73
     7
 74
     0
 42
0.00000001
 43
0.00000001
 12
1.0
 22
0.0
 32
0.0
 13
1.0
 23
0.0
 33
0.0
 40
0.0
 40
0.0
 40
0.0
 40
0.0
 40
0.3114395526422769
 40
0.6265748217070564
 40
0.9336174847834532
 40
1.0
 40
1.0
 40
1.0
 40
1.0
 10
187.2297093614332
 20
97.25193659130204
 30
0.0
 10
186.8035406659207
 20
96.51340991703458
 30
0.0
 10
185.9461461181109
 20
95.02759279673276
 30
0.0
 10
185.0257789522783
 20
92.65913812880753
 30
0.0
 10
184.4573625969265
 20
90.87208016530661
 30
0.0
 10
184.2862489010372
 20
89.8422054394624
 30
0.0
 10
184.2558306052676
 20
89.65912813607324
 30
0.0
  0
SPLINE
  5
37A
330
1F
100
AcDbEntity
  8
0
  6
Continuous
 62
     8
370
     0
100
AcDbSpline
210
0.0
220
0.0
230
1.0
 70
     8
 71
     3
 72
    10
 73
     6
 74
     0
 42
0.00000001
 43
0.00000001
 12
1.0
 22
0.0
 32
0.0
 13
1.0
 23
0.0
 33
0.0
 40
0.0
 40
0.0
 40
0.0
 40
0.0
 40
0.1391229467845385
 40
0.5651513223354311
 40
1.0
 40
1.0
 40
1.0
 40
1.0
 10
184.2542194172136
 20
79.65912835959065
 30
0.0
 10
184.3299895562781
 20
79.28108940018952
 30
0.0
 10
184.637786330826
 20
77.7454029966321
 30
0.0
 10
185.5129603146228
 20
75.16566688854563
 30
0.0
 10
186.6535642443795
 20
73.10646822092002
 30
0.0
 10
187.2297093614332
 20
72.06631990436185
 30
0.0
  0
LWPOLYLINE
  5
37B
330
1F
100
AcDbEntity
  8
0
  6
Continuous
 62
     8
370
     0
100
AcDbPolyline
 90
        9
 70
   128
 43
0.0
 10
187.7664883032
 20
95.5792123294
 10
187.8379244699
 20
95.7086922443
 10
187.8691396087
 20
95.8671847201
 10
187.8596140414
 20
96.0520513198
 10
187.8095060929
 20
96.2602130911
 10
187.7196511596
 20
96.488205514
 10
187.5915449455
 20
96.7322325176
 10
187.427319248
 20
96.9882298103
 10
187.2297093614
 20
97.2519365913
  0
SPLINE
  5
37C
330
1F
100
AcDbEntity
  8
0
  6
Continuous
 62
     8
370
     0
100
AcDbSpline
210
0.0
220
0.0
230
1.0
 70
     8
 71
     3
 72
    36
 73
    32
 74
     0
 42
0.00000001
 43
0.00000001
 12
1.0
 22
0.0
 32
0.0
 13
1.0
 23
0.0
 33
0.0
 40
0.0
 40
0.0
 40
0.0
 40
0.0
 40
0.1250000000000003
 40
0.1250000000000003
 40
0.1875000000000006
 40
0.1875000000000006
 40
0.2500000000000009
 40
0.2500000000000009
 40
0.3125000000000012
 40
0.3125000000000012
 40
0.3750000000000014
 40
0.3750000000000014
 40
0.4062500000000014
 40
0.4062500000000014
 40
0.4375000000000014
 40
0.4375000000000014
 40
0.5000000000000012
 40
0.5000000000000012
 40
0.5312500000000012
 40
0.5312500000000012
 40
0.5625000000000011
 40
0.5625000000000011
 40
0.625000000000001
 40
0.625000000000001
 40
0.6875000000000008
 40
0.6875000000000008
 40
0.7500000000000007
 40
0.7500000000000007
 40
0.8750000000000003
 40
0.8750000000000003
 40
1.0
 40
1.0
 40
1.0
 40
1.0
 10
215.6529847027685
 20
97.25193649464191
 30
0.0
 10
216.2321600873762
 20
96.32017539670251
 30
0.0
 10
216.7320405915389
 20
95.35987808903279
 30
0.0
 10
217.379064198325
 20
93.87373607446189
 30
0.0
 10
217.5774447829036
 20
93.37066770904673
 30
0.0
 10
217.9406899756871
 20
92.34742289246965
 30
0.0
 10
218.104910562055
 20
91.82887853144278
 30
0.0
 10
218.3980474492713
 20
90.78119416136533
 30
0.0
 10
218.5272654609399
 20
90.2512570792766
 30
0.0
 10
218.7513229570053
 20
89.17556828576596
 30
0.0
 10
218.8461810581354
 20
88.62984060847847
 30
0.0
 10
218.9618555040938
 20
87.79504340406464
 30
0.0
 10
218.9960068067114
 20
87.51349717886288
 30
0.0
 10
219.0546105077113
 20
86.94906003330298
 30
0.0
 10
219.0791377857243
 20
86.66575432590936
 30
0.0
 10
219.1382431470724
 20
85.81217269273012
 30
0.0
 10
219.1583824786678
 20
85.23817916905433
 30
0.0
 10
219.1583615557939
 20
84.36870226849159
 30
0.0
 10
219.1532807819341
 20
84.07859804054348
 30
0.0
 10
219.1331941050903
 20
83.50220630499724
 30
0.0
 10
219.1182207727778
 20
83.2160606603833
 30
0.0
 10
219.0589823728783
 20
82.36318032357228
 30
0.0
 10
219.0004499810616
 20
81.80198912933835
 30
0.0
 10
218.8465562809257
 20
80.69087632119566
 30
0.0
 10
218.75099522707
 20
80.14048763104718
 30
0.0
 10
218.5252722710424
 20
79.0580638611142
 30
0.0
 10
218.3945897903258
 20
78.52340164710984
 30
0.0
 10
217.9525273446657
 20
76.94741640129884
 30
0.0
 10
217.5919130625925
 20
75.93300716179142
 30
0.0
 10
216.7321045180503
 20
73.95893021259438
 30
0.0
 10
216.2331255631985
 20
72.99963432935772
 30
0.0
 10
215.6529847027685
 20
72.06632000102196
 30
0.0
  0
LWPOLYLINE
  5
37D
330
1F
100
AcDbEntity
  8
0
  6
Continuous
 62
     8
370
     0
100
AcDbPolyline
 90
        9
 70
   128
 43
0.0
 10
215.1162062182
 20
73.7390441662
 10
215.0447700515
 20
73.6095642513
 10
215.0135549127
 20
73.4510717756
 10
215.02308048
 20
73.2662051759
 10
215.0731884285
 20
73.0580434046
 10
215.1630433618
 20
72.8300509817
 10
215.2911495759
 20
72.586023978
 10
215.4553752735
 20
72.3300266853
 10
215.65298516
 20
72.0663199044
  0
LWPOLYLINE
  5
37E
330
1F
100
AcDbEntity
  8
0
  6
Continuous
 62
     8
370
     0
100
AcDbPolyline
 90
        9
 70
   128
 43
0.0
 10
215.1162062182
 20
95.5792123294
 10
215.0447700515
 20
95.7086922443
 10
215.0135549127
 20
95.8671847201
 10
215.02308048
 20
96.0520513198
 10
215.0731884285
 20
96.2602130911
 10
215.1630433618
 20
96.488205514
 10
215.2911495759
 20
96.7322325176
 10
215.4553752735
 20
96.9882298103
 10
215.65298516
 20
97.2519365913
  0
SPLINE
  5
37F
330
1F
100
AcDbEntity
  8
0
  6
Continuous
 62
     8
370
     0
100
AcDbSpline
210
0.0
220
0.0
230
1.0
 70
     8
 71
     3
 72
    12
 73
     8
 74
     0
 42
0.00000001
 43
0.00000001
 12
1.0
 22
0.0
 32
0.0
 13
1.0
 23
0.0
 33
0.0
 40
0.0
 40
0.0
 40
0.0
 40
0.0
 40
0.5000000000000001
 40
0.5000000000000001
 40
0.75
 40
0.75
 40
1.0
 40
1.0
 40
1.0
 40
1.0
 10
188.5385286738357
 20
98.90625753749848
 30
0.0
 10
188.3228334937354
 20
98.6437732302399
 30
0.0
 10
188.09891728573
 20
98.37429312812542
 30
0.0
 10
187.7602400845694
 20
97.94982798355728
 30
0.0
 10
187.648880667707
 20
97.80756297282949
 30
0.0
 10
187.4343847011187
 20
97.52755587171383
 30
0.0
 10
187.3304677909996
 20
97.38883208434211
 30
0.0
 10
187.229709818657
 20
97.25193649464191
 30
0.0
  0
SPLINE
  5
380
330
1F
100
AcDbEntity
  8
0
  6
Continuous
 62
     8
370
     0
100
AcDbSpline
210
0.0
220
0.0
230
1.0
 70
     8
 71
     3
 72
     9
 73
     5
 74
     0
 42
0.00000001
 43
0.00000001
 12
1.0
 22
0.0
 32
0.0
 13
1.0
 23
0.0
 33
0.0
 40
0.0
 40
0.0
 40
0.0
 40
0.0
 40
0.0949175082191359
 40
0.9999999999999999
 40
0.9999999999999999
 40
0.9999999999999999
 40
0.9999999999999999
 10
214.9859393357626
 20
98.11904913101066
 30
0.0
 10
215.0078657311888
 20
98.09223498743418
 30
0.0
 10
215.2388704829736
 20
97.80973554049783
 30
0.0
 10
215.456244102649
 20
97.51694037199341
 30
0.0
 10
215.6529851599923
 20
97.25193659130204
 30
0.0
  0
SPLINE
  5
381
330
1F
100
AcDbEntity
  8
0
  6
Continuous
 62
     8
370
     0
100
AcDbSpline
210
0.0
220
0.0
230
1.0
 70
     8
 71
     3
 72
    12
 73
     8
 74
     0
 42
0.00000001
 43
0.00000001
 12
1.0
 22
0.0
 32
0.0
 13
1.0
 23
0.0
 33
0.0
 40
0.0
 40
0.0
 40
0.0
 40
0.0
 40
0.5000000000000001
 40
0.5000000000000001
 40
0.75
 40
0.75
 40
1.0
 40
1.0
 40
1.0
 40
1.0
 10
188.5385286738357
 20
70.41199895816541
 30
0.0
 10
188.3228334937354
 20
70.67448326542399
 30
0.0
 10
188.09891728573
 20
70.94396336753847
 30
0.0
 10
187.7602400845694
 20
71.3684285121066
 30
0.0
 10
187.648880667707
 20
71.5106935228344
 30
0.0
 10
187.4343847011187
 20
71.79070062395006
 30
0.0
 10
187.3304677909996
 20
71.92942441132178
 30
0.0
 10
187.229709818657
 20
72.06632000102198
 30
0.0
  0
SPLINE
  5
382
330
1F
100
AcDbEntity
  8
0
  6
Continuous
 62
     8
370
     0
100
AcDbSpline
210
0.0
220
0.0
230
1.0
 70
     8
 71
     3
 72
     9
 73
     5
 74
     0
 42
0.00000001
 43
0.00000001
 12
1.0
 22
0.0
 32
0.0
 13
1.0
 23
0.0
 33
0.0
 40
0.0
 40
0.0
 40
0.0
 40
0.0
 40
0.0949175082191359
 40
0.9999999999999999
 40
0.9999999999999999
 40
0.9999999999999999
 40
0.9999999999999999
 10
214.9859393357626
 20
71.19920736465323
 30
0.0
 10
215.0078657311888
 20
71.2260215082297
 30
0.0
 10
215.2388704829736
 20
71.50852095516605
 30
0.0
 10
215.456244102649
 20
71.80131612367046
 30
0.0
 10
215.6529851599923
 20
72.06631990436185
 30
0.0
  0
SPLINE
  5
383
330
1F
100
AcDbEntity
  8
0
  6
Continuous
 62
     8
370
     0
100
AcDbSpline
210
0.0
220
0.0
230
1.0
 70
     8
 71
     3
 72
    16
 73
    12
 74
     0
 42
0.00000001
 43
0.00000001
 12
1.0
 22
0.0
 32
0.0
 13
1.0
 23
0.0
 33
0.0
 40
0.0
 40
0.0
 40
0.0
 40
0.0
 40
0.2500000000000003
 40
0.2500000000000003
 40
0.3750000000000014
 40
0.3750000000000014
 40
0.5000000000000024
 40
0.5000000000000024
 40
0.7500000000000012
 40
0.7500000000000012
 40
1.0
 40
1.0
 40
1.0
 40
1.0
 10
188.5385286738357
 20
98.90625753749849
 30
0.0
 10
188.2523141605876
 20
99.4041434287285
 30
0.0
 10
188.0183986274719
 20
99.91007500839457
 30
0.0
 10
187.7270623549058
 20
100.6731348732036
 30
0.0
 10
187.6401587840271
 20
100.9282858627298
 30
0.0
 10
187.4859716834393
 20
101.4396975917349
 30
0.0
 10
187.4187071754
 20
101.6962401182882
 30
0.0
 10
187.2484098567658
 20
102.4570380776779
 30
0.0
 10
187.1754296770517
 20
102.9558554147999
 30
0.0
 10
187.1106203864251
 20
103.9374264285118
 30
0.0
 10
187.1187921720433
 20
104.420181336613
 30
0.0
 10
187.1724226222201
 20
104.8955589252353
 30
0.0
  0
SPLINE
  5
384
330
1F
100
AcDbEntity
  8
0
  6
Continuous
 62
     8
370
     0
100
AcDbSpline
210
0.0
220
0.0
230
1.0
 70
     8
 71
     3
 72
     8
 73
     4
 74
     0
 42
0.00000001
 43
0.00000001
 12
1.0
 22
0.0
 32
0.0
 13
1.0
 23
0.0
 33
0.0
 40
0.0
 40
0.0
 40
0.0
 40
0.0
 40
1.0
 40
1.0
 40
1.0
 40
1.0
 10
187.1724226222201
 20
104.8955589252353
 30
0.0
 10
187.1977046543891
 20
105.119657575318
 30
0.0
 10
187.2230779595425
 20
105.3405831519483
 30
0.0
 10
187.2484912364924
 20
105.5583284416259
 30
0.0
  0
SPLINE
  5
385
330
1F
100
AcDbEntity
  8
0
  6
Continuous
 62
     8
370
     0
100
AcDbSpline
210
0.0
220
0.0
230
1.0
 70
     8
 71
     3
 72
     8
 73
     4
 74
     0
 42
0.00000001
 43
0.00000001
 12
1.0
 22
0.0
 32
0.0
 13
1.0
 23
0.0
 33
0.0
 40
0.0
 40
0.0
 40
0.0
 40
0.0
 40
1.0
 40
1.0
 40
1.0
 40
1.0
 10
187.1724226222201
 20
64.4226975704286
 30
0.0
 10
187.1977046543891
 20
64.19859892034584
 30
0.0
 10
187.2230779595425
 20
63.97767334371559
 30
0.0
 10
187.2484912364924
 20
63.75992805403799
 30
0.0
  0
SPLINE
  5
386
330
1F
100
AcDbEntity
  8
0
  6
Continuous
 62
     8
370
     0
100
AcDbSpline
210
0.0
220
0.0
230
1.0
 70
     8
 71
     3
 72
    16
 73
    12
 74
     0
 42
0.00000001
 43
0.00000001
 12
1.0
 22
0.0
 32
0.0
 13
1.0
 23
0.0
 33
0.0
 40
0.0
 40
0.0
 40
0.0
 40
0.0
 40
0.2500000000000003
 40
0.2500000000000003
 40
0.3750000000000014
 40
0.3750000000000014
 40
0.5000000000000024
 40
0.5000000000000024
 40
0.7500000000000012
 40
0.7500000000000012
 40
1.0
 40
1.0
 40
1.0
 40
1.0
 10
188.5385286738357
 20
70.41199895816538
 30
0.0
 10
188.2523141605876
 20
69.91411306693539
 30
0.0
 10
188.0183986274719
 20
69.4081814872693
 30
0.0
 10
187.7270623549058
 20
68.64512162246025
 30
0.0
 10
187.6401587840271
 20
68.38997063293414
 30
0.0
 10
187.4859716834393
 20
67.87855890392902
 30
0.0
 10
187.4187071754
 20
67.62201637737567
 30
0.0
 10
187.2484098567658
 20
66.86121841798598
 30
0.0
 10
187.1754296770517
 20
66.36240108086403
 30
0.0
 10
187.1106203864251
 20
65.38083006715205
 30
0.0
 10
187.1187921720433
 20
64.89807515905092
 30
0.0
 10
187.1724226222201
 20
64.4226975704286
 30
0.0
  0
SPLINE
  5
387
330
1F
100
AcDbEntity
  8
0
  6
Continuous
 62
     8
370
     0
100
AcDbSpline
210
0.0
220
0.0
230
1.0
 70
     8
 71
     3
 72
    20
 73
    16
 74
     0
 42
0.00000001
 43
0.00000001
 12
1.0
 22
0.0
 32
0.0
 13
1.0
 23
0.0
 33
0.0
 40
0.0
 40
0.0
 40
0.0
 40
0.0
 40
0.2500000000000024
 40
0.2500000000000024
 40
0.5000000000000049
 40
0.5000000000000049
 40
0.5625000000000041
 40
0.5625000000000041
 40
0.6250000000000034
 40
0.6250000000000034
 40
0.750000000000002
 40
0.750000000000002
 40
0.875000000000001
 40
0.875000000000001
 40
1.0
 40
1.0
 40
1.0
 40
1.0
 10
218.3103959031234
 20
103.3041880653357
 30
0.0
 10
218.3686271558869
 20
102.8295801998549
 30
0.0
 10
218.3516523846966
 20
102.3435665873575
 30
0.0
 10
218.181848680548
 20
101.347446407284
 30
0.0
 10
218.0290453916277
 20
100.8373150173285
 30
0.0
 10
217.7493965717727
 20
100.1842636548986
 30
0.0
 10
217.6887977392894
 20
100.0525498108704
 30
0.0
 10
217.5596906227091
 20
99.79034994988059
 30
0.0
 10
217.4911109403392
 20
99.65964520525642
 30
0.0
 10
217.2733133950656
 20
99.26884609540389
 30
0.0
 10
217.1120959739191
 20
99.01004250521467
 30
0.0
 10
216.7564292632505
 20
98.49708724234063
 30
0.0
 10
216.5620083062683
 20
98.24291977610046
 30
0.0
 10
216.1365604664639
 20
97.74137149198411
 30
0.0
 10
215.9049246757269
 20
97.49331216905712
 30
0.0
 10
215.6529847027685
 20
97.25193649464192
 30
0.0
  0
ARC
  5
388
330
1F
100
AcDbEntity
  8
0
  6
Continuous
 62
     8
370
     0
100
AcDbCircle
 10
101.4413472607
 20
84.6591282478
 30
0.0
 40
118.3470015935361
100
AcDbArc
 50
350.9355322078
 51
9.0644677922
  0
SPLINE
  5
389
330
1F
100
AcDbEntity
  8
0
  6
Continuous
 62
     8
370
     0
100
AcDbSpline
210
0.0
220
0.0
230
1.0
 70
     8
 71
     3
 72
    20
 73
    16
 74
     0
 42
0.00000001
 43
0.00000001
 12
1.0
 22
0.0
 32
0.0
 13
1.0
 23
0.0
 33
0.0
 40
0.0
 40
0.0
 40
0.0
 40
0.0
 40
0.2500000000000024
 40
0.2500000000000024
 40
0.5000000000000049
 40
0.5000000000000049
 40
0.5625000000000041
 40
0.5625000000000041
 40
0.6250000000000034
 40
0.6250000000000034
 40
0.750000000000002
 40
0.750000000000002
 40
0.875000000000001
 40
0.875000000000001
 40
1.0
 40
1.0
 40
1.0
 40
1.0
 10
218.3103959031234
 20
66.01406843032824
 30
0.0
 10
218.3686271558869
 20
66.48867629580897
 30
0.0
 10
218.3516523846966
 20
66.9746899083064
 30
0.0
 10
218.181848680548
 20
67.97081008837988
 30
0.0
 10
218.0290453916277
 20
68.48094147833537
 30
0.0
 10
217.7493965717727
 20
69.13399284076526
 30
0.0
 10
217.6887977392894
 20
69.26570668479347
 30
0.0
 10
217.5596906227091
 20
69.5279065457833
 30
0.0
 10
217.4911109403392
 20
69.65861129040746
 30
0.0
 10
217.2733133950656
 20
70.04941040026
 30
0.0
 10
217.1120959739191
 20
70.3082139904492
 30
0.0
 10
216.7564292632505
 20
70.82116925332323
 30
0.0
 10
216.5620083062683
 20
71.07533671956342
 30
0.0
 10
216.1365604664639
 20
71.57688500367978
 30
0.0
 10
215.9049246757269
 20
71.82494432660677
 30
0.0
 10
215.6529847027685
 20
72.06632000102196
 30
0.0
  0
ARC
  5
38A
330
1F
100
AcDbEntity
  8
0
  6
Continuous
 62
     8
370
     0
100
AcDbCircle
 10
301.4413472607
 20
84.6591282478
 30
0.0
 40
118.3470015935361
100
AcDbArc
 50
182.4213895342
 51
189.0644677922
  0
ARC
  5
38B
330
1F
100
AcDbEntity
  8
0
  6
Continuous
 62
     8
370
     0
100
AcDbCircle
 10
301.4413472607
 20
84.6591282478
 30
0.0
 40
118.3470015935361
100
AcDbArc
 50
170.9355322078
 51
177.5786104658
  0
SPLINE
  5
38C
330
1F
100
AcDbEntity
  8
0
  6
Continuous
 62
     8
370
     0
100
AcDbSpline
210
0.0
220
0.0
230
1.0
 70
     8
 71
     3
 72
    20
 73
    16
 74
     0
 42
0.00000001
 43
0.00000001
 12
1.0
 22
0.0
 32
0.0
 13
1.0
 23
0.0
 33
0.0
 40
0.0
 40
0.0
 40
0.0
 40
0.0
 40
0.2500000000000024
 40
0.2500000000000024
 40
0.5000000000000049
 40
0.5000000000000049
 40
0.5625000000000041
 40
0.5625000000000041
 40
0.6250000000000034
 40
0.6250000000000034
 40
0.750000000000002
 40
0.750000000000002
 40
0.875000000000001
 40
0.875000000000001
 40
1.0
 40
1.0
 40
1.0
 40
1.0
 10
184.5722986183021
 20
103.3041880653357
 30
0.0
 10
184.5140673655386
 20
102.8295801998549
 30
0.0
 10
184.5310421367288
 20
102.3435665873575
 30
0.0
 10
184.7008458408775
 20
101.347446407284
 30
0.0
 10
184.8536491297978
 20
100.8373150173285
 30
0.0
 10
185.1332979496528
 20
100.1842636548986
 30
0.0
 10
185.1938967821361
 20
100.0525498108704
 30
0.0
 10
185.3230038987164
 20
99.79034994988059
 30
0.0
 10
185.3915835810863
 20
99.65964520525642
 30
0.0
 10
185.6093811263599
 20
99.26884609540389
 30
0.0
 10
185.7705985475064
 20
99.01004250521467
 30
0.0
 10
186.126265258175
 20
98.49708724234063
 30
0.0
 10
186.3206862151572
 20
98.24291977610046
 30
0.0
 10
186.7461340549616
 20
97.74137149198411
 30
0.0
 10
186.9777698456986
 20
97.49331216905712
 30
0.0
 10
187.229709818657
 20
97.25193649464192
 30
0.0
  0
SPLINE
  5
38D
330
1F
100
AcDbEntity
  8
0
  6
Continuous
 62
     8
370
     0
100
AcDbSpline
210
0.0
220
0.0
230
1.0
 70
     8
 71
     3
 72
    20
 73
    16
 74
     0
 42
0.00000001
 43
0.00000001
 12
1.0
 22
0.0
 32
0.0
 13
1.0
 23
0.0
 33
0.0
 40
0.0
 40
0.0
 40
0.0
 40
0.0
 40
0.2500000000000024
 40
0.2500000000000024
 40
0.5000000000000049
 40
0.5000000000000049
 40
0.5625000000000041
 40
0.5625000000000041
 40
0.6250000000000034
 40
0.6250000000000034
 40
0.750000000000002
 40
0.750000000000002
 40
0.875000000000001
 40
0.875000000000001
 40
1.0
 40
1.0
 40
1.0
 40
1.0
 10
184.5722986183021
 20
66.01406843032824
 30
0.0
 10
184.5140673655386
 20
66.48867629580897
 30
0.0
 10
184.5310421367288
 20
66.9746899083064
 30
0.0
 10
184.7008458408775
 20
67.97081008837988
 30
0.0
 10
184.8536491297978
 20
68.48094147833537
 30
0.0
 10
185.1332979496528
 20
69.13399284076526
 30
0.0
 10
185.1938967821361
 20
69.26570668479347
 30
0.0
 10
185.3230038987164
 20
69.5279065457833
 30
0.0
 10
185.3915835810863
 20
69.65861129040746
 30
0.0
 10
185.6093811263599
 20
70.04941040026
 30
0.0
 10
185.7705985475064
 20
70.3082139904492
 30
0.0
 10
186.126265258175
 20
70.82116925332323
 30
0.0
 10
186.3206862151572
 20
71.07533671956342
 30
0.0
 10
186.7461340549616
 20
71.57688500367978
 30
0.0
 10
186.9777698456986
 20
71.82494432660677
 30
0.0
 10
187.229709818657
 20
72.06632000102196
 30
0.0
  0
LWPOLYLINE
  5
38E
330
1F
100
AcDbEntity
  8
0
  6
Continuous
 62
     8
370
     0
100
AcDbPolyline
 90
        3
 70
   128
 43
0.0
 10
218.31039678
 20
103.3041875652
 10
218.2077166035
 20
103.6283474258
 10
218.1893341585
 20
103.6674927762
  0
ARC
  5
38F
330
1F
100
AcDbEntity
  8
0
  6
Continuous
 62
     8
370
     0
100
AcDbCircle
 10
186.8850091687
 20
102.4453167933
 30
0.0
 40
2.467041375541444
100
AcDbArc
 50
83.3097727598
 51
159.6265328493
  0
LWPOLYLINE
  5
390
330
1F
100
AcDbEntity
  8
0
  6
Continuous
 62
     8
370
     0
100
AcDbPolyline
 90
        3
 70
   128
 43
0.0
 10
218.31039678
 20
66.0140689305
 10
218.2077166035
 20
65.6899090699
 10
218.1893341585
 20
65.6507637194
  0
ARC
  5
391
330
1F
100
AcDbEntity
  8
0
  6
Continuous
 62
     8
370
     0
100
AcDbCircle
 10
186.8850091687
 20
66.8729397024
 30
0.0
 40
2.467041375541458
100
AcDbArc
 50
200.3734671507
 51
276.6902272402
  0
LINE
  5
392
330
1F
100
AcDbEntity
  8
0
  6
Continuous
 62
     8
370
     0
100
AcDbLine
 10
218.2466850027
 20
103.7668276421
 30
0.0
 11
218.31039678
 21
103.3041875652
 31
0.0
  0
SPLINE
  5
393
330
1F
100
AcDbEntity
  8
0
  6
Continuous
 62
     8
370
     0
100
AcDbSpline
210
0.0
220
0.0
230
1.0
 70
     8
 71
     3
 72
     8
 73
     4
 74
     0
 42
0.00000001
 43
0.00000001
 12
1.0
 22
0.0
 32
0.0
 13
1.0
 23
0.0
 33
0.0
 40
0.0
 40
0.0
 40
0.0
 40
0.0
 40
1.0
 40
1.0
 40
1.0
 40
1.0
 10
184.6929573388054
 20
104.1782635303933
 30
0.0
 10
184.6527976631217
 20
103.8929602132811
 30
0.0
 10
184.6125043599144
 20
103.6013959670566
 30
0.0
 10
184.5722986183021
 20
103.3041880653357
 30
0.0
  0
LINE
  5
394
330
1F
100
AcDbEntity
  8
0
  6
Continuous
 62
     8
370
     0
100
AcDbLine
 10
218.2466850027
 20
65.5514288536
 30
0.0
 11
218.31039678
 21
66.0140689305
 31
0.0
  0
SPLINE
  5
395
330
1F
100
AcDbEntity
  8
0
  6
Continuous
 62
     8
370
     0
100
AcDbSpline
210
0.0
220
0.0
230
1.0
 70
     8
 71
     3
 72
     8
 73
     4
 74
     0
 42
0.00000001
 43
0.00000001
 12
1.0
 22
0.0
 32
0.0
 13
1.0
 23
0.0
 33
0.0
 40
0.0
 40
0.0
 40
0.0
 40
0.0
 40
1.0
 40
1.0
 40
1.0
 40
1.0
 10
184.6929573388054
 20
65.1399929652706
 30
0.0
 10
184.6527976631217
 20
65.42529628238283
 30
0.0
 10
184.6125043599144
 20
65.71686052860727
 30
0.0
 10
184.5722986183021
 20
66.01406843032825
 30
0.0
  0
INSERT
  5
3A1
330
1F
100
AcDbEntity
  8
FORMAT
100
AcDbBlockReference
  2
SW_CENTERMARKSYMBOL_1
 10
201.4413472607
 20
84.6591282478
 30
0.0
  0
ENDSEC
  0
SECTION
  2
OBJECTS
  0
DICTIONARY
  5
C
330
0
100
AcDbDictionary
281
     1
  3
ACAD_GROUP
350
D
  3
ACAD_LAYOUT
350
1A
  3
ACAD_MLINESTYLE
350
17
  3
ACAD_PLOTSETTINGS
350
19
  3
ACAD_PLOTSTYLENAME
350
E
  0
DICTIONARY
  5
D
102
{ACAD_REACTORS
330
C
102
}
330
C
100
AcDbDictionary
281
     1
  0
DICTIONARY
  5
1A
102
{ACAD_REACTORS
330
C
102
}
330
C
100
AcDbDictionary
281
     1
  3
Layout1
350
1E
  3
Layout2
350
26
  3
Model
350
22
  0
DICTIONARY
  5
17
102
{ACAD_REACTORS
330
C
102
}
330
C
100
AcDbDictionary
281
     1
  3
Standard
350
18
  0
DICTIONARY
  5
19
102
{ACAD_REACTORS
330
C
102
}
330
C
100
AcDbDictionary
281
     1
  0
ACDBDICTIONARYWDFLT
  5
E
102
{ACAD_REACTORS
330
C
102
}
330
C
100
AcDbDictionary
281
     1
  3
Normal
350
F
100
AcDbDictionaryWithDefault
340
F
  0
LAYOUT
  5
1E
102
{ACAD_REACTORS
330
1A
102
}
330
1A
100
AcDbPlotSettings
  1

  2
none_device
  4

  6

 40
0.0
 41
0.0
 42
0.0
 43
0.0
 44
0.0
 45
0.0
 46
0.0
 47
0.0
 48
0.0
 49
0.0
140
0.0
141
0.0
142
1.0
143
1.0
 70
   688
 72
     0
 73
     0
 74
     5
  7

 75
    16
147
1.0
148
0.0
149
0.0
100
AcDbLayout
  1
Layout1
 70
     1
 71
     1
 10
0.0
 20
0.0
 11
420.0
 21
297.0
 12
0.0
 22
0.0
 32
0.0
 14
1.0000000000E+20
 24
1.0000000000E+20
 34
1.0000000000E+20
 15
-1.0000000000E+20
 25
-1.0000000000E+20
 35
-1.0000000000E+20
146
0.0
 13
0.0
 23
0.0
 33
0.0
 16
1.0
 26
0.0
 36
0.0
 17
0.0
 27
1.0
 37
0.0
 76
     0
330
1B
  0
LAYOUT
  5
26
102
{ACAD_REACTORS
330
1A
102
}
330
1A
100
AcDbPlotSettings
  1

  2
none_device
  4

  6

 40
0.0
 41
0.0
 42
0.0
 43
0.0
 44
0.0
 45
0.0
 46
0.0
 47
0.0
 48
0.0
 49
0.0
140
0.0
141
0.0
142
1.0
143
1.0
 70
   688
 72
     0
 73
     0
 74
     5
  7

 75
    16
147
1.0
148
0.0
149
0.0
100
AcDbLayout
  1
Layout2
 70
     1
 71
     2
 10
0.0
 20
0.0
 11
0.0
 21
0.0
 12
0.0
 22
0.0
 32
0.0
 14
0.0
 24
0.0
 34
0.0
 15
0.0
 25
0.0
 35
0.0
146
0.0
 13
0.0
 23
0.0
 33
0.0
 16
1.0
 26
0.0
 36
0.0
 17
0.0
 27
1.0
 37
0.0
 76
     0
330
23
  0
LAYOUT
  5
22
102
{ACAD_REACTORS
330
1A
102
}
330
1A
100
AcDbPlotSettings
  1

  2
none_device
  4

  6

 40
0.0
 41
0.0
 42
0.0
 43
0.0
 44
0.0
 45
0.0
 46
0.0
 47
0.0
 48
0.0
 49
0.0
140
0.0
141
0.0
142
1.0
143
1.0
 70
  1712
 72
     0
 73
     0
 74
     0
  7

 75
     0
147
1.0
148
0.0
149
0.0
100
AcDbLayout
  1
Model
 70
     1
 71
     0
 10
0.0
 20
0.0
 11
594.0
 21
420.0
 12
0.0
 22
0.0
 32
0.0
 14
0.0
 24
0.0
 34
0.0
 15
594.0
 25
420.0
 35
0.0
146
0.0
 13
0.0
 23
0.0
 33
0.0
 16
1.0
 26
0.0
 36
0.0
 17
0.0
 27
1.0
 37
0.0
 76
     0
330
1F
331
29
  0
MLINESTYLE
  5
18
102
{ACAD_REACTORS
330
17
102
}
330
17
100
AcDbMlineStyle
  2
Standard
 70
     0
  3

 62
   256
 51
90.0
 52
90.0
 71
     2
 49
0.5
 62
   256
  6
BYLAYER
 49
-0.5
 62
   256
  6
BYLAYER
  0
ACDBPLACEHOLDER
  5
F
102
{ACAD_REACTORS
330
E
102
}
330
E
  0
ENDSEC
  0
EOF
