  0
SECTION
  2
HEADER
  9
$ACADVER
  1
AC1015
  9
$ACADMAINTVER
 70
     6
  9
$DWGCODEPAGE
  3
ANSI_1252
  9
$INSBASE
 10
0.0
 20
0.0
 30
0.0
  9
$EXTMIN
 10
0.0
 20
0.0
 30
0.0
  9
$EXTMAX
 10
841.0
 20
594.0
 30
0.0
  9
$LIMMIN
 10
0.0
 20
0.0
  9
$LIMMAX
 10
841.0
 20
594.0
  9
$ORTHOMODE
 70
     0
  9
$REGENMODE
 70
     1
  9
$FILLMODE
 70
     1
  9
$QTEXTMODE
 70
     0
  9
$MIRRTEXT
 70
     1
  9
$LTSCALE
 40
1.0
  9
$ATTMODE
 70
     1
  9
$TEXTSIZE
 40
2.5
  9
$TRACEWID
 40
1.0
  9
$TEXTSTYLE
  7
Standard
  9
$CLAYER
  8
0
  9
$CELTYPE
  6
ByLayer
  9
$CECOLOR
 62
   256
  9
$CELTSCALE
 40
1.0
  9
$DISPSILH
 70
     0
  9
$DIMSCALE
 40
1.0
  9
$DIMASZ
 40
2.5
  9
$DIMEXO
 40
1.0
  9
$DIMDLI
 40
3.75
  9
$DIMRND
 40
0.0
  9
$DIMDLE
 40
0.0
  9
$DIMEXE
 40
1.0
  9
$DIMTP
 40
0.0
  9
$DIMTM
 40
0.0
  9
$DIMTXT
 40
2.5
  9
$DIMCEN
 40
2.5
  9
$DIMTSZ
 40
0.0
  9
$DIMTOL
 70
     0
  9
$DIMLIM
 70
     0
  9
$DIMTIH
 70
     1
  9
$DIMTOH
 70
     1
  9
$DIMSE1
 70
     0
  9
$DIMSE2
 70
     0
  9
$DIMTAD
 70
     1
  9
$DIMZIN
 70
     0
  9
$DIMBLK
  1

  9
$DIMASO
 70
     1
  9
$DIMSHO
 70
     1
  9
$DIMPOST
  1

  9
$DIMAPOST
  1

  9
$DIMALT
 70
     0
  9
$DIMALTD
 70
     3
  9
$DIMALTF
 40
0.0393700787
  9
$DIMLFAC
 40
1.0
  9
$DIMTOFL
 70
     1
  9
$DIMTVP
 40
0.0
  9
$DIMTIX
 70
     0
  9
$DIMSOXD
 70
     0
  9
$DIMSAH
 70
     0
  9
$DIMBLK1
  1

  9
$DIMBLK2
  1

  9
$DIMSTYLE
  2
ISO-25
  9
$DIMCLRD
 70
     0
  9
$DIMCLRE
 70
     0
  9
$DIMCLRT
 70
     0
  9
$DIMTFAC
 40
1.0
  9
$DIMGAP
 40
1.524
  9
$DIMJUST
 70
     0
  9
$DIMSD1
 70
     0
  9
$DIMSD2
 70
     0
  9
$DIMTOLJ
 70
     0
  9
$DIMTZIN
 70
     0
  9
$DIMALTZ
 70
     0
  9
$DIMALTTZ
 70
     0
  9
$DIMUPT
 70
     0
  9
$DIMDEC
 70
     2
  9
$DIMTDEC
 70
     2
  9
$DIMALTU
 70
     2
  9
$DIMALTTD
 70
     3
  9
$DIMTXSTY
  7
Standard
  9
$DIMAUNIT
 70
     0
  9
$DIMADEC
 70
     2
  9
$DIMALTRND
 40
0.0
  9
$DIMAZIN
 70
     0
  9
$DIMDSEP
 70
    44
  9
$DIMATFIT
 70
     3
  9
$DIMFRAC
 70
     0
  9
$DIMLDRBLK
  1

  9
$DIMLUNIT
 70
     2
  9
$DIMLWD
 70
    -2
  9
$DIMLWE
 70
    -2
  9
$DIMTMOVE
 70
     0
  9
$LUNITS
 70
     2
  9
$LUPREC
 70
     2
  9
$SKETCHINC
 40
1.0
  9
$FILLETRAD
 40
10.0
  9
$AUNITS
 70
     0
  9
$AUPREC
 70
     2
  9
$MENU
  1
.
  9
$ELEVATION
 40
0.0
  9
$PELEVATION
 40
0.0
  9
$THICKNESS
 40
0.0
  9
$LIMCHECK
 70
     0
  9
$CHAMFERA
 40
10.0
  9
$CHAMFERB
 40
10.0
  9
$CHAMFERC
 40
20.0
  9
$CHAMFERD
 40
0.0
  9
$SKPOLY
 70
     0
  9
$TDCREATE
 40
2457457.489230891
  9
$TDUCREATE
 40
2457457.447564225
  9
$TDUPDATE
 40
2457457.489231979
  9
$TDUUPDATE
 40
2457457.447565312
  9
$TDINDWG
 40
0.0000000116
  9
$TDUSRTIMER
 40
0.0000000116
  9
$USRTIMER
 70
     1
  9
$ANGBASE
 50
0.0
  9
$ANGDIR
 70
     0
  9
$PDMODE
 70
     0
  9
$PDSIZE
 40
-1.0
  9
$PLINEWID
 40
0.0
  9
$SPLFRAME
 70
     0
  9
$SPLINETYPE
 70
     6
  9
$SPLINESEGS
 70
     8
  9
$HANDSEED
  5
3BF
  9
$SURFTAB1
 70
     6
  9
$SURFTAB2
 70
     6
  9
$SURFTYPE
 70
     6
  9
$SURFU
 70
     6
  9
$SURFV
 70
     6
  9
$UCSBASE
  2

  9
$UCSNAME
  2

  9
$UCSORG
 10
0.0
 20
0.0
 30
0.0
  9
$UCSXDIR
 10
1.0
 20
0.0
 30
0.0
  9
$UCSYDIR
 10
0.0
 20
1.0
 30
0.0
  9
$UCSORTHOREF
  2

  9
$UCSORTHOVIEW
 70
     0
  9
$UCSORGTOP
 10
0.0
 20
0.0
 30
0.0
  9
$UCSORGBOTTOM
 10
0.0
 20
0.0
 30
0.0
  9
$UCSORGLEFT
 10
0.0
 20
0.0
 30
0.0
  9
$UCSORGRIGHT
 10
0.0
 20
0.0
 30
0.0
  9
$UCSORGFRONT
 10
0.0
 20
0.0
 30
0.0
  9
$UCSORGBACK
 10
0.0
 20
0.0
 30
0.0
  9
$PUCSBASE
  2

  9
$PUCSNAME
  2

  9
$PUCSORG
 10
0.0
 20
0.0
 30
0.0
  9
$PUCSXDIR
 10
1.0
 20
0.0
 30
0.0
  9
$PUCSYDIR
 10
0.0
 20
1.0
 30
0.0
  9
$PUCSORTHOREF
  2

  9
$PUCSORTHOVIEW
 70
     0
  9
$PUCSORGTOP
 10
0.0
 20
0.0
 30
0.0
  9
$PUCSORGBOTTOM
 10
0.0
 20
0.0
 30
0.0
  9
$PUCSORGLEFT
 10
0.0
 20
0.0
 30
0.0
  9
$PUCSORGRIGHT
 10
0.0
 20
0.0
 30
0.0
  9
$PUCSORGFRONT
 10
0.0
 20
0.0
 30
0.0
  9
$PUCSORGBACK
 10
0.0
 20
0.0
 30
0.0
  9
$USERI1
 70
     0
  9
$USERI2
 70
     0
  9
$USERI3
 70
     0
  9
$USERI4
 70
     0
  9
$USERI5
 70
     0
  9
$USERR1
 40
0.0
  9
$USERR2
 40
0.0
  9
$USERR3
 40
0.0
  9
$USERR4
 40
0.0
  9
$USERR5
 40
0.0
  9
$WORLDVIEW
 70
     1
  9
$SHADEDGE
 70
     3
  9
$SHADEDIF
 70
    70
  9
$TILEMODE
 70
     1
  9
$MAXACTVP
 70
    64
  9
$PINSBASE
 10
0.0
 20
0.0
 30
0.0
  9
$PLIMCHECK
 70
     0
  9
$PEXTMIN
 10
1.0000000000E+20
 20
1.0000000000E+20
 30
1.0000000000E+20
  9
$PEXTMAX
 10
-1.0000000000E+20
 20
-1.0000000000E+20
 30
-1.0000000000E+20
  9
$PLIMMIN
 10
0.0
 20
0.0
  9
$PLIMMAX
 10
420.0
 20
297.0
  9
$UNITMODE
 70
     0
  9
$VISRETAIN
 70
     1
  9
$PLINEGEN
 70
     0
  9
$PSLTSCALE
 70
     1
  9
$TREEDEPTH
 70
  3020
  9
$CMLSTYLE
  2
Standard
  9
$CMLJUST
 70
     0
  9
$CMLSCALE
 40
20.0
  9
$PROXYGRAPHICS
 70
     1
  9
$MEASUREMENT
 70
     1
  9
$CELWEIGHT
370
    -1
  9
$ENDCAPS
280
     0
  9
$JOINSTYLE
280
     0
  9
$LWDISPLAY
290
     1
  9
$INSUNITS
 70
     4
  9
$HYPERLINKBASE
  1

  9
$STYLESHEET
  1

  9
$XEDIT
290
     1
  9
$CEPSNTYPE
380
     0
  9
$PSTYLEMODE
290
     1
  9
$FINGERPRINTGUID
  2
{6F78CA4E-762B-452A-BB08-0FA6BACF3B23}
  9
$VERSIONGUID
  2
{FAEB1C32-E019-11D5-929B-00C0DF256EC4}
  9
$EXTNAMES
290
     1
  9
$PSVPSCALE
 40
0.0
  9
$OLESTARTUP
290
     0
  0
ENDSEC
  0
SECTION
  2
CLASSES
  0
CLASS
  1
ACDBDICTIONARYWDFLT
  2
AcDbDictionaryWithDefault
  3
ObjectDBX Classes
 90
        0
280
     0
281
     0
  0
CLASS
  1
VISUALSTYLE
  2
AcDbVisualStyle
  3
ObjectDBX Classes
 90
     4095
280
     0
281
     0
  0
CLASS
  1
MATERIAL
  2
AcDbMaterial
  3
ObjectDBX Classes
 90
     1153
280
     0
281
     0
  0
CLASS
  1
ACDBPLACEHOLDER
  2
AcDbPlaceHolder
  3
ObjectDBX Classes
 90
        0
280
     0
281
     0
  0
CLASS
  1
LAYOUT
  2
AcDbLayout
  3
ObjectDBX Classes
 90
        0
280
     0
281
     0
  0
ENDSEC
  0
SECTION
  2
TABLES
  0
TABLE
  2
VPORT
  5
8
330
0
100
AcDbSymbolTable
 70
     1
  0
VPORT
  5
29
330
8
100
AcDbSymbolTableRecord
100
AcDbViewportTableRecord
  2
*Active
 70
     0
 10
0.0
 20
0.0
 11
1.0
 21
1.0
 12
420.5
 22
297.0
 13
0.0
 23
0.0
 14
10.0
 24
10.0
 15
10.0
 25
10.0
 16
0.0
 26
0.0
 36
1.0
 17
0.0
 27
0.0
 37
0.0
 40
594.0
 41
1.4158249158
 42
50.0
 43
0.0
 44
0.0
 50
0.0
 51
0.0
 71
     0
 72
  2000
 73
     1
 74
     3
 75
     0
 76
     0
 77
     0
 78
     0
281
     0
 65
     1
110
0.0
120
0.0
130
0.0
111
1.0
121
0.0
131
0.0
112
0.0
122
1.0
132
0.0
 79
     0
146
0.0
  0
ENDTAB
  0
TABLE
  2
LTYPE
  5
5
330
0
100
AcDbSymbolTable
 70
     6
  0
LTYPE
  5
14
330
5
100
AcDbSymbolTableRecord
100
AcDbLinetypeTableRecord
  2
ByBlock
 70
     0
  3

 72
    65
 73
     0
 40
0.0
  0
LTYPE
  5
15
330
5
100
AcDbSymbolTableRecord
100
AcDbLinetypeTableRecord
  2
ByLayer
 70
     0
  3

 72
    65
 73
     0
 40
0.0
  0
LTYPE
  5
16
330
5
100
AcDbSymbolTableRecord
100
AcDbLinetypeTableRecord
  2
Continuous
 70
     0
  3
Solid line
 72
    65
 73
     0
 40
0.0
  0
LTYPE
  5
3F
330
5
100
AcDbSymbolTableRecord
100
AcDbLinetypeTableRecord
  2
HIDDEN
 70
     0
  3
Hidden __ __ __ __ __ __ __ __ __ __ __ __ __ __
 72
    65
 73
     2
 40
1.905
 49
1.27
 74
     0
 49
-0.635
 74
     0
  0
LTYPE
  5
40
330
5
100
AcDbSymbolTableRecord
100
AcDbLinetypeTableRecord
  2
PHANTOM
 70
     0
  3
Phantom ______  __  __  ______  __  __  ______
 72
    65
 73
     6
 40
12.7
 49
6.35
 74
     0
 49
-1.27
 74
     0
 49
1.27
 74
     0
 49
-1.27
 74
     0
 49
1.27
 74
     0
 49
-1.27
 74
     0
  0
LTYPE
  5
41
330
5
100
AcDbSymbolTableRecord
100
AcDbLinetypeTableRecord
  2
CENTER
 70
     0
  3
Center ____ _ ____ _ ____ _ ____ _ ____ _ ____
 72
    65
 73
     4
 40
10.16
 49
6.35
 74
     0
 49
-1.27
 74
     0
 49
1.27
 74
     0
 49
-1.27
 74
     0
  0
LTYPE
  5
42
330
5
100
AcDbSymbolTableRecord
100
AcDbLinetypeTableRecord
  2
CENTERX2
 70
     0
  3
Center (2x) ________  __  ________  __  _____
 72
    65
 73
     4
 40
20.32
 49
12.7
 74
     0
 49
-2.54
 74
     0
 49
2.54
 74
     0
 49
-2.54
 74
     0
  0
LTYPE
  5
43
330
5
100
AcDbSymbolTableRecord
100
AcDbLinetypeTableRecord
  2
DOT2
 70
     0
  3
Dot (.5x) ........................................
 72
    65
 73
     2
 40
0.635
 49
0.0
 74
     0
 49
-0.635
 74
     0
  0
ENDTAB
  0
TABLE
  2
LAYER
  5
2
330
0
100
AcDbSymbolTable
 70
     5
  0
LAYER
  5
10
330
2
100
AcDbSymbolTableRecord
100
AcDbLayerTableRecord
  2
0
 70
     0
 62
     7
  6
Continuous
370
    -3
390
F
  0
LAYER
  5
44
330
2
100
AcDbSymbolTableRecord
100
AcDbLayerTableRecord
  2
FORMAT
 70
     0
 62
     7
  6
Continuous
370
    -3
390
F
  0
LAYER
  5
45
330
2
100
AcDbSymbolTableRecord
100
AcDbLayerTableRecord
  2
PROTOTYPE
 70
     0
 62
     7
  6
Continuous
370
    -3
390
F
  0
LAYER
  5
46
330
2
100
AcDbSymbolTableRecord
100
AcDbLayerTableRecord
  2
TECH_TEXT
 70
     0
 62
     7
  6
Continuous
370
    -3
390
F
  0
LAYER
  5
47
330
2
100
AcDbSymbolTableRecord
100
AcDbLayerTableRecord
  2
TOOLING_TABLE
 70
     0
 62
    -7
  6
Continuous
370
    -3
390
F
  0
ENDTAB
  0
TABLE
  2
STYLE
  5
3
330
0
100
AcDbSymbolTable
 70
     2
  0
STYLE
  5
11
330
3
100
AcDbSymbolTableRecord
100
AcDbTextStyleTableRecord
  2
Standard
 70
     0
 40
0.0
 41
1.0
 50
0.0
 71
     0
 42
2.5
  3
txt
  4

  0
STYLE
  5
52
330
3
100
AcDbSymbolTableRecord
100
AcDbTextStyleTableRecord
  2
SLDTEXTSTYLE0
 70
     0
 40
0.0
 41
0.605
 50
0.0
 71
     0
 42
0.2
  3
TXT
  4

  0
ENDTAB
  0
TABLE
  2
VIEW
  5
6
330
0
100
AcDbSymbolTable
 70
     0
  0
ENDTAB
  0
TABLE
  2
UCS
  5
7
330
0
100
AcDbSymbolTable
 70
     0
  0
ENDTAB
  0
TABLE
  2
APPID
  5
9
330
0
100
AcDbSymbolTable
 70
     1
  0
APPID
  5
12
330
9
100
AcDbSymbolTableRecord
100
AcDbRegAppTableRecord
  2
ACAD
 70
     0
  0
ENDTAB
  0
TABLE
  2
DIMSTYLE
  5
A
330
0
100
AcDbSymbolTable
 70
     1
100
AcDbDimStyleTable
  0
DIMSTYLE
105
27
330
A
100
AcDbSymbolTableRecord
100
AcDbDimStyleTableRecord
  2
ISO-25
 70
     0
 41
2.5
 42
0.625
 43
3.75
 44
1.25
 73
     0
 74
     0
 77
     1
 78
     8
140
2.5
141
2.5
143
0.0393700787
147
0.625
171
     3
172
     1
178
     0
271
     2
272
     2
274
     3
278
    44
283
     0
284
     8
340
11
  0
ENDTAB
  0
TABLE
  2
BLOCK_RECORD
  5
1
330
0
100
AcDbSymbolTable
 70
    14
  0
BLOCK_RECORD
  5
1F
330
1
100
AcDbSymbolTableRecord
100
AcDbBlockTableRecord
  2
*Model_Space
340
22
  0
BLOCK_RECORD
  5
1B
330
1
100
AcDbSymbolTableRecord
100
AcDbBlockTableRecord
  2
*Paper_Space
340
1E
  0
BLOCK_RECORD
  5
23
330
1
100
AcDbSymbolTableRecord
100
AcDbBlockTableRecord
  2
*Paper_Space0
340
26
  0
BLOCK_RECORD
  5
EC
330
1
100
AcDbSymbolTableRecord
100
AcDbBlockTableRecord
  2
SW_CENTERMARKSYMBOL_0
340
0
102
{BLKREFS
331
14B
102
}
  0
BLOCK_RECORD
  5
1DF
330
1
100
AcDbSymbolTableRecord
100
AcDbBlockTableRecord
  2
SW_CENTERMARKSYMBOL_1
340
0
102
{BLKREFS
331
1EA
102
}
  0
BLOCK_RECORD
  5
1EB
330
1
100
AcDbSymbolTableRecord
100
AcDbBlockTableRecord
  2
SW_CENTERMARKSYMBOL_2
340
0
102
{BLKREFS
331
1F6
102
}
  0
BLOCK_RECORD
  5
1F7
330
1
100
AcDbSymbolTableRecord
100
AcDbBlockTableRecord
  2
SW_CENTERMARKSYMBOL_3
340
0
102
{BLKREFS
331
202
102
}
  0
BLOCK_RECORD
  5
203
330
1
100
AcDbSymbolTableRecord
100
AcDbBlockTableRecord
  2
SW_CENTERMARKSYMBOL_4
340
0
102
{BLKREFS
331
20E
102
}
  0
BLOCK_RECORD
  5
20F
330
1
100
AcDbSymbolTableRecord
100
AcDbBlockTableRecord
  2
SW_CENTERMARKSYMBOL_5
340
0
102
{BLKREFS
331
21A
102
}
  0
BLOCK_RECORD
  5
34F
330
1
100
AcDbSymbolTableRecord
100
AcDbBlockTableRecord
  2
SW_CENTERMARKSYMBOL_6
340
0
102
{BLKREFS
331
35A
102
}
  0
BLOCK_RECORD
  5
35B
330
1
100
AcDbSymbolTableRecord
100
AcDbBlockTableRecord
  2
SW_CENTERMARKSYMBOL_7
340
0
102
{BLKREFS
331
366
102
}
  0
BLOCK_RECORD
  5
367
330
1
100
AcDbSymbolTableRecord
100
AcDbBlockTableRecord
  2
SW_CENTERMARKSYMBOL_8
340
0
102
{BLKREFS
331
372
102
}
  0
BLOCK_RECORD
  5
373
330
1
100
AcDbSymbolTableRecord
100
AcDbBlockTableRecord
  2
SW_CENTERMARKSYMBOL_9
340
0
102
{BLKREFS
331
37E
102
}
  0
BLOCK_RECORD
  5
37F
330
1
100
AcDbSymbolTableRecord
100
AcDbBlockTableRecord
  2
SW_CENTERMARKSYMBOL_10
340
0
102
{BLKREFS
331
38A
102
}
  0
BLOCK_RECORD
  5
38B
330
1
100
AcDbSymbolTableRecord
100
AcDbBlockTableRecord
  2
SW_CENTERMARKSYMBOL_11
340
0
102
{BLKREFS
331
396
102
}
  0
BLOCK_RECORD
  5
397
330
1
100
AcDbSymbolTableRecord
100
AcDbBlockTableRecord
  2
SW_CENTERMARKSYMBOL_12
340
0
102
{BLKREFS
331
3BE
102
}
  0
ENDTAB
  0
ENDSEC
  0
SECTION
  2
BLOCKS
  0
BLOCK
  5
20
330
1F
100
AcDbEntity
  8
0
100
AcDbBlockBegin
  2
*Model_Space
 70
     0
 10
0.0
 20
0.0
 30
0.0
  3
*Model_Space
  1

  0
ENDBLK
  5
21
330
1F
100
AcDbEntity
  8
0
100
AcDbBlockEnd
  0
BLOCK
  5
1C
330
1B
100
AcDbEntity
 67
     1
  8
0
100
AcDbBlockBegin
  2
*Paper_Space
 70
     0
 10
0.0
 20
0.0
 30
0.0
  3
*Paper_Space
  1

  0
ENDBLK
  5
1D
330
1B
100
AcDbEntity
 67
     1
  8
0
100
AcDbBlockEnd
  0
BLOCK
  5
24
330
23
100
AcDbEntity
  8
0
100
AcDbBlockBegin
  2
*Paper_Space0
 70
     0
 10
0.0
 20
0.0
 30
0.0
  3
*Paper_Space0
  1

  0
ENDBLK
  5
25
330
23
100
AcDbEntity
  8
0
100
AcDbBlockEnd
  0
BLOCK
  5
ED
330
EC
100
AcDbEntity
  8
0
100
AcDbBlockBegin
  2
SW_CENTERMARKSYMBOL_0
 70
     0
 10
0.0
 20
0.0
 30
0.0
  3
SW_CENTERMARKSYMBOL_0
  1

  0
ARC
  5
EF
330
EC
100
AcDbEntity
  8
FORMAT
 62
     0
100
AcDbCircle
 10
45.2933328929
 20
-169.0370196006
 30
0.0
 40
175.0000000000001
100
AcDbArc
 50
105.0
 51
105.8185111359
  0
ARC
  5
F0
330
EC
100
AcDbEntity
  8
FORMAT
 62
     0
100
AcDbCircle
 10
45.2933328929
 20
-169.0370196006
 30
0.0
 40
175.0000000000001
100
AcDbArc
 50
104.1814888641
 51
105.0
  0
ARC
  5
F1
330
EC
100
AcDbEntity
  8
FORMAT
 62
     0
100
AcDbCircle
 10
45.2933328929
 20
-169.0370196006
 30
0.0
 40
175.0000000000001
100
AcDbArc
 50
75.0
 51
75.8185111359
  0
ARC
  5
F2
330
EC
100
AcDbEntity
  8
FORMAT
 62
     0
100
AcDbCircle
 10
45.2933328929
 20
-169.0370196006
 30
0.0
 40
175.0000000000001
100
AcDbArc
 50
74.1814888641
 51
75.0
  0
ARC
  5
F3
330
EC
100
AcDbEntity
  8
FORMAT
 62
     0
100
AcDbCircle
 10
45.2933328929
 20
-169.0370196006
 30
0.0
 40
175.0000000000001
100
AcDbArc
 50
45.0
 51
45.8185111359
  0
ARC
  5
F4
330
EC
100
AcDbEntity
  8
FORMAT
 62
     0
100
AcDbCircle
 10
45.2933328929
 20
-169.0370196006
 30
0.0
 40
175.0000000000001
100
AcDbArc
 50
44.1814888641
 51
45.0
  0
ARC
  5
F5
330
EC
100
AcDbEntity
  8
FORMAT
 62
     0
100
AcDbCircle
 10
45.2933328929
 20
-169.0370196006
 30
0.0
 40
175.0
100
AcDbArc
 50
15.0
 51
15.8185111359
  0
ARC
  5
F6
330
EC
100
AcDbEntity
  8
FORMAT
 62
     0
100
AcDbCircle
 10
45.2933328929
 20
-169.0370196006
 30
0.0
 40
175.0
100
AcDbArc
 50
14.1814888641
 51
15.0
  0
ARC
  5
F7
330
EC
100
AcDbEntity
  8
FORMAT
 62
     0
100
AcDbCircle
 10
45.2933328929
 20
-169.0370196006
 30
0.0
 40
174.9999999999999
100
AcDbArc
 50
345.0
 51
345.8185111359
  0
ARC
  5
F8
330
EC
100
AcDbEntity
  8
FORMAT
 62
     0
100
AcDbCircle
 10
45.2933328929
 20
-169.0370196006
 30
0.0
 40
174.9999999999999
100
AcDbArc
 50
344.1814888641
 51
345.0
  0
ARC
  5
F9
330
EC
100
AcDbEntity
  8
FORMAT
 62
     0
100
AcDbCircle
 10
45.2933328929
 20
-169.0370196006
 30
0.0
 40
174.9999999999999
100
AcDbArc
 50
315.0
 51
315.8185111359
  0
ARC
  5
FA
330
EC
100
AcDbEntity
  8
FORMAT
 62
     0
100
AcDbCircle
 10
45.2933328929
 20
-169.0370196006
 30
0.0
 40
174.9999999999999
100
AcDbArc
 50
314.1814888641
 51
315.0
  0
ARC
  5
FB
330
EC
100
AcDbEntity
  8
FORMAT
 62
     0
100
AcDbCircle
 10
45.2933328929
 20
-169.0370196006
 30
0.0
 40
174.9999999999999
100
AcDbArc
 50
285.0
 51
285.8185111359
  0
ARC
  5
FC
330
EC
100
AcDbEntity
  8
FORMAT
 62
     0
100
AcDbCircle
 10
45.2933328929
 20
-169.0370196006
 30
0.0
 40
174.9999999999999
100
AcDbArc
 50
284.1814888641
 51
285.0
  0
ARC
  5
FD
330
EC
100
AcDbEntity
  8
FORMAT
 62
     0
100
AcDbCircle
 10
45.2933328929
 20
-169.0370196006
 30
0.0
 40
174.9999999999999
100
AcDbArc
 50
255.0
 51
255.8185111359
  0
ARC
  5
FE
330
EC
100
AcDbEntity
  8
FORMAT
 62
     0
100
AcDbCircle
 10
45.2933328929
 20
-169.0370196006
 30
0.0
 40
174.9999999999999
100
AcDbArc
 50
254.1814888641
 51
255.0
  0
ARC
  5
FF
330
EC
100
AcDbEntity
  8
FORMAT
 62
     0
100
AcDbCircle
 10
45.2933328929
 20
-169.0370196006
 30
0.0
 40
174.9999999999999
100
AcDbArc
 50
225.0
 51
225.8185111359
  0
ARC
  5
100
330
EC
100
AcDbEntity
  8
FORMAT
 62
     0
100
AcDbCircle
 10
45.2933328929
 20
-169.0370196006
 30
0.0
 40
174.9999999999999
100
AcDbArc
 50
224.1814888641
 51
225.0
  0
ARC
  5
101
330
EC
100
AcDbEntity
  8
FORMAT
 62
     0
100
AcDbCircle
 10
45.2933328929
 20
-169.0370196006
 30
0.0
 40
174.9999999999999
100
AcDbArc
 50
195.0
 51
195.8185111359
  0
ARC
  5
102
330
EC
100
AcDbEntity
  8
FORMAT
 62
     0
100
AcDbCircle
 10
45.2933328929
 20
-169.0370196006
 30
0.0
 40
174.9999999999999
100
AcDbArc
 50
194.1814888641
 51
195.0
  0
ARC
  5
103
330
EC
100
AcDbEntity
  8
FORMAT
 62
     0
100
AcDbCircle
 10
45.2933328929
 20
-169.0370196006
 30
0.0
 40
175.0
100
AcDbArc
 50
165.0
 51
165.8185111359
  0
ARC
  5
104
330
EC
100
AcDbEntity
  8
FORMAT
 62
     0
100
AcDbCircle
 10
45.2933328929
 20
-169.0370196006
 30
0.0
 40
175.0
100
AcDbArc
 50
164.1814888641
 51
165.0
  0
ARC
  5
105
330
EC
100
AcDbEntity
  8
FORMAT
 62
     0
100
AcDbCircle
 10
45.2933328929
 20
-169.0370196006
 30
0.0
 40
175.0000000000001
100
AcDbArc
 50
135.0
 51
135.8185111359
  0
ARC
  5
106
330
EC
100
AcDbEntity
  8
FORMAT
 62
     0
100
AcDbCircle
 10
45.2933328929
 20
-169.0370196006
 30
0.0
 40
175.0000000000001
100
AcDbArc
 50
134.1814888641
 51
135.0
  0
ARC
  5
107
330
EC
100
AcDbEntity
  8
FORMAT
 62
     0
100
AcDbCircle
 10
45.2933328929
 20
-169.0370196006
 30
0.0
 40
175.0000000000001
100
AcDbArc
 50
46.6370222718
 51
73.3629777282
  0
ARC
  5
108
330
EC
100
AcDbEntity
  8
FORMAT
 62
     0
100
AcDbCircle
 10
45.2933328929
 20
-169.0370196006
 30
0.0
 40
175.0000000000001
100
AcDbArc
 50
76.6370222718
 51
103.3629777282
  0
ARC
  5
109
330
EC
100
AcDbEntity
  8
FORMAT
 62
     0
100
AcDbCircle
 10
45.2933328929
 20
-169.0370196006
 30
0.0
 40
175.0000000000001
100
AcDbArc
 50
16.6370222718
 51
43.3629777282
  0
ARC
  5
10A
330
EC
100
AcDbEntity
  8
FORMAT
 62
     0
100
AcDbCircle
 10
45.2933328929
 20
-169.0370196006
 30
0.0
 40
175.0
100
AcDbArc
 50
346.6370222718
 51
13.3629777282
  0
ARC
  5
10B
330
EC
100
AcDbEntity
  8
FORMAT
 62
     0
100
AcDbCircle
 10
45.2933328929
 20
-169.0370196006
 30
0.0
 40
174.9999999999999
100
AcDbArc
 50
316.6370222718
 51
343.3629777282
  0
ARC
  5
10C
330
EC
100
AcDbEntity
  8
FORMAT
 62
     0
100
AcDbCircle
 10
45.2933328929
 20
-169.0370196006
 30
0.0
 40
174.9999999999999
100
AcDbArc
 50
286.6370222718
 51
313.3629777282
  0
ARC
  5
10D
330
EC
100
AcDbEntity
  8
FORMAT
 62
     0
100
AcDbCircle
 10
45.2933328929
 20
-169.0370196006
 30
0.0
 40
174.9999999999999
100
AcDbArc
 50
256.6370222718
 51
283.3629777282
  0
ARC
  5
10E
330
EC
100
AcDbEntity
  8
FORMAT
 62
     0
100
AcDbCircle
 10
45.2933328929
 20
-169.0370196006
 30
0.0
 40
174.9999999999998
100
AcDbArc
 50
226.6370222718
 51
253.3629777282
  0
ARC
  5
10F
330
EC
100
AcDbEntity
  8
FORMAT
 62
     0
100
AcDbCircle
 10
45.2933328929
 20
-169.0370196006
 30
0.0
 40
174.9999999999999
100
AcDbArc
 50
196.6370222718
 51
223.3629777282
  0
ARC
  5
110
330
EC
100
AcDbEntity
  8
FORMAT
 62
     0
100
AcDbCircle
 10
45.2933328929
 20
-169.0370196006
 30
0.0
 40
175.0
100
AcDbArc
 50
166.6370222718
 51
193.3629777282
  0
ARC
  5
111
330
EC
100
AcDbEntity
  8
FORMAT
 62
     0
100
AcDbCircle
 10
45.2933328929
 20
-169.0370196006
 30
0.0
 40
175.0000000000001
100
AcDbArc
 50
106.6370222718
 51
133.3629777282
  0
ARC
  5
112
330
EC
100
AcDbEntity
  8
FORMAT
 62
     0
100
AcDbCircle
 10
45.2933328929
 20
-169.0370196006
 30
0.0
 40
175.0
100
AcDbArc
 50
136.6370222718
 51
163.3629777282
  0
LINE
  5
113
330
EC
100
AcDbEntity
  8
FORMAT
 62
     0
100
AcDbLine
 10
0.0
 20
0.0
 30
0.0
 11
-0.6470476128
 21
2.4148145657
 31
0.0
  0
LINE
  5
114
330
EC
100
AcDbEntity
  8
FORMAT
 62
     0
100
AcDbLine
 10
0.0
 20
0.0
 30
0.0
 11
0.6470476128
 21
-2.4148145657
 31
0.0
  0
LINE
  5
115
330
EC
100
AcDbEntity
  8
FORMAT
 62
     0
100
AcDbLine
 10
-1.2940952255
 20
4.8296291314
 30
0.0
 11
-3.8822856765
 21
14.4888873943
 31
0.0
  0
LINE
  5
116
330
EC
100
AcDbEntity
  8
FORMAT
 62
     0
100
AcDbLine
 10
1.2940952255
 20
-4.8296291314
 30
0.0
 11
3.8822856765
 21
-14.4888873943
 31
0.0
  0
LINE
  5
117
330
EC
100
AcDbEntity
  8
FORMAT
 62
     0
100
AcDbLine
 10
90.5866657859
 20
0.0
 30
0.0
 11
91.2337133986
 21
2.4148145657
 31
0.0
  0
LINE
  5
118
330
EC
100
AcDbEntity
  8
FORMAT
 62
     0
100
AcDbLine
 10
90.5866657859
 20
0.0
 30
0.0
 11
89.9396181731
 21
-2.4148145657
 31
0.0
  0
LINE
  5
119
330
EC
100
AcDbEntity
  8
FORMAT
 62
     0
100
AcDbLine
 10
91.8807610114
 20
4.8296291314
 30
0.0
 11
94.4689514624
 21
14.4888873943
 31
0.0
  0
LINE
  5
11A
330
EC
100
AcDbEntity
  8
FORMAT
 62
     0
100
AcDbLine
 10
89.2925705604
 20
-4.8296291314
 30
0.0
 11
86.7043801093
 21
-14.4888873943
 31
0.0
  0
LINE
  5
11B
330
EC
100
AcDbEntity
  8
FORMAT
 62
     0
100
AcDbLine
 10
169.0370196006
 20
-45.2933328929
 30
0.0
 11
170.8047865536
 21
-43.52556594
 31
0.0
  0
LINE
  5
11C
330
EC
100
AcDbEntity
  8
FORMAT
 62
     0
100
AcDbLine
 10
169.0370196006
 20
-45.2933328929
 30
0.0
 11
167.2692526476
 21
-47.0610998459
 31
0.0
  0
LINE
  5
11D
330
EC
100
AcDbEntity
  8
FORMAT
 62
     0
100
AcDbLine
 10
172.5725535065
 20
-41.757798987
 30
0.0
 11
179.6436213184
 21
-34.6867311751
 31
0.0
  0
LINE
  5
11E
330
EC
100
AcDbEntity
  8
FORMAT
 62
     0
100
AcDbLine
 10
165.5014856947
 20
-48.8288667989
 30
0.0
 11
158.4304178828
 21
-55.8999346107
 31
0.0
  0
LINE
  5
11F
330
EC
100
AcDbEntity
  8
FORMAT
 62
     0
100
AcDbLine
 10
45.2933328929
 20
-169.0370196006
 30
0.0
 11
45.2933328929
 21
-166.5370196006
 31
0.0
  0
LINE
  5
120
330
EC
100
AcDbEntity
  8
FORMAT
 62
     0
100
AcDbLine
 10
45.2933328929
 20
-169.0370196006
 30
0.0
 11
42.7933328929
 21
-169.0370196006
 31
0.0
  0
LINE
  5
121
330
EC
100
AcDbEntity
  8
FORMAT
 62
     0
100
AcDbLine
 10
45.2933328929
 20
-169.0370196006
 30
0.0
 11
45.2933328929
 21
-171.5370196006
 31
0.0
  0
LINE
  5
122
330
EC
100
AcDbEntity
  8
FORMAT
 62
     0
100
AcDbLine
 10
45.2933328929
 20
-169.0370196006
 30
0.0
 11
47.7933328929
 21
-169.0370196006
 31
0.0
  0
LINE
  5
123
330
EC
100
AcDbEntity
  8
FORMAT
 62
     0
100
AcDbLine
 10
45.2933328929
 20
-164.0370196006
 30
0.0
 11
45.2933328929
 21
2.5
 31
0.0
  0
LINE
  5
124
330
EC
100
AcDbEntity
  8
FORMAT
 62
     0
100
AcDbLine
 10
40.2933328929
 20
-169.0370196006
 30
0.0
 11
-126.2436867076
 21
-169.0370196006
 31
0.0
  0
LINE
  5
125
330
EC
100
AcDbEntity
  8
FORMAT
 62
     0
100
AcDbLine
 10
45.2933328929
 20
-174.0370196006
 30
0.0
 11
45.2933328929
 21
-340.5740392012
 31
0.0
  0
LINE
  5
126
330
EC
100
AcDbEntity
  8
FORMAT
 62
     0
100
AcDbLine
 10
50.2933328929
 20
-169.0370196006
 30
0.0
 11
216.8303524935
 21
-169.0370196006
 31
0.0
  0
LINE
  5
127
330
EC
100
AcDbEntity
  8
FORMAT
 62
     0
100
AcDbLine
 10
214.3303524935
 20
-123.7436867076
 30
0.0
 11
216.7451670592
 21
-123.0966390949
 31
0.0
  0
LINE
  5
128
330
EC
100
AcDbEntity
  8
FORMAT
 62
     0
100
AcDbLine
 10
214.3303524935
 20
-123.7436867076
 30
0.0
 11
211.9155379278
 21
-124.3907343204
 31
0.0
  0
LINE
  5
129
330
EC
100
AcDbEntity
  8
FORMAT
 62
     0
100
AcDbLine
 10
219.159981625
 20
-122.4495914821
 30
0.0
 11
228.8192398879
 21
-119.8614010311
 31
0.0
  0
LINE
  5
12A
330
EC
100
AcDbEntity
  8
FORMAT
 62
     0
100
AcDbLine
 10
209.5007233621
 20
-125.0377819332
 30
0.0
 11
199.8414650992
 21
-127.6259723842
 31
0.0
  0
LINE
  5
12B
330
EC
100
AcDbEntity
  8
FORMAT
 62
     0
100
AcDbLine
 10
214.3303524935
 20
-214.3303524935
 30
0.0
 11
216.7451670592
 21
-214.9774001063
 31
0.0
  0
LINE
  5
12C
330
EC
100
AcDbEntity
  8
FORMAT
 62
     0
100
AcDbLine
 10
214.3303524935
 20
-214.3303524935
 30
0.0
 11
211.9155379278
 21
-213.6833048808
 31
0.0
  0
LINE
  5
12D
330
EC
100
AcDbEntity
  8
FORMAT
 62
     0
100
AcDbLine
 10
219.159981625
 20
-215.624447719
 30
0.0
 11
228.8192398879
 21
-218.2126381701
 31
0.0
  0
LINE
  5
12E
330
EC
100
AcDbEntity
  8
FORMAT
 62
     0
100
AcDbLine
 10
209.5007233621
 20
-213.036257268
 30
0.0
 11
199.8414650992
 21
-210.448066817
 31
0.0
  0
LINE
  5
12F
330
EC
100
AcDbEntity
  8
FORMAT
 62
     0
100
AcDbLine
 10
169.0370196006
 20
-292.7807063082
 30
0.0
 11
170.8047865536
 21
-294.5484732612
 31
0.0
  0
LINE
  5
130
330
EC
100
AcDbEntity
  8
FORMAT
 62
     0
100
AcDbLine
 10
169.0370196006
 20
-292.7807063082
 30
0.0
 11
167.2692526476
 21
-291.0129393553
 31
0.0
  0
LINE
  5
131
330
EC
100
AcDbEntity
  8
FORMAT
 62
     0
100
AcDbLine
 10
172.5725535065
 20
-296.3162402142
 30
0.0
 11
179.6436213184
 21
-303.387308026
 31
0.0
  0
LINE
  5
132
330
EC
100
AcDbEntity
  8
FORMAT
 62
     0
100
AcDbLine
 10
165.5014856947
 20
-289.2451724023
 30
0.0
 11
158.4304178828
 21
-282.1741045904
 31
0.0
  0
LINE
  5
133
330
EC
100
AcDbEntity
  8
FORMAT
 62
     0
100
AcDbLine
 10
90.5866657859
 20
-338.0740392012
 30
0.0
 11
91.2337133986
 21
-340.4888537669
 31
0.0
  0
LINE
  5
134
330
EC
100
AcDbEntity
  8
FORMAT
 62
     0
100
AcDbLine
 10
90.5866657859
 20
-338.0740392012
 30
0.0
 11
89.9396181731
 21
-335.6592246355
 31
0.0
  0
LINE
  5
135
330
EC
100
AcDbEntity
  8
FORMAT
 62
     0
100
AcDbLine
 10
91.8807610114
 20
-342.9036683326
 30
0.0
 11
94.4689514624
 21
-352.5629265955
 31
0.0
  0
LINE
  5
136
330
EC
100
AcDbEntity
  8
FORMAT
 62
     0
100
AcDbLine
 10
89.2925705604
 20
-333.2444100697
 30
0.0
 11
86.7043801093
 21
-323.5851518068
 31
0.0
  0
LINE
  5
137
330
EC
100
AcDbEntity
  8
FORMAT
 62
     0
100
AcDbLine
 10
0.0
 20
-338.0740392012
 30
0.0
 11
-0.6470476128
 21
-340.4888537669
 31
0.0
  0
LINE
  5
138
330
EC
100
AcDbEntity
  8
FORMAT
 62
     0
100
AcDbLine
 10
0.0
 20
-338.0740392012
 30
0.0
 11
0.6470476128
 21
-335.6592246355
 31
0.0
  0
LINE
  5
139
330
EC
100
AcDbEntity
  8
FORMAT
 62
     0
100
AcDbLine
 10
-1.2940952255
 20
-342.9036683326
 30
0.0
 11
-3.8822856765
 21
-352.5629265955
 31
0.0
  0
LINE
  5
13A
330
EC
100
AcDbEntity
  8
FORMAT
 62
     0
100
AcDbLine
 10
1.2940952255
 20
-333.2444100697
 30
0.0
 11
3.8822856765
 21
-323.5851518068
 31
0.0
  0
LINE
  5
13B
330
EC
100
AcDbEntity
  8
FORMAT
 62
     0
100
AcDbLine
 10
-78.4503538147
 20
-292.7807063082
 30
0.0
 11
-80.2181207677
 21
-294.5484732612
 31
0.0
  0
LINE
  5
13C
330
EC
100
AcDbEntity
  8
FORMAT
 62
     0
100
AcDbLine
 10
-78.4503538147
 20
-292.7807063082
 30
0.0
 11
-76.6825868617
 21
-291.0129393553
 31
0.0
  0
LINE
  5
13D
330
EC
100
AcDbEntity
  8
FORMAT
 62
     0
100
AcDbLine
 10
-81.9858877206
 20
-296.3162402142
 30
0.0
 11
-89.0569555325
 21
-303.387308026
 31
0.0
  0
LINE
  5
13E
330
EC
100
AcDbEntity
  8
FORMAT
 62
     0
100
AcDbLine
 10
-74.9148199088
 20
-289.2451724023
 30
0.0
 11
-67.8437520969
 21
-282.1741045904
 31
0.0
  0
LINE
  5
13F
330
EC
100
AcDbEntity
  8
FORMAT
 62
     0
100
AcDbLine
 10
-123.7436867076
 20
-214.3303524935
 30
0.0
 11
-126.1585012734
 21
-214.9774001063
 31
0.0
  0
LINE
  5
140
330
EC
100
AcDbEntity
  8
FORMAT
 62
     0
100
AcDbLine
 10
-123.7436867076
 20
-214.3303524935
 30
0.0
 11
-121.3288721419
 21
-213.6833048808
 31
0.0
  0
LINE
  5
141
330
EC
100
AcDbEntity
  8
FORMAT
 62
     0
100
AcDbLine
 10
-128.5733158391
 20
-215.624447719
 30
0.0
 11
-138.232574102
 21
-218.2126381701
 31
0.0
  0
LINE
  5
142
330
EC
100
AcDbEntity
  8
FORMAT
 62
     0
100
AcDbLine
 10
-118.9140575762
 20
-213.036257268
 30
0.0
 11
-109.2547993133
 21
-210.448066817
 31
0.0
  0
LINE
  5
143
330
EC
100
AcDbEntity
  8
FORMAT
 62
     0
100
AcDbLine
 10
-123.7436867076
 20
-123.7436867076
 30
0.0
 11
-126.1585012734
 21
-123.0966390949
 31
0.0
  0
LINE
  5
144
330
EC
100
AcDbEntity
  8
FORMAT
 62
     0
100
AcDbLine
 10
-123.7436867076
 20
-123.7436867076
 30
0.0
 11
-121.3288721419
 21
-124.3907343204
 31
0.0
  0
LINE
  5
145
330
EC
100
AcDbEntity
  8
FORMAT
 62
     0
100
AcDbLine
 10
-128.5733158391
 20
-122.4495914821
 30
0.0
 11
-138.232574102
 21
-119.8614010311
 31
0.0
  0
LINE
  5
146
330
EC
100
AcDbEntity
  8
FORMAT
 62
     0
100
AcDbLine
 10
-118.9140575762
 20
-125.0377819332
 30
0.0
 11
-109.2547993133
 21
-127.6259723842
 31
0.0
  0
LINE
  5
147
330
EC
100
AcDbEntity
  8
FORMAT
 62
     0
100
AcDbLine
 10
-78.4503538147
 20
-45.2933328929
 30
0.0
 11
-80.2181207677
 21
-43.52556594
 31
0.0
  0
LINE
  5
148
330
EC
100
AcDbEntity
  8
FORMAT
 62
     0
100
AcDbLine
 10
-78.4503538147
 20
-45.2933328929
 30
0.0
 11
-76.6825868617
 21
-47.0610998459
 31
0.0
  0
LINE
  5
149
330
EC
100
AcDbEntity
  8
FORMAT
 62
     0
100
AcDbLine
 10
-81.9858877206
 20
-41.757798987
 30
0.0
 11
-89.0569555325
 21
-34.6867311751
 31
0.0
  0
LINE
  5
14A
330
EC
100
AcDbEntity
  8
FORMAT
 62
     0
100
AcDbLine
 10
-74.9148199088
 20
-48.8288667989
 30
0.0
 11
-67.8437520969
 21
-55.8999346107
 31
0.0
  0
ENDBLK
  5
EE
330
EC
100
AcDbEntity
  8
0
100
AcDbBlockEnd
  0
BLOCK
  5
1E0
330
1DF
100
AcDbEntity
  8
0
100
AcDbBlockBegin
  2
SW_CENTERMARKSYMBOL_1
 70
     0
 10
0.0
 20
0.0
 30
0.0
  3
SW_CENTERMARKSYMBOL_1
  1

  0
LINE
  5
1E2
330
1DF
100
AcDbEntity
  8
FORMAT
 62
     0
100
AcDbLine
 10
0.0
 20
0.0
 30
0.0
 11
0.0
 21
2.5
 31
0.0
  0
LINE
  5
1E3
330
1DF
100
AcDbEntity
  8
FORMAT
 62
     0
100
AcDbLine
 10
0.0
 20
0.0
 30
0.0
 11
-2.5
 21
0.0
 31
0.0
  0
LINE
  5
1E4
330
1DF
100
AcDbEntity
  8
FORMAT
 62
     0
100
AcDbLine
 10
0.0
 20
0.0
 30
0.0
 11
0.0
 21
-2.5
 31
0.0
  0
LINE
  5
1E5
330
1DF
100
AcDbEntity
  8
FORMAT
 62
     0
100
AcDbLine
 10
0.0
 20
0.0
 30
0.0
 11
2.5
 21
0.0
 31
0.0
  0
LINE
  5
1E6
330
1DF
100
AcDbEntity
  8
FORMAT
 62
     0
100
AcDbLine
 10
0.0
 20
5.0
 30
0.0
 11
0.0
 21
92.1658873558
 31
0.0
  0
LINE
  5
1E7
330
1DF
100
AcDbEntity
  8
FORMAT
 62
     0
100
AcDbLine
 10
-5.0
 20
0.0
 30
0.0
 11
-88.8333774722
 21
0.0
 31
0.0
  0
LINE
  5
1E8
330
1DF
100
AcDbEntity
  8
FORMAT
 62
     0
100
AcDbLine
 10
0.0
 20
-5.0
 30
0.0
 11
0.0
 21
-88.2074360047
 31
0.0
  0
LINE
  5
1E9
330
1DF
100
AcDbEntity
  8
FORMAT
 62
     0
100
AcDbLine
 10
5.0
 20
0.0
 30
0.0
 11
105.558597963
 21
0.0
 31
0.0
  0
ENDBLK
  5
1E1
330
1DF
100
AcDbEntity
  8
0
100
AcDbBlockEnd
  0
BLOCK
  5
1EC
330
1EB
100
AcDbEntity
  8
0
100
AcDbBlockBegin
  2
SW_CENTERMARKSYMBOL_2
 70
     0
 10
0.0
 20
0.0
 30
0.0
  3
SW_CENTERMARKSYMBOL_2
  1

  0
LINE
  5
1EE
330
1EB
100
AcDbEntity
  8
FORMAT
 62
     0
100
AcDbLine
 10
0.0
 20
0.0
 30
0.0
 11
0.0
 21
2.5
 31
0.0
  0
LINE
  5
1EF
330
1EB
100
AcDbEntity
  8
FORMAT
 62
     0
100
AcDbLine
 10
0.0
 20
0.0
 30
0.0
 11
-2.5
 21
0.0
 31
0.0
  0
LINE
  5
1F0
330
1EB
100
AcDbEntity
  8
FORMAT
 62
     0
100
AcDbLine
 10
0.0
 20
0.0
 30
0.0
 11
0.0
 21
-2.5
 31
0.0
  0
LINE
  5
1F1
330
1EB
100
AcDbEntity
  8
FORMAT
 62
     0
100
AcDbLine
 10
0.0
 20
0.0
 30
0.0
 11
2.5
 21
0.0
 31
0.0
  0
LINE
  5
1F2
330
1EB
100
AcDbEntity
  8
FORMAT
 62
     0
100
AcDbLine
 10
0.0
 20
5.0
 30
0.0
 11
0.0
 21
9.0
 31
0.0
  0
LINE
  5
1F3
330
1EB
100
AcDbEntity
  8
FORMAT
 62
     0
100
AcDbLine
 10
-5.0
 20
0.0
 30
0.0
 11
-9.0
 21
0.0
 31
0.0
  0
LINE
  5
1F4
330
1EB
100
AcDbEntity
  8
FORMAT
 62
     0
100
AcDbLine
 10
0.0
 20
-5.0
 30
0.0
 11
0.0
 21
-9.0
 31
0.0
  0
LINE
  5
1F5
330
1EB
100
AcDbEntity
  8
FORMAT
 62
     0
100
AcDbLine
 10
5.0
 20
0.0
 30
0.0
 11
9.0
 21
0.0
 31
0.0
  0
ENDBLK
  5
1ED
330
1EB
100
AcDbEntity
  8
0
100
AcDbBlockEnd
  0
BLOCK
  5
1F8
330
1F7
100
AcDbEntity
  8
0
100
AcDbBlockBegin
  2
SW_CENTERMARKSYMBOL_3
 70
     0
 10
0.0
 20
0.0
 30
0.0
  3
SW_CENTERMARKSYMBOL_3
  1

  0
LINE
  5
1FA
330
1F7
100
AcDbEntity
  8
FORMAT
 62
     0
100
AcDbLine
 10
0.0
 20
0.0
 30
0.0
 11
0.0
 21
2.5
 31
0.0
  0
LINE
  5
1FB
330
1F7
100
AcDbEntity
  8
FORMAT
 62
     0
100
AcDbLine
 10
0.0
 20
0.0
 30
0.0
 11
-2.5
 21
0.0
 31
0.0
  0
LINE
  5
1FC
330
1F7
100
AcDbEntity
  8
FORMAT
 62
     0
100
AcDbLine
 10
0.0
 20
0.0
 30
0.0
 11
0.0
 21
-2.5
 31
0.0
  0
LINE
  5
1FD
330
1F7
100
AcDbEntity
  8
FORMAT
 62
     0
100
AcDbLine
 10
0.0
 20
0.0
 30
0.0
 11
2.5
 21
0.0
 31
0.0
  0
LINE
  5
1FE
330
1F7
100
AcDbEntity
  8
FORMAT
 62
     0
100
AcDbLine
 10
0.0
 20
5.0
 30
0.0
 11
0.0
 21
9.0
 31
0.0
  0
LINE
  5
1FF
330
1F7
100
AcDbEntity
  8
FORMAT
 62
     0
100
AcDbLine
 10
-5.0
 20
0.0
 30
0.0
 11
-9.0
 21
0.0
 31
0.0
  0
LINE
  5
200
330
1F7
100
AcDbEntity
  8
FORMAT
 62
     0
100
AcDbLine
 10
0.0
 20
-5.0
 30
0.0
 11
0.0
 21
-9.0
 31
0.0
  0
LINE
  5
201
330
1F7
100
AcDbEntity
  8
FORMAT
 62
     0
100
AcDbLine
 10
5.0
 20
0.0
 30
0.0
 11
9.0
 21
0.0
 31
0.0
  0
ENDBLK
  5
1F9
330
1F7
100
AcDbEntity
  8
0
100
AcDbBlockEnd
  0
BLOCK
  5
204
330
203
100
AcDbEntity
  8
0
100
AcDbBlockBegin
  2
SW_CENTERMARKSYMBOL_4
 70
     0
 10
0.0
 20
0.0
 30
0.0
  3
SW_CENTERMARKSYMBOL_4
  1

  0
LINE
  5
206
330
203
100
AcDbEntity
  8
FORMAT
 62
     0
100
AcDbLine
 10
0.0
 20
0.0
 30
0.0
 11
0.0
 21
2.5
 31
0.0
  0
LINE
  5
207
330
203
100
AcDbEntity
  8
FORMAT
 62
     0
100
AcDbLine
 10
0.0
 20
0.0
 30
0.0
 11
-2.5
 21
0.0
 31
0.0
  0
LINE
  5
208
330
203
100
AcDbEntity
  8
FORMAT
 62
     0
100
AcDbLine
 10
0.0
 20
0.0
 30
0.0
 11
0.0
 21
-2.5
 31
0.0
  0
LINE
  5
209
330
203
100
AcDbEntity
  8
FORMAT
 62
     0
100
AcDbLine
 10
0.0
 20
0.0
 30
0.0
 11
2.5
 21
0.0
 31
0.0
  0
LINE
  5
20A
330
203
100
AcDbEntity
  8
FORMAT
 62
     0
100
AcDbLine
 10
0.0
 20
5.0
 30
0.0
 11
0.0
 21
9.0
 31
0.0
  0
LINE
  5
20B
330
203
100
AcDbEntity
  8
FORMAT
 62
     0
100
AcDbLine
 10
-5.0
 20
0.0
 30
0.0
 11
-9.0
 21
0.0
 31
0.0
  0
LINE
  5
20C
330
203
100
AcDbEntity
  8
FORMAT
 62
     0
100
AcDbLine
 10
0.0
 20
-5.0
 30
0.0
 11
0.0
 21
-9.0
 31
0.0
  0
LINE
  5
20D
330
203
100
AcDbEntity
  8
FORMAT
 62
     0
100
AcDbLine
 10
5.0
 20
0.0
 30
0.0
 11
9.0
 21
0.0
 31
0.0
  0
ENDBLK
  5
205
330
203
100
AcDbEntity
  8
0
100
AcDbBlockEnd
  0
BLOCK
  5
210
330
20F
100
AcDbEntity
  8
0
100
AcDbBlockBegin
  2
SW_CENTERMARKSYMBOL_5
 70
     0
 10
0.0
 20
0.0
 30
0.0
  3
SW_CENTERMARKSYMBOL_5
  1

  0
LINE
  5
212
330
20F
100
AcDbEntity
  8
FORMAT
 62
     0
100
AcDbLine
 10
0.0
 20
0.0
 30
0.0
 11
0.0
 21
2.5
 31
0.0
  0
LINE
  5
213
330
20F
100
AcDbEntity
  8
FORMAT
 62
     0
100
AcDbLine
 10
0.0
 20
0.0
 30
0.0
 11
-2.5
 21
0.0
 31
0.0
  0
LINE
  5
214
330
20F
100
AcDbEntity
  8
FORMAT
 62
     0
100
AcDbLine
 10
0.0
 20
0.0
 30
0.0
 11
0.0
 21
-2.5
 31
0.0
  0
LINE
  5
215
330
20F
100
AcDbEntity
  8
FORMAT
 62
     0
100
AcDbLine
 10
0.0
 20
0.0
 30
0.0
 11
2.5
 21
0.0
 31
0.0
  0
LINE
  5
216
330
20F
100
AcDbEntity
  8
FORMAT
 62
     0
100
AcDbLine
 10
0.0
 20
5.0
 30
0.0
 11
0.0
 21
9.0
 31
0.0
  0
LINE
  5
217
330
20F
100
AcDbEntity
  8
FORMAT
 62
     0
100
AcDbLine
 10
-5.0
 20
0.0
 30
0.0
 11
-9.0
 21
0.0
 31
0.0
  0
LINE
  5
218
330
20F
100
AcDbEntity
  8
FORMAT
 62
     0
100
AcDbLine
 10
0.0
 20
-5.0
 30
0.0
 11
0.0
 21
-9.0
 31
0.0
  0
LINE
  5
219
330
20F
100
AcDbEntity
  8
FORMAT
 62
     0
100
AcDbLine
 10
5.0
 20
0.0
 30
0.0
 11
9.0
 21
0.0
 31
0.0
  0
ENDBLK
  5
211
330
20F
100
AcDbEntity
  8
0
100
AcDbBlockEnd
  0
BLOCK
  5
350
330
34F
100
AcDbEntity
  8
0
100
AcDbBlockBegin
  2
SW_CENTERMARKSYMBOL_6
 70
     0
 10
0.0
 20
0.0
 30
0.0
  3
SW_CENTERMARKSYMBOL_6
  1

  0
LINE
  5
352
330
34F
100
AcDbEntity
  8
FORMAT
 62
     0
100
AcDbLine
 10
0.0
 20
0.0
 30
0.0
 11
0.0
 21
2.5
 31
0.0
  0
LINE
  5
353
330
34F
100
AcDbEntity
  8
FORMAT
 62
     0
100
AcDbLine
 10
0.0
 20
0.0
 30
0.0
 11
-2.5
 21
0.0
 31
0.0
  0
LINE
  5
354
330
34F
100
AcDbEntity
  8
FORMAT
 62
     0
100
AcDbLine
 10
0.0
 20
0.0
 30
0.0
 11
0.0
 21
-2.5
 31
0.0
  0
LINE
  5
355
330
34F
100
AcDbEntity
  8
FORMAT
 62
     0
100
AcDbLine
 10
0.0
 20
0.0
 30
0.0
 11
2.5
 21
0.0
 31
0.0
  0
LINE
  5
356
330
34F
100
AcDbEntity
  8
FORMAT
 62
     0
100
AcDbLine
 10
0.0
 20
5.0
 30
0.0
 11
0.0
 21
65.5
 31
0.0
  0
LINE
  5
357
330
34F
100
AcDbEntity
  8
FORMAT
 62
     0
100
AcDbLine
 10
-5.0
 20
0.0
 30
0.0
 11
-65.5
 21
0.0
 31
0.0
  0
LINE
  5
358
330
34F
100
AcDbEntity
  8
FORMAT
 62
     0
100
AcDbLine
 10
0.0
 20
-5.0
 30
0.0
 11
0.0
 21
-65.5
 31
0.0
  0
LINE
  5
359
330
34F
100
AcDbEntity
  8
FORMAT
 62
     0
100
AcDbLine
 10
5.0
 20
0.0
 30
0.0
 11
65.5
 21
0.0
 31
0.0
  0
ENDBLK
  5
351
330
34F
100
AcDbEntity
  8
0
100
AcDbBlockEnd
  0
BLOCK
  5
35C
330
35B
100
AcDbEntity
  8
0
100
AcDbBlockBegin
  2
SW_CENTERMARKSYMBOL_7
 70
     0
 10
0.0
 20
0.0
 30
0.0
  3
SW_CENTERMARKSYMBOL_7
  1

  0
LINE
  5
35E
330
35B
100
AcDbEntity
  8
FORMAT
 62
     0
100
AcDbLine
 10
0.0
 20
0.0
 30
0.0
 11
0.0
 21
2.5
 31
0.0
  0
LINE
  5
35F
330
35B
100
AcDbEntity
  8
FORMAT
 62
     0
100
AcDbLine
 10
0.0
 20
0.0
 30
0.0
 11
-2.5
 21
0.0
 31
0.0
  0
LINE
  5
360
330
35B
100
AcDbEntity
  8
FORMAT
 62
     0
100
AcDbLine
 10
0.0
 20
0.0
 30
0.0
 11
0.0
 21
-2.5
 31
0.0
  0
LINE
  5
361
330
35B
100
AcDbEntity
  8
FORMAT
 62
     0
100
AcDbLine
 10
0.0
 20
0.0
 30
0.0
 11
2.5
 21
0.0
 31
0.0
  0
LINE
  5
362
330
35B
100
AcDbEntity
  8
FORMAT
 62
     0
100
AcDbLine
 10
0.0
 20
5.0
 30
0.0
 11
0.0
 21
29.5653045381
 31
0.0
  0
LINE
  5
363
330
35B
100
AcDbEntity
  8
FORMAT
 62
     0
100
AcDbLine
 10
-5.0
 20
0.0
 30
0.0
 11
-25.6532309983
 21
0.0
 31
0.0
  0
LINE
  5
364
330
35B
100
AcDbEntity
  8
FORMAT
 62
     0
100
AcDbLine
 10
0.0
 20
-5.0
 30
0.0
 11
0.0
 21
-26.5093037605
 31
0.0
  0
LINE
  5
365
330
35B
100
AcDbEntity
  8
FORMAT
 62
     0
100
AcDbLine
 10
5.0
 20
0.0
 30
0.0
 11
27.6176468853
 21
0.0
 31
0.0
  0
ENDBLK
  5
35D
330
35B
100
AcDbEntity
  8
0
100
AcDbBlockEnd
  0
BLOCK
  5
368
330
367
100
AcDbEntity
  8
0
100
AcDbBlockBegin
  2
SW_CENTERMARKSYMBOL_8
 70
     0
 10
0.0
 20
0.0
 30
0.0
  3
SW_CENTERMARKSYMBOL_8
  1

  0
LINE
  5
36A
330
367
100
AcDbEntity
  8
FORMAT
 62
     0
100
AcDbLine
 10
0.0
 20
0.0
 30
0.0
 11
0.0
 21
2.5
 31
0.0
  0
LINE
  5
36B
330
367
100
AcDbEntity
  8
FORMAT
 62
     0
100
AcDbLine
 10
0.0
 20
0.0
 30
0.0
 11
-2.5
 21
0.0
 31
0.0
  0
LINE
  5
36C
330
367
100
AcDbEntity
  8
FORMAT
 62
     0
100
AcDbLine
 10
0.0
 20
0.0
 30
0.0
 11
0.0
 21
-2.5
 31
0.0
  0
LINE
  5
36D
330
367
100
AcDbEntity
  8
FORMAT
 62
     0
100
AcDbLine
 10
0.0
 20
0.0
 30
0.0
 11
2.5
 21
0.0
 31
0.0
  0
LINE
  5
36E
330
367
100
AcDbEntity
  8
FORMAT
 62
     0
100
AcDbLine
 10
0.0
 20
5.0
 30
0.0
 11
0.0
 21
22.1561649764
 31
0.0
  0
LINE
  5
36F
330
367
100
AcDbEntity
  8
FORMAT
 62
     0
100
AcDbLine
 10
-5.0
 20
0.0
 30
0.0
 11
-22.1561649764
 21
0.0
 31
0.0
  0
LINE
  5
370
330
367
100
AcDbEntity
  8
FORMAT
 62
     0
100
AcDbLine
 10
0.0
 20
-5.0
 30
0.0
 11
0.0
 21
-22.1561649764
 31
0.0
  0
LINE
  5
371
330
367
100
AcDbEntity
  8
FORMAT
 62
     0
100
AcDbLine
 10
5.0
 20
0.0
 30
0.0
 11
22.1561649764
 21
0.0
 31
0.0
  0
ENDBLK
  5
369
330
367
100
AcDbEntity
  8
0
100
AcDbBlockEnd
  0
BLOCK
  5
374
330
373
100
AcDbEntity
  8
0
100
AcDbBlockBegin
  2
SW_CENTERMARKSYMBOL_9
 70
     0
 10
0.0
 20
0.0
 30
0.0
  3
SW_CENTERMARKSYMBOL_9
  1

  0
LINE
  5
376
330
373
100
AcDbEntity
  8
FORMAT
 62
     0
100
AcDbLine
 10
0.0
 20
0.0
 30
0.0
 11
0.0
 21
2.5
 31
0.0
  0
LINE
  5
377
330
373
100
AcDbEntity
  8
FORMAT
 62
     0
100
AcDbLine
 10
0.0
 20
0.0
 30
0.0
 11
-2.5
 21
0.0
 31
0.0
  0
LINE
  5
378
330
373
100
AcDbEntity
  8
FORMAT
 62
     0
100
AcDbLine
 10
0.0
 20
0.0
 30
0.0
 11
0.0
 21
-2.5
 31
0.0
  0
LINE
  5
379
330
373
100
AcDbEntity
  8
FORMAT
 62
     0
100
AcDbLine
 10
0.0
 20
0.0
 30
0.0
 11
2.5
 21
0.0
 31
0.0
  0
LINE
  5
37A
330
373
100
AcDbEntity
  8
FORMAT
 62
     0
100
AcDbLine
 10
0.0
 20
5.0
 30
0.0
 11
0.0
 21
22.1561649764
 31
0.0
  0
LINE
  5
37B
330
373
100
AcDbEntity
  8
FORMAT
 62
     0
100
AcDbLine
 10
-5.0
 20
0.0
 30
0.0
 11
-22.1561649764
 21
0.0
 31
0.0
  0
LINE
  5
37C
330
373
100
AcDbEntity
  8
FORMAT
 62
     0
100
AcDbLine
 10
0.0
 20
-5.0
 30
0.0
 11
0.0
 21
-22.1561649764
 31
0.0
  0
LINE
  5
37D
330
373
100
AcDbEntity
  8
FORMAT
 62
     0
100
AcDbLine
 10
5.0
 20
0.0
 30
0.0
 11
22.1561649764
 21
0.0
 31
0.0
  0
ENDBLK
  5
375
330
373
100
AcDbEntity
  8
0
100
AcDbBlockEnd
  0
BLOCK
  5
380
330
37F
100
AcDbEntity
  8
0
100
AcDbBlockBegin
  2
SW_CENTERMARKSYMBOL_10
 70
     0
 10
0.0
 20
0.0
 30
0.0
  3
SW_CENTERMARKSYMBOL_10
  1

  0
LINE
  5
382
330
37F
100
AcDbEntity
  8
FORMAT
 62
     0
100
AcDbLine
 10
0.0
 20
0.0
 30
0.0
 11
0.0
 21
2.5
 31
0.0
  0
LINE
  5
383
330
37F
100
AcDbEntity
  8
FORMAT
 62
     0
100
AcDbLine
 10
0.0
 20
0.0
 30
0.0
 11
-2.5
 21
0.0
 31
0.0
  0
LINE
  5
384
330
37F
100
AcDbEntity
  8
FORMAT
 62
     0
100
AcDbLine
 10
0.0
 20
0.0
 30
0.0
 11
0.0
 21
-2.5
 31
0.0
  0
LINE
  5
385
330
37F
100
AcDbEntity
  8
FORMAT
 62
     0
100
AcDbLine
 10
0.0
 20
0.0
 30
0.0
 11
2.5
 21
0.0
 31
0.0
  0
LINE
  5
386
330
37F
100
AcDbEntity
  8
FORMAT
 62
     0
100
AcDbLine
 10
0.0
 20
5.0
 30
0.0
 11
0.0
 21
21.5
 31
0.0
  0
LINE
  5
387
330
37F
100
AcDbEntity
  8
FORMAT
 62
     0
100
AcDbLine
 10
-5.0
 20
0.0
 30
0.0
 11
-21.5
 21
0.0
 31
0.0
  0
LINE
  5
388
330
37F
100
AcDbEntity
  8
FORMAT
 62
     0
100
AcDbLine
 10
0.0
 20
-5.0
 30
0.0
 11
0.0
 21
-21.5
 31
0.0
  0
LINE
  5
389
330
37F
100
AcDbEntity
  8
FORMAT
 62
     0
100
AcDbLine
 10
5.0
 20
0.0
 30
0.0
 11
21.5
 21
0.0
 31
0.0
  0
ENDBLK
  5
381
330
37F
100
AcDbEntity
  8
0
100
AcDbBlockEnd
  0
BLOCK
  5
38C
330
38B
100
AcDbEntity
  8
0
100
AcDbBlockBegin
  2
SW_CENTERMARKSYMBOL_11
 70
     0
 10
0.0
 20
0.0
 30
0.0
  3
SW_CENTERMARKSYMBOL_11
  1

  0
LINE
  5
38E
330
38B
100
AcDbEntity
  8
FORMAT
 62
     0
100
AcDbLine
 10
0.0
 20
0.0
 30
0.0
 11
0.0
 21
2.5
 31
0.0
  0
LINE
  5
38F
330
38B
100
AcDbEntity
  8
FORMAT
 62
     0
100
AcDbLine
 10
0.0
 20
0.0
 30
0.0
 11
-2.5
 21
0.0
 31
0.0
  0
LINE
  5
390
330
38B
100
AcDbEntity
  8
FORMAT
 62
     0
100
AcDbLine
 10
0.0
 20
0.0
 30
0.0
 11
0.0
 21
-2.5
 31
0.0
  0
LINE
  5
391
330
38B
100
AcDbEntity
  8
FORMAT
 62
     0
100
AcDbLine
 10
0.0
 20
0.0
 30
0.0
 11
2.5
 21
0.0
 31
0.0
  0
LINE
  5
392
330
38B
100
AcDbEntity
  8
FORMAT
 62
     0
100
AcDbLine
 10
0.0
 20
5.0
 30
0.0
 11
0.0
 21
22.1561649764
 31
0.0
  0
LINE
  5
393
330
38B
100
AcDbEntity
  8
FORMAT
 62
     0
100
AcDbLine
 10
-5.0
 20
0.0
 30
0.0
 11
-22.1561649764
 21
0.0
 31
0.0
  0
LINE
  5
394
330
38B
100
AcDbEntity
  8
FORMAT
 62
     0
100
AcDbLine
 10
0.0
 20
-5.0
 30
0.0
 11
0.0
 21
-22.1561649764
 31
0.0
  0
LINE
  5
395
330
38B
100
AcDbEntity
  8
FORMAT
 62
     0
100
AcDbLine
 10
5.0
 20
0.0
 30
0.0
 11
22.1561649764
 21
0.0
 31
0.0
  0
ENDBLK
  5
38D
330
38B
100
AcDbEntity
  8
0
100
AcDbBlockEnd
  0
BLOCK
  5
398
330
397
100
AcDbEntity
  8
0
100
AcDbBlockBegin
  2
SW_CENTERMARKSYMBOL_12
 70
     0
 10
0.0
 20
0.0
 30
0.0
  3
SW_CENTERMARKSYMBOL_12
  1

  0
ARC
  5
39A
330
397
100
AcDbEntity
  8
FORMAT
 62
     0
100
AcDbCircle
 10
36.0624458405
 20
-36.0624458405
 30
0.0
 40
51.00000000000004
100
AcDbArc
 50
135.0
 51
137.8086166428
  0
ARC
  5
39B
330
397
100
AcDbEntity
  8
FORMAT
 62
     0
100
AcDbCircle
 10
36.0624458405
 20
-36.0624458405
 30
0.0
 40
51.00000000000003
100
AcDbArc
 50
132.1913833572
 51
135.0
  0
ARC
  5
39C
330
397
100
AcDbEntity
  8
FORMAT
 62
     0
100
AcDbCircle
 10
36.0624458405
 20
-36.0624458405
 30
0.0
 40
51.00000000000001
100
AcDbArc
 50
45.0
 51
47.8086166428
  0
ARC
  5
39D
330
397
100
AcDbEntity
  8
FORMAT
 62
     0
100
AcDbCircle
 10
36.0624458405
 20
-36.0624458405
 30
0.0
 40
51.00000000000001
100
AcDbArc
 50
42.1913833572
 51
45.0
  0
ARC
  5
39E
330
397
100
AcDbEntity
  8
FORMAT
 62
     0
100
AcDbCircle
 10
36.0624458405
 20
-36.0624458405
 30
0.0
 40
51.00000000000002
100
AcDbArc
 50
315.0
 51
317.8086166428
  0
ARC
  5
39F
330
397
100
AcDbEntity
  8
FORMAT
 62
     0
100
AcDbCircle
 10
36.0624458405
 20
-36.0624458405
 30
0.0
 40
51.00000000000001
100
AcDbArc
 50
312.1913833572
 51
315.0
  0
ARC
  5
3A0
330
397
100
AcDbEntity
  8
FORMAT
 62
     0
100
AcDbCircle
 10
36.0624458405
 20
-36.0624458405
 30
0.0
 40
51.00000000000003
100
AcDbArc
 50
225.0
 51
227.8086166428
  0
ARC
  5
3A1
330
397
100
AcDbEntity
  8
FORMAT
 62
     0
100
AcDbCircle
 10
36.0624458405
 20
-36.0624458405
 30
0.0
 40
51.00000000000004
100
AcDbArc
 50
222.1913833572
 51
225.0
  0
ARC
  5
3A2
330
397
100
AcDbEntity
  8
FORMAT
 62
     0
100
AcDbCircle
 10
36.0624458405
 20
-36.0624458405
 30
0.0
 40
51.00000000000002
100
AcDbArc
 50
50.6172332856
 51
129.3827667144
  0
ARC
  5
3A3
330
397
100
AcDbEntity
  8
FORMAT
 62
     0
100
AcDbCircle
 10
36.0624458405
 20
-36.0624458405
 30
0.0
 40
51.00000000000003
100
AcDbArc
 50
320.6172332856
 51
39.3827667144
  0
ARC
  5
3A4
330
397
100
AcDbEntity
  8
FORMAT
 62
     0
100
AcDbCircle
 10
36.0624458405
 20
-36.0624458405
 30
0.0
 40
51.00000000000003
100
AcDbArc
 50
140.6172332856
 51
219.3827667144
  0
ARC
  5
3A5
330
397
100
AcDbEntity
  8
FORMAT
 62
     0
100
AcDbCircle
 10
36.0624458405
 20
-36.0624458405
 30
0.0
 40
51.00000000000003
100
AcDbArc
 50
230.6172332856
 51
309.3827667144
  0
LINE
  5
3A6
330
397
100
AcDbEntity
  8
FORMAT
 62
     0
100
AcDbLine
 10
0.0
 20
0.0
 30
0.0
 11
-1.767766953
 21
1.767766953
 31
0.0
  0
LINE
  5
3A7
330
397
100
AcDbEntity
  8
FORMAT
 62
     0
100
AcDbLine
 10
0.0
 20
0.0
 30
0.0
 11
1.767766953
 21
-1.767766953
 31
0.0
  0
LINE
  5
3A8
330
397
100
AcDbEntity
  8
FORMAT
 62
     0
100
AcDbLine
 10
-3.5355339059
 20
3.5355339059
 30
0.0
 11
-5.4800775542
 21
5.4800775542
 31
0.0
  0
LINE
  5
3A9
330
397
100
AcDbEntity
  8
FORMAT
 62
     0
100
AcDbLine
 10
3.5355339059
 20
-3.5355339059
 30
0.0
 11
5.4800775542
 21
-5.4800775542
 31
0.0
  0
LINE
  5
3AA
330
397
100
AcDbEntity
  8
FORMAT
 62
     0
100
AcDbLine
 10
72.124891681
 20
0.0
 30
0.0
 11
73.892658634
 21
1.767766953
 31
0.0
  0
LINE
  5
3AB
330
397
100
AcDbEntity
  8
FORMAT
 62
     0
100
AcDbLine
 10
72.124891681
 20
0.0
 30
0.0
 11
70.3571247281
 21
-1.767766953
 31
0.0
  0
LINE
  5
3AC
330
397
100
AcDbEntity
  8
FORMAT
 62
     0
100
AcDbLine
 10
75.660425587
 20
3.5355339059
 30
0.0
 11
77.6049692352
 21
5.4800775542
 31
0.0
  0
LINE
  5
3AD
330
397
100
AcDbEntity
  8
FORMAT
 62
     0
100
AcDbLine
 10
68.5893577751
 20
-3.5355339059
 30
0.0
 11
66.6448141268
 21
-5.4800775542
 31
0.0
  0
LINE
  5
3AE
330
397
100
AcDbEntity
  8
FORMAT
 62
     0
100
AcDbLine
 10
72.124891681
 20
-72.124891681
 30
0.0
 11
73.892658634
 21
-73.892658634
 31
0.0
  0
LINE
  5
3AF
330
397
100
AcDbEntity
  8
FORMAT
 62
     0
100
AcDbLine
 10
72.124891681
 20
-72.124891681
 30
0.0
 11
70.3571247281
 21
-70.3571247281
 31
0.0
  0
LINE
  5
3B0
330
397
100
AcDbEntity
  8
FORMAT
 62
     0
100
AcDbLine
 10
75.660425587
 20
-75.660425587
 30
0.0
 11
77.6049692352
 21
-77.6049692352
 31
0.0
  0
LINE
  5
3B1
330
397
100
AcDbEntity
  8
FORMAT
 62
     0
100
AcDbLine
 10
68.5893577751
 20
-68.5893577751
 30
0.0
 11
66.6448141268
 21
-66.6448141268
 31
0.0
  0
LINE
  5
3B2
330
397
100
AcDbEntity
  8
FORMAT
 62
     0
100
AcDbLine
 10
36.0624458405
 20
-36.0624458405
 30
0.0
 11
36.0624458405
 21
-33.5624458405
 31
0.0
  0
LINE
  5
3B3
330
397
100
AcDbEntity
  8
FORMAT
 62
     0
100
AcDbLine
 10
36.0624458405
 20
-36.0624458405
 30
0.0
 11
33.5624458405
 21
-36.0624458405
 31
0.0
  0
LINE
  5
3B4
330
397
100
AcDbEntity
  8
FORMAT
 62
     0
100
AcDbLine
 10
36.0624458405
 20
-36.0624458405
 30
0.0
 11
36.0624458405
 21
-38.5624458405
 31
0.0
  0
LINE
  5
3B5
330
397
100
AcDbEntity
  8
FORMAT
 62
     0
100
AcDbLine
 10
36.0624458405
 20
-36.0624458405
 30
0.0
 11
38.5624458405
 21
-36.0624458405
 31
0.0
  0
LINE
  5
3B6
330
397
100
AcDbEntity
  8
FORMAT
 62
     0
100
AcDbLine
 10
36.0624458405
 20
-31.0624458405
 30
0.0
 11
36.0624458405
 21
2.5
 31
0.0
  0
LINE
  5
3B7
330
397
100
AcDbEntity
  8
FORMAT
 62
     0
100
AcDbLine
 10
31.0624458405
 20
-36.0624458405
 30
0.0
 11
-2.5
 21
-36.0624458405
 31
0.0
  0
LINE
  5
3B8
330
397
100
AcDbEntity
  8
FORMAT
 62
     0
100
AcDbLine
 10
36.0624458405
 20
-41.0624458405
 30
0.0
 11
36.0624458405
 21
-74.624891681
 31
0.0
  0
LINE
  5
3B9
330
397
100
AcDbEntity
  8
FORMAT
 62
     0
100
AcDbLine
 10
41.0624458405
 20
-36.0624458405
 30
0.0
 11
74.624891681
 21
-36.0624458405
 31
0.0
  0
LINE
  5
3BA
330
397
100
AcDbEntity
  8
FORMAT
 62
     0
100
AcDbLine
 10
0.0
 20
-72.124891681
 30
0.0
 11
-1.767766953
 21
-73.892658634
 31
0.0
  0
LINE
  5
3BB
330
397
100
AcDbEntity
  8
FORMAT
 62
     0
100
AcDbLine
 10
0.0
 20
-72.124891681
 30
0.0
 11
1.767766953
 21
-70.3571247281
 31
0.0
  0
LINE
  5
3BC
330
397
100
AcDbEntity
  8
FORMAT
 62
     0
100
AcDbLine
 10
-3.5355339059
 20
-75.660425587
 30
0.0
 11
-5.4800775542
 21
-77.6049692352
 31
0.0
  0
LINE
  5
3BD
330
397
100
AcDbEntity
  8
FORMAT
 62
     0
100
AcDbLine
 10
3.5355339059
 20
-68.5893577751
 30
0.0
 11
5.4800775542
 21
-66.6448141268
 31
0.0
  0
ENDBLK
  5
399
330
397
100
AcDbEntity
  8
0
100
AcDbBlockEnd
  0
ENDSEC
  0
SECTION
  2
ENTITIES
  0
LINE
  5
48
330
1F
100
AcDbEntity
  8
TOOLING_TABLE
 62
     7
100
AcDbLine
 10
558.0
 20
36.8671069427
 30
0.0
 11
644.0
 21
36.8671069427
 31
0.0
  0
LINE
  5
49
330
1F
100
AcDbEntity
  8
TOOLING_TABLE
 62
     7
100
AcDbLine
 10
558.0
 20
24.8671069427
 30
0.0
 11
644.0
 21
24.8671069427
 31
0.0
  0
LINE
  5
4A
330
1F
100
AcDbEntity
  8
TOOLING_TABLE
 62
     7
100
AcDbLine
 10
558.0
 20
63.8671069427
 30
0.0
 11
558.0
 21
12.8671069427
 31
0.0
  0
LINE
  5
4B
330
1F
100
AcDbEntity
  8
TOOLING_TABLE
100
AcDbLine
 10
558.0
 20
12.8671069427
 30
0.0
 11
644.0
 21
12.8671069427
 31
0.0
  0
LINE
  5
4C
330
1F
100
AcDbEntity
  8
TOOLING_TABLE
100
AcDbLine
 10
644.0
 20
63.8671069427
 30
0.0
 11
644.0
 21
12.8671069427
 31
0.0
  0
LINE
  5
4D
330
1F
100
AcDbEntity
  8
TOOLING_TABLE
 62
     7
100
AcDbLine
 10
558.0
 20
45.8671069427
 30
0.0
 11
644.0
 21
45.8671069427
 31
0.0
  0
LINE
  5
4E
330
1F
100
AcDbEntity
  8
TOOLING_TABLE
 62
     7
100
AcDbLine
 10
558.0
 20
54.8671069427
 30
0.0
 11
644.0
 21
54.8671069427
 31
0.0
  0
LINE
  5
4F
330
1F
100
AcDbEntity
  8
TOOLING_TABLE
 62
     7
100
AcDbLine
 10
558.0
 20
63.8671069427
 30
0.0
 11
644.0
 21
63.8671069427
 31
0.0
  0
LINE
  5
50
330
1F
100
AcDbEntity
  8
TOOLING_TABLE
 62
     7
100
AcDbLine
 10
601.0
 20
63.8671069427
 30
0.0
 11
601.0
 21
36.8671069427
 31
0.0
  0
LINE
  5
51
330
1F
100
AcDbEntity
  8
TOOLING_TABLE
 62
     7
370
     0
100
AcDbLine
 10
624.0
 20
54.8671069427
 30
0.0
 11
624.0
 21
45.8671069427
 31
0.0
  0
MTEXT
  5
53
330
1F
100
AcDbEntity
  8
TOOLING_TABLE
100
AcDbMText
 10
602.1062783613
 20
54.2702582207
 30
0.0
 40
1.2
 41
0.0
 71
     1
 72
     1
  1
Date:
  7
SLDTEXTSTYLE0
 73
     1
 44
1.0
  0
MTEXT
  5
54
330
1F
100
AcDbEntity
  8
TOOLING_TABLE
100
AcDbMText
 10
603.018097772
 20
49.8283199631
 30
0.0
 40
2.5
 41
0.0
 71
     1
 72
     1
  1
yyyy.mm.dd
  7
SLDTEXTSTYLE0
 73
     1
 44
1.0
  0
MTEXT
  5
55
330
1F
100
AcDbEntity
  8
TOOLING_TABLE
100
AcDbMText
 10
560.201296573
 20
19.1574227188
 30
0.0
 40
2.6458333333
 41
0.0
 71
     1
 72
     1
  1
-
  7
SLDTEXTSTYLE0
 73
     1
 44
1.0
  0
MTEXT
  5
56
330
1F
100
AcDbEntity
  8
TOOLING_TABLE
100
AcDbMText
 10
560.201296573
 20
31.4173726938
 30
0.0
 40
2.6458333333
 41
0.0
 71
     1
 72
     1
  1
-
  7
SLDTEXTSTYLE0
 73
     1
 44
1.0
  0
MTEXT
  5
57
330
1F
100
AcDbEntity
  8
TOOLING_TABLE
100
AcDbMText
 10
560.201296573
 20
41.3865649653
 30
0.0
 40
2.6458333333
 41
0.0
 71
     1
 72
     1
  1
-
  7
SLDTEXTSTYLE0
 73
     1
 44
1.0
  0
MTEXT
  5
58
330
1F
100
AcDbEntity
  8
TOOLING_TABLE
100
AcDbMText
 10
559.8363625628
 20
49.9958228804
 30
0.0
 40
2.6458333333
 41
0.0
 71
     1
 72
     1
  1
-
  7
SLDTEXTSTYLE0
 73
     1
 44
1.0
  0
MTEXT
  5
59
330
1F
100
AcDbEntity
  8
TOOLING_TABLE
100
AcDbMText
 10
603.9499678367
 20
41.662126356
 30
0.0
 40
2.5
 41
0.0
 71
     1
 72
     1
  1
-
  7
SLDTEXTSTYLE0
 73
     1
 44
1.0
  0
MTEXT
  5
5A
330
1F
100
AcDbEntity
  8
TOOLING_TABLE
100
AcDbMText
 10
630.2212650386
 20
50.3962796907
 30
0.0
 40
3.175
 41
0.0
 71
     1
 72
     1
  1
-
  7
SLDTEXTSTYLE0
 73
     1
 44
1.0
  0
MTEXT
  5
5B
330
1F
100
AcDbEntity
  8
TOOLING_TABLE
100
AcDbMText
 10
610.1822179805
 20
60.6243780584
 30
0.0
 40
3.175
 41
0.0
 71
     1
 72
     1
  1
T-
  7
SLDTEXTSTYLE0
 73
     1
 44
1.0
  0
MTEXT
  5
5C
330
1F
100
AcDbEntity
  8
TOOLING_TABLE
 62
     7
100
AcDbMText
 10
559.1184091958
 20
45.4874334828
 30
0.0
 40
1.2
 41
0.0
 71
     1
 72
     1
  1
Not specified chamfer:
  7
SLDTEXTSTYLE0
 73
     1
 44
1.0
  0
MTEXT
  5
5D
330
1F
100
AcDbEntity
  8
TOOLING_TABLE
100
AcDbMText
 10
559.1184091958
 20
54.2702582207
 30
0.0
 40
1.2
 41
0.0
 71
     1
 72
     1
  1
Not specified tolerance:
  7
SLDTEXTSTYLE0
 73
     1
 44
1.0
  0
MTEXT
  5
5E
330
1F
100
AcDbEntity
  8
TOOLING_TABLE
100
AcDbMText
 10
559.1184091958
 20
36.1184577829
 30
0.0
 40
1.2
 41
0.0
 71
     1
 72
     1
  1
Hardening & Surfacing:
  7
SLDTEXTSTYLE0
 73
     1
 44
1.0
  0
MTEXT
  5
5F
330
1F
100
AcDbEntity
  8
TOOLING_TABLE
100
AcDbMText
 10
559.1184091958
 20
24.3382170231
 30
0.0
 40
1.2
 41
0.0
 71
     1
 72
     1
  1
Notes:
  7
SLDTEXTSTYLE0
 73
     1
 44
1.0
  0
MTEXT
  5
60
330
1F
100
AcDbEntity
  8
TOOLING_TABLE
100
AcDbMText
 10
602.1062783613
 20
45.4874334828
 30
0.0
 40
1.2
 41
0.0
 71
     1
 72
     1
  1
Ekstern part no.:
  7
SLDTEXTSTYLE0
 73
     1
 44
1.0
  0
MTEXT
  5
61
330
1F
100
AcDbEntity
  8
TOOLING_TABLE
100
AcDbMText
 10
624.6246212708
 20
54.2702582207
 30
0.0
 40
1.2
 41
0.0
 71
     1
 72
     1
  1
Number:
  7
SLDTEXTSTYLE0
 73
     1
 44
1.0
  0
MTEXT
  5
62
330
1F
100
AcDbEntity
  8
TOOLING_TABLE
100
AcDbMText
 10
601.8747919494
 20
63.2637332969
 30
0.0
 40
1.2
 41
0.0
 71
     1
 72
     1
  1
Order no.:
  7
SLDTEXTSTYLE0
 73
     1
 44
1.0
  0
MTEXT
  5
63
330
1F
100
AcDbEntity
  8
TOOLING_TABLE
100
AcDbMText
 10
561.334242998
 20
60.6243780584
 30
0.0
 40
3.175
 41
0.0
 71
     1
 72
     1
  1
AVK Tech Tooling
  7
SLDTEXTSTYLE0
 73
     1
 44
1.0
  0
LINE
  5
64
330
1F
100
AcDbEntity
  8
0
  6
Continuous
 62
     7
370
    15
100
AcDbLine
 10
-83.848166193
 20
553.5284067247
 30
0.0
 11
-83.848166193
 21
543.5284088108
 31
0.0
  0
LINE
  5
65
330
1F
100
AcDbEntity
  8
0
  6
Continuous
 62
     7
370
    15
100
AcDbLine
 10
42.1518358336
 20
543.5284088108
 30
0.0
 11
42.1518358336
 21
553.5284067247
 31
0.0
  0
LINE
  5
66
330
1F
100
AcDbEntity
  8
0
  6
Continuous
 62
     7
370
    15
100
AcDbLine
 10
14.1518386946
 20
482.5284044001
 30
0.0
 11
14.1518386946
 21
517.5284082744
 31
0.0
  0
LINE
  5
67
330
1F
100
AcDbEntity
  8
0
  6
Continuous
 62
     7
370
    15
100
AcDbLine
 10
-55.848169054
 20
517.5284082744
 30
0.0
 11
-55.848169054
 21
482.5284044001
 31
0.0
  0
LINE
  5
68
330
1F
100
AcDbEntity
  8
0
  6
Continuous
 62
     7
370
    15
100
AcDbLine
 10
-55.848169054
 20
388.5284076187
 30
0.0
 11
-55.848169054
 21
353.5284037444
 31
0.0
  0
LINE
  5
69
330
1F
100
AcDbEntity
  8
0
  6
Continuous
 62
     7
370
    15
100
AcDbLine
 10
14.1518386946
 20
353.5284037444
 30
0.0
 11
14.1518386946
 21
388.5284076187
 31
0.0
  0
LINE
  5
6A
330
1F
100
AcDbEntity
  8
0
  6
Continuous
 62
     7
370
    15
100
AcDbLine
 10
8.1518414364
 20
517.5284082744
 30
0.0
 11
8.1518414364
 21
543.5284088108
 31
0.0
  0
LINE
  5
6B
330
1F
100
AcDbEntity
  8
0
  6
Continuous
 62
     7
370
    15
100
AcDbLine
 10
-49.8481568946
 20
543.5284088108
 30
0.0
 11
-49.8481568946
 21
517.5284082744
 31
0.0
  0
LINE
  5
6C
330
1F
100
AcDbEntity
  8
0
  6
Continuous
 62
     7
370
    15
100
AcDbLine
 10
8.1518414364
 20
473.5667715523
 30
0.0
 11
8.1518414364
 21
482.5284044001
 31
0.0
  0
LINE
  5
6D
330
1F
100
AcDbEntity
  8
0
  6
Continuous
 62
     7
370
    15
100
AcDbLine
 10
8.1518414364
 20
388.5284076187
 30
0.0
 11
8.1518414364
 21
397.4842476401
 31
0.0
  0
LINE
  5
6E
330
1F
100
AcDbEntity
  8
0
  6
Continuous
 62
     7
370
    15
100
AcDbLine
 10
17.1518447743
 20
520.5284069035
 30
0.0
 11
8.1518414364
 21
520.5284069035
 31
0.0
  0
LINE
  5
6F
330
1F
100
AcDbEntity
  8
0
  6
Continuous
 62
     7
370
    15
100
AcDbLine
 10
-11.8481692924
 20
350.5284051154
 30
0.0
 11
2.4018409596
 21
350.5284051154
 31
0.0
  0
LINE
  5
70
330
1F
100
AcDbEntity
  8
0
  6
Continuous
 62
     7
370
    15
100
AcDbLine
 10
8.9018466816
 20
350.5284051154
 30
0.0
 11
17.1518447743
 21
350.5284051154
 31
0.0
  0
LINE
  5
71
330
1F
100
AcDbEntity
  8
0
  6
Continuous
 62
     7
370
    15
100
AcDbLine
 10
-13.3481499805
 20
553.5284067247
 30
0.0
 11
-13.3481499805
 21
593.5284132812
 31
0.0
  0
LINE
  5
72
330
1F
100
AcDbEntity
  8
0
  6
Continuous
 62
     7
370
    15
100
AcDbLine
 10
-28.3481654777
 20
593.5284132812
 30
0.0
 11
-28.3481654777
 21
553.5284067247
 31
0.0
  0
LINE
  5
73
330
1F
100
AcDbEntity
  8
0
  6
Continuous
 62
     7
370
    15
100
AcDbLine
 10
519.1518488274
 20
498.0284060094
 30
0.0
 11
474.651840602
 21
498.0284060094
 31
0.0
  0
LINE
  5
74
330
1F
100
AcDbEntity
  8
0
  6
Continuous
 62
     7
370
    15
100
AcDbLine
 10
474.651840602
 20
373.0284060094
 30
0.0
 11
519.1518488274
 21
373.0284060094
 31
0.0
  0
LINE
  5
75
330
1F
100
AcDbEntity
  8
0
  6
Continuous
 62
     7
370
    15
100
AcDbLine
 10
24.151844059
 20
373.0284060094
 30
0.0
 11
41.6518422709
 21
373.0284060094
 31
0.0
  0
LINE
  5
76
330
1F
100
AcDbEntity
  8
0
  6
Continuous
 62
     7
370
    15
100
AcDbLine
 10
41.6518422709
 20
498.0284060094
 30
0.0
 11
24.151844059
 21
498.0284060094
 31
0.0
  0
LINE
  5
77
330
1F
100
AcDbEntity
  8
0
  6
Continuous
 62
     7
370
    15
100
AcDbLine
 10
-55.848169054
 20
442.0284061435
 30
0.0
 11
-62.7981600418
 21
442.0284061435
 31
0.0
  0
LINE
  5
78
330
1F
100
AcDbEntity
  8
0
  6
Continuous
 62
     7
370
    15
100
AcDbLine
 10
-62.7981600418
 20
429.0284058753
 30
0.0
 11
-55.848169054
 21
429.0284058753
 31
0.0
  0
LINE
  5
79
330
1F
100
AcDbEntity
  8
0
  6
Continuous
 62
     7
370
    15
100
AcDbLine
 10
-55.848169054
 20
478.0284064565
 30
0.0
 11
-62.7981600418
 21
478.0284064565
 31
0.0
  0
LINE
  5
7A
330
1F
100
AcDbEntity
  8
0
  6
Continuous
 62
     7
370
    15
100
AcDbLine
 10
-62.7981600418
 20
465.0284061882
 30
0.0
 11
-55.848169054
 21
465.0284061882
 31
0.0
  0
LINE
  5
7B
330
1F
100
AcDbEntity
  8
0
  6
Continuous
 62
     7
370
    15
100
AcDbLine
 10
-55.848169054
 20
406.0284058306
 30
0.0
 11
-62.7981600418
 21
406.0284058306
 31
0.0
  0
LINE
  5
7C
330
1F
100
AcDbEntity
  8
0
  6
Continuous
 62
     7
370
    15
100
AcDbLine
 10
-62.7981600418
 20
393.0284055624
 30
0.0
 11
-55.848169054
 21
393.0284055624
 31
0.0
  0
LINE
  5
7D
330
1F
100
AcDbEntity
  8
0
  6
Continuous
 62
     7
370
    15
100
AcDbLine
 10
-83.848166193
 20
543.5284088108
 30
0.0
 11
42.1518358336
 21
543.5284088108
 31
0.0
  0
LINE
  5
7E
330
1F
100
AcDbEntity
  8
0
  6
Continuous
 62
     7
370
    15
100
AcDbLine
 10
-83.848166193
 20
553.5284067247
 30
0.0
 11
42.1518358336
 21
553.5284067247
 31
0.0
  0
CIRCLE
  5
7F
330
1F
100
AcDbEntity
  8
0
  6
Continuous
 62
     7
370
    15
100
AcDbCircle
 10
258.1518414364
 20
430.5284060094
 30
0.0
 40
125.0000000000001
  0
CIRCLE
  5
80
330
1F
100
AcDbEntity
  8
0
  6
Continuous
 62
     7
370
    15
100
AcDbCircle
 10
258.1518414364
 20
430.5284060094
 30
0.0
 40
159.4999999999999
  0
LINE
  5
81
330
1F
100
AcDbEntity
  8
0
  6
Continuous
 62
     7
370
    15
100
AcDbLine
 10
263.1518413247
 20
635.5284089897
 30
0.0
 11
298.1518405424
 21
635.5284089897
 31
0.0
  0
LINE
  5
82
330
1F
100
AcDbEntity
  8
0
  6
Continuous
 62
     7
370
    15
100
AcDbLine
 10
298.1518405424
 20
635.5284089897
 30
0.0
 11
308.1518421815
 21
645.5283994529
 31
0.0
  0
LINE
  5
83
330
1F
100
AcDbEntity
  8
0
  6
Continuous
 62
     7
370
    15
100
AcDbLine
 10
308.1518421815
 20
645.5283994529
 30
0.0
 11
343.1518423305
 21
645.5283994529
 31
0.0
  0
LINE
  5
84
330
1F
100
AcDbEntity
  8
0
  6
Continuous
 62
     7
370
    15
100
AcDbLine
 10
343.1518423305
 20
645.5283994529
 30
0.0
 11
343.1518423305
 21
614.3251741979
 31
0.0
  0
ARC
  5
85
330
1F
100
AcDbEntity
  8
0
  6
Continuous
 62
     7
370
    15
100
AcDbCircle
 10
258.1518414364
 20
430.5284060094
 30
0.0
 40
202.5
100
AcDbArc
 50
294.8189997873
 51
65.1810002127
  0
LINE
  5
86
330
1F
100
AcDbEntity
  8
0
  6
Continuous
 62
     7
370
    15
100
AcDbLine
 10
343.1518423305
 20
215.5284072015
 30
0.0
 11
343.1518423305
 21
246.7316473577
 31
0.0
  0
LINE
  5
87
330
1F
100
AcDbEntity
  8
0
  6
Continuous
 62
     7
370
    15
100
AcDbLine
 10
308.1518421815
 20
215.5284072015
 30
0.0
 11
343.1518423305
 21
215.5284072015
 31
0.0
  0
LINE
  5
88
330
1F
100
AcDbEntity
  8
0
  6
Continuous
 62
     7
370
    15
100
AcDbLine
 10
298.1518405424
 20
225.5284125659
 30
0.0
 11
308.1518421815
 21
215.5284072015
 31
0.0
  0
LINE
  5
89
330
1F
100
AcDbEntity
  8
0
  6
Continuous
 62
     7
370
    15
100
AcDbLine
 10
218.1518423305
 20
225.5284125659
 30
0.0
 11
298.1518405424
 21
225.5284125659
 31
0.0
  0
LINE
  5
8A
330
1F
100
AcDbEntity
  8
0
  6
Continuous
 62
     7
370
    15
100
AcDbLine
 10
208.1518406914
 20
215.5284072015
 30
0.0
 11
218.1518423305
 21
225.5284125659
 31
0.0
  0
LINE
  5
8B
330
1F
100
AcDbEntity
  8
0
  6
Continuous
 62
     7
370
    15
100
AcDbLine
 10
173.1518405424
 20
215.5284072015
 30
0.0
 11
208.1518406914
 21
215.5284072015
 31
0.0
  0
LINE
  5
8C
330
1F
100
AcDbEntity
  8
0
  6
Continuous
 62
     7
370
    15
100
AcDbLine
 10
173.1518405424
 20
246.7316473577
 30
0.0
 11
173.1518405424
 21
215.5284072015
 31
0.0
  0
ARC
  5
8D
330
1F
100
AcDbEntity
  8
0
  6
Continuous
 62
     7
370
    15
100
AcDbCircle
 10
258.1518414364
 20
430.5284060094
 30
0.0
 40
202.5
100
AcDbArc
 50
114.8189997873
 51
245.1810002127
  0
LINE
  5
8E
330
1F
100
AcDbEntity
  8
0
  6
Continuous
 62
     7
370
    15
100
AcDbLine
 10
173.1518405424
 20
614.3251741979
 30
0.0
 11
173.1518405424
 21
645.5283994529
 31
0.0
  0
LINE
  5
8F
330
1F
100
AcDbEntity
  8
0
  6
Continuous
 62
     7
370
    15
100
AcDbLine
 10
173.1518405424
 20
645.5283994529
 30
0.0
 11
208.1518406914
 21
645.5283994529
 31
0.0
  0
LINE
  5
90
330
1F
100
AcDbEntity
  8
0
  6
Continuous
 62
     7
370
    15
100
AcDbLine
 10
208.1518406914
 20
645.5283994529
 30
0.0
 11
218.1518423305
 21
635.5284089897
 31
0.0
  0
LINE
  5
91
330
1F
100
AcDbEntity
  8
0
  6
Continuous
 62
     7
370
    15
100
AcDbLine
 10
218.1518423305
 20
635.5284089897
 30
0.0
 11
253.1518415482
 21
635.5284089897
 31
0.0
  0
LINE
  5
92
330
1F
100
AcDbEntity
  8
0
  6
Continuous
 62
     7
370
    15
100
AcDbLine
 10
253.1518415482
 20
635.5284089897
 30
0.0
 11
258.1518414364
 21
632.52840291
 31
0.0
  0
LINE
  5
93
330
1F
100
AcDbEntity
  8
0
  6
Continuous
 62
     7
370
    15
100
AcDbLine
 10
258.1518414364
 20
632.52840291
 30
0.0
 11
263.1518413247
 21
635.5284089897
 31
0.0
  0
CIRCLE
  5
94
330
1F
100
AcDbEntity
  8
0
  6
Continuous
 62
     7
370
    15
100
AcDbCircle
 10
303.4451743294
 20
599.56542561
 30
0.0
 40
12.5
  0
CIRCLE
  5
95
330
1F
100
AcDbEntity
  8
0
  6
Continuous
 62
     7
370
    15
100
AcDbCircle
 10
381.8955281441
 20
554.2720927171
 30
0.0
 40
12.49999999999994
  0
CIRCLE
  5
96
330
1F
100
AcDbEntity
  8
0
  6
Continuous
 62
     7
370
    15
100
AcDbCircle
 10
427.188861037
 20
475.8217389024
 30
0.0
 40
12.50000000000004
  0
CIRCLE
  5
97
330
1F
100
AcDbEntity
  8
0
  6
Continuous
 62
     7
370
    15
100
AcDbCircle
 10
427.188861037
 20
385.2350731165
 30
0.0
 40
12.49999999999994
  0
CIRCLE
  5
98
330
1F
100
AcDbEntity
  8
0
  6
Continuous
 62
     7
370
    15
100
AcDbCircle
 10
381.8955281441
 20
306.7847193018
 30
0.0
 40
12.50000000000002
  0
CIRCLE
  5
99
330
1F
100
AcDbEntity
  8
0
  6
Continuous
 62
     7
370
    15
100
AcDbCircle
 10
303.4451743294
 20
261.4913864088
 30
0.0
 40
12.50000000000001
  0
CIRCLE
  5
9A
330
1F
100
AcDbEntity
  8
0
  6
Continuous
 62
     7
370
    15
100
AcDbCircle
 10
212.8585085435
 20
261.4913864088
 30
0.0
 40
12.5
  0
CIRCLE
  5
9B
330
1F
100
AcDbEntity
  8
0
  6
Continuous
 62
     7
370
    15
100
AcDbCircle
 10
134.4081547288
 20
306.7847193018
 30
0.0
 40
12.49999999999999
  0
CIRCLE
  5
9C
330
1F
100
AcDbEntity
  8
0
  6
Continuous
 62
     7
370
    15
100
AcDbCircle
 10
89.1148218358
 20
385.2350731165
 30
0.0
 40
12.50000000000001
  0
CIRCLE
  5
9D
330
1F
100
AcDbEntity
  8
0
  6
Continuous
 62
     7
370
    15
100
AcDbCircle
 10
89.1148218358
 20
475.8217389024
 30
0.0
 40
12.5
  0
CIRCLE
  5
9E
330
1F
100
AcDbEntity
  8
0
  6
Continuous
 62
     7
370
    15
100
AcDbCircle
 10
134.4081547288
 20
554.2720927171
 30
0.0
 40
12.5
  0
CIRCLE
  5
9F
330
1F
100
AcDbEntity
  8
0
  6
Continuous
 62
     7
370
    15
100
AcDbCircle
 10
212.8585085435
 20
599.56542561
 30
0.0
 40
12.50000000000007
  0
LINE
  5
A0
330
1F
100
AcDbEntity
  8
0
  6
Continuous
 62
     7
370
    15
100
AcDbLine
 10
14.1518386946
 20
482.5284044001
 30
0.0
 11
-50.8648333206
 21
482.5284044001
 31
0.0
  0
LINE
  5
A1
330
1F
100
AcDbEntity
  8
0
  6
Continuous
 62
     7
370
    15
100
AcDbLine
 10
-20.8481726303
 20
517.5284082744
 30
0.0
 11
-55.848169054
 21
517.5284082744
 31
0.0
  0
LINE
  5
A2
330
1F
100
AcDbEntity
  8
0
  6
Continuous
 62
     7
370
    15
100
AcDbLine
 10
14.1518386946
 20
517.5284082744
 30
0.0
 11
-20.8481726303
 21
517.5284082744
 31
0.0
  0
LINE
  5
A3
330
1F
100
AcDbEntity
  8
0
  6
Continuous
 62
     7
370
    15
100
AcDbLine
 10
-20.8481726303
 20
353.5284037444
 30
0.0
 11
-55.848169054
 21
353.5284037444
 31
0.0
  0
LINE
  5
A4
330
1F
100
AcDbEntity
  8
0
  6
Continuous
 62
     7
370
    15
100
AcDbLine
 10
14.1518386946
 20
353.5284037444
 30
0.0
 11
-20.8481726303
 21
353.5284037444
 31
0.0
  0
LINE
  5
A5
330
1F
100
AcDbEntity
  8
0
  6
Continuous
 62
     7
370
    15
100
AcDbLine
 10
14.1518386946
 20
388.5284076187
 30
0.0
 11
-50.8648333206
 21
388.5284076187
 31
0.0
  0
LINE
  5
A6
330
1F
100
AcDbEntity
  8
0
  6
Continuous
 62
     7
370
    15
100
AcDbLine
 10
-22.7245566501
 20
349.5284030888
 30
0.0
 11
-22.7245566501
 21
353.5284037444
 31
0.0
  0
LINE
  5
A7
330
1F
100
AcDbEntity
  8
0
  6
Continuous
 62
     7
370
    15
100
AcDbLine
 10
-22.7245566501
 20
349.5284030888
 30
0.0
 11
-24.60094067
 21
349.5284030888
 31
0.0
  0
LINE
  5
A8
330
1F
100
AcDbEntity
  8
0
  6
Continuous
 62
     7
370
    15
100
AcDbLine
 10
-24.60094067
 20
349.5284030888
 30
0.0
 11
-24.60094067
 21
353.5284037444
 31
0.0
  0
LINE
  5
A9
330
1F
100
AcDbEntity
  8
0
  6
Continuous
 62
     7
370
    15
100
AcDbLine
 10
-18.9717588081
 20
349.5284030888
 30
0.0
 11
-18.9717588081
 21
353.5284037444
 31
0.0
  0
LINE
  5
AA
330
1F
100
AcDbEntity
  8
0
  6
Continuous
 62
     7
370
    15
100
AcDbLine
 10
-18.9717588081
 20
349.5284030888
 30
0.0
 11
-22.7245566501
 21
349.5284030888
 31
0.0
  0
LINE
  5
AB
330
1F
100
AcDbEntity
  8
0
  6
Continuous
 62
     7
370
    15
100
AcDbLine
 10
-17.0953747882
 20
349.5284030888
 30
0.0
 11
-17.0953747882
 21
353.5284037444
 31
0.0
  0
LINE
  5
AC
330
1F
100
AcDbEntity
  8
0
  6
Continuous
 62
     7
370
    15
100
AcDbLine
 10
-17.0953747882
 20
349.5284030888
 30
0.0
 11
-18.9717588081
 21
349.5284030888
 31
0.0
  0
SPLINE
  5
AD
330
1F
100
AcDbEntity
  8
0
  6
Continuous
 62
     7
370
    15
100
AcDbSpline
210
0.0
220
0.0
230
1.0
 70
     8
 71
     3
 72
    35
 73
    31
 74
     0
 42
0.00000001
 43
0.00000001
 12
1.0
 22
0.0
 32
0.0
 13
1.0
 23
0.0
 33
0.0
 40
0.0
 40
0.0
 40
0.0
 40
0.0
 40
0.0281558359504547
 40
0.0634076360512894
 40
0.0986895081245722
 40
0.133984057827426
 40
0.1692706295013143
 40
0.2045263295175472
 40
0.2407773242172306
 40
0.2770599173763172
 40
0.3133522213954607
 40
0.3496329936024391
 40
0.3858824338369389
 40
0.4213763075530833
 40
0.4569019962717342
 40
0.4924380635301793
 40
0.5279632220731161
 40
0.5634566443779002
 40
0.6000493311188854
 40
0.6366749935574912
 40
0.6733129694921985
 40
0.7099409339757847
 40
0.7465355886548082
 40
0.7898172827233768
 40
0.8331345497793753
 40
0.8764501397912478
 40
0.9197295214278257
 40
0.9553745639366168
 40
0.9910621817991112
 40
1.0
 40
1.0
 40
1.0
 40
1.0
 10
8.144867692981839
 20
473.5667715523105
 30
0.0
 10
8.144263543652997
 20
472.9037971578084
 30
0.0
 10
8.142902984484113
 20
471.4107624920327
 30
0.0
 10
8.07934229662849
 20
469.0365135353907
 30
0.0
 10
7.983261000453934
 20
466.4614260928057
 30
0.0
 10
7.858033399007535
 20
463.851882792911
 30
0.0
 10
7.714764859505618
 20
461.2140079489313
 30
0.0
 10
7.559790127769195
 20
458.5249611327041
 30
0.0
 10
7.401795733068706
 20
455.7853397357396
 30
0.0
 10
7.246901034495878
 20
452.9962157376403
 30
0.0
 10
7.102032789467416
 20
450.1860786621032
 30
0.0
 10
6.973335606742125
 20
447.3594721691974
 30
0.0
 10
6.867107026110542
 20
444.5393813566633
 30
0.0
 10
6.788930829096262
 20
441.7281122423873
 30
0.0
 10
6.73900686003237
 20
438.9281787249273
 30
0.0
 10
6.717452514671319
 20
436.1233794138067
 30
0.0
 10
6.725064338932995
 20
433.3187009185841
 30
0.0
 10
6.763002042680045
 20
430.488862521963
 30
0.0
 10
6.833162735606857
 20
427.6363628769249
 30
0.0
 10
6.931672476574835
 20
424.7637989482469
 30
0.0
 10
7.053188861804394
 20
421.9035996421922
 30
0.0
 10
7.192772054238294
 20
419.060693992184
 30
0.0
 10
7.355313768307504
 20
416.0667508849335
 30
0.0
 10
7.537497720269071
 20
412.9287614679282
 30
0.0
 10
7.726706967367491
 20
409.6557679013019
 30
0.0
 10
7.898584893779703
 20
406.4239185505921
 30
0.0
 10
8.032446940447691
 20
403.4245606472614
 30
0.0
 10
8.116461891171378
 20
400.6571806003792
 30
0.0
 10
8.156794139638851
 20
398.7376735349255
 30
0.0
 10
8.148918633695935
 20
397.6934002192509
 30
0.0
 10
8.147341285740017
 20
397.4842476401191
 30
0.0
  0
LINE
  5
AE
330
1F
100
AcDbEntity
  8
0
  6
Continuous
 62
     7
370
    15
100
AcDbLine
 10
-43.5857948913
 20
388.5284076187
 30
0.0
 11
-43.5857948913
 21
482.5284044001
 31
0.0
  0
LINE
  5
AF
330
1F
100
AcDbEntity
  8
0
  6
Continuous
 62
     7
370
    15
100
AcDbLine
 10
460.265663539
 20
443.0284058418
 30
0.0
 11
474.8525592432
 21
443.0284058418
 31
0.0
  0
ELLIPSE
  5
B0
330
1F
100
AcDbEntity
  8
0
  6
Continuous
 62
     7
370
    15
100
AcDbEllipse
 10
502.4296192142
 20
435.5284060094
 30
0.0
 11
0.0
 21
62.5
 31
0.0
210
0.0
220
0.0
230
1.0
 40
0.4444444444
 41
1.450506444400109
 42
1.691086209189684
  0
LINE
  5
B1
330
1F
100
AcDbEntity
  8
0
  6
Continuous
 62
     7
370
    15
100
AcDbLine
 10
460.6364044295
 20
428.0284061771
 30
0.0
 11
474.8525592432
 21
428.0284061771
 31
0.0
  0
ELLIPSE
  5
B2
330
1F
100
AcDbEntity
  8
0
  6
Continuous
 62
     7
370
    15
100
AcDbEllipse
 10
13.8740636586
 20
435.5284060094
 30
0.0
 11
0.0
 21
62.5
 31
0.0
210
0.0
220
0.0
230
1.0
 40
0.4444444444
 41
4.592099097989908
 42
4.832678862779485
  0
LINE
  5
B3
330
1F
100
AcDbEntity
  8
0
  6
Continuous
 62
     7
370
    15
100
AcDbLine
 10
55.6672784434
 20
428.0284061771
 30
0.0
 11
41.4511236296
 21
428.0284061771
 31
0.0
  0
LINE
  5
B4
330
1F
100
AcDbEntity
  8
0
  6
Continuous
 62
     7
370
    15
100
AcDbLine
 10
56.0380193339
 20
443.0284058418
 30
0.0
 11
41.4511236296
 21
443.0284058418
 31
0.0
  0
LINE
  5
B5
330
1F
100
AcDbEntity
  8
0
  6
Continuous
 62
     7
370
    15
100
AcDbLine
 10
-50.8648333206
 20
388.5284076187
 30
0.0
 11
-55.848169054
 21
388.5284076187
 31
0.0
  0
LINE
  5
B6
330
1F
100
AcDbEntity
  8
0
  6
Continuous
 62
     7
370
    15
100
AcDbLine
 10
-55.848169054
 20
388.5284076187
 30
0.0
 11
-55.848169054
 21
482.5284044001
 31
0.0
  0
LINE
  5
B7
330
1F
100
AcDbEntity
  8
0
  6
Continuous
 62
     7
370
    15
100
AcDbLine
 10
-55.848169054
 20
482.5284044001
 30
0.0
 11
-50.8648333206
 21
482.5284044001
 31
0.0
  0
LINE
  5
B8
330
1F
100
AcDbEntity
  8
0
  6
Continuous
 62
     7
370
    15
100
AcDbLine
 10
-11.8481692924
 20
350.5284051154
 30
0.0
 11
-11.8481692924
 21
353.5284037444
 31
0.0
  0
LINE
  5
B9
330
1F
100
AcDbEntity
  8
0
  6
Continuous
 62
     7
370
    15
100
AcDbLine
 10
17.1518447743
 20
350.5284051154
 30
0.0
 11
17.1518447743
 21
520.5284069035
 31
0.0
  0
LINE
  5
BA
330
1F
100
AcDbEntity
  8
0
  6
Continuous
 62
     7
370
    15
100
AcDbLine
 10
-28.3481654777
 20
593.5284132812
 30
0.0
 11
-13.3481499805
 21
593.5284132812
 31
0.0
  0
LINE
  5
BB
330
1F
100
AcDbEntity
  8
0
  6
Continuous
 62
     7
370
    15
100
AcDbLine
 10
-44.0981564178
 20
349.5284030888
 30
0.0
 11
-44.0981564178
 21
353.5284037444
 31
0.0
  0
LINE
  5
BC
330
1F
100
AcDbEntity
  8
0
  6
Continuous
 62
     7
370
    15
100
AcDbLine
 10
-44.0981564178
 20
349.5284030888
 30
0.0
 11
-47.3481592788
 21
349.5284030888
 31
0.0
  0
LINE
  5
BD
330
1F
100
AcDbEntity
  8
0
  6
Continuous
 62
     7
370
    15
100
AcDbLine
 10
-47.3481592788
 20
349.5284030888
 30
0.0
 11
-47.3481592788
 21
353.5284037444
 31
0.0
  0
LINE
  5
BE
330
1F
100
AcDbEntity
  8
0
  6
Continuous
 62
     7
370
    15
100
AcDbLine
 10
-47.3481592788
 20
349.5284030888
 30
0.0
 11
-50.5981621399
 21
349.5284030888
 31
0.0
  0
LINE
  5
BF
330
1F
100
AcDbEntity
  8
0
  6
Continuous
 62
     7
370
    15
100
AcDbLine
 10
-50.5981621399
 20
349.5284030888
 30
0.0
 11
-50.5981621399
 21
353.5284037444
 31
0.0
  0
LINE
  5
C0
330
1F
100
AcDbEntity
  8
0
  6
Continuous
 62
     7
370
    15
100
AcDbLine
 10
5.6518438206
 20
349.5284030888
 30
0.0
 11
5.6518438206
 21
353.5284037444
 31
0.0
  0
LINE
  5
C1
330
1F
100
AcDbEntity
  8
0
  6
Continuous
 62
     7
370
    15
100
AcDbLine
 10
5.6518438206
 20
349.5284030888
 30
0.0
 11
2.4018409596
 21
349.5284030888
 31
0.0
  0
LINE
  5
C2
330
1F
100
AcDbEntity
  8
0
  6
Continuous
 62
     7
370
    15
100
AcDbLine
 10
2.4018409596
 20
349.5284030888
 30
0.0
 11
2.4018409596
 21
353.5284037444
 31
0.0
  0
LINE
  5
C3
330
1F
100
AcDbEntity
  8
0
  6
Continuous
 62
     7
370
    15
100
AcDbLine
 10
8.9018466816
 20
349.5284030888
 30
0.0
 11
8.9018466816
 21
353.5284037444
 31
0.0
  0
LINE
  5
C4
330
1F
100
AcDbEntity
  8
0
  6
Continuous
 62
     7
370
    15
100
AcDbLine
 10
8.9018466816
 20
349.5284030888
 30
0.0
 11
5.6518438206
 21
349.5284030888
 31
0.0
  0
LINE
  5
C5
330
1F
100
AcDbEntity
  8
0
  6
Continuous
 62
     7
370
    15
100
AcDbLine
 10
474.651840602
 20
498.0284060094
 30
0.0
 11
474.651840602
 21
443.0284058418
 31
0.0
  0
LINE
  5
C6
330
1F
100
AcDbEntity
  8
0
  6
Continuous
 62
     7
370
    15
100
AcDbLine
 10
474.651840602
 20
428.0284061771
 30
0.0
 11
474.651840602
 21
373.0284060094
 31
0.0
  0
LINE
  5
C7
330
1F
100
AcDbEntity
  8
0
  6
Continuous
 62
     7
370
    15
100
AcDbLine
 10
519.1518488274
 20
498.0284060094
 30
0.0
 11
519.1518488274
 21
373.0284060094
 31
0.0
  0
LINE
  5
C8
330
1F
100
AcDbEntity
  8
0
  6
Continuous
 62
     7
370
    15
100
AcDbLine
 10
24.151844059
 20
498.0284060094
 30
0.0
 11
24.151844059
 21
495.1589639041
 31
0.0
  0
LINE
  5
C9
330
1F
100
AcDbEntity
  8
0
  6
Continuous
 62
     7
370
    15
100
AcDbLine
 10
24.151844059
 20
375.8978481147
 30
0.0
 11
24.151844059
 21
373.0284060094
 31
0.0
  0
LINE
  5
CA
330
1F
100
AcDbEntity
  8
0
  6
Continuous
 62
     7
370
    15
100
AcDbLine
 10
24.151844059
 20
472.0821576867
 30
0.0
 11
24.151844059
 21
398.9746543321
 31
0.0
  0
LINE
  5
CB
330
1F
100
AcDbEntity
  8
0
  6
Continuous
 62
     7
370
    15
100
AcDbLine
 10
41.6518422709
 20
498.0284060094
 30
0.0
 11
41.6518422709
 21
443.0284058418
 31
0.0
  0
LINE
  5
CC
330
1F
100
AcDbEntity
  8
0
  6
Continuous
 62
     7
370
    15
100
AcDbLine
 10
41.6518422709
 20
428.0284061771
 30
0.0
 11
41.6518422709
 21
373.0284060094
 31
0.0
  0
LINE
  5
CD
330
1F
100
AcDbEntity
  8
0
  6
Continuous
 62
     7
370
    15
100
AcDbLine
 10
24.151844059
 20
495.1589639041
 30
0.0
 11
17.1518447743
 21
495.1589639041
 31
0.0
  0
LINE
  5
CE
330
1F
100
AcDbEntity
  8
0
  6
Continuous
 62
     7
370
    15
100
AcDbLine
 10
24.151844059
 20
481.0168268833
 30
0.0
 11
17.1518447743
 21
481.0168268833
 31
0.0
  0
LINE
  5
CF
330
1F
100
AcDbEntity
  8
0
  6
Continuous
 62
     7
370
    15
100
AcDbLine
 10
24.151844059
 20
495.1589639041
 30
0.0
 11
24.151844059
 21
481.0168268833
 31
0.0
  0
LINE
  5
D0
330
1F
100
AcDbEntity
  8
0
  6
Continuous
 62
     7
370
    15
100
AcDbLine
 10
24.151844059
 20
455.8434664014
 30
0.0
 11
17.1518447743
 21
455.8434664014
 31
0.0
  0
LINE
  5
D1
330
1F
100
AcDbEntity
  8
0
  6
Continuous
 62
     7
370
    15
100
AcDbLine
 10
24.151844059
 20
481.0168268833
 30
0.0
 11
24.151844059
 21
472.0821576867
 31
0.0
  0
LINE
  5
D2
330
1F
100
AcDbEntity
  8
0
  6
Continuous
 62
     7
370
    15
100
AcDbLine
 10
24.151844059
 20
390.0399851355
 30
0.0
 11
17.1518447743
 21
390.0399851355
 31
0.0
  0
LINE
  5
D3
330
1F
100
AcDbEntity
  8
0
  6
Continuous
 62
     7
370
    15
100
AcDbLine
 10
24.151844059
 20
390.0399851355
 30
0.0
 11
24.151844059
 21
375.8978481147
 31
0.0
  0
LINE
  5
D4
330
1F
100
AcDbEntity
  8
0
  6
Continuous
 62
     7
370
    15
100
AcDbLine
 10
24.151844059
 20
375.8978481147
 30
0.0
 11
17.1518447743
 21
375.8978481147
 31
0.0
  0
LINE
  5
D5
330
1F
100
AcDbEntity
  8
0
  6
Continuous
 62
     7
370
    15
100
AcDbLine
 10
24.151844059
 20
415.2133456174
 30
0.0
 11
17.1518447743
 21
415.2133456174
 31
0.0
  0
LINE
  5
D6
330
1F
100
AcDbEntity
  8
0
  6
Continuous
 62
     7
370
    15
100
AcDbLine
 10
24.151844059
 20
398.9746543321
 30
0.0
 11
24.151844059
 21
390.0399851355
 31
0.0
  0
LINE
  5
D7
330
1F
100
AcDbEntity
  8
0
  6
Continuous
 62
     7
370
    15
100
AcDbLine
 10
-62.7981600418
 20
429.0284058753
 30
0.0
 11
-62.7981600418
 21
442.0284061435
 31
0.0
  0
SPLINE
  5
D8
330
1F
100
AcDbEntity
  8
0
  6
Continuous
 62
     7
370
    15
100
AcDbSpline
210
0.0
220
0.0
230
1.0
 70
     8
 71
     3
 72
     9
 73
     5
 74
     0
 42
0.00000001
 43
0.00000001
 12
1.0
 22
0.0
 32
0.0
 13
1.0
 23
0.0
 33
0.0
 40
0.0
 40
0.0
 40
0.0
 40
0.0
 40
0.4880267634693627
 40
1.0
 40
1.0
 40
1.0
 40
1.0
 10
57.12985721686945
 20
406.2612215731006
 30
0.0
 10
54.61524973105186
 20
404.7659294591896
 30
0.0
 10
49.46264812383414
 20
401.701974311974
 30
0.0
 10
44.29667979567037
 20
398.6606092896803
 30
0.0
 10
41.65184227088559
 20
397.1035117957454
 30
0.0
  0
SPLINE
  5
D9
330
1F
100
AcDbEntity
  8
0
  6
Continuous
 62
     7
370
    15
100
AcDbSpline
210
0.0
220
0.0
230
1.0
 70
     8
 71
     3
 72
     9
 73
     5
 74
     0
 42
0.00000001
 43
0.00000001
 12
1.0
 22
0.0
 32
0.0
 13
1.0
 23
0.0
 33
0.0
 40
0.0
 40
0.0
 40
0.0
 40
0.0
 40
0.5120521697790759
 40
1.0
 40
1.0
 40
1.0
 40
1.0
 10
474.6518406019555
 20
397.1035117957454
 30
0.0
 10
472.0070224829378
 20
398.6605960912487
 30
0.0
 10
466.84188839092
 20
401.7014665091498
 30
0.0
 10
461.6901221904009
 20
404.7649290216327
 30
0.0
 10
459.1763290510522
 20
406.2597389075618
 30
0.0
  0
LINE
  5
DA
330
1F
100
AcDbEntity
  8
0
  6
Continuous
 62
     7
370
    15
100
AcDbLine
 10
458.8035765038
 20
457.8254977915
 30
0.0
 11
458.8035765038
 21
464.5757815543
 31
0.0
  0
SPLINE
  5
DB
330
1F
100
AcDbEntity
  8
0
  6
Continuous
 62
     7
370
    15
100
AcDbSpline
210
0.0
220
0.0
230
1.0
 70
     8
 71
     3
 72
     8
 73
     4
 74
     0
 42
0.00000001
 43
0.00000001
 12
1.0
 22
0.0
 32
0.0
 13
1.0
 23
0.0
 33
0.0
 40
0.0
 40
0.0
 40
0.0
 40
0.0
 40
1.0
 40
1.0
 40
1.0
 40
1.0
 10
458.8035765471654
 20
464.5757811059775
 30
0.0
 10
464.0757698182676
 20
467.7195097845645
 30
0.0
 10
469.3610742131969
 20
470.8410313893702
 30
0.0
 10
474.6518414364206
 20
473.9533002838373
 30
0.0
  0
SPLINE
  5
DC
330
1F
100
AcDbEntity
  8
0
  6
Continuous
 62
     7
370
    15
100
AcDbSpline
210
0.0
220
0.0
230
1.0
 70
     8
 71
     3
 72
     8
 73
     4
 74
     0
 42
0.00000001
 43
0.00000001
 12
1.0
 22
0.0
 32
0.0
 13
1.0
 23
0.0
 33
0.0
 40
0.0
 40
0.0
 40
0.0
 40
0.0
 40
1.0
 40
1.0
 40
1.0
 40
1.0
 10
41.65184143642053
 20
473.9533002838373
 30
0.0
 10
46.9426109648079
 20
470.8410300333685
 30
0.0
 10
52.22791608254976
 20
467.7195079790284
 30
0.0
 10
57.5001063256757
 20
464.5757811059775
 30
0.0
  0
LINE
  5
DD
330
1F
100
AcDbEntity
  8
0
  6
Continuous
 62
     7
370
    15
100
AcDbLine
 10
57.5001063691
 20
464.5757815543
 30
0.0
 11
57.5001063691
 21
457.8254977915
 31
0.0
  0
LINE
  5
DE
330
1F
100
AcDbEntity
  8
0
  6
Continuous
 62
     7
370
    15
100
AcDbLine
 10
57.5001063691
 20
464.5757815543
 30
0.0
 11
58.5346492873
 21
464.5757815543
 31
0.0
  0
LINE
  5
DF
330
1F
100
AcDbEntity
  8
0
  6
Continuous
 62
     7
370
    15
100
AcDbLine
 10
83.6578580485
 20
464.5757815543
 30
0.0
 11
94.5717814312
 21
464.5757815543
 31
0.0
  0
LINE
  5
E0
330
1F
100
AcDbEntity
  8
0
  6
Continuous
 62
     7
370
    15
100
AcDbLine
 10
421.7319014416
 20
464.5757815543
 30
0.0
 11
432.6458248244
 21
464.5757815543
 31
0.0
  0
LINE
  5
E1
330
1F
100
AcDbEntity
  8
0
  6
Continuous
 62
     7
370
    15
100
AcDbLine
 10
457.7690335856
 20
464.5757815543
 30
0.0
 11
458.8035765038
 21
464.5757815543
 31
0.0
  0
LINE
  5
E2
330
1F
100
AcDbEntity
  8
0
  6
Continuous
 62
     7
370
    15
100
AcDbLine
 10
41.6518422709
 20
478.0284064565
 30
0.0
 11
61.3016459093
 21
478.0284064565
 31
0.0
  0
LINE
  5
E3
330
1F
100
AcDbEntity
  8
0
  6
Continuous
 62
     7
370
    15
100
AcDbLine
 10
76.8111321078
 20
478.0284064565
 30
0.0
 11
101.4185073719
 21
478.0284064565
 31
0.0
  0
LINE
  5
E4
330
1F
100
AcDbEntity
  8
0
  6
Continuous
 62
     7
370
    15
100
AcDbLine
 10
41.6518422709
 20
393.0284055624
 30
0.0
 11
59.154358779
 21
393.0284055624
 31
0.0
  0
LINE
  5
E5
330
1F
100
AcDbEntity
  8
0
  6
Continuous
 62
     7
370
    15
100
AcDbLine
 10
79.3416920052
 20
393.0284055624
 30
0.0
 11
98.8879474745
 21
393.0284055624
 31
0.0
  0
LINE
  5
E6
330
1F
100
AcDbEntity
  8
0
  6
Continuous
 62
     7
370
    15
100
AcDbLine
 10
474.651840602
 20
393.0284055624
 30
0.0
 11
457.1493240939
 21
393.0284055624
 31
0.0
  0
LINE
  5
E7
330
1F
100
AcDbEntity
  8
0
  6
Continuous
 62
     7
370
    15
100
AcDbLine
 10
436.9619908676
 20
393.0284055624
 30
0.0
 11
417.4157353983
 21
393.0284055624
 31
0.0
  0
LINE
  5
E8
330
1F
100
AcDbEntity
  8
0
  6
Continuous
 62
     7
370
    15
100
AcDbLine
 10
474.651840602
 20
478.0284064565
 30
0.0
 11
455.0020369635
 21
478.0284064565
 31
0.0
  0
LINE
  5
E9
330
1F
100
AcDbEntity
  8
0
  6
Continuous
 62
     7
370
    15
100
AcDbLine
 10
439.4925507651
 20
478.0284064565
 30
0.0
 11
414.8851755009
 21
478.0284064565
 31
0.0
  0
LINE
  5
EA
330
1F
100
AcDbEntity
  8
0
  6
Continuous
 62
     7
370
    15
100
AcDbLine
 10
-62.7981600418
 20
465.0284061882
 30
0.0
 11
-62.7981600418
 21
478.0284064565
 31
0.0
  0
LINE
  5
EB
330
1F
100
AcDbEntity
  8
0
  6
Continuous
 62
     7
370
    15
100
AcDbLine
 10
-62.7981600418
 20
393.0284055624
 30
0.0
 11
-62.7981600418
 21
406.0284058306
 31
0.0
  0
INSERT
  5
14B
330
1F
100
AcDbEntity
  8
FORMAT
 62
     7
100
AcDbBlockReference
  2
SW_CENTERMARKSYMBOL_0
 10
212.8585085435
 20
599.56542561
 30
0.0
  0
LINE
  5
14C
330
1F
100
AcDbEntity
  8
FORMAT
  6
CENTERX2
 62
     7
370
     0
100
AcDbLine
 10
458.457521136
 20
435.5284060094
 30
0.0
 11
529.9309658184
 21
435.5284060094
 31
0.0
  0
LINE
  5
14D
330
1F
100
AcDbEntity
  8
FORMAT
  6
CENTERX2
 62
     7
370
     0
100
AcDbLine
 10
66.9779718529
 20
435.5284060094
 30
0.0
 11
-69.4713316317
 21
435.5284060094
 31
0.0
  0
LINE
  5
14E
330
1F
100
AcDbEntity
  8
0
  6
Continuous
 62
     7
370
    15
100
AcDbLine
 10
715.6393246091
 20
553.5284067247
 30
0.0
 11
715.6393246091
 21
543.5284088108
 31
0.0
  0
LINE
  5
14F
330
1F
100
AcDbEntity
  8
0
  6
Continuous
 62
     7
370
    15
100
AcDbLine
 10
841.6393229104
 20
543.5284088108
 30
0.0
 11
841.6393229104
 21
553.5284067247
 31
0.0
  0
LINE
  5
150
330
1F
100
AcDbEntity
  8
0
  6
Continuous
 62
     7
370
    15
100
AcDbLine
 10
743.6393254734
 20
372.7271343324
 30
0.0
 11
743.6393254734
 21
353.5284037444
 31
0.0
  0
LINE
  5
151
330
1F
100
AcDbEntity
  8
0
  6
Continuous
 62
     7
370
    15
100
AcDbLine
 10
813.6393257714
 20
353.5284037444
 30
0.0
 11
813.6393257714
 21
388.5284076187
 31
0.0
  0
LINE
  5
152
330
1F
100
AcDbEntity
  8
0
  6
Continuous
 62
     7
370
    15
100
AcDbLine
 10
813.6393257714
 20
482.5284044001
 30
0.0
 11
813.6393257714
 21
517.5284082744
 31
0.0
  0
LINE
  5
153
330
1F
100
AcDbEntity
  8
0
  6
Continuous
 62
     7
370
    15
100
AcDbLine
 10
743.6393254734
 20
517.5284082744
 30
0.0
 11
743.6393254734
 21
498.3296776864
 31
0.0
  0
LINE
  5
154
330
1F
100
AcDbEntity
  8
0
  6
Continuous
 62
     7
370
    15
100
AcDbLine
 10
807.6393210626
 20
517.5284082744
 30
0.0
 11
807.6393210626
 21
543.5284088108
 31
0.0
  0
LINE
  5
155
330
1F
100
AcDbEntity
  8
0
  6
Continuous
 62
     7
370
    15
100
AcDbLine
 10
749.6393227316
 20
543.5284088108
 30
0.0
 11
749.6393227316
 21
517.5284082744
 31
0.0
  0
LINE
  5
156
330
1F
100
AcDbEntity
  8
0
  6
Continuous
 62
     7
370
    15
100
AcDbLine
 10
807.6393210626
 20
388.5284076187
 30
0.0
 11
807.6393210626
 21
482.5284044001
 31
0.0
  0
LINE
  5
157
330
1F
100
AcDbEntity
  8
0
  6
Continuous
 62
     7
370
    15
100
AcDbLine
 10
786.1393221951
 20
553.5284067247
 30
0.0
 11
786.1393221951
 21
593.5284132812
 31
0.0
  0
LINE
  5
158
330
1F
100
AcDbEntity
  8
0
  6
Continuous
 62
     7
370
    15
100
AcDbLine
 10
771.1393215991
 20
593.5284132812
 30
0.0
 11
771.1393215991
 21
553.5284067247
 31
0.0
  0
LINE
  5
159
330
1F
100
AcDbEntity
  8
0
  6
Continuous
 62
     7
370
    15
100
AcDbLine
 10
577.6393243409
 20
271.0284079168
 30
0.0
 11
580.63932297
 21
271.0284079168
 31
0.0
  0
LINE
  5
15A
330
1F
100
AcDbEntity
  8
0
  6
Continuous
 62
     7
370
    15
100
AcDbLine
 10
580.63932297
 20
590.0283987377
 30
0.0
 11
577.6393243409
 21
590.0283987377
 31
0.0
  0
LINE
  5
15B
330
1F
100
AcDbEntity
  8
0
  6
Continuous
 62
     7
370
    15
100
AcDbLine
 10
824.6393257118
 20
271.0284079168
 30
0.0
 11
827.6393243409
 21
271.0284079168
 31
0.0
  0
LINE
  5
15C
330
1F
100
AcDbEntity
  8
0
  6
Continuous
 62
     7
370
    15
100
AcDbLine
 10
827.6393243409
 20
590.0283987377
 30
0.0
 11
824.6393257118
 21
590.0283987377
 31
0.0
  0
LINE
  5
15D
330
1F
100
AcDbEntity
  8
0
  6
Continuous
 62
     7
370
    15
100
AcDbLine
 10
599.6393242217
 20
282.5284088704
 30
0.0
 11
635.3565284348
 21
295.5284054134
 31
0.0
  0
LINE
  5
15E
330
1F
100
AcDbEntity
  8
0
  6
Continuous
 62
     7
370
    15
100
AcDbLine
 10
769.922120247
 20
295.5284054134
 30
0.0
 11
805.6393244601
 21
282.5284088704
 31
0.0
  0
LINE
  5
15F
330
1F
100
AcDbEntity
  8
0
  6
Continuous
 62
     7
370
    15
100
AcDbLine
 10
635.3565284348
 20
565.5284012411
 30
0.0
 11
599.6393242217
 21
578.5284126851
 31
0.0
  0
LINE
  5
160
330
1F
100
AcDbEntity
  8
0
  6
Continuous
 62
     7
370
    15
100
AcDbLine
 10
805.6393244601
 20
578.5284126851
 30
0.0
 11
786.1393221951
 21
571.4309896085
 31
0.0
  0
LINE
  5
161
330
1F
100
AcDbEntity
  8
0
  6
Continuous
 62
     7
370
    15
100
AcDbLine
 10
771.1393215991
 20
565.9714276645
 30
0.0
 11
769.922120247
 21
565.5284012411
 31
0.0
  0
LINE
  5
162
330
1F
100
AcDbEntity
  8
0
  6
Continuous
 62
     7
370
    15
100
AcDbLine
 10
684.3165473379
 20
565.5284012411
 30
0.0
 11
635.3565284348
 21
565.5284012411
 31
0.0
  0
LINE
  5
163
330
1F
100
AcDbEntity
  8
0
  6
Continuous
 62
     7
370
    15
100
AcDbLine
 10
769.922120247
 20
565.5284012411
 30
0.0
 11
720.9654168523
 21
565.5284012411
 31
0.0
  0
LINE
  5
164
330
1F
100
AcDbEntity
  8
0
  6
Continuous
 62
     7
370
    15
100
AcDbLine
 10
720.9654168523
 20
295.5284054134
 30
0.0
 11
769.922120247
 21
295.5284054134
 31
0.0
  0
LINE
  5
165
330
1F
100
AcDbEntity
  8
0
  6
Continuous
 62
     7
370
    15
100
AcDbLine
 10
635.3565284348
 20
295.5284054134
 30
0.0
 11
684.3165473379
 21
295.5284054134
 31
0.0
  0
LINE
  5
166
330
1F
100
AcDbEntity
  8
0
  6
Continuous
 62
     7
370
    15
100
AcDbLine
 10
720.9773079789
 20
565.5270899389
 30
0.0
 11
720.1393244154
 21
597.5284064863
 31
0.0
  0
LINE
  5
167
330
1F
100
AcDbEntity
  8
0
  6
Continuous
 62
     7
370
    15
100
AcDbLine
 10
685.1393242664
 20
597.5284064863
 30
0.0
 11
684.3013313896
 21
565.526732311
 31
0.0
  0
LINE
  5
168
330
1F
100
AcDbEntity
  8
0
  6
Continuous
 62
     7
370
    15
100
AcDbLine
 10
684.3013313896
 20
295.5300892446
 30
0.0
 11
685.1393242664
 21
263.5284001682
 31
0.0
  0
LINE
  5
169
330
1F
100
AcDbEntity
  8
0
  6
Continuous
 62
     7
370
    15
100
AcDbLine
 10
720.1393244154
 20
263.5284001682
 30
0.0
 11
720.9773079789
 21
295.5297167156
 31
0.0
  0
LINE
  5
16A
330
1F
100
AcDbEntity
  8
0
  6
Continuous
 62
     7
370
    15
100
AcDbLine
 10
715.6393246091
 20
543.5284088108
 30
0.0
 11
841.6393229104
 21
543.5284088108
 31
0.0
  0
LINE
  5
16B
330
1F
100
AcDbEntity
  8
0
  6
Continuous
 62
     7
370
    15
100
AcDbLine
 10
715.6393246091
 20
553.5284067247
 30
0.0
 11
841.6393229104
 21
553.5284067247
 31
0.0
  0
CIRCLE
  5
16C
330
1F
100
AcDbEntity
  8
0
  6
Continuous
 62
     7
370
    15
100
AcDbCircle
 10
666.6393243409
 20
435.5284060094
 30
0.0
 40
6.5
  0
CIRCLE
  5
16D
330
1F
100
AcDbEntity
  8
0
  6
Continuous
 62
     7
370
    15
100
AcDbCircle
 10
702.6393243409
 20
399.5284060094
 30
0.0
 40
6.500000000000114
  0
CIRCLE
  5
16E
330
1F
100
AcDbEntity
  8
0
  6
Continuous
 62
     7
370
    15
100
AcDbCircle
 10
702.6393243409
 20
471.5284060094
 30
0.0
 40
6.499999999999886
  0
CIRCLE
  5
16F
330
1F
100
AcDbEntity
  8
0
  6
Continuous
 62
     7
370
    15
100
AcDbCircle
 10
738.6393243409
 20
435.5284060094
 30
0.0
 40
6.500000000000114
  0
LINE
  5
170
330
1F
100
AcDbEntity
  8
0
  6
Continuous
 62
     7
370
    15
100
AcDbLine
 10
752.7018987871
 20
388.5284076187
 30
0.0
 11
752.7018987871
 21
379.6827393327
 31
0.0
  0
LINE
  5
171
330
1F
100
AcDbEntity
  8
0
  6
Continuous
 62
     7
370
    15
100
AcDbLine
 10
760.639322672
 20
388.5284076187
 30
0.0
 11
752.7018987871
 21
388.5284076187
 31
0.0
  0
LINE
  5
172
330
1F
100
AcDbEntity
  8
0
  6
Continuous
 62
     7
370
    15
100
AcDbLine
 10
813.6393257714
 20
388.5284076187
 30
0.0
 11
796.6393211222
 21
388.5284076187
 31
0.0
  0
LINE
  5
173
330
1F
100
AcDbEntity
  8
0
  6
Continuous
 62
     7
370
    15
100
AcDbLine
 10
813.6393257714
 20
353.5284037444
 30
0.0
 11
743.6393254734
 21
353.5284037444
 31
0.0
  0
LINE
  5
174
330
1F
100
AcDbEntity
  8
0
  6
Continuous
 62
     7
370
    15
100
AcDbLine
 10
813.6393257714
 20
482.5284044001
 30
0.0
 11
796.6393211222
 21
482.5284044001
 31
0.0
  0
LINE
  5
175
330
1F
100
AcDbEntity
  8
0
  6
Continuous
 62
     7
370
    15
100
AcDbLine
 10
760.639322672
 20
482.5284044001
 30
0.0
 11
752.7018987871
 21
482.5284044001
 31
0.0
  0
LINE
  5
176
330
1F
100
AcDbEntity
  8
0
  6
Continuous
 62
     7
370
    15
100
AcDbLine
 10
752.7018987871
 20
482.5284044001
 30
0.0
 11
752.7018987871
 21
491.3740726862
 31
0.0
  0
LINE
  5
177
330
1F
100
AcDbEntity
  8
0
  6
Continuous
 62
     7
370
    15
100
AcDbLine
 10
813.6393257714
 20
517.5284082744
 30
0.0
 11
743.6393254734
 21
517.5284082744
 31
0.0
  0
LINE
  5
178
330
1F
100
AcDbEntity
  8
0
  6
Continuous
 62
     7
370
    15
100
AcDbLine
 10
760.639322672
 20
388.5284076187
 30
0.0
 11
760.639322672
 21
482.5284044001
 31
0.0
  0
LINE
  5
179
330
1F
100
AcDbEntity
  8
0
  6
Continuous
 62
     7
370
    15
100
AcDbLine
 10
778.6393218971
 20
482.5284044001
 30
0.0
 11
796.6393211222
 21
482.5284044001
 31
0.0
  0
LINE
  5
17A
330
1F
100
AcDbEntity
  8
0
  6
Continuous
 62
     7
370
    15
100
AcDbLine
 10
796.6393211222
 20
388.5284076187
 30
0.0
 11
796.6393211222
 21
482.5284044001
 31
0.0
  0
LINE
  5
17B
330
1F
100
AcDbEntity
  8
0
  6
Continuous
 62
     7
370
    15
100
AcDbLine
 10
796.6393211222
 20
388.5284076187
 30
0.0
 11
778.6393218971
 21
388.5284076187
 31
0.0
  0
LINE
  5
17C
330
1F
100
AcDbEntity
  8
0
  6
Continuous
 62
     7
370
    15
100
AcDbLine
 10
760.639322672
 20
482.5284044001
 30
0.0
 11
778.6393218971
 21
482.5284044001
 31
0.0
  0
LINE
  5
17D
330
1F
100
AcDbEntity
  8
0
  6
Continuous
 62
     7
370
    15
100
AcDbLine
 10
778.6393218971
 20
388.5284076187
 30
0.0
 11
760.639322672
 21
388.5284076187
 31
0.0
  0
CIRCLE
  5
17E
330
1F
100
AcDbEntity
  8
0
  6
Continuous
 62
     7
370
    15
100
AcDbCircle
 10
702.6393243409
 20
435.5284060094
 30
0.0
 40
43.5
  0
LINE
  5
17F
330
1F
100
AcDbEntity
  8
0
  6
Continuous
 62
     7
370
    15
100
AcDbLine
 10
776.7629378773
 20
349.5284030888
 30
0.0
 11
776.7629378773
 21
353.5284037444
 31
0.0
  0
LINE
  5
180
330
1F
100
AcDbEntity
  8
0
  6
Continuous
 62
     7
370
    15
100
AcDbLine
 10
774.8865464068
 20
349.5284030888
 30
0.0
 11
774.8865464068
 21
353.5284037444
 31
0.0
  0
LINE
  5
181
330
1F
100
AcDbEntity
  8
0
  6
Continuous
 62
     7
370
    15
100
AcDbLine
 10
776.7629378773
 20
349.5284030888
 30
0.0
 11
774.8865464068
 21
349.5284030888
 31
0.0
  0
LINE
  5
182
330
1F
100
AcDbEntity
  8
0
  6
Continuous
 62
     7
370
    15
100
AcDbLine
 10
780.5157133675
 20
349.5284030888
 30
0.0
 11
780.5157133675
 21
353.5284037444
 31
0.0
  0
LINE
  5
183
330
1F
100
AcDbEntity
  8
0
  6
Continuous
 62
     7
370
    15
100
AcDbLine
 10
780.5157133675
 20
349.5284030888
 30
0.0
 11
776.7629378773
 21
349.5284030888
 31
0.0
  0
LINE
  5
184
330
1F
100
AcDbEntity
  8
0
  6
Continuous
 62
     7
370
    15
100
AcDbLine
 10
782.3920973874
 20
349.5284030888
 30
0.0
 11
782.3920973874
 21
353.5284037444
 31
0.0
  0
LINE
  5
185
330
1F
100
AcDbEntity
  8
0
  6
Continuous
 62
     7
370
    15
100
AcDbLine
 10
782.3920973874
 20
349.5284030888
 30
0.0
 11
780.5157133675
 21
349.5284030888
 31
0.0
  0
ARC
  5
186
330
1F
100
AcDbEntity
  8
0
  6
Continuous
 62
     7
370
    15
100
AcDbCircle
 10
702.6393243409
 20
435.5284060094
 30
0.0
 40
75.00000000000004
100
AcDbArc
 50
233.8710725281
 51
311.874482856
  0
ARC
  5
187
330
1F
100
AcDbEntity
  8
0
  6
Continuous
 62
     7
370
    15
100
AcDbCircle
 10
656.6501951906
 20
372.5284060094
 30
0.0
 40
3.0
100
AcDbArc
 50
53.8710725281
 51
90.0
  0
LINE
  5
188
330
1F
100
AcDbEntity
  8
0
  6
Continuous
 62
     7
370
    15
100
AcDbLine
 10
656.6501946486
 20
375.5284073505
 30
0.0
 11
649.6393249667
 21
375.5284073505
 31
0.0
  0
ARC
  5
189
330
1F
100
AcDbEntity
  8
0
  6
Continuous
 62
     7
370
    15
100
AcDbCircle
 10
649.6393243409
 20
492.5284060094
 30
0.0
 40
3.0
100
AcDbArc
 50
90.0
 51
180.0
  0
LINE
  5
18A
330
1F
100
AcDbEntity
  8
0
  6
Continuous
 62
     7
370
    15
100
AcDbLine
 10
649.6393249667
 20
495.5284046683
 30
0.0
 11
656.6501946486
 21
495.5284046683
 31
0.0
  0
ARC
  5
18B
330
1F
100
AcDbEntity
  8
0
  6
Continuous
 62
     7
370
    15
100
AcDbCircle
 10
656.6501951906
 20
498.5284060094
 30
0.0
 40
3.0
100
AcDbArc
 50
270.0
 51
306.1289274719
  0
ARC
  5
18C
330
1F
100
AcDbEntity
  8
0
  6
Continuous
 62
     7
370
    15
100
AcDbCircle
 10
702.6393243409
 20
435.5284060094
 30
0.0
 40
75.00000000000013
100
AcDbArc
 50
48.125517144
 51
126.1289274719
  0
ARC
  5
18D
330
1F
100
AcDbEntity
  8
0
  6
Continuous
 62
     7
370
    15
100
AcDbCircle
 10
649.6393243409
 20
378.5284060094
 30
0.0
 40
3.0
100
AcDbArc
 50
180.0
 51
270.0
  0
LINE
  5
18E
330
1F
100
AcDbEntity
  8
0
  6
Continuous
 62
     7
370
    15
100
AcDbLine
 10
646.6393226124
 20
378.5284059796
 30
0.0
 11
646.6393226124
 21
492.5284060392
 31
0.0
  0
LINE
  5
18F
330
1F
100
AcDbEntity
  8
0
  6
Continuous
 62
     7
370
    15
100
AcDbLine
 10
624.6393227316
 20
395.0132327828
 30
0.0
 11
646.6393226124
 21
395.0132327828
 31
0.0
  0
LINE
  5
190
330
1F
100
AcDbEntity
  8
0
  6
Continuous
 62
     7
370
    15
100
AcDbLine
 10
624.6393227316
 20
395.0132327828
 30
0.0
 11
624.6393227316
 21
400.4980596456
 31
0.0
  0
LINE
  5
191
330
1F
100
AcDbEntity
  8
0
  6
Continuous
 62
     7
370
    15
100
AcDbLine
 10
624.6393227316
 20
400.4980596456
 30
0.0
 11
646.6393226124
 21
400.4980596456
 31
0.0
  0
LINE
  5
192
330
1F
100
AcDbEntity
  8
0
  6
Continuous
 62
     7
370
    15
100
AcDbLine
 10
624.6393227316
 20
470.5587523732
 30
0.0
 11
646.6393226124
 21
470.5587523732
 31
0.0
  0
LINE
  5
193
330
1F
100
AcDbEntity
  8
0
  6
Continuous
 62
     7
370
    15
100
AcDbLine
 10
624.6393227316
 20
470.5587523732
 30
0.0
 11
624.6393227316
 21
476.043579236
 31
0.0
  0
LINE
  5
194
330
1F
100
AcDbEntity
  8
0
  6
Continuous
 62
     7
370
    15
100
AcDbLine
 10
624.6393227316
 20
476.043579236
 30
0.0
 11
646.6393226124
 21
476.043579236
 31
0.0
  0
LINE
  5
195
330
1F
100
AcDbEntity
  8
0
  6
Continuous
 62
     7
370
    15
100
AcDbLine
 10
624.6393227316
 20
476.043579236
 30
0.0
 11
624.6393227316
 21
487.0132329616
 31
0.0
  0
LINE
  5
196
330
1F
100
AcDbEntity
  8
0
  6
Continuous
 62
     7
370
    15
100
AcDbLine
 10
624.6393227316
 20
487.0132329616
 30
0.0
 11
646.6393226124
 21
487.0132329616
 31
0.0
  0
LINE
  5
197
330
1F
100
AcDbEntity
  8
0
  6
Continuous
 62
     7
370
    15
100
AcDbLine
 10
624.6393227316
 20
384.0435790572
 30
0.0
 11
646.6393226124
 21
384.0435790572
 31
0.0
  0
LINE
  5
198
330
1F
100
AcDbEntity
  8
0
  6
Continuous
 62
     7
370
    15
100
AcDbLine
 10
624.6393227316
 20
384.0435790572
 30
0.0
 11
624.6393227316
 21
395.0132327828
 31
0.0
  0
LINE
  5
199
330
1F
100
AcDbEntity
  8
0
  6
Continuous
 62
     7
370
    15
100
AcDbLine
 10
624.6393227316
 20
378.5587521944
 30
0.0
 11
646.6393226124
 21
378.5587521944
 31
0.0
  0
LINE
  5
19A
330
1F
100
AcDbEntity
  8
0
  6
Continuous
 62
     7
370
    15
100
AcDbLine
 10
624.6393227316
 20
378.5587521944
 30
0.0
 11
624.6393227316
 21
384.0435790572
 31
0.0
  0
LINE
  5
19B
330
1F
100
AcDbEntity
  8
0
  6
Continuous
 62
     7
370
    15
100
AcDbLine
 10
624.6393227316
 20
492.4980598245
 30
0.0
 11
646.6393226124
 21
492.4980598245
 31
0.0
  0
LINE
  5
19C
330
1F
100
AcDbEntity
  8
0
  6
Continuous
 62
     7
370
    15
100
AcDbLine
 10
624.6393227316
 20
487.0132329616
 30
0.0
 11
624.6393227316
 21
492.4980598245
 31
0.0
  0
LINE
  5
19D
330
1F
100
AcDbEntity
  8
0
  6
Continuous
 62
     7
370
    15
100
AcDbLine
 10
771.1393215991
 20
593.5284132812
 30
0.0
 11
786.1393221951
 21
593.5284132812
 31
0.0
  0
LINE
  5
19E
330
1F
100
AcDbEntity
  8
0
  6
Continuous
 62
     7
370
    15
100
AcDbLine
 10
752.1393240727
 20
349.5284030888
 30
0.0
 11
752.1393240727
 21
353.5284037444
 31
0.0
  0
LINE
  5
19F
330
1F
100
AcDbEntity
  8
0
  6
Continuous
 62
     7
370
    15
100
AcDbLine
 10
748.8893249369
 20
349.5284030888
 30
0.0
 11
748.8893249369
 21
353.5284037444
 31
0.0
  0
LINE
  5
1A0
330
1F
100
AcDbEntity
  8
0
  6
Continuous
 62
     7
370
    15
100
AcDbLine
 10
752.1393240727
 20
349.5284030888
 30
0.0
 11
748.8893249369
 21
349.5284030888
 31
0.0
  0
LINE
  5
1A1
330
1F
100
AcDbEntity
  8
0
  6
Continuous
 62
     7
370
    15
100
AcDbLine
 10
755.3893232084
 20
349.5284030888
 30
0.0
 11
755.3893232084
 21
353.5284037444
 31
0.0
  0
LINE
  5
1A2
330
1F
100
AcDbEntity
  8
0
  6
Continuous
 62
     7
370
    15
100
AcDbLine
 10
755.3893232084
 20
349.5284030888
 30
0.0
 11
752.1393240727
 21
349.5284030888
 31
0.0
  0
LINE
  5
1A3
330
1F
100
AcDbEntity
  8
0
  6
Continuous
 62
     7
370
    15
100
AcDbLine
 10
805.1393234468
 20
349.5284030888
 30
0.0
 11
805.1393234468
 21
353.5284037444
 31
0.0
  0
LINE
  5
1A4
330
1F
100
AcDbEntity
  8
0
  6
Continuous
 62
     7
370
    15
100
AcDbLine
 10
805.1393234468
 20
349.5284030888
 30
0.0
 11
801.8893280364
 21
349.5284030888
 31
0.0
  0
LINE
  5
1A5
330
1F
100
AcDbEntity
  8
0
  6
Continuous
 62
     7
370
    15
100
AcDbLine
 10
801.8893280364
 20
349.5284030888
 30
0.0
 11
801.8893280364
 21
353.5284037444
 31
0.0
  0
LINE
  5
1A6
330
1F
100
AcDbEntity
  8
0
  6
Continuous
 62
     7
370
    15
100
AcDbLine
 10
808.3893263079
 20
349.5284030888
 30
0.0
 11
808.3893263079
 21
353.5284037444
 31
0.0
  0
LINE
  5
1A7
330
1F
100
AcDbEntity
  8
0
  6
Continuous
 62
     7
370
    15
100
AcDbLine
 10
808.3893263079
 20
349.5284030888
 30
0.0
 11
805.1393234468
 21
349.5284030888
 31
0.0
  0
ARC
  5
1A8
330
1F
100
AcDbEntity
  8
0
  6
Continuous
 62
     7
370
    15
100
AcDbCircle
 10
702.6393243409
 20
435.5284060094
 30
0.0
 40
85.00000000000017
100
AcDbArc
 50
155.6618131747
 51
204.3381868253
  0
ARC
  5
1A9
330
1F
100
AcDbEntity
  8
0
  6
Continuous
 62
     7
370
    15
100
AcDbCircle
 10
702.6393243409
 20
435.5284060094
 30
0.0
 40
85.00000000000004
100
AcDbArc
 50
222.0849142652
 51
298.8391894006
  0
ARC
  5
1AA
330
1F
100
AcDbEntity
  8
0
  6
Continuous
 62
     7
370
    15
100
AcDbCircle
 10
702.6393243409
 20
435.5284060094
 30
0.0
 40
85.00000000000009
100
AcDbArc
 50
61.1608105994
 51
137.9150857348
  0
LINE
  5
1AB
330
1F
100
AcDbEntity
  8
0
  6
Continuous
 62
     7
370
    15
100
AcDbLine
 10
599.6393242217
 20
428.0284061771
 30
0.0
 11
617.9708519317
 21
428.0284061771
 31
0.0
  0
LINE
  5
1AC
330
1F
100
AcDbEntity
  8
0
  6
Continuous
 62
     7
370
    15
100
AcDbLine
 10
599.6393242217
 20
443.0284058418
 30
0.0
 11
617.9708519317
 21
443.0284058418
 31
0.0
  0
LINE
  5
1AD
330
1F
100
AcDbEntity
  8
0
  6
Continuous
 62
     7
370
    15
100
AcDbLine
 10
580.63932297
 20
246.7316473577
 30
0.0
 11
580.63932297
 21
614.3251741979
 31
0.0
  0
LINE
  5
1AE
330
1F
100
AcDbEntity
  8
0
  6
Continuous
 62
     7
370
    15
100
AcDbLine
 10
599.6393242217
 20
614.3251741979
 30
0.0
 11
580.63932297
 21
614.3251741979
 31
0.0
  0
LINE
  5
1AF
330
1F
100
AcDbEntity
  8
0
  6
Continuous
 62
     7
370
    15
100
AcDbLine
 10
599.6393242217
 20
246.7316473577
 30
0.0
 11
599.6393242217
 21
614.3251741979
 31
0.0
  0
LINE
  5
1B0
330
1F
100
AcDbEntity
  8
0
  6
Continuous
 62
     7
370
    15
100
AcDbLine
 10
599.6393242217
 20
246.7316473577
 30
0.0
 11
580.63932297
 21
246.7316473577
 31
0.0
  0
LINE
  5
1B1
330
1F
100
AcDbEntity
  8
0
  6
Continuous
 62
     7
370
    15
100
AcDbLine
 10
824.6393257118
 20
246.7316473577
 30
0.0
 11
824.6393257118
 21
543.5284088108
 31
0.0
  0
LINE
  5
1B2
330
1F
100
AcDbEntity
  8
0
  6
Continuous
 62
     7
370
    15
100
AcDbLine
 10
824.6393257118
 20
553.5284067247
 30
0.0
 11
824.6393257118
 21
614.3251741979
 31
0.0
  0
LINE
  5
1B3
330
1F
100
AcDbEntity
  8
0
  6
Continuous
 62
     7
370
    15
100
AcDbLine
 10
805.6393244601
 20
246.7316473577
 30
0.0
 11
824.6393257118
 21
246.7316473577
 31
0.0
  0
LINE
  5
1B4
330
1F
100
AcDbEntity
  8
0
  6
Continuous
 62
     7
370
    15
100
AcDbLine
 10
805.6393244601
 20
614.3251741979
 30
0.0
 11
824.6393257118
 21
614.3251741979
 31
0.0
  0
LINE
  5
1B5
330
1F
100
AcDbEntity
  8
0
  6
Continuous
 62
     7
370
    15
100
AcDbLine
 10
805.6393244601
 20
246.7316473577
 30
0.0
 11
805.6393244601
 21
349.5284030888
 31
0.0
  0
LINE
  5
1B6
330
1F
100
AcDbEntity
  8
0
  6
Continuous
 62
     7
370
    15
100
AcDbLine
 10
805.6393244601
 20
553.5284067247
 30
0.0
 11
805.6393244601
 21
614.3251741979
 31
0.0
  0
LINE
  5
1B7
330
1F
100
AcDbEntity
  8
0
  6
Continuous
 62
     7
370
    15
100
AcDbLine
 10
577.6393243409
 20
271.0284079168
 30
0.0
 11
577.6393243409
 21
590.0283987377
 31
0.0
  0
LINE
  5
1B8
330
1F
100
AcDbEntity
  8
0
  6
Continuous
 62
     7
370
    15
100
AcDbLine
 10
827.6393243409
 20
271.0284079168
 30
0.0
 11
827.6393243409
 21
543.5284088108
 31
0.0
  0
LINE
  5
1B9
330
1F
100
AcDbEntity
  8
0
  6
Continuous
 62
     7
370
    15
100
AcDbLine
 10
827.6393243409
 20
553.5284067247
 30
0.0
 11
827.6393243409
 21
590.0283987377
 31
0.0
  0
LINE
  5
1BA
330
1F
100
AcDbEntity
  8
0
  6
Continuous
 62
     7
370
    15
100
AcDbLine
 10
635.3565284348
 20
295.5284054134
 30
0.0
 11
635.3565284348
 21
378.5587521944
 31
0.0
  0
LINE
  5
1BB
330
1F
100
AcDbEntity
  8
0
  6
Continuous
 62
     7
370
    15
100
AcDbLine
 10
769.922120247
 20
295.5284054134
 30
0.0
 11
769.922120247
 21
353.5284037444
 31
0.0
  0
LINE
  5
1BC
330
1F
100
AcDbEntity
  8
0
  6
Continuous
 62
     7
370
    15
100
AcDbLine
 10
635.3565284348
 20
492.4980598245
 30
0.0
 11
635.3565284348
 21
565.5284012411
 31
0.0
  0
LINE
  5
1BD
330
1F
100
AcDbEntity
  8
0
  6
Continuous
 62
     7
370
    15
100
AcDbLine
 10
769.922120247
 20
553.5284067247
 30
0.0
 11
769.922120247
 21
565.5284012411
 31
0.0
  0
SPLINE
  5
1BE
330
1F
100
AcDbEntity
  8
0
  6
Continuous
 62
     7
370
    15
100
AcDbSpline
210
0.0
220
0.0
230
1.0
 70
     8
 71
     3
 72
    17
 73
    13
 74
     0
 42
0.00000001
 43
0.00000001
 12
1.0
 22
0.0
 32
0.0
 13
1.0
 23
0.0
 33
0.0
 40
0.0
 40
0.0
 40
0.0
 40
0.0
 40
0.1051495922726954
 40
0.210299100110768
 40
0.3184923140050847
 40
0.4266851302726365
 40
0.5318396007495744
 40
0.6369936938935622
 40
0.7452336098167478
 40
0.853473099612664
 40
0.9580910414417333
 40
0.9999999999999999
 40
0.9999999999999999
 40
0.9999999999999999
 40
0.9999999999999999
 10
689.7470957896915
 20
564.8947740647656
 30
0.0
 10
689.3943341702587
 20
564.9295781200685
 30
0.0
 10
688.6888112146593
 20
564.9991862027272
 30
0.0
 10
687.7413712315516
 20
565.1018993186349
 30
0.0
 10
686.8850801430673
 20
565.1997632336462
 30
0.0
 10
686.1440051736068
 20
565.2890830352621
 30
0.0
 10
685.5265984421336
 20
565.3664632967455
 30
0.0
 10
685.0285328212179
 20
565.4309868058438
 30
0.0
 10
684.6500288179726
 20
565.4811806974903
 30
0.0
 10
684.4100497341367
 20
565.5136013050319
 30
0.0
 10
684.2997171088994
 20
565.5286108583089
 30
0.0
 10
684.312804221378
 20
565.5268372570275
 30
0.0
 10
684.3165473378506
 20
565.5263299796444
 30
0.0
  0
SPLINE
  5
1BF
330
1F
100
AcDbEntity
  8
0
  6
Continuous
 62
     7
370
    15
100
AcDbSpline
210
0.0
220
0.0
230
1.0
 70
     8
 71
     3
 72
    37
 73
    33
 74
     0
 42
0.00000001
 43
0.00000001
 12
1.0
 22
0.0
 32
0.0
 13
1.0
 23
0.0
 33
0.0
 40
0.0
 40
0.0
 40
0.0
 40
0.0
 40
0.0082589612772139
 40
0.0446273606055451
 40
0.0797540408604915
 40
0.1148808386373475
 40
0.1510229620769991
 40
0.1871652627665352
 40
0.2223905145216339
 40
0.2576159227670574
 40
0.2938506912194769
 40
0.3300855273264555
 40
0.3655462734644093
 40
0.4010069306670834
 40
0.4374995244480108
 40
0.4739919043702185
 40
0.5094085312433393
 40
0.54482493658384
 40
0.5812897746608747
 40
0.6177544291653558
 40
0.6528416386644859
 40
0.6879288224727326
 40
0.7240452351239471
 40
0.7601617737515212
 40
0.7950959260810562
 40
0.8300302978891744
 40
0.8659660552850904
 40
0.9019020694318112
 40
0.9262637339328916
 40
0.9506254459619194
 40
0.9753127124868213
 40
1.0
 40
1.0
 40
1.0
 40
1.0
 10
720.9654168523159
 20
565.5267770144802
 30
0.0
 10
720.9690061264483
 20
565.5272619411159
 30
0.0
 10
720.9884007967522
 20
565.5298822459107
 30
0.0
 10
720.8932186618994
 20
565.5169703418281
 30
0.0
 10
720.6780480178771
 20
565.4878232533547
 30
0.0
 10
720.3292944179035
 20
565.441419105629
 30
0.0
 10
719.8550066625488
 20
565.3796468341022
 30
0.0
 10
719.2573526579571
 20
565.3042305732854
 30
0.0
 10
718.548519976631
 20
565.2181768553667
 30
0.0
 10
717.7299697275567
 20
565.1233651264128
 30
0.0
 10
716.796595351677
 20
565.0213083196364
 30
0.0
 10
715.7601015625627
 20
564.9155154565291
 30
0.0
 10
714.6379957408367
 20
564.8100443894226
 30
0.0
 10
713.4294090963334
 20
564.7067676799913
 30
0.0
 10
712.1308746014573
 20
564.6079833384987
 30
0.0
 10
710.7635680797088
 20
564.517579569575
 30
0.0
 10
709.3512482855117
 20
564.4390667081269
 30
0.0
 10
707.8918339709991
 20
564.3733059342005
 30
0.0
 10
706.3794123874071
 20
564.3221698913952
 30
0.0
 10
704.8439903496202
 20
564.2878585006239
 30
0.0
 10
703.3123811064023
 20
564.2714950599211
 30
0.0
 10
701.7810531994105
 20
564.2723877786665
 30
0.0
 10
700.2409810417275
 20
564.2912527224507
 30
0.0
 10
698.7205263352524
 20
564.3273909309205
 30
0.0
 10
697.2449300843574
 20
564.3791895555624
 30
0.0
 10
695.8090778911296
 20
564.4450075732466
 30
0.0
 10
694.4080904298593
 20
564.5242143575701
 30
0.0
 10
693.1985473803053
 20
564.6050660650745
 30
0.0
 10
692.1800599293298
 20
564.6815176760164
 30
0.0
 10
691.332165215882
 20
564.7506307217523
 30
0.0
 10
690.5152441751592
 20
564.8220357692898
 30
0.0
 10
690.0031453240755
 20
564.8705279594025
 30
0.0
 10
689.7470957896915
 20
564.8947740647656
 30
0.0
  0
SPLINE
  5
1C0
330
1F
100
AcDbEntity
  8
0
  6
Continuous
 62
     7
370
    15
100
AcDbSpline
210
0.0
220
0.0
230
1.0
 70
     8
 71
     3
 72
    17
 73
    13
 74
     0
 42
0.00000001
 43
0.00000001
 12
1.0
 22
0.0
 32
0.0
 13
1.0
 23
0.0
 33
0.0
 40
0.0
 40
0.0
 40
0.0
 40
0.0
 40
0.1051495926703344
 40
0.2102990330652365
 40
0.3184923114278607
 40
0.4266851281045599
 40
0.5318395989791553
 40
0.6369936925207992
 40
0.7452336088533102
 40
0.8534730990585505
 40
0.9580910412832483
 40
0.9999999999999999
 40
0.9999999999999999
 40
0.9999999999999999
 40
0.9999999999999999
 10
689.7470957896915
 20
296.1620325896602
 30
0.0
 10
689.3943342507315
 20
296.1272264287383
 30
0.0
 10
688.6888116836734
 20
296.0576141573
 30
0.0
 10
687.7413704540279
 20
295.9549329307279
 30
0.0
 10
686.8850805483505
 20
295.857036496571
 30
0.0
 10
686.1440051067316
 20
295.7677254210773
 30
0.0
 10
685.5265984598198
 20
295.6903428811374
 30
0.0
 10
685.0285328163228
 20
295.625819980476
 30
0.0
 10
684.6500288193041
 20
295.57562592106
 30
0.0
 10
684.4100497337846
 20
295.5432053588809
 30
0.0
 10
684.2997171089291
 20
295.5281957953147
 30
0.0
 10
684.3128042213847
 20
295.5299693972198
 30
0.0
 10
684.3165473378506
 20
295.5304766747814
 30
0.0
  0
SPLINE
  5
1C1
330
1F
100
AcDbEntity
  8
0
  6
Continuous
 62
     7
370
    15
100
AcDbSpline
210
0.0
220
0.0
230
1.0
 70
     8
 71
     3
 72
    37
 73
    33
 74
     0
 42
0.00000001
 43
0.00000001
 12
1.0
 22
0.0
 32
0.0
 13
1.0
 23
0.0
 33
0.0
 40
0.0
 40
0.0
 40
0.0
 40
0.0
 40
0.0082589612640371
 40
0.0446273634351335
 40
0.0797540368659419
 40
0.1148808449466008
 40
0.1510229683285894
 40
0.1871652522132491
 40
0.2223905039121478
 40
0.257615912101371
 40
0.2938507031187697
 40
0.3300855157725064
 40
0.3655462618538843
 40
0.4010069189999828
 40
0.4374995127226881
 40
0.4739918925866741
 40
0.5094085368804886
 40
0.5448249421644843
 40
0.5812897689098196
 40
0.6177544233561233
 40
0.6528416327992734
 40
0.6879288165515404
 40
0.724045229145133
 40
0.7601617596579565
 40
0.7950959235935164
 40
0.8300302953458986
 40
0.8659660526844809
 40
0.9019020467179987
 40
0.9262637111802114
 40
0.9506254457077485
 40
0.9753126890216687
 40
1.0
 40
1.0
 40
1.0
 40
1.0
 10
720.9654168523159
 20
295.5300296399456
 30
0.0
 10
720.969006126111
 20
295.5295445116424
 30
0.0
 10
720.9884007958532
 20
295.5269231169649
 30
0.0
 10
720.8932187067171
 20
295.5398646430901
 30
0.0
 10
720.6780479278391
 20
295.568971267973
 30
0.0
 10
720.3292944721352
 20
295.6154085737064
 30
0.0
 10
719.8550068402999
 20
295.6771782510229
 30
0.0
 10
719.2573524351465
 20
295.7525708484809
 30
0.0
 10
718.5485200751876
 20
295.8386328274172
 30
0.0
 10
717.7299692657314
 20
295.9334345144694
 30
0.0
 10
716.79659623728
 20
296.0355241991435
 30
0.0
 10
715.7601010267127
 20
296.1412844369936
 30
0.0
 10
714.6379958223266
 20
296.2467641548291
 30
0.0
 10
713.4294090573862
 20
296.350038109926
 30
0.0
 10
712.1308746754188
 20
296.4488248710389
 30
0.0
 10
710.7635676066806
 20
296.5392218342242
 30
0.0
 10
709.3512487275451
 20
296.6177588592539
 30
0.0
 10
707.8918342236944
 20
296.683519405118
 30
0.0
 10
706.3794120742864
 20
296.7346316608564
 30
0.0
 10
704.8439903857073
 20
296.7689495899859
 30
0.0
 10
703.312381108127
 20
296.7853107690302
 30
0.0
 10
701.7810531564351
 20
296.7844207972856
 30
0.0
 10
700.2409813333054
 20
296.7655468665925
 30
0.0
 10
698.7205257481471
 20
296.7294416215216
 30
0.0
 10
697.2449304695864
 20
296.6776099653974
 30
0.0
 10
695.8090777702641
 20
296.6118022183256
 30
0.0
 10
694.4080909501673
 20
296.5325869698337
 30
0.0
 10
693.1985471009364
 20
296.4517562525509
 30
0.0
 10
692.1800593384748
 20
296.3753100358597
 30
0.0
 10
691.3321663313279
 20
296.3061644438674
 30
0.0
 10
690.5152431447303
 20
296.234796081003
 30
0.0
 10
690.0031451419694
 20
296.1862871089339
 30
0.0
 10
689.7470957896915
 20
296.1620325896602
 30
0.0
  0
LINE
  5
1C2
330
1F
100
AcDbEntity
  8
0
  6
Continuous
 62
     7
370
    15
100
AcDbLine
 10
680.6393244601
 20
314.4748816941
 30
0.0
 11
680.6393244601
 21
353.4248108718
 31
0.0
  0
SPLINE
  5
1C3
330
1F
100
AcDbEntity
  8
0
  6
Continuous
 62
     7
370
    15
100
AcDbSpline
210
0.0
220
0.0
230
1.0
 70
     8
 71
     3
 72
    18
 73
    14
 74
     0
 42
0.00000001
 43
0.00000001
 12
1.0
 22
0.0
 32
0.0
 13
1.0
 23
0.0
 33
0.0
 40
0.0
 40
0.0
 40
0.0
 40
0.0
 40
0.1250000000000006
 40
0.1250000000000006
 40
0.2500000000000012
 40
0.2500000000000012
 40
0.3750000000000018
 40
0.3750000000000018
 40
0.5000000000000023
 40
0.5000000000000023
 40
0.7500000000000011
 40
0.7500000000000011
 40
1.0
 40
1.0
 40
1.0
 40
1.0
 10
682.6393243409003
 20
313.3943413233813
 30
0.0
 10
682.5054325693447
 20
313.3943413233813
 30
0.0
 10
682.3740296662763
 20
313.4017352166802
 30
0.0
 10
682.1157679742089
 20
313.4300434186713
 30
0.0
 10
681.9875627920972
 20
313.4513147731674
 30
0.0
 10
681.7440659388651
 20
313.5060831666758
 30
0.0
 10
681.6286022193723
 20
313.5393970237043
 30
0.0
 10
681.4102853154968
 20
313.6180054949942
 30
0.0
 10
681.3076592989537
 20
313.6634703641948
 30
0.0
 10
681.0335155172285
 20
313.8128125644116
 30
0.0
 10
680.8880841766033
 20
313.933171447516
 30
0.0
 10
680.6922039130108
 20
314.1918923086712
 30
0.0
 10
680.6393243409003
 20
314.3325153475053
 30
0.0
 10
680.6393243409003
 20
314.4748832759278
 30
0.0
  0
LINE
  5
1C4
330
1F
100
AcDbEntity
  8
0
  6
Continuous
 62
     7
370
    15
100
AcDbLine
 10
722.6393238939
 20
313.3943388913
 30
0.0
 11
682.6393247879
 21
313.3943388913
 31
0.0
  0
SPLINE
  5
1C5
330
1F
100
AcDbEntity
  8
0
  6
Continuous
 62
     7
370
    15
100
AcDbSpline
210
0.0
220
0.0
230
1.0
 70
     8
 71
     3
 72
    16
 73
    12
 74
     0
 42
0.00000001
 43
0.00000001
 12
1.0
 22
0.0
 32
0.0
 13
1.0
 23
0.0
 33
0.0
 40
0.0
 40
0.0
 40
0.0
 40
0.0
 40
0.1250000000000003
 40
0.1250000000000003
 40
0.2500000000000007
 40
0.2500000000000007
 40
0.375000000000001
 40
0.375000000000001
 40
0.5000000000000013
 40
0.5000000000000013
 40
1.0
 40
1.0
 40
1.0
 40
1.0
 10
724.6393243409004
 20
314.4748832759278
 30
0.0
 10
724.6393243409004
 20
314.4036438317452
 30
0.0
 10
724.6263698459819
 20
314.3337567983517
 30
0.0
 10
724.5763023465272
 20
314.1964959715947
 30
0.0
 10
724.5386917319638
 20
314.1285101749252
 30
0.0
 10
724.4402854432531
 20
313.9981995666109
 30
0.0
 10
724.3801655696029
 20
313.9363842886963
 30
0.0
 10
724.2380060660712
 20
313.819378112038
 30
0.0
 10
724.1548438975026
 20
313.7636903685828
 30
0.0
 10
723.6969191340326
 20
313.513915085502
 30
0.0
 10
723.174915340741
 20
313.3943413233813
 30
0.0
 10
722.6393243409004
 20
313.3943413233813
 30
0.0
  0
LINE
  5
1C6
330
1F
100
AcDbEntity
  8
0
  6
Continuous
 62
     7
370
    15
100
AcDbLine
 10
724.6393242217
 20
353.4248108718
 30
0.0
 11
724.6393242217
 21
314.4748816941
 31
0.0
  0
LINE
  5
1C7
330
1F
100
AcDbEntity
  8
0
  6
Continuous
 62
     7
370
    15
100
AcDbLine
 10
729.6393250413
 20
354.9306402657
 30
0.0
 11
729.6393250413
 21
314.4748816941
 31
0.0
  0
SPLINE
  5
1C8
330
1F
100
AcDbEntity
  8
0
  6
Continuous
 62
     7
370
    15
100
AcDbSpline
210
0.0
220
0.0
230
1.0
 70
     8
 71
     3
 72
    12
 73
     8
 74
     0
 42
0.00000001
 43
0.00000001
 12
1.0
 22
0.0
 32
0.0
 13
1.0
 23
0.0
 33
0.0
 40
0.0
 40
0.0
 40
0.0
 40
0.0
 40
0.4999999999999994
 40
0.4999999999999994
 40
0.7499999999999998
 40
0.7499999999999998
 40
1.0
 40
1.0
 40
1.0
 40
1.0
 10
722.6393243409004
 20
310.7935488123254
 30
0.0
 10
724.5188335495108
 20
310.7935488123254
 30
0.0
 10
726.343838065662
 20
311.1881781499688
 30
0.0
 10
728.2650542119371
 20
312.1974273015094
 30
0.0
 10
728.7733349708881
 20
312.600601003955
 30
0.0
 10
729.4621207630116
 20
313.4939852893987
 30
0.0
 10
729.6393243409004
 20
313.9750944756061
 30
0.0
 10
729.6393243409004
 20
314.4748832759278
 30
0.0
  0
LINE
  5
1C9
330
1F
100
AcDbEntity
  8
0
  6
Continuous
 62
     7
370
    15
100
AcDbLine
 10
722.6393238939
 20
310.7935498211
 30
0.0
 11
682.6393247879
 21
310.7935498211
 31
0.0
  0
SPLINE
  5
1CA
330
1F
100
AcDbEntity
  8
0
  6
Continuous
 62
     7
370
    15
100
AcDbSpline
210
0.0
220
0.0
230
1.0
 70
     8
 71
     3
 72
    12
 73
     8
 74
     0
 42
0.00000001
 43
0.00000001
 12
1.0
 22
0.0
 32
0.0
 13
1.0
 23
0.0
 33
0.0
 40
0.0
 40
0.0
 40
0.0
 40
0.0
 40
0.5000000000000016
 40
0.5000000000000016
 40
0.7500000000000008
 40
0.7500000000000008
 40
1.0
 40
1.0
 40
1.0
 40
1.0
 10
675.6393243409003
 20
314.4748832759278
 30
0.0
 10
675.6393243409003
 20
313.4758721521854
 30
0.0
 10
676.3785249994442
 20
312.5301580281211
 30
0.0
 10
678.2964582876482
 20
311.5239589638277
 30
0.0
 10
679.0731548381032
 20
311.2536157906768
 30
0.0
 10
680.778056627377
 20
310.8887899562034
 30
0.0
 10
681.7001335143344
 20
310.7935488123254
 30
0.0
 10
682.6393243409003
 20
310.7935488123254
 30
0.0
  0
LINE
  5
1CB
330
1F
100
AcDbEntity
  8
0
  6
Continuous
 62
     7
370
    15
100
AcDbLine
 10
675.6393236405
 20
314.4748816941
 30
0.0
 11
675.6393236405
 21
354.9306402657
 31
0.0
  0
SPLINE
  5
1CC
330
1F
100
AcDbEntity
  8
0
  6
Continuous
 62
     7
370
    15
100
AcDbSpline
210
0.0
220
0.0
230
1.0
 70
     8
 71
     3
 72
    16
 73
    12
 74
     0
 42
0.00000001
 43
0.00000001
 12
1.0
 22
0.0
 32
0.0
 13
1.0
 23
0.0
 33
0.0
 40
0.0
 40
0.0
 40
0.0
 40
0.0
 40
0.1249999999999991
 40
0.1249999999999991
 40
0.2499999999999981
 40
0.2499999999999981
 40
0.3749999999999972
 40
0.3749999999999972
 40
0.4999999999999962
 40
0.4999999999999962
 40
1.0
 40
1.0
 40
1.0
 40
1.0
 10
724.6393243409004
 20
316.2426502288941
 30
0.0
 10
724.6393243409004
 20
316.1714107847115
 30
0.0
 10
724.6263698459819
 20
316.101523751318
 30
0.0
 10
724.5763023465272
 20
315.9642629245611
 30
0.0
 10
724.5386917319638
 20
315.8962771278915
 30
0.0
 10
724.4402854432531
 20
315.7659665195772
 30
0.0
 10
724.3801655696029
 20
315.7041512416626
 30
0.0
 10
724.2380060660712
 20
315.5871450650043
 30
0.0
 10
724.1548438975026
 20
315.5314573215491
 30
0.0
 10
723.6969191340326
 20
315.2816820384684
 30
0.0
 10
723.174915340741
 20
315.1621082763477
 30
0.0
 10
722.6393243409004
 20
315.1621082763477
 30
0.0
  0
LINE
  5
1CD
330
1F
100
AcDbEntity
  8
0
  6
Continuous
 62
     7
370
    15
100
AcDbLine
 10
722.6393238939
 20
315.1621083472
 30
0.0
 11
682.6393247879
 21
315.1621083472
 31
0.0
  0
SPLINE
  5
1CE
330
1F
100
AcDbEntity
  8
0
  6
Continuous
 62
     7
370
    15
100
AcDbSpline
210
0.0
220
0.0
230
1.0
 70
     8
 71
     3
 72
    18
 73
    14
 74
     0
 42
0.00000001
 43
0.00000001
 12
1.0
 22
0.0
 32
0.0
 13
1.0
 23
0.0
 33
0.0
 40
0.0
 40
0.0
 40
0.0
 40
0.0
 40
0.1250000000000002
 40
0.1250000000000002
 40
0.2500000000000004
 40
0.2500000000000004
 40
0.3750000000000007
 40
0.3750000000000007
 40
0.5000000000000009
 40
0.5000000000000009
 40
0.7500000000000004
 40
0.7500000000000004
 40
1.0
 40
1.0
 40
1.0
 40
1.0
 10
682.6393243409003
 20
315.1621082763477
 30
0.0
 10
682.5054325693447
 20
315.1621082763476
 30
0.0
 10
682.3740296662763
 20
315.1695021696465
 30
0.0
 10
682.1157679742089
 20
315.1978103716377
 30
0.0
 10
681.987562792097
 20
315.2190817261338
 30
0.0
 10
681.7440659388651
 20
315.2738501196422
 30
0.0
 10
681.6286022193723
 20
315.3071639766707
 30
0.0
 10
681.4102853154968
 20
315.3857724479607
 30
0.0
 10
681.3076592989537
 20
315.4312373171613
 30
0.0
 10
681.0335155172285
 20
315.580579517378
 30
0.0
 10
680.8880841766033
 20
315.7009384004824
 30
0.0
 10
680.6922039130108
 20
315.9596592616376
 30
0.0
 10
680.6393243409003
 20
316.1002823004715
 30
0.0
 10
680.6393243409003
 20
316.2426502288941
 30
0.0
  0
LINE
  5
1CF
330
1F
100
AcDbEntity
  8
0
  6
Continuous
 62
     7
370
    15
100
AcDbLine
 10
599.6393242217
 20
645.5283994529
 30
0.0
 11
580.63932297
 21
645.5283994529
 31
0.0
  0
LINE
  5
1D0
330
1F
100
AcDbEntity
  8
0
  6
Continuous
 62
     7
370
    15
100
AcDbLine
 10
599.6393242217
 20
614.3251741979
 30
0.0
 11
599.6393242217
 21
645.5283994529
 31
0.0
  0
LINE
  5
1D1
330
1F
100
AcDbEntity
  8
0
  6
Continuous
 62
     7
370
    15
100
AcDbLine
 10
580.63932297
 20
614.3251741979
 30
0.0
 11
580.63932297
 21
645.5283994529
 31
0.0
  0
LINE
  5
1D2
330
1F
100
AcDbEntity
  8
0
  6
Continuous
 62
     7
370
    15
100
AcDbLine
 10
599.6393242217
 20
215.5284072015
 30
0.0
 11
580.63932297
 21
215.5284072015
 31
0.0
  0
LINE
  5
1D3
330
1F
100
AcDbEntity
  8
0
  6
Continuous
 62
     7
370
    15
100
AcDbLine
 10
599.6393242217
 20
246.7316473577
 30
0.0
 11
599.6393242217
 21
215.5284072015
 31
0.0
  0
LINE
  5
1D4
330
1F
100
AcDbEntity
  8
0
  6
Continuous
 62
     7
370
    15
100
AcDbLine
 10
580.63932297
 20
246.7316473577
 30
0.0
 11
580.63932297
 21
215.5284072015
 31
0.0
  0
LINE
  5
1D5
330
1F
100
AcDbEntity
  8
0
  6
Continuous
 62
     7
370
    15
100
AcDbLine
 10
805.6393244601
 20
645.5283994529
 30
0.0
 11
824.6393257118
 21
645.5283994529
 31
0.0
  0
LINE
  5
1D6
330
1F
100
AcDbEntity
  8
0
  6
Continuous
 62
     7
370
    15
100
AcDbLine
 10
824.6393257118
 20
614.3251741979
 30
0.0
 11
824.6393257118
 21
645.5283994529
 31
0.0
  0
LINE
  5
1D7
330
1F
100
AcDbEntity
  8
0
  6
Continuous
 62
     7
370
    15
100
AcDbLine
 10
805.6393244601
 20
614.3251741979
 30
0.0
 11
805.6393244601
 21
645.5283994529
 31
0.0
  0
LINE
  5
1D8
330
1F
100
AcDbEntity
  8
0
  6
Continuous
 62
     7
370
    15
100
AcDbLine
 10
805.6393244601
 20
215.5284072015
 30
0.0
 11
824.6393257118
 21
215.5284072015
 31
0.0
  0
LINE
  5
1D9
330
1F
100
AcDbEntity
  8
0
  6
Continuous
 62
     7
370
    15
100
AcDbLine
 10
824.6393257118
 20
246.7316473577
 30
0.0
 11
824.6393257118
 21
215.5284072015
 31
0.0
  0
LINE
  5
1DA
330
1F
100
AcDbEntity
  8
0
  6
Continuous
 62
     7
370
    15
100
AcDbLine
 10
805.6393244601
 20
246.7316473577
 30
0.0
 11
805.6393244601
 21
215.5284072015
 31
0.0
  0
LINE
  5
1DB
330
1F
100
AcDbEntity
  8
0
  6
Continuous
 62
     7
370
    15
100
AcDbLine
 10
685.1393242664
 20
597.5284064863
 30
0.0
 11
720.1393244154
 21
597.5284064863
 31
0.0
  0
LINE
  5
1DC
330
1F
100
AcDbEntity
  8
0
  6
Continuous
 62
     7
370
    15
100
AcDbLine
 10
685.1393242664
 20
263.5284001682
 30
0.0
 11
720.1393244154
 21
263.5284001682
 31
0.0
  0
LINE
  5
1DD
330
1F
100
AcDbEntity
  8
0
  6
Continuous
 62
     8
370
     0
100
AcDbLine
 10
722.6393238939
 20
315.1621083472
 30
0.0
 11
722.6393238939
 21
313.3943388913
 31
0.0
  0
LINE
  5
1DE
330
1F
100
AcDbEntity
  8
0
  6
Continuous
 62
     8
370
     0
100
AcDbLine
 10
682.6393247879
 20
315.1621083472
 30
0.0
 11
682.6393247879
 21
313.3943388913
 31
0.0
  0
INSERT
  5
1EA
330
1F
100
AcDbEntity
  8
FORMAT
 62
     7
100
AcDbBlockReference
  2
SW_CENTERMARKSYMBOL_1
 10
702.6393243409
 20
435.5284060094
 30
0.0
  0
INSERT
  5
1F6
330
1F
100
AcDbEntity
  8
FORMAT
 62
     7
100
AcDbBlockReference
  2
SW_CENTERMARKSYMBOL_2
 10
702.6393243409
 20
471.5284060094
 30
0.0
  0
INSERT
  5
202
330
1F
100
AcDbEntity
  8
FORMAT
 62
     7
100
AcDbBlockReference
  2
SW_CENTERMARKSYMBOL_3
 10
738.6393243409
 20
435.5284060094
 30
0.0
  0
INSERT
  5
20E
330
1F
100
AcDbEntity
  8
FORMAT
 62
     7
100
AcDbBlockReference
  2
SW_CENTERMARKSYMBOL_4
 10
702.6393243409
 20
399.5284060094
 30
0.0
  0
INSERT
  5
21A
330
1F
100
AcDbEntity
  8
FORMAT
 62
     7
100
AcDbBlockReference
  2
SW_CENTERMARKSYMBOL_5
 10
666.6393243409
 20
435.5284060094
 30
0.0
  0
LINE
  5
21B
330
1F
100
AcDbEntity
  8
0
  6
Continuous
 62
     7
370
    15
100
AcDbLine
 10
460.6518420325
 20
156.2704297773
 30
0.0
 11
460.6518420325
 21
175.270431029
 31
0.0
  0
LINE
  5
21C
330
1F
100
AcDbEntity
  8
0
  6
Continuous
 62
     7
370
    15
100
AcDbLine
 10
55.6518408404
 20
175.270431029
 30
0.0
 11
55.6518408404
 21
156.2704297773
 31
0.0
  0
LINE
  5
21D
330
1F
100
AcDbEntity
  8
0
  6
Continuous
 62
     7
370
    15
100
AcDbLine
 10
460.6518420325
 20
-68.7295717128
 30
0.0
 11
460.6518420325
 21
-49.7295704611
 31
0.0
  0
LINE
  5
21E
330
1F
100
AcDbEntity
  8
0
  6
Continuous
 62
     7
370
    15
100
AcDbLine
 10
55.6518408404
 20
-49.7295704611
 30
0.0
 11
55.6518408404
 21
-68.7295717128
 31
0.0
  0
LINE
  5
21F
330
1F
100
AcDbEntity
  8
0
  6
Continuous
 62
     7
370
    15
100
AcDbLine
 10
98.6518385754
 20
178.2704296581
 30
0.0
 11
98.6518385754
 21
175.270431029
 31
0.0
  0
LINE
  5
220
330
1F
100
AcDbEntity
  8
0
  6
Continuous
 62
     7
370
    15
100
AcDbLine
 10
417.6518442974
 20
175.270431029
 30
0.0
 11
417.6518442974
 21
178.2704296581
 31
0.0
  0
LINE
  5
221
330
1F
100
AcDbEntity
  8
0
  6
Continuous
 62
     7
370
    15
100
AcDbLine
 10
98.6518385754
 20
-68.7295717128
 30
0.0
 11
98.6518385754
 21
-71.7295703419
 31
0.0
  0
LINE
  5
222
330
1F
100
AcDbEntity
  8
0
  6
Continuous
 62
     7
370
    15
100
AcDbLine
 10
417.6518442974
 20
-71.7295703419
 30
0.0
 11
417.6518442974
 21
-68.7295717128
 31
0.0
  0
LINE
  5
223
330
1F
100
AcDbEntity
  8
0
  6
Continuous
 62
     7
370
    15
100
AcDbLine
 10
297.6951944576
 20
69.289474102
 30
0.0
 11
296.6345335291
 21
69.289474102
 31
0.0
  0
LINE
  5
224
330
1F
100
AcDbEntity
  8
0
  6
Continuous
 62
     7
370
    15
100
AcDbLine
 10
314.2009275899
 20
75.2489606909
 30
0.0
 11
313.1402294085
 21
75.2489606909
 31
0.0
  0
LINE
  5
225
330
1F
100
AcDbEntity
  8
0
  6
Continuous
 62
     7
370
    15
100
AcDbLine
 10
313.1402778373
 20
57.5107720739
 30
0.0
 11
314.2010020957
 21
57.5107720739
 31
0.0
  0
LINE
  5
226
330
1F
100
AcDbEntity
  8
0
  6
Continuous
 62
     7
370
    15
100
AcDbLine
 10
314.2009648428
 20
49.0300830512
 30
0.0
 11
313.1402294085
 21
49.0300830512
 31
0.0
  0
LINE
  5
227
330
1F
100
AcDbEntity
  8
0
  6
Continuous
 62
     7
370
    15
100
AcDbLine
 10
313.1402778373
 20
28.6216179899
 30
0.0
 11
314.2010020957
 21
28.6216179899
 31
0.0
  0
LINE
  5
228
330
1F
100
AcDbEntity
  8
0
  6
Continuous
 62
     7
370
    15
100
AcDbLine
 10
17.1518447743
 20
138.2704305521
 30
0.0
 11
-11.8481692924
 21
138.2704305521
 31
0.0
  0
LINE
  5
229
330
1F
100
AcDbEntity
  8
0
  6
Continuous
 62
     7
370
    15
100
AcDbLine
 10
40.6884225951
 20
-9.2295703419
 30
0.0
 11
41.6518422709
 21
-9.2295703419
 31
0.0
  0
LINE
  5
22A
330
1F
100
AcDbEntity
  8
0
  6
Continuous
 62
     7
370
    15
100
AcDbLine
 10
41.6518422709
 20
115.7704296581
 30
0.0
 11
24.151844059
 21
115.7704296581
 31
0.0
  0
LINE
  5
22B
330
1F
100
AcDbEntity
  8
0
  6
Continuous
 62
     7
370
    15
100
AcDbLine
 10
519.1518488274
 20
115.7704296581
 30
0.0
 11
474.651840602
 21
115.7704296581
 31
0.0
  0
LINE
  5
22C
330
1F
100
AcDbEntity
  8
0
  6
Continuous
 62
     7
370
    15
100
AcDbLine
 10
474.651840602
 20
-9.2295703419
 30
0.0
 11
519.1518488274
 21
-9.2295703419
 31
0.0
  0
LINE
  5
22D
330
1F
100
AcDbEntity
  8
0
  6
Continuous
 62
     7
370
    15
100
AcDbLine
 10
-44.3481681003
 20
96.7704284064
 30
0.0
 11
-52.3481545105
 21
96.7704284064
 31
0.0
  0
LINE
  5
22E
330
1F
100
AcDbEntity
  8
0
  6
Continuous
 62
     7
370
    15
100
AcDbLine
 10
-52.3481545105
 20
59.7704297922
 30
0.0
 11
-62.7981600418
 21
59.7704297922
 31
0.0
  0
LINE
  5
22F
330
1F
100
AcDbEntity
  8
0
  6
Continuous
 62
     7
370
    15
100
AcDbLine
 10
-62.7981600418
 20
46.7704295239
 30
0.0
 11
-52.3481545105
 21
46.7704295239
 31
0.0
  0
LINE
  5
230
330
1F
100
AcDbEntity
  8
0
  6
Continuous
 62
     7
370
    15
100
AcDbLine
 10
-52.3481545105
 20
95.7704301051
 30
0.0
 11
-62.7981600418
 21
95.7704301051
 31
0.0
  0
LINE
  5
231
330
1F
100
AcDbEntity
  8
0
  6
Continuous
 62
     7
370
    15
100
AcDbLine
 10
-62.7981600418
 20
82.7704298369
 30
0.0
 11
-52.3481545105
 21
82.7704298369
 31
0.0
  0
LINE
  5
232
330
1F
100
AcDbEntity
  8
0
  6
Continuous
 62
     7
370
    15
100
AcDbLine
 10
-61.4927885189
 20
10.770429211
 30
0.0
 11
-52.3481545105
 21
10.770429211
 31
0.0
  0
LINE
  5
233
330
1F
100
AcDbEntity
  8
0
  6
Continuous
 62
     7
370
    15
100
AcDbLine
 10
208.1518406914
 20
156.2704297773
 30
0.0
 11
208.1518406914
 21
175.270431029
 31
0.0
  0
LINE
  5
234
330
1F
100
AcDbEntity
  8
0
  6
Continuous
 62
     7
370
    15
100
AcDbLine
 10
173.1518405424
 20
156.2704297773
 30
0.0
 11
208.1518406914
 21
156.2704297773
 31
0.0
  0
LINE
  5
235
330
1F
100
AcDbEntity
  8
0
  6
Continuous
 62
     7
370
    15
100
AcDbLine
 10
173.1518405424
 20
175.270431029
 30
0.0
 11
208.1518406914
 21
175.270431029
 31
0.0
  0
LINE
  5
236
330
1F
100
AcDbEntity
  8
0
  6
Continuous
 62
     7
370
    15
100
AcDbLine
 10
173.1518405424
 20
156.2704297773
 30
0.0
 11
173.1518405424
 21
175.270431029
 31
0.0
  0
LINE
  5
237
330
1F
100
AcDbEntity
  8
0
  6
Continuous
 62
     7
370
    15
100
AcDbLine
 10
343.1518423305
 20
156.2704297773
 30
0.0
 11
343.1518423305
 21
175.270431029
 31
0.0
  0
LINE
  5
238
330
1F
100
AcDbEntity
  8
0
  6
Continuous
 62
     7
370
    15
100
AcDbLine
 10
308.1518421815
 20
156.2704297773
 30
0.0
 11
343.1518423305
 21
156.2704297773
 31
0.0
  0
LINE
  5
239
330
1F
100
AcDbEntity
  8
0
  6
Continuous
 62
     7
370
    15
100
AcDbLine
 10
308.1518421815
 20
156.2704297773
 30
0.0
 11
308.1518421815
 21
175.270431029
 31
0.0
  0
LINE
  5
23A
330
1F
100
AcDbEntity
  8
0
  6
Continuous
 62
     7
370
    15
100
AcDbLine
 10
308.1518421815
 20
175.270431029
 30
0.0
 11
343.1518423305
 21
175.270431029
 31
0.0
  0
LINE
  5
23B
330
1F
100
AcDbEntity
  8
0
  6
Continuous
 62
     7
370
    15
100
AcDbLine
 10
218.1518423305
 20
156.2704297773
 30
0.0
 11
218.1518423305
 21
175.270431029
 31
0.0
  0
LINE
  5
23C
330
1F
100
AcDbEntity
  8
0
  6
Continuous
 62
     7
370
    15
100
AcDbLine
 10
208.1518406914
 20
156.2704297773
 30
0.0
 11
218.1518423305
 21
156.2704297773
 31
0.0
  0
LINE
  5
23D
330
1F
100
AcDbEntity
  8
0
  6
Continuous
 62
     7
370
    15
100
AcDbLine
 10
208.1518406914
 20
175.270431029
 30
0.0
 11
218.1518423305
 21
175.270431029
 31
0.0
  0
LINE
  5
23E
330
1F
100
AcDbEntity
  8
0
  6
Continuous
 62
     7
370
    15
100
AcDbLine
 10
298.1518405424
 20
156.2704297773
 30
0.0
 11
308.1518421815
 21
156.2704297773
 31
0.0
  0
LINE
  5
23F
330
1F
100
AcDbEntity
  8
0
  6
Continuous
 62
     7
370
    15
100
AcDbLine
 10
298.1518405424
 20
156.2704297773
 30
0.0
 11
298.1518405424
 21
175.270431029
 31
0.0
  0
LINE
  5
240
330
1F
100
AcDbEntity
  8
0
  6
Continuous
 62
     7
370
    15
100
AcDbLine
 10
298.1518405424
 20
175.270431029
 30
0.0
 11
308.1518421815
 21
175.270431029
 31
0.0
  0
LINE
  5
241
330
1F
100
AcDbEntity
  8
0
  6
Continuous
 62
     7
370
    15
100
AcDbLine
 10
173.1518405424
 20
-49.7295704611
 30
0.0
 11
173.1518405424
 21
-68.7295717128
 31
0.0
  0
LINE
  5
242
330
1F
100
AcDbEntity
  8
0
  6
Continuous
 62
     7
370
    15
100
AcDbLine
 10
173.1518405424
 20
-49.7295704611
 30
0.0
 11
208.1518406914
 21
-49.7295704611
 31
0.0
  0
LINE
  5
243
330
1F
100
AcDbEntity
  8
0
  6
Continuous
 62
     7
370
    15
100
AcDbLine
 10
208.1518406914
 20
-49.7295704611
 30
0.0
 11
208.1518406914
 21
-68.7295717128
 31
0.0
  0
LINE
  5
244
330
1F
100
AcDbEntity
  8
0
  6
Continuous
 62
     7
370
    15
100
AcDbLine
 10
173.1518405424
 20
-68.7295717128
 30
0.0
 11
208.1518406914
 21
-68.7295717128
 31
0.0
  0
LINE
  5
245
330
1F
100
AcDbEntity
  8
0
  6
Continuous
 62
     7
370
    15
100
AcDbLine
 10
308.1518421815
 20
-49.7295704611
 30
0.0
 11
308.1518421815
 21
-68.7295717128
 31
0.0
  0
LINE
  5
246
330
1F
100
AcDbEntity
  8
0
  6
Continuous
 62
     7
370
    15
100
AcDbLine
 10
308.1518421815
 20
-49.7295704611
 30
0.0
 11
343.1518423305
 21
-49.7295704611
 31
0.0
  0
LINE
  5
247
330
1F
100
AcDbEntity
  8
0
  6
Continuous
 62
     7
370
    15
100
AcDbLine
 10
308.1518421815
 20
-68.7295717128
 30
0.0
 11
343.1518423305
 21
-68.7295717128
 31
0.0
  0
LINE
  5
248
330
1F
100
AcDbEntity
  8
0
  6
Continuous
 62
     7
370
    15
100
AcDbLine
 10
343.1518423305
 20
-49.7295704611
 30
0.0
 11
343.1518423305
 21
-68.7295717128
 31
0.0
  0
LINE
  5
249
330
1F
100
AcDbEntity
  8
0
  6
Continuous
 62
     7
370
    15
100
AcDbLine
 10
218.1518423305
 20
-49.7295704611
 30
0.0
 11
218.1518423305
 21
-68.7295717128
 31
0.0
  0
LINE
  5
24A
330
1F
100
AcDbEntity
  8
0
  6
Continuous
 62
     7
370
    15
100
AcDbLine
 10
208.1518406914
 20
-68.7295717128
 30
0.0
 11
218.1518423305
 21
-68.7295717128
 31
0.0
  0
LINE
  5
24B
330
1F
100
AcDbEntity
  8
0
  6
Continuous
 62
     7
370
    15
100
AcDbLine
 10
208.1518406914
 20
-49.7295704611
 30
0.0
 11
218.1518423305
 21
-49.7295704611
 31
0.0
  0
LINE
  5
24C
330
1F
100
AcDbEntity
  8
0
  6
Continuous
 62
     7
370
    15
100
AcDbLine
 10
298.1518405424
 20
-49.7295704611
 30
0.0
 11
298.1518405424
 21
-68.7295717128
 31
0.0
  0
LINE
  5
24D
330
1F
100
AcDbEntity
  8
0
  6
Continuous
 62
     7
370
    15
100
AcDbLine
 10
298.1518405424
 20
-68.7295717128
 30
0.0
 11
308.1518421815
 21
-68.7295717128
 31
0.0
  0
LINE
  5
24E
330
1F
100
AcDbEntity
  8
0
  6
Continuous
 62
     7
370
    15
100
AcDbLine
 10
298.1518405424
 20
-49.7295704611
 30
0.0
 11
308.1518421815
 21
-49.7295704611
 31
0.0
  0
LINE
  5
24F
330
1F
100
AcDbEntity
  8
0
  6
Continuous
 62
     7
370
    15
100
AcDbLine
 10
253.1518415482
 20
156.2704297773
 30
0.0
 11
253.1518415482
 21
175.270431029
 31
0.0
  0
LINE
  5
250
330
1F
100
AcDbEntity
  8
0
  6
Continuous
 62
     7
370
    15
100
AcDbLine
 10
218.1518423305
 20
156.2704297773
 30
0.0
 11
253.1518415482
 21
156.2704297773
 31
0.0
  0
LINE
  5
251
330
1F
100
AcDbEntity
  8
0
  6
Continuous
 62
     7
370
    15
100
AcDbLine
 10
218.1518423305
 20
175.270431029
 30
0.0
 11
253.1518415482
 21
175.270431029
 31
0.0
  0
LINE
  5
252
330
1F
100
AcDbEntity
  8
0
  6
Continuous
 62
     7
370
    15
100
AcDbLine
 10
263.1518413247
 20
156.2704297773
 30
0.0
 11
263.1518413247
 21
175.270431029
 31
0.0
  0
LINE
  5
253
330
1F
100
AcDbEntity
  8
0
  6
Continuous
 62
     7
370
    15
100
AcDbLine
 10
263.1518413247
 20
156.2704297773
 30
0.0
 11
298.1518405424
 21
156.2704297773
 31
0.0
  0
LINE
  5
254
330
1F
100
AcDbEntity
  8
0
  6
Continuous
 62
     7
370
    15
100
AcDbLine
 10
263.1518413247
 20
175.270431029
 30
0.0
 11
298.1518405424
 21
175.270431029
 31
0.0
  0
LINE
  5
255
330
1F
100
AcDbEntity
  8
0
  6
Continuous
 62
     7
370
    15
100
AcDbLine
 10
258.1518414364
 20
156.2704297773
 30
0.0
 11
258.1518414364
 21
175.270431029
 31
0.0
  0
LINE
  5
256
330
1F
100
AcDbEntity
  8
0
  6
Continuous
 62
     7
370
    15
100
AcDbLine
 10
258.1518414364
 20
156.2704297773
 30
0.0
 11
263.1518413247
 21
156.2704297773
 31
0.0
  0
LINE
  5
257
330
1F
100
AcDbEntity
  8
0
  6
Continuous
 62
     7
370
    15
100
AcDbLine
 10
263.1518413247
 20
175.270431029
 30
0.0
 11
258.1518414364
 21
175.270431029
 31
0.0
  0
LINE
  5
258
330
1F
100
AcDbEntity
  8
0
  6
Continuous
 62
     7
370
    15
100
AcDbLine
 10
253.1518415482
 20
156.2704297773
 30
0.0
 11
258.1518414364
 21
156.2704297773
 31
0.0
  0
LINE
  5
259
330
1F
100
AcDbEntity
  8
0
  6
Continuous
 62
     7
370
    15
100
AcDbLine
 10
258.1518414364
 20
175.270431029
 30
0.0
 11
253.1518415482
 21
175.270431029
 31
0.0
  0
LINE
  5
25A
330
1F
100
AcDbEntity
  8
0
  6
Continuous
 62
     7
370
    15
100
AcDbLine
 10
258.1518414364
 20
-68.7295717128
 30
0.0
 11
258.1518414364
 21
-49.7295704611
 31
0.0
  0
LINE
  5
25B
330
1F
100
AcDbEntity
  8
0
  6
Continuous
 62
     7
370
    15
100
AcDbLine
 10
263.1518413247
 20
-68.7295717128
 30
0.0
 11
263.1518413247
 21
-49.7295704611
 31
0.0
  0
LINE
  5
25C
330
1F
100
AcDbEntity
  8
0
  6
Continuous
 62
     7
370
    15
100
AcDbLine
 10
258.1518414364
 20
-68.7295717128
 30
0.0
 11
263.1518413247
 21
-68.7295717128
 31
0.0
  0
LINE
  5
25D
330
1F
100
AcDbEntity
  8
0
  6
Continuous
 62
     7
370
    15
100
AcDbLine
 10
263.1518413247
 20
-49.7295704611
 30
0.0
 11
258.1518414364
 21
-49.7295704611
 31
0.0
  0
LINE
  5
25E
330
1F
100
AcDbEntity
  8
0
  6
Continuous
 62
     7
370
    15
100
AcDbLine
 10
253.1518415482
 20
-49.7295704611
 30
0.0
 11
253.1518415482
 21
-68.7295717128
 31
0.0
  0
LINE
  5
25F
330
1F
100
AcDbEntity
  8
0
  6
Continuous
 62
     7
370
    15
100
AcDbLine
 10
218.1518423305
 20
-68.7295717128
 30
0.0
 11
253.1518415482
 21
-68.7295717128
 31
0.0
  0
LINE
  5
260
330
1F
100
AcDbEntity
  8
0
  6
Continuous
 62
     7
370
    15
100
AcDbLine
 10
218.1518423305
 20
-49.7295704611
 30
0.0
 11
253.1518415482
 21
-49.7295704611
 31
0.0
  0
LINE
  5
261
330
1F
100
AcDbEntity
  8
0
  6
Continuous
 62
     7
370
    15
100
AcDbLine
 10
263.1518413247
 20
-68.7295717128
 30
0.0
 11
298.1518405424
 21
-68.7295717128
 31
0.0
  0
LINE
  5
262
330
1F
100
AcDbEntity
  8
0
  6
Continuous
 62
     7
370
    15
100
AcDbLine
 10
263.1518413247
 20
-49.7295704611
 30
0.0
 11
298.1518405424
 21
-49.7295704611
 31
0.0
  0
LINE
  5
263
330
1F
100
AcDbEntity
  8
0
  6
Continuous
 62
     7
370
    15
100
AcDbLine
 10
253.1518415482
 20
-68.7295717128
 30
0.0
 11
258.1518414364
 21
-68.7295717128
 31
0.0
  0
LINE
  5
264
330
1F
100
AcDbEntity
  8
0
  6
Continuous
 62
     7
370
    15
100
AcDbLine
 10
258.1518414364
 20
-49.7295704611
 30
0.0
 11
253.1518415482
 21
-49.7295704611
 31
0.0
  0
LINE
  5
265
330
1F
100
AcDbEntity
  8
0
  6
Continuous
 62
     7
370
    15
100
AcDbLine
 10
343.1518423305
 20
156.2704297773
 30
0.0
 11
460.6518420325
 21
156.2704297773
 31
0.0
  0
LINE
  5
266
330
1F
100
AcDbEntity
  8
0
  6
Continuous
 62
     7
370
    15
100
AcDbLine
 10
343.1518423305
 20
175.270431029
 30
0.0
 11
460.6518420325
 21
175.270431029
 31
0.0
  0
LINE
  5
267
330
1F
100
AcDbEntity
  8
0
  6
Continuous
 62
     7
370
    15
100
AcDbLine
 10
55.6518408404
 20
156.2704297773
 30
0.0
 11
173.1518405424
 21
156.2704297773
 31
0.0
  0
LINE
  5
268
330
1F
100
AcDbEntity
  8
0
  6
Continuous
 62
     7
370
    15
100
AcDbLine
 10
55.6518408404
 20
175.270431029
 30
0.0
 11
173.1518405424
 21
175.270431029
 31
0.0
  0
LINE
  5
269
330
1F
100
AcDbEntity
  8
0
  6
Continuous
 62
     7
370
    15
100
AcDbLine
 10
343.1518423305
 20
-68.7295717128
 30
0.0
 11
460.6518420325
 21
-68.7295717128
 31
0.0
  0
LINE
  5
26A
330
1F
100
AcDbEntity
  8
0
  6
Continuous
 62
     7
370
    15
100
AcDbLine
 10
343.1518423305
 20
-49.7295704611
 30
0.0
 11
460.6518420325
 21
-49.7295704611
 31
0.0
  0
LINE
  5
26B
330
1F
100
AcDbEntity
  8
0
  6
Continuous
 62
     7
370
    15
100
AcDbLine
 10
55.6518408404
 20
-68.7295717128
 30
0.0
 11
173.1518405424
 21
-68.7295717128
 31
0.0
  0
LINE
  5
26C
330
1F
100
AcDbEntity
  8
0
  6
Continuous
 62
     7
370
    15
100
AcDbLine
 10
55.6518408404
 20
-49.7295704611
 30
0.0
 11
173.1518405424
 21
-49.7295704611
 31
0.0
  0
SPLINE
  5
26D
330
1F
100
AcDbEntity
  8
0
  6
Continuous
 62
     7
370
    15
100
AcDbSpline
210
0.0
220
0.0
230
1.0
 70
     8
 71
     3
 72
   102
 73
    98
 74
     0
 42
0.00000001
 43
0.00000001
 12
1.0
 22
0.0
 32
0.0
 13
1.0
 23
0.0
 33
0.0
 40
-0.0312499999999999
 40
-0.0312499999999999
 40
0.0
 40
0.0
 40
0.0312500000000001
 40
0.0312500000000001
 40
0.0468750000000002
 40
0.0468750000000002
 40
0.0625000000000002
 40
0.0625000000000002
 40
0.0937500000000002
 40
0.0937500000000002
 40
0.1093750000000003
 40
0.1093750000000003
 40
0.1250000000000003
 40
0.1250000000000003
 40
0.1562500000000003
 40
0.1562500000000003
 40
0.1718750000000003
 40
0.1718750000000003
 40
0.1875000000000003
 40
0.1875000000000003
 40
0.2031250000000003
 40
0.2031250000000003
 40
0.2187500000000004
 40
0.2187500000000004
 40
0.2500000000000004
 40
0.2500000000000004
 40
0.2656250000000004
 40
0.2656250000000004
 40
0.2812500000000003
 40
0.2812500000000003
 40
0.3125000000000003
 40
0.3125000000000003
 40
0.3281250000000003
 40
0.3281250000000003
 40
0.3437500000000003
 40
0.3437500000000003
 40
0.3750000000000004
 40
0.3750000000000004
 40
0.4062500000000004
 40
0.4062500000000004
 40
0.4218750000000004
 40
0.4218750000000004
 40
0.4375000000000004
 40
0.4375000000000004
 40
0.4687500000000004
 40
0.4687500000000004
 40
0.4843750000000004
 40
0.4843750000000004
 40
0.5000000000000003
 40
0.5000000000000003
 40
0.5312500000000003
 40
0.5312500000000003
 40
0.5468750000000004
 40
0.5468750000000004
 40
0.5625000000000004
 40
0.5625000000000004
 40
0.5781250000000006
 40
0.5781250000000006
 40
0.5937500000000007
 40
0.5937500000000007
 40
0.6250000000000007
 40
0.6250000000000007
 40
0.6406250000000008
 40
0.6406250000000008
 40
0.6562500000000008
 40
0.6562500000000008
 40
0.6875000000000008
 40
0.6875000000000008
 40
0.7031250000000008
 40
0.7031250000000008
 40
0.7187500000000008
 40
0.7187500000000008
 40
0.7500000000000007
 40
0.7500000000000007
 40
0.7812500000000006
 40
0.7812500000000006
 40
0.7968750000000006
 40
0.7968750000000006
 40
0.8125000000000004
 40
0.8125000000000004
 40
0.8437500000000004
 40
0.8437500000000004
 40
0.8593750000000003
 40
0.8593750000000003
 40
0.8750000000000003
 40
0.8750000000000003
 40
0.9062500000000002
 40
0.9062500000000002
 40
0.9218750000000002
 40
0.9218750000000002
 40
0.9375000000000001
 40
0.9375000000000001
 40
0.9531250000000001
 40
0.9531250000000001
 40
0.9687500000000001
 40
0.9687500000000001
 40
1.0
 40
1.0
 40
1.03125
 40
1.03125
 10
244.2351852265746
 20
65.30214942053838
 30
0.0
 10
245.9396143796797
 20
67.02316789581997
 30
0.0
 10
246.861993407329
 20
67.78587300566596
 30
0.0
 10
248.3468494058303
 20
68.78948367159417
 30
0.0
 10
248.8588090612137
 20
69.10043553778833
 30
0.0
 10
249.9175939240954
 20
69.67410390379915
 30
0.0
 10
250.4662767846619
 20
69.93726814974177
 30
0.0
 10
252.129738546843
 20
70.63667805515506
 30
0.0
 10
253.2721334896314
 20
70.99016932450711
 30
0.0
 10
255.0356144193868
 20
71.35254702966938
 30
0.0
 10
255.6338008196552
 20
71.4453608430264
 30
0.0
 10
256.838824781476
 20
71.57147379311414
 30
0.0
 10
257.4397388620644
 20
71.60436214885748
 30
0.0
 10
259.2378372614701
 20
71.61537722840305
 30
0.0
 10
260.4304208967287
 20
71.50668347394645
 30
0.0
 10
262.2098677816406
 20
71.1655381657651
 30
0.0
 10
262.8008141669996
 20
71.02160986776562
 30
0.0
 10
263.9533853295392
 20
70.68026357748649
 30
0.0
 10
264.5183820425447
 20
70.48228873049983
 30
0.0
 10
265.6261841094934
 20
70.03258222655847
 30
0.0
 10
266.168989306897
 20
69.78085035412091
 30
0.0
 10
267.2321532846466
 20
69.22290283752433
 30
0.0
 10
267.7552284111441
 20
68.91481557932339
 30
0.0
 10
269.2670974066663
 20
67.92046397085731
 30
0.0
 10
270.1961711588862
 20
67.16860670168421
 30
0.0
 10
271.4748063961899
 20
65.91041017729879
 30
0.0
 10
271.8817159774371
 20
65.46911817353563
 30
0.0
 10
272.6557519909543
 20
64.54128947028374
 30
0.0
 10
273.0196401454655
 20
64.05823857008903
 30
0.0
 10
274.0299174802887
 20
62.57110089183537
 30
0.0
 10
274.6017687882968
 20
61.52222946614016
 30
0.0
 10
275.3055821387057
 20
59.86152809071599
 30
0.0
 10
275.5151808760147
 20
59.29005923200995
 30
0.0
 10
275.8737446927082
 20
58.13878115794223
 30
0.0
 10
276.023547171628
 20
57.55791912232927
 30
0.0
 10
276.3864979566679
 20
55.79999489600819
 30
0.0
 10
276.5140445610125
 20
54.60774386723426
 30
0.0
 10
276.5304673825715
 20
52.18084647778866
 30
0.0
 10
276.4188316593043
 20
50.98498217999
 30
0.0
 10
276.0794223446308
 20
49.22202195736948
 30
0.0
 10
275.9374137024282
 20
48.63922327322284
 30
0.0
 10
275.5944057810402
 20
47.48353245392572
 30
0.0
 10
275.3924534074831
 20
46.9091539186222
 30
0.0
 10
274.7105690443958
 20
45.23828564035431
 30
0.0
 10
274.1524736598962
 20
44.1813764775067
 30
0.0
 10
273.1616003600215
 20
42.68029628265255
 30
0.0
 10
272.8038565595092
 20
42.19209866820121
 30
0.0
 10
272.0424079122316
 20
41.25438617075516
 30
0.0
 10
271.6414663429226
 20
40.80782743412377
 30
0.0
 10
270.3797540300492
 20
39.5329242856692
 30
0.0
 10
269.4606651570782
 20
38.76872801514034
 30
0.0
 10
267.9616354505085
 20
37.75416977117881
 30
0.0
 10
267.4429638712938
 20
37.43938287118004
 30
0.0
 10
266.3877114896121
 20
36.86764060301192
 30
0.0
 10
265.8484980860853
 20
36.60883279484619
 30
0.0
 10
264.7471561888618
 20
36.14462822768944
 30
0.0
 10
264.1850278729862
 20
35.93923122100787
 30
0.0
 10
263.0374536575208
 20
35.58269498787847
 30
0.0
 10
262.4486513201571
 20
35.43094768504992
 30
0.0
 10
260.6736615608092
 20
35.06609287592369
 30
0.0
 10
259.482653271521
 20
34.94157161056102
 30
0.0
 10
257.6848787197094
 20
34.92864772396087
 30
0.0
 10
257.0837303175105
 20
34.95352361892184
 30
0.0
 10
255.8775327338651
 20
35.06351421512846
 30
0.0
 10
255.2776447707359
 20
35.14840093634196
 30
0.0
 10
253.5088629062982
 20
35.48739132795975
 30
0.0
 10
252.361539245543
 20
35.82578672724177
 30
0.0
 10
250.6885664176967
 20
36.50322692659369
 30
0.0
 10
250.1363990565493
 20
36.75911931313811
 30
0.0
 10
249.0700821625693
 20
37.31871069648896
 30
0.0
 10
248.5539951971014
 20
37.62287346462574
 30
0.0
 10
247.0557210591733
 20
38.60687641412828
 30
0.0
 10
246.1222659288382
 20
39.3582611832197
 30
0.0
 10
244.396011364678
 20
41.05587052054732
 30
0.0
 10
243.6301667120603
 20
41.97530031198431
 30
0.0
 10
242.621558795871
 20
43.456739899392
 30
0.0
 10
242.3088915799302
 20
43.96772914556274
 30
0.0
 10
241.7317726169971
 20
45.02498017904212
 30
0.0
 10
241.4670155607715
 20
45.5728245038526
 30
0.0
 10
240.7631603614306
 20
47.23382383724257
 30
0.0
 10
240.4068831883012
 20
48.37518975327151
 30
0.0
 10
240.0410007646235
 20
50.13817279342698
 30
0.0
 10
239.9471030776136
 20
50.73667003502575
 30
0.0
 10
239.8192958992388
 20
51.94114230752537
 30
0.0
 10
239.7856961608727
 20
52.54188201101323
 30
0.0
 10
239.7730002500054
 20
54.33974916174704
 30
0.0
 10
239.8811681772468
 20
55.53256531982498
 30
0.0
 10
240.2227285681752
 20
57.31293997349518
 30
0.0
 10
240.366808562867
 20
57.9034489886872
 30
0.0
 10
240.7087158862985
 20
59.05544042178709
 30
0.0
 10
240.907104946304
 20
59.62020645876627
 30
0.0
 10
241.3579341071213
 20
60.72765236756088
 30
0.0
 10
241.6103742657584
 20
61.27033215047945
 30
0.0
 10
242.1700724263484
 20
62.33333868148554
 30
0.0
 10
242.4789792478659
 20
62.8560038285047
 30
0.0
 10
243.4768657688034
 20
64.36776807294936
 30
0.0
 10
244.2351852265746
 20
65.30214942053838
 30
0.0
 10
245.9396143796797
 20
67.02316789581997
 30
0.0
  0
CIRCLE
  5
26E
330
1F
100
AcDbEntity
  8
0
  6
Continuous
 62
     7
370
    15
100
AcDbCircle
 10
258.1518414364
 20
53.2704296581
 30
0.0
 40
17.50000000000001
  0
CIRCLE
  5
26F
330
1F
100
AcDbEntity
  8
0
  6
Continuous
 62
     7
370
    15
100
AcDbCircle
 10
-20.8481585636
 20
-22.7295703419
 30
0.0
 40
7.500000000000007
  0
LINE
  5
270
330
1F
100
AcDbEntity
  8
0
  6
Continuous
 62
     7
370
    15
100
AcDbLine
 10
258.1518414364
 20
178.2704296581
 30
0.0
 11
417.6518442974
 21
178.2704296581
 31
0.0
  0
LINE
  5
271
330
1F
100
AcDbEntity
  8
0
  6
Continuous
 62
     7
370
    15
100
AcDbLine
 10
98.6518385754
 20
178.2704296581
 30
0.0
 11
258.1518414364
 21
178.2704296581
 31
0.0
  0
LINE
  5
272
330
1F
100
AcDbEntity
  8
0
  6
Continuous
 62
     7
370
    15
100
AcDbLine
 10
258.1518414364
 20
-71.7295703419
 30
0.0
 11
417.6518442974
 21
-71.7295703419
 31
0.0
  0
LINE
  5
273
330
1F
100
AcDbEntity
  8
0
  6
Continuous
 62
     7
370
    15
100
AcDbLine
 10
98.6518385754
 20
-71.7295703419
 30
0.0
 11
258.1518414364
 21
-71.7295703419
 31
0.0
  0
LWPOLYLINE
  5
274
330
1F
100
AcDbEntity
  8
0
  6
Continuous
 62
     7
370
    15
100
AcDbPolyline
 90
        3
 70
   128
 43
0.0
 10
392.5718936072
 20
120.5532255641
 10
395.5637040482
 20
128.7386047713
 10
405.6230309353
 20
156.2704297773
  0
LINE
  5
275
330
1F
100
AcDbEntity
  8
0
  6
Continuous
 62
     7
370
    15
100
AcDbLine
 10
123.7317892657
 20
120.5532255641
 30
0.0
 11
392.5718936072
 21
120.5532255641
 31
0.0
  0
LWPOLYLINE
  5
276
330
1F
100
AcDbEntity
  8
0
  6
Continuous
 62
     7
370
    15
100
AcDbPolyline
 90
        3
 70
   128
 43
0.0
 10
110.6806519375
 20
156.2704297773
 10
120.7396659003
 20
128.739461588
 10
123.7317892657
 20
120.5532255641
  0
LWPOLYLINE
  5
277
330
1F
100
AcDbEntity
  8
0
  6
Continuous
 62
     7
370
    15
100
AcDbPolyline
 90
        3
 70
   128
 43
0.0
 10
405.6230309353
 20
-49.7295704611
 10
395.5637040482
 20
-22.1977454551
 10
392.5718936072
 20
-14.012366248
  0
LWPOLYLINE
  5
278
330
1F
100
AcDbEntity
  8
0
  6
Continuous
 62
     7
370
    15
100
AcDbPolyline
 90
        3
 70
   128
 43
0.0
 10
123.7317892657
 20
-14.012366248
 10
120.7396659003
 20
-22.1986022719
 10
110.6806519375
 20
-49.7295704611
  0
LINE
  5
279
330
1F
100
AcDbEntity
  8
0
  6
Continuous
 62
     7
370
    15
100
AcDbLine
 10
123.7317892657
 20
-14.012366248
 30
0.0
 11
392.5718936072
 21
-14.012366248
 31
0.0
  0
SPLINE
  5
27A
330
1F
100
AcDbEntity
  8
0
  6
Continuous
 62
     7
370
    15
100
AcDbSpline
210
0.0
220
0.0
230
1.0
 70
     8
 71
     3
 72
    26
 73
    22
 74
     0
 42
0.00000001
 43
0.00000001
 12
1.0
 22
0.0
 32
0.0
 13
1.0
 23
0.0
 33
0.0
 40
0.0
 40
0.0
 40
0.0
 40
0.0
 40
0.0624999999999997
 40
0.0624999999999997
 40
0.1249999999999995
 40
0.1249999999999995
 40
0.2499999999999992
 40
0.2499999999999992
 40
0.3749999999999989
 40
0.3749999999999989
 40
0.4999999999999988
 40
0.4999999999999988
 40
0.6249999999999984
 40
0.6249999999999984
 40
0.6874999999999987
 40
0.6874999999999987
 40
0.7499999999999988
 40
0.7499999999999988
 40
0.8749999999999994
 40
0.8749999999999994
 40
1.0
 40
1.0
 40
1.0
 40
1.0
 10
127.5157964525248
 20
60.77042965806036
 30
0.0
 10
127.4722299044515
 20
61.41783781729382
 30
0.0
 10
127.4232526845618
 20
62.0613344480795
 30
0.0
 10
127.314834057283
 20
63.34035227033927
 30
0.0
 10
127.2556480276781
 20
63.97250034851909
 30
0.0
 10
127.0661391956948
 20
65.83028761311904
 30
0.0
 10
126.9232892957483
 20
67.02459573572784
 30
0.0
 10
126.6118449439659
 20
69.32751897368335
 30
0.0
 10
126.4432307103801
 20
70.43613620689656
 30
0.0
 10
126.0870918187482
 20
72.56568254862378
 30
0.0
 10
125.9029116060044
 20
73.56665387046426
 30
0.0
 10
125.5324333139986
 20
75.43649778189973
 30
0.0
 10
125.3458041315962
 20
76.30717704667829
 30
0.0
 10
125.0695020719228
 20
77.51629600535485
 30
0.0
 10
124.9780060563289
 20
77.90313041787616
 30
0.0
 10
124.7971819492907
 20
78.64359489309274
 30
0.0
 10
124.7084691830275
 20
78.99466796462076
 30
0.0
 10
124.4503655648892
 20
79.98463520135734
 30
0.0
 10
124.2882536603504
 20
80.56367982167963
 30
0.0
 10
123.9895246612512
 20
81.56213673176192
 30
0.0
 10
123.8528889997355
 20
81.98156742787343
 30
0.0
 10
123.7317908487199
 20
82.31780475461598
 30
0.0
  0
LINE
  5
27B
330
1F
100
AcDbEntity
  8
0
  6
Continuous
 62
     7
370
    15
100
AcDbLine
 10
123.7317892657
 20
120.5532255641
 30
0.0
 11
123.7317892657
 21
82.317805203
 31
0.0
  0
LINE
  5
27C
330
1F
100
AcDbEntity
  8
0
  6
Continuous
 62
     7
370
    15
100
AcDbLine
 10
392.5718936072
 20
82.317805203
 30
0.0
 11
392.5718936072
 21
120.5532255641
 31
0.0
  0
SPLINE
  5
27D
330
1F
100
AcDbEntity
  8
0
  6
Continuous
 62
     7
370
    15
100
AcDbSpline
210
0.0
220
0.0
230
1.0
 70
     8
 71
     3
 72
    30
 73
    26
 74
     0
 42
0.00000001
 43
0.00000001
 12
1.0
 22
0.0
 32
0.0
 13
1.0
 23
0.0
 33
0.0
 40
0.0
 40
0.0
 40
0.0
 40
0.0
 40
0.0624999999999999
 40
0.0624999999999999
 40
0.1249999999999998
 40
0.1249999999999998
 40
0.2499999999999996
 40
0.2499999999999996
 40
0.3124999999999994
 40
0.3124999999999994
 40
0.3749999999999992
 40
0.3749999999999992
 40
0.4999999999999992
 40
0.4999999999999992
 40
0.6249999999999992
 40
0.6249999999999992
 40
0.6874999999999993
 40
0.6874999999999993
 40
0.7499999999999993
 40
0.7499999999999993
 40
0.8749999999999997
 40
0.8749999999999997
 40
0.9374999999999999
 40
0.9374999999999999
 40
1.0
 40
1.0
 40
1.0
 40
1.0
 10
392.5718920241212
 20
82.31780475461598
 30
0.0
 10
392.5116183349858
 20
82.1504507204063
 30
0.0
 10
392.4466680728732
 20
81.96003412173309
 30
0.0
 10
392.3095982942696
 20
81.5378025747409
 30
0.0
 10
392.2376164575571
 20
81.30649142031362
 30
0.0
 10
392.012498074798
 20
80.55350659360231
 30
0.0
 10
391.8501855147928
 20
79.97304685439897
 30
0.0
 10
391.5929372950343
 20
78.98572008572496
 30
0.0
 10
391.5048911032379
 20
78.6371047049403
 30
0.0
 10
391.324990660978
 20
77.90021740574434
 30
0.0
 10
391.2327896883808
 20
77.51039974077776
 30
0.0
 10
390.9547950887674
 20
76.29329392641156
 30
0.0
 10
390.7676956110816
 20
75.41941544899531
 30
0.0
 10
390.3976313224331
 20
73.54993580920899
 30
0.0
 10
390.2146417148524
 20
72.55433266303314
 30
0.0
 10
389.9492316591486
 20
70.96684245840825
 30
0.0
 10
389.8619744525991
 20
70.41988550424702
 30
0.0
 10
389.6932078460833
 20
69.30420156028163
 30
0.0
 10
389.6118340811552
 20
68.73660289335218
 30
0.0
 10
389.3779297045238
 20
67.00503009949513
 30
0.0
 10
389.2356017824043
 20
65.81240484250827
 30
0.0
 10
389.0474023361997
 20
63.96571537719934
 30
0.0
 10
388.9888872774779
 20
63.34049552201529
 30
0.0
 10
388.8811628043276
 20
62.07028541147815
 30
0.0
 10
388.8318530551392
 20
61.4237831913827
 30
0.0
 10
388.7878864203163
 20
60.77042965806034
 30
0.0
  0
LINE
  5
27E
330
1F
100
AcDbEntity
  8
0
  6
Continuous
 62
     7
370
    15
100
AcDbLine
 10
384.5193657027
 20
45.7704298257
 30
0.0
 11
384.5193657027
 21
60.7704294904
 31
0.0
  0
SPLINE
  5
27F
330
1F
100
AcDbEntity
  8
0
  6
Continuous
 62
     7
370
    15
100
AcDbSpline
210
0.0
220
0.0
230
1.0
 70
     8
 71
     3
 72
    26
 73
    22
 74
     0
 42
0.00000001
 43
0.00000001
 12
1.0
 22
0.0
 32
0.0
 13
1.0
 23
0.0
 33
0.0
 40
0.0
 40
0.0
 40
0.0
 40
0.0
 40
0.0625
 40
0.0625
 40
0.1249999999999999
 40
0.1249999999999999
 40
0.2499999999999996
 40
0.2499999999999996
 40
0.3749999999999993
 40
0.3749999999999993
 40
0.4999999999999989
 40
0.4999999999999989
 40
0.6249999999999987
 40
0.6249999999999987
 40
0.6874999999999987
 40
0.6874999999999987
 40
0.7499999999999988
 40
0.7499999999999988
 40
0.8749999999999994
 40
0.8749999999999994
 40
1.0
 40
1.0
 40
1.0
 40
1.0
 10
388.7878864203163
 20
45.77042965806034
 30
0.0
 10
388.8314529683896
 20
45.12302149882688
 30
0.0
 10
388.8804301882793
 20
44.4795248680412
 30
0.0
 10
388.9888488155582
 20
43.20050704578144
 30
0.0
 10
389.0480348451629
 20
42.5683589676016
 30
0.0
 10
389.2375436771463
 20
40.71057170300165
 30
0.0
 10
389.3803935770929
 20
39.51626358039285
 30
0.0
 10
389.6918379288753
 20
37.21334034243734
 30
0.0
 10
389.860452162461
 20
36.10472310922413
 30
0.0
 10
390.2165910540929
 20
33.97517676749693
 30
0.0
 10
390.4007712668367
 20
32.97420544565642
 30
0.0
 10
390.7712495588426
 20
31.10436153422097
 30
0.0
 10
390.9578787412449
 20
30.2336822694424
 30
0.0
 10
391.2341808009182
 20
29.02456331076585
 30
0.0
 10
391.3256768165123
 20
28.63772889824453
 30
0.0
 10
391.5065009235504
 20
27.89726442302796
 30
0.0
 10
391.5952136898136
 20
27.54619135149993
 30
0.0
 10
391.8533173079518
 20
26.55622411476336
 30
0.0
 10
392.0154292124907
 20
25.97717949444107
 30
0.0
 10
392.3141582115899
 20
24.97872258435878
 30
0.0
 10
392.4507938731057
 20
24.55929188824728
 30
0.0
 10
392.5718920241212
 20
24.22305456150471
 30
0.0
  0
LINE
  5
280
330
1F
100
AcDbEntity
  8
0
  6
Continuous
 62
     7
370
    15
100
AcDbLine
 10
392.5718936072
 20
-14.012366248
 30
0.0
 11
392.5718936072
 21
24.2230541132
 31
0.0
  0
LINE
  5
281
330
1F
100
AcDbEntity
  8
0
  6
Continuous
 62
     7
370
    15
100
AcDbLine
 10
123.7317892657
 20
24.2230541132
 30
0.0
 11
123.7317892657
 21
-14.012366248
 31
0.0
  0
SPLINE
  5
282
330
1F
100
AcDbEntity
  8
0
  6
Continuous
 62
     7
370
    15
100
AcDbSpline
210
0.0
220
0.0
230
1.0
 70
     8
 71
     3
 72
    30
 73
    26
 74
     0
 42
0.00000001
 43
0.00000001
 12
1.0
 22
0.0
 32
0.0
 13
1.0
 23
0.0
 33
0.0
 40
0.0
 40
0.0
 40
0.0
 40
0.0
 40
0.0624999999999997
 40
0.0624999999999997
 40
0.1249999999999995
 40
0.1249999999999995
 40
0.2499999999999991
 40
0.2499999999999991
 40
0.312499999999999
 40
0.312499999999999
 40
0.3749999999999989
 40
0.3749999999999989
 40
0.4999999999999989
 40
0.4999999999999989
 40
0.6249999999999988
 40
0.6249999999999988
 40
0.687499999999999
 40
0.687499999999999
 40
0.7499999999999991
 40
0.7499999999999991
 40
0.8749999999999999
 40
0.8749999999999999
 40
0.9374999999999999
 40
0.9374999999999999
 40
1.0
 40
1.0
 40
1.0
 40
1.0
 10
123.7317908487199
 20
24.22305456150473
 30
0.0
 10
123.7920645378553
 20
24.39040859571439
 30
0.0
 10
123.8570147999679
 20
24.58082519438764
 30
0.0
 10
123.9940845785715
 20
25.0030567413798
 30
0.0
 10
124.066066415284
 20
25.23436789580709
 30
0.0
 10
124.2911847980431
 20
25.9873527225184
 30
0.0
 10
124.4534973580483
 20
26.56781246172174
 30
0.0
 10
124.7107455778069
 20
27.55513923039577
 30
0.0
 10
124.7987917696032
 20
27.9037546111804
 30
0.0
 10
124.9786922118631
 20
28.64064191037635
 30
0.0
 10
125.0708931844604
 20
29.03045957534294
 30
0.0
 10
125.3488877840737
 20
30.24756538970912
 30
0.0
 10
125.5359872617595
 20
31.1214438671254
 30
0.0
 10
125.906051550408
 20
32.9909235069117
 30
0.0
 10
126.0890411579887
 20
33.98652665308753
 30
0.0
 10
126.3544512136925
 20
35.57401685771242
 30
0.0
 10
126.441708420242
 20
36.12097381187368
 30
0.0
 10
126.6104750267578
 20
37.23665775583906
 30
0.0
 10
126.6918487916859
 20
37.80425642276847
 30
0.0
 10
126.9257531683174
 20
39.53582921662553
 30
0.0
 10
127.0680810904368
 20
40.72845447361239
 30
0.0
 10
127.2562805366413
 20
42.57514393892131
 30
0.0
 10
127.3147955953632
 20
43.20036379410537
 30
0.0
 10
127.4225200685135
 20
44.47057390464251
 30
0.0
 10
127.4718298177019
 20
45.11707612473798
 30
0.0
 10
127.5157964525248
 20
45.77042965806033
 30
0.0
  0
LINE
  5
283
330
1F
100
AcDbEntity
  8
0
  6
Continuous
 62
     7
370
    15
100
AcDbLine
 10
131.7843171702
 20
60.7704294904
 30
0.0
 11
131.7843171702
 21
45.7704298257
 31
0.0
  0
SPLINE
  5
284
330
1F
100
AcDbEntity
  8
0
  6
Continuous
 62
     7
370
    15
100
AcDbSpline
210
0.0
220
0.0
230
1.0
 70
     8
 71
     3
 72
    20
 73
    16
 74
     0
 42
0.00000001
 43
0.00000001
 12
1.0
 22
0.0
 32
0.0
 13
1.0
 23
0.0
 33
0.0
 40
0.0
 40
0.0
 40
0.0
 40
0.0
 40
0.3001475179114689
 40
0.3001475179114689
 40
0.3001475179114689
 40
0.5674542422903908
 40
0.5674542422903908
 40
0.5674542422903908
 40
0.7601446884183614
 40
0.7601446884183614
 40
0.7601446884183614
 40
0.9541791965496724
 40
0.9541791965496724
 40
0.9541791965496724
 40
1.0
 40
1.0
 40
1.0
 40
1.0
 10
289.2999632204586
 20
77.91842965806033
 30
0.0
 10
289.2603457726207
 20
77.91842965806033
 30
0.0
 10
289.2199808057836
 20
77.91074314094193
 30
0.0
 10
289.1831886870409
 20
77.89562288169216
 30
0.0
 10
289.1503931377827
 20
77.88214507111843
 30
0.0
 10
289.1192934488008
 20
77.86221941960858
 30
0.0
 10
289.0938860603072
 20
77.83700295165667
 30
0.0
 10
289.0754449738935
 20
77.81870043840686
 30
0.0
 10
289.0595347064412
 20
77.79712262119232
 30
0.0
 10
289.0479145380597
 20
77.7736402949305
 30
0.0
 10
289.0362460159945
 20
77.75006025433811
 30
0.0
 10
289.0286311615001
 20
77.72381190671322
 30
0.0
 10
289.0262301707999
 20
77.69747532942273
 30
0.0
 10
289.0256532925096
 20
77.69114752495449
 30
0.0
 10
289.0253633841579
 20
77.6847851489562
 30
0.0
 10
289.0253633841579
 20
77.67842965806035
 30
0.0
  0
LINE
  5
285
330
1F
100
AcDbEntity
  8
0
  6
Continuous
 62
     7
370
    15
100
AcDbLine
 10
289.0253635989
 20
59.9827927596
 30
0.0
 11
289.0253635989
 21
77.6784292481
 31
0.0
  0
SPLINE
  5
286
330
1F
100
AcDbEntity
  8
0
  6
Continuous
 62
     7
370
    15
100
AcDbSpline
210
0.0
220
0.0
230
1.0
 70
     8
 71
     3
 72
    17
 73
    13
 74
     0
 42
0.00000001
 43
0.00000001
 12
1.0
 22
0.0
 32
0.0
 13
1.0
 23
0.0
 33
0.0
 40
0.0
 40
0.0
 40
0.0
 40
0.0
 40
0.2401720794336365
 40
0.2401720794336365
 40
0.2401720794336365
 40
0.4793715288039356
 40
0.4793715288039356
 40
0.4793715288039356
 40
0.7322095889391904
 40
0.7322095889391904
 40
0.7322095889391904
 40
1.0
 40
1.0
 40
1.0
 40
1.0
 10
289.0253633841579
 20
59.98279253116097
 30
0.0
 10
289.0253633841579
 20
59.95885680504733
 30
0.0
 10
289.029617285729
 20
59.93458880155988
 30
0.0
 10
289.0375608986078
 20
59.91208696247337
 30
0.0
 10
289.0454863992522
 20
59.88963642983759
 30
0.0
 10
289.0572453948632
 20
59.86834092612453
 30
0.0
 10
289.0715993337957
 20
59.84955616124782
 30
0.0
 10
289.0867841645735
 20
59.82968402181651
 30
0.0
 10
289.1051954094032
 20
59.81212547920326
 30
0.0
 10
289.125328203701
 20
59.79762048623663
 30
0.0
 10
289.1466648582946
 20
59.78224815290656
 30
0.0
 10
289.170360861172
 20
59.76996016621258
 30
0.0
 10
289.1949363030632
 20
59.7610614433573
 30
0.0
  0
SPLINE
  5
287
330
1F
100
AcDbEntity
  8
0
  6
Continuous
 62
     7
370
    15
100
AcDbSpline
210
0.0
220
0.0
230
1.0
 70
     8
 71
     3
 72
    19
 73
    15
 74
     0
 42
0.00000001
 43
0.00000001
 12
1.0
 22
0.0
 32
0.0
 13
1.0
 23
0.0
 33
0.0
 40
0.0
 40
0.0
 40
0.0
 40
0.0
 40
0.0622776493548689
 40
0.1245760206651382
 40
0.1868987459609247
 40
0.2492494530163661
 40
0.3116317647238573
 40
0.3740492984725196
 40
0.4365056655314337
 40
0.4990044704381508
 40
0.6240722814614694
 40
0.7492417116702998
 40
0.8745414259791023
 40
1.0
 40
1.0
 40
1.0
 40
1.0
 10
289.1949363030636
 20
59.76106144335723
 30
0.0
 10
289.542854129786
 20
59.63483344638318
 30
0.0
 10
290.2388055476786
 20
59.38233545195899
 30
0.0
 10
291.2796645255711
 20
59.0014486232983
 30
0.0
 10
292.3184668160736
 20
58.61892701722066
 30
0.0
 10
293.3549823011948
 20
58.23462031501932
 30
0.0
 10
294.3892728532462
 20
57.84856885433821
 30
0.0
 10
295.4213211721001
 20
57.46076171348012
 30
0.0
 10
296.45113449155
 20
57.07120224156873
 30
0.0
 10
297.8213492014221
 20
56.54940198141284
 30
0.0
 10
299.5278435572774
 20
55.89306861212336
 30
0.0
 10
301.5642935126332
 20
55.09916134178071
 30
0.0
 10
303.590948839201
 20
54.2993020083687
 30
0.0
 10
304.93145309484
 20
53.76132144002943
 30
0.0
 10
305.6021298389733
 20
53.49216074586305
 30
0.0
  0
SPLINE
  5
288
330
1F
100
AcDbEntity
  8
0
  6
Continuous
 62
     7
370
    15
100
AcDbSpline
210
0.0
220
0.0
230
1.0
 70
     8
 71
     3
 72
    29
 73
    25
 74
     0
 42
0.00000001
 43
0.00000001
 12
1.0
 22
0.0
 32
0.0
 13
1.0
 23
0.0
 33
0.0
 40
0.0
 40
0.0
 40
0.0
 40
0.0
 40
0.1517483289423335
 40
0.1517483289423335
 40
0.1517483289423335
 40
0.3042354389975067
 40
0.3042354389975067
 40
0.3042354389975067
 40
0.445606164268522
 40
0.445606164268522
 40
0.445606164268522
 40
0.5755804929910142
 40
0.5755804929910142
 40
0.5755804929910142
 40
0.7016952972328517
 40
0.7016952972328517
 40
0.7016952972328517
 40
0.8316475163682052
 40
0.8316475163682052
 40
0.8316475163682052
 40
0.9712284690231228
 40
0.9712284690231228
 40
0.9712284690231228
 40
1.0
 40
1.0
 40
1.0
 40
1.0
 10
305.6021298389733
 20
53.49216074586305
 30
0.0
 10
305.627918081677
 20
53.48177177914227
 30
0.0
 10
305.6524952393282
 20
53.46675721907226
 30
0.0
 10
305.6737158096122
 20
53.44797694879183
 30
0.0
 10
305.6949961933856
 20
53.42914374338835
 30
0.0
 10
305.7134994014542
 20
53.40591419696375
 30
0.0
 10
305.727084130181
 20
53.38020656543198
 30
0.0
 10
305.7396873235381
 20
53.35635638355033
 30
0.0
 10
305.748414357735
 20
53.32962732595836
 30
0.0
 10
305.7521708539958
 20
53.30253339610888
 30
0.0
 10
305.7556317896629
 20
53.2775712128228
 30
0.0
 10
305.7549795410003
 20
53.25158796535815
 30
0.0
 10
305.7502892513808
 20
53.22685605375595
 30
0.0
 10
305.7457315555545
 20
53.20282330963364
 30
0.0
 10
305.7372639228071
 20
53.17933213369627
 30
0.0
 10
305.7257323980172
 20
53.15813159069595
 30
0.0
 10
305.7138443569434
 20
53.1362755976193
 30
0.0
 10
305.6984251991965
 20
53.11629300170357
 30
0.0
 10
305.6808100938143
 20
53.09941537117003
 30
0.0
 10
305.6618962490809
 20
53.08129337436939
 30
0.0
 10
305.6400006877886
 20
53.06628851804396
 30
0.0
 10
305.616819472142
 20
53.0551714732001
 30
0.0
 10
305.6119874072035
 20
53.05285415371916
 30
0.0
 10
305.6070859920778
 20
53.05069518981242
 30
0.0
 10
305.6021298389733
 20
53.04869857025763
 30
0.0
  0
SPLINE
  5
289
330
1F
100
AcDbEntity
  8
0
  6
Continuous
 62
     7
370
    15
100
AcDbSpline
210
0.0
220
0.0
230
1.0
 70
     8
 71
     3
 72
    19
 73
    15
 74
     0
 42
0.00000001
 43
0.00000001
 12
1.0
 22
0.0
 32
0.0
 13
1.0
 23
0.0
 33
0.0
 40
0.0
 40
0.0
 40
0.0
 40
0.0
 40
0.062744784549353
 40
0.1254481739849627
 40
0.1881137304126792
 40
0.2507450223935222
 40
0.3133456243482668
 40
0.3759191159570611
 40
0.4384690815545566
 40
0.5009991095210662
 40
0.6259421967812634
 40
0.7507374114412345
 40
0.8754136770497345
 40
1.0
 40
1.0
 40
1.0
 40
1.0
 10
305.6021298389733
 20
53.04869857025763
 30
0.0
 10
305.2670419280662
 20
52.91396325253969
 30
0.0
 10
304.5970871764538
 20
52.64458150710225
 30
0.0
 10
303.5881564908028
 20
52.24227687868159
 30
0.0
 10
302.5767470548969
 20
51.84144774434844
 30
0.0
 10
301.5625458777411
 20
51.44221016731246
 30
0.0
 10
300.5456368096072
 20
51.04453299509757
 30
0.0
 10
299.5259972371636
 20
50.64842489461841
 30
0.0
 10
298.5036338798428
 20
50.25388235346596
 30
0.0
 10
297.1374017822147
 20
49.73013355194755
 30
0.0
 10
295.4235819254128
 20
49.07961333357817
 30
0.0
 10
293.3569792951566
 20
48.30580831780001
 30
0.0
 10
291.2820217073441
 20
47.53849552346262
 30
0.0
 10
289.8904640636046
 20
47.03263624575702
 30
0.0
 10
289.194936303064
 20
46.77979787276243
 30
0.0
  0
SPLINE
  5
28A
330
1F
100
AcDbEntity
  8
0
  6
Continuous
 62
     7
370
    15
100
AcDbSpline
210
0.0
220
0.0
230
1.0
 70
     8
 71
     3
 72
    17
 73
    13
 74
     0
 42
0.00000001
 43
0.00000001
 12
1.0
 22
0.0
 32
0.0
 13
1.0
 23
0.0
 33
0.0
 40
0.0
 40
0.0
 40
0.0
 40
0.0
 40
0.3197182291169846
 40
0.3197182291169846
 40
0.3197182291169846
 40
0.6423796434612953
 40
0.6423796434612953
 40
0.6423796434612953
 40
0.9212447753067258
 40
0.9212447753067258
 40
0.9212447753067258
 40
1.0
 40
1.0
 40
1.0
 40
1.0
 10
289.1949363030639
 20
46.77979787276242
 30
0.0
 10
289.1656570590272
 20
46.76919591169707
 30
0.0
 10
289.1375504687249
 20
46.75371820646838
 30
0.0
 10
289.1131818646995
 20
46.73395109564463
 30
0.0
 10
289.088685232156
 20
46.71408013176873
 30
0.0
 10
289.0672309524863
 20
46.68911672803326
 30
0.0
 10
289.0519936560515
 20
46.661130221889
 30
0.0
 10
289.0388007191274
 20
46.63689861283234
 30
0.0
 10
289.0298939301393
 20
46.60955697790975
 30
0.0
 10
289.0267314921462
 20
46.58198354134444
 30
0.0
 10
289.0258218568443
 20
46.5740523909635
 30
0.0
 10
289.0253633841579
 20
46.56605278836991
 30
0.0
 10
289.0253633841579
 20
46.55806678495971
 30
0.0
  0
LINE
  5
28B
330
1F
100
AcDbEntity
  8
0
  6
Continuous
 62
     7
370
    15
100
AcDbLine
 10
289.0253635989
 20
30.1584287605
 30
0.0
 11
289.0253635989
 21
46.5580665565
 31
0.0
  0
SPLINE
  5
28C
330
1F
100
AcDbEntity
  8
0
  6
Continuous
 62
     7
370
    15
100
AcDbSpline
210
0.0
220
0.0
230
1.0
 70
     8
 71
     3
 72
    20
 73
    16
 74
     0
 42
0.00000001
 43
0.00000001
 12
1.0
 22
0.0
 32
0.0
 13
1.0
 23
0.0
 33
0.0
 40
0.0
 40
0.0
 40
0.0
 40
0.0
 40
0.1757043661071328
 40
0.1757043661071328
 40
0.1757043661071328
 40
0.350697178443574
 40
0.350697178443574
 40
0.350697178443574
 40
0.5356676845431144
 40
0.5356676845431144
 40
0.5356676845431144
 40
0.747323037853776
 40
0.747323037853776
 40
0.747323037853776
 40
1.0
 40
1.0
 40
1.0
 40
1.0
 10
289.0253633841579
 20
30.15842965806035
 30
0.0
 10
289.0253633841579
 20
30.1344939319467
 30
0.0
 10
289.029617285729
 20
30.11022592845925
 30
0.0
 10
289.0375608986078
 20
30.08772408937274
 30
0.0
 10
289.0454863992521
 20
30.06527355673696
 30
0.0
 10
289.0572453948632
 20
30.04397805302389
 30
0.0
 10
289.0715993337957
 20
30.02519328814719
 30
0.0
 10
289.0867841645735
 20
30.00532114871588
 30
0.0
 10
289.1051954094031
 20
29.98776260610263
 30
0.0
 10
289.125328203701
 20
29.973257613136
 30
0.0
 10
289.1483443962159
 20
29.95667522990557
 30
0.0
 10
289.1741219428109
 20
29.94367985243524
 30
0.0
 10
289.2008166675502
 20
29.93463842079208
 30
0.0
 10
289.232601913887
 20
29.92387284314248
 30
0.0
 10
289.2665017678474
 20
29.91842965806034
 30
0.0
 10
289.2999632204587
 20
29.91842965806035
 30
0.0
  0
SPLINE
  5
28D
330
1F
100
AcDbEntity
  8
0
  6
Continuous
 62
     7
370
    15
100
AcDbSpline
210
0.0
220
0.0
230
1.0
 70
     8
 71
     3
 72
    20
 73
    16
 74
     0
 42
0.00000001
 43
0.00000001
 12
1.0
 22
0.0
 32
0.0
 13
1.0
 23
0.0
 33
0.0
 40
0.0
 40
0.0
 40
0.0
 40
0.0
 40
0.2540074174901877
 40
0.2540074174901877
 40
0.2540074174901877
 40
0.509116662299067
 40
0.509116662299067
 40
0.509116662299067
 40
0.7447269380504995
 40
0.7447269380504995
 40
0.7447269380504995
 40
0.9489100299025313
 40
0.9489100299025313
 40
0.9489100299025313
 40
1.0
 40
1.0
 40
1.0
 40
1.0
 10
296.6344994663568
 20
77.91842965806033
 30
0.0
 10
296.6019313717348
 20
77.91842965806033
 30
0.0
 10
296.5688953502093
 20
77.91273567976661
 30
0.0
 10
296.5381311949159
 20
77.90156394784073
 30
0.0
 10
296.5072936557507
 20
77.89036556720835
 30
0.0
 10
296.4777890218846
 20
77.87325746343835
 30
0.0
 10
296.4528641088794
 20
77.85124902111497
 30
0.0
 10
296.4298574445532
 20
77.83093437268393
 30
0.0
 10
296.4100263853074
 20
77.80568732912361
 30
0.0
 10
296.3961673751392
 20
77.77776790278077
 30
0.0
 10
296.3841267884463
 20
77.75351174962026
 30
0.0
 10
296.3762427666716
 20
77.72644266106612
 30
0.0
 10
296.3736568604123
 20
77.69926330954846
 30
0.0
 10
296.3729985618413
 20
77.69234421563301
 30
0.0
 10
296.3726676505113
 20
77.6853827136853
 30
0.0
 10
296.3726676505113
 20
77.67842965806035
 30
0.0
  0
LINE
  5
28E
330
1F
100
AcDbEntity
  8
0
  6
Continuous
 62
     7
370
    15
100
AcDbLine
 10
296.3726679728
 20
73.1145686529
 30
0.0
 11
296.3726679728
 21
77.6784292481
 31
0.0
  0
SPLINE
  5
28F
330
1F
100
AcDbEntity
  8
0
  6
Continuous
 62
     7
370
    15
100
AcDbSpline
210
0.0
220
0.0
230
1.0
 70
     8
 71
     3
 72
    20
 73
    16
 74
     0
 42
0.00000001
 43
0.00000001
 12
1.0
 22
0.0
 32
0.0
 13
1.0
 23
0.0
 33
0.0
 40
0.0
 40
0.0
 40
0.0
 40
0.0
 40
0.1783871630473876
 40
0.1783871630473876
 40
0.1783871630473876
 40
0.3561870353077494
 40
0.3561870353077494
 40
0.3561870353077494
 40
0.5424990051090799
 40
0.5424990051090799
 40
0.5424990051090799
 40
0.7505969305727858
 40
0.7505969305727858
 40
0.7505969305727858
 40
1.0
 40
1.0
 40
1.0
 40
1.0
 10
296.3726676505113
 20
73.11456952575767
 30
0.0
 10
296.3726676505113
 20
73.0900929088734
 30
0.0
 10
296.3769018106106
 20
73.06527779072061
 30
0.0
 10
296.3848488080515
 20
73.04224644517423
 30
0.0
 10
296.3927811067565
 20
73.01925769831566
 30
0.0
 10
296.4045834760203
 20
72.99742924147901
 30
0.0
 10
296.4190595919359
 20
72.97821925569902
 30
0.0
 10
296.434238850149
 20
72.95807619134905
 30
0.0
 10
296.4526946343385
 20
72.94030153797299
 30
0.0
 10
296.472917369109
 20
72.92575902902952
 30
0.0
 10
296.4954863778422
 20
72.90952927498924
 30
0.0
 10
296.5207783710273
 20
72.89691966773036
 30
0.0
 10
296.5469433063544
 20
72.8884019923792
 30
0.0
 10
296.5781985483277
 20
72.87822722982685
 30
0.0
 10
296.611564053983
 20
72.87361421932924
 30
0.0
 10
296.6442810845261
 20
72.87473735759693
 30
0.0
  0
SPLINE
  5
290
330
1F
100
AcDbEntity
  8
0
  6
Continuous
 62
     7
370
    15
100
AcDbSpline
210
0.0
220
0.0
230
1.0
 70
     8
 71
     3
 72
    21
 73
    17
 74
     0
 42
0.00000001
 43
0.00000001
 12
1.0
 22
0.0
 32
0.0
 13
1.0
 23
0.0
 33
0.0
 40
0.0
 40
0.0
 40
0.0
 40
0.0
 40
0.0568592510771857
 40
0.1214794090251631
 40
0.1860523514041237
 40
0.2507604167284087
 40
0.314985736854392
 40
0.3799010039466473
 40
0.4440089656652317
 40
0.5087715463580438
 40
0.5946613392789674
 40
0.6807471746264888
 40
0.7670394860211007
 40
0.8525882351476447
 40
0.938781741498854
 40
1.0
 40
1.0
 40
1.0
 40
1.0
 10
302.4962703631269
 20
67.45429272419719
 30
0.0
 10
302.497505596293
 20
67.62426826658037
 30
0.0
 10
302.5001446636777
 20
67.98741987421256
 30
0.0
 10
302.4224694677249
 20
68.5390452666721
 30
0.0
 10
302.2843521268608
 20
69.10028405253992
 30
0.0
 10
302.0823593902646
 20
69.63875143490104
 30
0.0
 10
301.8227641141036
 20
70.14975244317166
 30
0.0
 10
301.5105545838651
 20
70.62472153536203
 30
0.0
 10
301.1503789364006
 20
71.0624324159673
 30
0.0
 10
300.7041410966632
 20
71.49976758460355
 30
0.0
 10
300.1604431285535
 20
71.91805288600779
 30
0.0
 10
299.5151737605579
 20
72.28892832035659
 30
0.0
 10
298.8305165553111
 20
72.5719422391414
 30
0.0
 10
298.1170932360656
 20
72.76348406819928
 30
0.0
 10
297.4570674666957
 20
72.86731400377413
 30
0.0
 10
297.0350415541236
 20
72.86880754038957
 30
0.0
 10
296.8597794816839
 20
72.86942778742818
 30
0.0
  0
SPLINE
  5
291
330
1F
100
AcDbEntity
  8
0
  6
Continuous
 62
     7
370
    15
100
AcDbSpline
210
0.0
220
0.0
230
1.0
 70
     8
 71
     3
 72
    14
 73
    10
 74
     0
 42
0.00000001
 43
0.00000001
 12
1.0
 22
0.0
 32
0.0
 13
1.0
 23
0.0
 33
0.0
 40
0.0
 40
0.0
 40
0.0
 40
0.0
 40
0.0517276887587568
 40
0.2112312348048274
 40
0.3678300699213155
 40
0.5282208775046833
 40
0.6836199801640016
 40
0.84228468855465
 40
1.0
 40
1.0
 40
1.0
 40
1.0
 10
296.6344925508844
 20
69.28802310145406
 30
0.0
 10
296.6278439573616
 20
69.2884220516387
 30
0.0
 10
296.600694269192
 20
69.29005117410972
 30
0.0
 10
296.5536499116076
 20
69.27966096870276
 30
0.0
 10
296.496495909054
 20
69.25614912745237
 30
0.0
 10
296.4458871872528
 20
69.2196777915742
 30
0.0
 10
296.4058169909728
 20
69.17107594155763
 30
0.0
 10
296.3779862778868
 20
69.11331888944089
 30
0.0
 10
296.37443719114
 20
69.07071310395821
 30
0.0
 10
296.3726679728376
 20
69.04947413719205
 30
0.0
  0
LINE
  5
292
330
1F
100
AcDbEntity
  8
0
  6
Continuous
 62
     7
370
    15
100
AcDbLine
 10
296.3726679728
 20
64.373540046
 30
0.0
 11
296.3726679728
 21
69.0494741372
 31
0.0
  0
SPLINE
  5
293
330
1F
100
AcDbEntity
  8
0
  6
Continuous
 62
     7
370
    15
100
AcDbSpline
210
0.0
220
0.0
230
1.0
 70
     8
 71
     3
 72
    17
 73
    13
 74
     0
 42
0.00000001
 43
0.00000001
 12
1.0
 22
0.0
 32
0.0
 13
1.0
 23
0.0
 33
0.0
 40
0.0
 40
0.0
 40
0.0
 40
0.0
 40
0.2489060459616767
 40
0.2489060459616767
 40
0.2489060459616767
 40
0.4969926370638954
 40
0.4969926370638954
 40
0.4969926370638954
 40
0.7569562741685902
 40
0.7569562741685902
 40
0.7569562741685902
 40
1.0
 40
1.0
 40
1.0
 40
1.0
 10
296.3726676505113
 20
64.37353983155467
 30
0.0
 10
296.3726676505113
 20
64.34906321467038
 30
0.0
 10
296.3769018106106
 20
64.3242480965176
 30
0.0
 10
296.3848488080515
 20
64.3012167509712
 30
0.0
 10
296.3927811067565
 20
64.27822800411265
 30
0.0
 10
296.4045834760203
 20
64.25639954727599
 30
0.0
 10
296.4190595919359
 20
64.23718956149601
 30
0.0
 10
296.434238850149
 20
64.21704649714603
 30
0.0
 10
296.4526946343385
 20
64.19927184376998
 30
0.0
 10
296.472917369109
 20
64.1847293348265
 30
0.0
 10
296.4918728608342
 20
64.171098121686
 30
0.0
 10
296.5127206792409
 20
64.16002375276177
 30
0.0
 10
296.5343532596249
 20
64.15180874375133
 30
0.0
  0
SPLINE
  5
294
330
1F
100
AcDbEntity
  8
0
  6
Continuous
 62
     7
370
    15
100
AcDbSpline
210
0.0
220
0.0
230
1.0
 70
     8
 71
     3
 72
    19
 73
    15
 74
     0
 42
0.00000001
 43
0.00000001
 12
1.0
 22
0.0
 32
0.0
 13
1.0
 23
0.0
 33
0.0
 40
0.0
 40
0.0
 40
0.0
 40
0.0
 40
0.0622926281331277
 40
0.1246037932373134
 40
0.1869372674821238
 40
0.2492968189886425
 40
0.3116862111530023
 40
0.3741092019741805
 40
0.4365695433866468
 40
0.4990709805984523
 40
0.624137380251111
 40
0.7492944991466017
 40
0.8745721350917586
 40
0.9999999999999999
 40
0.9999999999999999
 40
0.9999999999999999
 40
0.9999999999999999
 10
296.5343532596251
 20
64.15180874375129
 30
0.0
 10
296.8861309489523
 20
64.01795578542851
 30
0.0
 10
297.5897910092206
 20
63.75021003696835
 30
0.0
 10
298.6414665546893
 20
63.34656287305034
 30
0.0
 10
299.690516411644
 20
62.94136763125297
 30
0.0
 10
300.7366581828709
 20
62.53448166816422
 30
0.0
 10
301.7799677794697
 20
62.12594325590996
 30
0.0
 10
302.8204240372252
 20
61.7157420519764
 30
0.0
 10
303.8580355971708
 20
61.30388116023324
 30
0.0
 10
305.2378030770997
 20
60.75247919591287
 30
0.0
 10
306.9546720458275
 20
60.05940841505539
 30
0.0
 10
309.0010036258568
 20
59.22186766318162
 30
0.0
 10
311.0351437358028
 20
58.3787994903618
 30
0.0
 10
312.3785233349396
 20
57.81240514551044
 30
0.0
 10
313.0506156277194
 20
57.52903827430505
 30
0.0
  0
SPLINE
  5
295
330
1F
100
AcDbEntity
  8
0
  6
Continuous
 62
     7
370
    15
100
AcDbSpline
210
0.0
220
0.0
230
1.0
 70
     8
 71
     3
 72
     9
 73
     5
 74
     0
 42
0.00000001
 43
0.00000001
 12
1.0
 22
0.0
 32
0.0
 13
1.0
 23
0.0
 33
0.0
 40
0.0
 40
0.0
 40
0.0
 40
0.0
 40
0.9164697935224443
 40
0.9999999999999999
 40
0.9999999999999999
 40
0.9999999999999999
 40
0.9999999999999999
 10
313.0506138251172
 20
57.52903810358552
 30
0.0
 10
313.0778089189515
 20
57.51832419673494
 30
0.0
 10
313.1074826670953
 20
57.50663378759511
 30
0.0
 10
313.1376292978582
 20
57.51162114621333
 30
0.0
 10
313.1401474521505
 20
57.51203774130849
 30
0.0
  0
SPLINE
  5
296
330
1F
100
AcDbEntity
  8
0
  6
Continuous
 62
     7
370
    15
100
AcDbSpline
210
0.0
220
0.0
230
1.0
 70
     8
 71
     3
 72
    10
 73
     6
 74
     0
 42
0.00000001
 43
0.00000001
 12
1.0
 22
0.0
 32
0.0
 13
1.0
 23
0.0
 33
0.0
 40
0.0
 40
0.0
 40
0.0
 40
0.0
 40
0.1068320384771284
 40
0.7455728762999067
 40
1.0
 40
1.0
 40
1.0
 40
1.0
 10
313.1400654957639
 20
75.24690246797113
 30
0.0
 10
313.1354113454798
 20
75.24754873260464
 30
0.0
 10
313.1029303756934
 20
75.25205896556972
 30
0.0
 10
313.058639285161
 20
75.23695044775539
 30
0.0
 10
313.0241270875037
 20
75.21705050658144
 30
0.0
 10
313.0142959699975
 20
75.21138182497529
 30
0.0
  0
SPLINE
  5
297
330
1F
100
AcDbEntity
  8
0
  6
Continuous
 62
     7
370
    15
100
AcDbSpline
210
0.0
220
0.0
230
1.0
 70
     8
 71
     3
 72
     9
 73
     5
 74
     0
 42
0.00000001
 43
0.00000001
 12
1.0
 22
0.0
 32
0.0
 13
1.0
 23
0.0
 33
0.0
 40
0.0
 40
0.0
 40
0.0
 40
0.0
 40
0.5501399075661288
 40
1.0
 40
1.0
 40
1.0
 40
1.0
 10
313.0142959699975
 20
75.21138182497529
 30
0.0
 10
311.9544101181797
 20
74.52485835212646
 30
0.0
 10
310.0278350102097
 20
73.27695129538142
 30
0.0
 10
308.0621282537722
 20
72.04376826213928
 30
0.0
 10
307.1778352306234
 20
71.48900842881707
 30
0.0
  0
LINE
  5
298
330
1F
100
AcDbEntity
  8
0
  6
Continuous
 62
     7
370
    15
100
AcDbLine
 10
296.3726679728
 20
30.1584287605
 30
0.0
 11
296.3726679728
 21
42.1673192701
 31
0.0
  0
SPLINE
  5
299
330
1F
100
AcDbEntity
  8
0
  6
Continuous
 62
     7
370
    15
100
AcDbSpline
210
0.0
220
0.0
230
1.0
 70
     8
 71
     3
 72
    20
 73
    16
 74
     0
 42
0.00000001
 43
0.00000001
 12
1.0
 22
0.0
 32
0.0
 13
1.0
 23
0.0
 33
0.0
 40
0.0
 40
0.0
 40
0.0
 40
0.0
 40
0.1829866062763973
 40
0.1829866062763973
 40
0.1829866062763973
 40
0.3653707793609867
 40
0.3653707793609867
 40
0.3653707793609867
 40
0.5564865215490131
 40
0.5564865215490131
 40
0.5564865215490131
 40
0.7699499373198343
 40
0.7699499373198343
 40
0.7699499373198343
 40
1.0
 40
1.0
 40
1.0
 40
1.0
 10
296.3726676505114
 20
30.15842965806035
 30
0.0
 10
296.3726676505114
 20
30.13395304117607
 30
0.0
 10
296.3769018106106
 20
30.10913792302327
 30
0.0
 10
296.3848488080515
 20
30.08610657747689
 30
0.0
 10
296.3927811067565
 20
30.06311783061832
 30
0.0
 10
296.4045834760203
 20
30.04128937378167
 30
0.0
 10
296.4190595919359
 20
30.02207938800168
 30
0.0
 10
296.434238850149
 20
30.00193632365171
 30
0.0
 10
296.4526946343385
 20
29.98416167027566
 30
0.0
 10
296.472917369109
 20
29.96961916133218
 30
0.0
 10
296.4954863778422
 20
29.9533894072919
 30
0.0
 10
296.5207783710273
 20
29.94077980003302
 30
0.0
 10
296.5469433063544
 20
29.93226212468186
 30
0.0
 10
296.5751239008272
 20
29.92308827609703
 30
0.0
 10
296.6049842548943
 20
29.91842965806034
 30
0.0
 10
296.6344994663568
 20
29.91842965806035
 30
0.0
  0
SPLINE
  5
29A
330
1F
100
AcDbEntity
  8
0
  6
Continuous
 62
     7
370
    15
100
AcDbSpline
210
0.0
220
0.0
230
1.0
 70
     8
 71
     3
 72
    10
 73
     6
 74
     0
 42
0.00000001
 43
0.00000001
 12
1.0
 22
0.0
 32
0.0
 13
1.0
 23
0.0
 33
0.0
 40
0.0
 40
0.0
 40
0.0
 40
0.0
 40
0.2881503436255579
 40
0.6437156636527308
 40
1.0
 40
1.0
 40
1.0
 40
1.0
 10
302.5872494027959
 20
32.91547885752228
 30
0.0
 10
303.6086902616796
 20
32.51070865806612
 30
0.0
 10
305.8905458794289
 20
31.60646917567858
 30
0.0
 10
309.3819396970735
 20
30.18111529936464
 30
0.0
 10
311.8268992575714
 20
29.15397298635814
 30
0.0
 10
313.0506138251172
 20
28.63988308823613
 30
0.0
  0
SPLINE
  5
29B
330
1F
100
AcDbEntity
  8
0
  6
Continuous
 62
     7
370
    15
100
AcDbSpline
210
0.0
220
0.0
230
1.0
 70
     8
 71
     3
 72
     9
 73
     5
 74
     0
 42
0.00000001
 43
0.00000001
 12
1.0
 22
0.0
 32
0.0
 13
1.0
 23
0.0
 33
0.0
 40
0.0
 40
0.0
 40
0.0
 40
0.0
 40
0.9164707991190395
 40
1.0
 40
1.0
 40
1.0
 40
1.0
 10
313.0506138251172
 20
28.63988308823613
 30
0.0
 10
313.0778087525709
 20
28.62917116480833
 30
0.0
 10
313.1074822866103
 20
28.61748293269214
 30
0.0
 10
313.137629296505
 20
28.62246645622115
 30
0.0
 10
313.1401474521505
 20
28.6228827259591
 30
0.0
  0
SPLINE
  5
29C
330
1F
100
AcDbEntity
  8
0
  6
Continuous
 62
     7
370
    15
100
AcDbSpline
210
0.0
220
0.0
230
1.0
 70
     8
 71
     3
 72
     9
 73
     5
 74
     0
 42
0.00000001
 43
0.00000001
 12
1.0
 22
0.0
 32
0.0
 13
1.0
 23
0.0
 33
0.0
 40
0.0
 40
0.0
 40
0.0
 40
0.0
 40
0.1540032350986826
 40
0.9999999999999999
 40
0.9999999999999999
 40
0.9999999999999999
 40
0.9999999999999999
 10
313.1400654957639
 20
49.0280257596722
 30
0.0
 10
313.1354016424647
 20
49.02868826598184
 30
0.0
 10
313.1051175169643
 20
49.03299016463491
 30
0.0
 10
313.0755921716964
 20
49.02152267319493
 30
0.0
 10
313.0506138251172
 20
49.01182121253518
 30
0.0
  0
SPLINE
  5
29D
330
1F
100
AcDbEntity
  8
0
  6
Continuous
 62
     7
370
    15
100
AcDbSpline
210
0.0
220
0.0
230
1.0
 70
     8
 71
     3
 72
    19
 73
    15
 74
     0
 42
0.00000001
 43
0.00000001
 12
1.0
 22
0.0
 32
0.0
 13
1.0
 23
0.0
 33
0.0
 40
0.0
 40
0.0
 40
0.0
 40
0.0
 40
0.0627286321222718
 40
0.1254178296960895
 40
0.1880712970630501
 40
0.2506927449055608
 40
0.3132858896006286
 40
0.3758544525686142
 40
0.4384021596175201
 40
0.5009327402833714
 40
0.6258827200392485
 40
0.7506905439379312
 40
0.875386260663796
 40
1.0
 40
1.0
 40
1.0
 40
1.0
 10
313.0506156277194
 20
49.01182104181562
 30
0.0
 10
312.7148831987037
 20
48.86999407396639
 30
0.0
 10
312.0436293999015
 20
48.58642929822961
 30
0.0
 10
311.0319573383693
 20
48.16270258788652
 30
0.0
 10
310.0172081910924
 20
47.74034493653974
 30
0.0
 10
308.9990130821641
 20
47.31946171286681
 30
0.0
 10
307.9774708494933
 20
46.90002462799877
 30
0.0
 10
306.9525547901687
 20
46.48204157826748
 30
0.0
 10
305.9242730049305
 20
46.0655092765091
 30
0.0
 10
304.549280062955
 20
45.51229336835485
 30
0.0
 10
302.8229655778105
 20
44.82468826828454
 30
0.0
 10
300.7388923237253
 20
44.00599146059125
 30
0.0
 10
298.6441901648653
 20
43.19343869918107
 30
0.0
 10
297.2374780440384
 20
42.65712116438686
 30
0.0
 10
296.5343532596253
 20
42.3890505723687
 30
0.0
  0
SPLINE
  5
29E
330
1F
100
AcDbEntity
  8
0
  6
Continuous
 62
     7
370
    15
100
AcDbSpline
210
0.0
220
0.0
230
1.0
 70
     8
 71
     3
 72
    17
 73
    13
 74
     0
 42
0.00000001
 43
0.00000001
 12
1.0
 22
0.0
 32
0.0
 13
1.0
 23
0.0
 33
0.0
 40
0.0
 40
0.0
 40
0.0
 40
0.0
 40
0.3115610254701753
 40
0.3115610254701753
 40
0.3115610254701753
 40
0.6253051996375923
 40
0.6253051996375923
 40
0.6253051996375923
 40
0.9062336128300896
 40
0.9062336128300896
 40
0.9062336128300896
 40
1.0
 40
1.0
 40
1.0
 40
1.0
 10
296.5343532596253
 20
42.38905057236872
 30
0.0
 10
296.5067246914825
 20
42.37855857685963
 30
0.0
 10
296.4802888388369
 20
42.36331919166403
 30
0.0
 10
296.4574064473276
 20
42.34405524510306
 30
0.0
 10
296.4344319528868
 20
42.32471376005811
 30
0.0
 10
296.414375022578
 20
42.3006366563184
 30
0.0
 10
296.3998754694933
 20
42.27381219093894
 30
0.0
 10
296.3868772398364
 20
42.24976520415346
 30
0.0
 10
296.3779755665752
 20
42.22271498334828
 30
0.0
 10
296.3744618128441
 20
42.19535562357477
 30
0.0
 10
296.3732695619127
 20
42.18607232580621
 30
0.0
 10
296.3726676505114
 20
42.17668564486637
 30
0.0
 10
296.3726676505114
 20
42.16731948456601
 30
0.0
  0
SPLINE
  5
29F
330
1F
100
AcDbEntity
  8
0
  6
Continuous
 62
     7
370
    15
100
AcDbSpline
210
0.0
220
0.0
230
1.0
 70
     8
 71
     3
 72
    19
 73
    15
 74
     0
 42
0.00000001
 43
0.00000001
 12
1.0
 22
0.0
 32
0.0
 13
1.0
 23
0.0
 33
0.0
 40
0.0
 40
0.0
 40
0.0
 40
0.0
 40
0.0612566674113605
 40
0.1228327503251896
 40
0.1847283853828497
 40
0.2469437071199003
 40
0.3094788480082777
 40
0.3723339384974544
 40
0.435509107054583
 40
0.4990044802036822
 40
0.6220536345928908
 40
0.7465687226796304
 40
0.87255057666913
 40
1.0
 40
1.0
 40
1.0
 40
1.0
 10
290.2555964748438
 20
59.76106144335829
 30
0.0
 10
290.5978146651257
 20
59.63690527526031
 30
0.0
 10
291.2840355011592
 20
59.38794554170351
 30
0.0
 10
292.3128645342784
 20
59.0115150404217
 30
0.0
 10
293.3446094964424
 20
58.63166843321157
 30
0.0
 10
294.3789518100803
 20
58.24825837226039
 30
0.0
 10
295.4158573253787
 20
57.8613246780754
 30
0.0
 10
296.4552118808681
 20
57.47085647499357
 30
0.0
 10
297.4969240498509
 20
57.07685715887975
 30
0.0
 10
298.8655090627289
 20
56.555707510032
 30
0.0
 10
300.5629276478869
 20
55.90292407204961
 30
0.0
 10
302.5888129130528
 20
55.11332450268505
 30
0.0
 10
304.6266146955697
 20
54.30928163490007
 30
0.0
 10
305.9814497137074
 20
53.76558385688263
 30
0.0
 10
306.6627900107532
 20
53.49216074586306
 30
0.0
  0
SPLINE
  5
2A0
330
1F
100
AcDbEntity
  8
0
  6
Continuous
 62
     7
370
    15
100
AcDbSpline
210
0.0
220
0.0
230
1.0
 70
     8
 71
     3
 72
    17
 73
    13
 74
     0
 42
0.00000001
 43
0.00000001
 12
1.0
 22
0.0
 32
0.0
 13
1.0
 23
0.0
 33
0.0
 40
0.0
 40
0.0
 40
0.0
 40
0.0
 40
0.0632389279817424
 40
0.1260976218303515
 40
0.1885761761648204
 40
0.2506746873424037
 40
0.3765412192357274
 40
0.5009982247609575
 40
0.6276661029316394
 40
0.7530549958969806
 40
0.8771659390197144
 40
1.0
 40
1.0
 40
1.0
 40
1.0
 10
306.6627900107532
 20
53.04869857025763
 30
0.0
 10
306.3250618285327
 20
52.91290321311895
 30
0.0
 10
305.6516361086125
 20
52.64212899006863
 30
0.0
 10
304.6401936649368
 20
52.23884942150998
 30
0.0
 10
303.6317916460944
 20
51.8392364878386
 30
0.0
 10
302.2799813645784
 20
51.30711018451898
 30
0.0
 10
300.5855985174851
 20
50.64670010592624
 30
0.0
 10
298.5285229634411
 20
49.85551519846839
 30
0.0
 10
296.4620212400781
 20
49.07121235670699
 30
0.0
 10
294.3855591417774
 20
48.29388822656804
 30
0.0
 10
292.319994423659
 20
47.53021294880983
 30
0.0
 10
290.9413529372201
 20
47.02907247999572
 30
0.0
 10
290.2555964748438
 20
46.77979787276244
 30
0.0
  0
LINE
  5
2A1
330
1F
100
AcDbEntity
  8
0
  6
Continuous
 62
     7
370
    15
100
AcDbLine
 10
314.4356693075
 20
51.2267903484
 30
0.0
 11
314.4356693075
 21
55.3140689678
 31
0.0
  0
SPLINE
  5
2A2
330
1F
100
AcDbEntity
  8
0
  6
Continuous
 62
     7
370
    15
100
AcDbSpline
210
0.0
220
0.0
230
1.0
 70
     8
 71
     3
 72
    21
 73
    17
 74
     0
 42
0.00000001
 43
0.00000001
 12
1.0
 22
0.0
 32
0.0
 13
1.0
 23
0.0
 33
0.0
 40
0.0
 40
0.0
 40
0.0
 40
0.0
 40
0.1248289442000975
 40
0.2498636415414094
 40
0.3743947841634382
 40
0.3994057012365782
 40
0.4369542566664455
 40
0.4995198900273582
 40
0.5809684401135145
 40
0.6419309319016928
 40
0.6847798175679882
 40
0.7491680336553155
 40
0.8308260386425553
 40
0.8919522365791239
 40
0.953700877528657
 40
1.0
 40
1.0
 40
1.0
 40
1.0
 10
314.2909261830076
 20
51.00505935903081
 30
0.0
 10
314.3010369852935
 20
51.00986159729271
 30
0.0
 10
314.3212752553056
 20
51.01947398925324
 30
0.0
 10
314.3489720495731
 20
51.03943723899683
 30
0.0
 10
314.3672947039929
 20
51.05688556839949
 30
0.0
 10
314.3787068891856
 20
51.06992559218695
 30
0.0
 10
314.3860481821948
 20
51.0789447825949
 30
0.0
 10
314.3959867721128
 20
51.09270212156824
 30
0.0
 10
314.4059606875357
 20
51.10924421127469
 30
0.0
 10
314.413708470217
 20
51.12500834934139
 30
0.0
 10
314.4198719991703
 20
51.1397850876213
 30
0.0
 10
314.4257747647624
 20
51.15685745279136
 30
0.0
 10
314.4306870995841
 20
51.17616414309064
 30
0.0
 10
314.4338873291576
 20
51.19561442071601
 30
0.0
 10
314.435425984122
 20
51.21188625639493
 30
0.0
 10
314.435595066841
 20
51.22231966704122
 30
0.0
 10
314.4356675198122
 20
51.22679044683353
 30
0.0
  0
SPLINE
  5
2A3
330
1F
100
AcDbEntity
  8
0
  6
Continuous
 62
     7
370
    15
100
AcDbSpline
210
0.0
220
0.0
230
1.0
 70
     8
 71
     3
 72
    19
 73
    15
 74
     0
 42
0.00000001
 43
0.00000001
 12
1.0
 22
0.0
 32
0.0
 13
1.0
 23
0.0
 33
0.0
 40
0.0
 40
0.0
 40
0.0
 40
0.0
 40
0.0493224421944639
 40
0.0988941240683633
 40
0.1487151274733357
 40
0.1987855330380778
 40
0.2491054201921973
 40
0.3731737742264868
 40
0.4989397696829264
 40
0.623198112883819
 40
0.7493054912023275
 40
0.8319691131779741
 40
0.9155338734262489
 40
1.0
 40
1.0
 40
1.0
 40
1.0
 10
295.6508618360998
 20
43.5725404107498
 30
0.0
 10
295.9660664820684
 20
43.69095069831317
 30
0.0
 10
296.5980685885829
 20
43.92836963274251
 30
0.0
 10
297.5453825972839
 20
44.28701701956555
 30
0.0
 10
298.4951276225976
 20
44.64864278097205
 30
0.0
 10
299.4470061763768
 20
45.01336542064734
 30
0.0
 10
300.8654669946563
 20
45.56021894731011
 30
0.0
 10
302.7530221559632
 20
46.29577476574117
 30
0.0
 10
305.0883030975531
 20
47.21981768630582
 30
0.0
 10
307.4182754396953
 20
48.15595436380686
 30
0.0
 10
309.4647931544845
 20
48.99077028559761
 30
0.0
 10
311.2484877977364
 20
49.72780753056039
 30
0.0
 10
312.7700263281842
 20
50.36243762846664
 30
0.0
 10
313.7821497903057
 20
50.79008743638159
 30
0.0
 10
314.2909261830076
 20
51.00505935903081
 30
0.0
  0
SPLINE
  5
2A4
330
1F
100
AcDbEntity
  8
0
  6
Continuous
 62
     7
370
    15
100
AcDbSpline
210
0.0
220
0.0
230
1.0
 70
     8
 71
     3
 72
    23
 73
    19
 74
     0
 42
0.00000001
 43
0.00000001
 12
1.0
 22
0.0
 32
0.0
 13
1.0
 23
0.0
 33
0.0
 40
0.0
 40
0.0
 40
0.0
 40
0.0
 40
0.0155521043345106
 40
0.0311286531341083
 40
0.062340938839171
 40
0.124900394636102
 40
0.196378806101476
 40
0.249782632880405
 40
0.3211135771515664
 40
0.3747807892008028
 40
0.4463034506225222
 40
0.4997617015372004
 40
0.5354184422801049
 40
0.562209693661389
 40
0.624808567179033
 40
0.7497781646014866
 40
0.87487097763291
 40
1.0
 40
1.0
 40
1.0
 40
1.0
 10
295.4871248653214
 20
43.35080932294706
 30
0.0
 10
295.4871347437988
 20
43.35235229666559
 30
0.0
 10
295.4871545162803
 20
43.35544066931574
 30
0.0
 10
295.4873648741982
 20
43.36162245550884
 30
0.0
 10
295.4880687750688
 20
43.37244941836036
 30
0.0
 10
295.4901835816048
 20
43.38871840785797
 30
0.0
 10
295.4942102971689
 20
43.40687130364341
 30
0.0
 10
295.4999889840658
 20
43.42540707881465
 30
0.0
 10
295.5066469998224
 20
43.44173465491392
 30
0.0
 10
295.5153688994662
 20
43.45901581547997
 30
0.0
 10
295.5244899271504
 20
43.47402950527377
 30
0.0
 10
295.5336831555867
 20
43.48680626033777
 30
0.0
 10
295.5407991234053
 20
43.49562266158432
 30
0.0
 10
295.5488148193118
 20
43.50482484874512
 30
0.0
 10
295.5633473049994
 20
43.51984021405323
 30
0.0
 10
295.5867633501081
 20
43.5392476695446
 30
0.0
 10
295.6175552984455
 20
43.55861237050267
 30
0.0
 10
295.6397585858767
 20
43.56789728279796
 30
0.0
 10
295.6508618360994
 20
43.5725404107505
 30
0.0
  0
LINE
  5
2A5
330
1F
100
AcDbEntity
  8
0
  6
Continuous
 62
     7
370
    15
100
AcDbLine
 10
295.4871254907
 20
30.1584287605
 30
0.0
 11
295.4871254907
 21
43.350809539
 31
0.0
  0
SPLINE
  5
2A6
330
1F
100
AcDbEntity
  8
0
  6
Continuous
 62
     7
370
    15
100
AcDbSpline
210
0.0
220
0.0
230
1.0
 70
     8
 71
     3
 72
    28
 73
    24
 74
     0
 42
0.00000001
 43
0.00000001
 12
1.0
 22
0.0
 32
0.0
 13
1.0
 23
0.0
 33
0.0
 40
0.0
 40
0.0
 40
0.0
 40
0.0
 40
0.124597128465473
 40
0.2495124255567776
 40
0.3740127755712393
 40
0.4992344288822587
 40
0.5989497419683947
 40
0.6741902810867807
 40
0.7118574414798478
 40
0.7306658472290071
 40
0.7494446350978596
 40
0.7744237990411627
 40
0.7893749863599451
 40
0.8118304839163734
 40
0.8368747655473234
 40
0.8519365589816441
 40
0.8745597411050559
 40
0.890988868887654
 40
0.915631167622638
 40
0.9463951632644444
 40
0.967882203747286
 40
0.98074795480859
 40
1.0
 40
1.0
 40
1.0
 40
1.0
 10
295.2215157352996
 20
29.91842965806033
 30
0.0
 10
295.2377478966059
 20
29.91922455540319
 30
0.0
 10
295.2702536693269
 20
29.92081637992215
 30
0.0
 10
295.3177461736508
 20
29.93332067045753
 30
0.0
 10
295.3627006073453
 20
29.9534058253915
 30
0.0
 10
295.4008080396816
 20
29.97967468503678
 30
0.0
 10
295.4293140010218
 20
30.00763076571701
 30
0.0
 10
295.4464871012639
 20
30.03024498024849
 30
0.0
 10
295.4557903867487
 20
30.04519628464017
 30
0.0
 10
295.4606944203401
 20
30.05399455654142
 30
0.0
 10
295.4645360656485
 20
30.06144546299328
 30
0.0
 10
295.4678734134931
 20
30.06858065382945
 30
0.0
 10
295.4711458668638
 20
30.07629164086421
 30
0.0
 10
295.4741547685221
 20
30.08412882194259
 30
0.0
 10
295.4768249660617
 20
30.09211376038291
 30
0.0
 10
295.4792106756201
 20
30.10021619024218
 30
0.0
 10
295.4810315538142
 20
30.10727820484886
 30
0.0
 10
295.4828825287891
 20
30.11566403924546
 30
0.0
 10
295.4846199919658
 20
30.12519976329374
 30
0.0
 10
295.4859685344223
 20
30.13549612311028
 30
0.0
 10
295.4866822695952
 20
30.14426106863409
 30
0.0
 10
295.4870514759663
 20
30.15149159258216
 30
0.0
 10
295.4870973609504
 20
30.15582945633941
 30
0.0
 10
295.4871248653214
 20
30.15842965806035
 30
0.0
  0
LINE
  5
2A7
330
1F
100
AcDbEntity
  8
0
  6
Continuous
 62
     7
370
    15
100
AcDbLine
 10
290.3606231258
 20
29.9184287957
 30
0.0
 11
295.2215160177
 21
29.9184287957
 31
0.0
  0
SPLINE
  5
2A8
330
1F
100
AcDbEntity
  8
0
  6
Continuous
 62
     7
370
    15
100
AcDbSpline
210
0.0
220
0.0
230
1.0
 70
     8
 71
     3
 72
    31
 73
    27
 74
     0
 42
0.00000001
 43
0.00000001
 12
1.0
 22
0.0
 32
0.0
 13
1.0
 23
0.0
 33
0.0
 40
0.0
 40
0.0
 40
0.0
 40
0.0
 40
0.0088994456615296
 40
0.0178104334370959
 40
0.0267318930836042
 40
0.0356626912603677
 40
0.0446016372332397
 40
0.0535474884753856
 40
0.0624989561717489
 40
0.0714547106373318
 40
0.0804133866588042
 40
0.0893735887700496
 40
0.1072921900322402
 40
0.1216198533400243
 40
0.1430839484234878
 40
0.1644982058688989
 40
0.1773180036709709
 40
0.1965857734962556
 40
0.2234066661192026
 40
0.2502774147605485
 40
0.3752654267341456
 40
0.5004553627158873
 40
0.6253748679660244
 40
0.7504188081158237
 40
0.8752036142080523
 40
1.0
 40
1.0
 40
1.0
 40
1.0
 10
290.0860235559376
 20
30.15842965806035
 30
0.0
 10
290.0860299069408
 20
30.1572125078049
 30
0.0
 10
290.086042617184
 20
30.15477662871398
 30
0.0
 10
290.0861448120731
 20
30.15112183486535
 30
0.0
 10
290.0863072689028
 20
30.14746521015469
 30
0.0
 10
290.0865355661838
 20
30.14380840571071
 30
0.0
 10
290.0868276428506
 20
30.14015307204535
 30
0.0
 10
290.0871834882568
 20
30.13650086024568
 30
0.0
 10
290.0876025418603
 20
30.13285341979347
 30
0.0
 10
290.0880843898033
 20
30.12921240610523
 30
0.0
 10
290.0886285823462
 20
30.12557945253846
 30
0.0
 10
290.0894366625096
 20
30.12074874241426
 30
0.0
 10
290.0905071702849
 20
30.11522012823897
 30
0.0
 10
290.0921211500538
 20
30.10806315261033
 30
0.0
 10
290.0940973622426
 20
30.10050485515593
 30
0.0
 10
290.0963192649034
 20
30.09323478561534
 30
0.0
 10
290.0986817969819
 20
30.08633106680126
 30
0.0
 10
290.1015157360902
 20
30.07881687966034
 30
0.0
 10
290.1054220145014
 20
30.06967553083396
 30
0.0
 10
290.1160538732464
 20
30.04781006997186
 30
0.0
 10
290.137100054885
 20
30.01626474429423
 30
0.0
 10
290.1735463820283
 20
29.98072888144257
 30
0.0
 10
290.2158172931325
 20
29.95285462141262
 30
0.0
 10
290.2620353983194
 20
29.93306481084384
 30
0.0
 10
290.3107548703107
 20
29.92074518715096
 30
0.0
 10
290.3440000374425
 20
29.91920152496407
 30
0.0
 10
290.3606233922384
 20
29.91842965806034
 30
0.0
  0
LINE
  5
2A9
330
1F
100
AcDbEntity
  8
0
  6
Continuous
 62
     7
370
    15
100
AcDbLine
 10
290.0860245273
 20
30.1584287605
 30
0.0
 11
290.0860245273
 21
46.5580665565
 31
0.0
  0
SPLINE
  5
2AA
330
1F
100
AcDbEntity
  8
0
  6
Continuous
 62
     7
370
    15
100
AcDbSpline
210
0.0
220
0.0
230
1.0
 70
     8
 71
     3
 72
    21
 73
    17
 74
     0
 42
0.00000001
 43
0.00000001
 12
1.0
 22
0.0
 32
0.0
 13
1.0
 23
0.0
 33
0.0
 40
0.0
 40
0.0
 40
0.0
 40
0.0
 40
0.1249919375749683
 40
0.2502144116599956
 40
0.4991750864300197
 40
0.5242076932093235
 40
0.5617030957003616
 40
0.623975035397222
 40
0.652373582325952
 40
0.6951553114769514
 40
0.748839013049151
 40
0.7816135622684248
 40
0.8307444693751536
 40
0.8919568317010645
 40
0.953478675729106
 40
1.0
 40
1.0
 40
1.0
 40
1.0
 10
290.2555964748438
 20
46.77979787276242
 30
0.0
 10
290.2442438858004
 20
46.77521301529606
 30
0.0
 10
290.221517768873
 20
46.7660348440016
 30
0.0
 10
290.1794331464793
 20
46.74067810770973
 30
0.0
 10
290.1498239805612
 20
46.71373806638886
 30
0.0
 10
290.1308084983066
 20
46.68942456290139
 30
0.0
 10
290.1235545543883
 20
46.67938791815364
 30
0.0
 10
290.1167482697271
 20
46.66860688951525
 30
0.0
 10
290.110348446477
 20
46.65697053460614
 30
0.0
 10
290.1048894499049
 20
46.6457878990369
 30
0.0
 10
290.099990654494
 20
46.63385166895632
 30
0.0
 10
290.0955844564067
 20
46.62104810245678
 30
0.0
 10
290.0916776526312
 20
46.60727808482796
 30
0.0
 10
290.0882750759963
 20
46.59040861982034
 30
0.0
 10
290.0863283767067
 20
46.57354570868165
 30
0.0
 10
290.0861153018853
 20
46.56272568182444
 30
0.0
 10
290.0860235559377
 20
46.5580667849597
 30
0.0
  0
SPLINE
  5
2AB
330
1F
100
AcDbEntity
  8
0
  6
Continuous
 62
     7
370
    15
100
AcDbSpline
210
0.0
220
0.0
230
1.0
 70
     8
 71
     3
 72
    70
 73
    66
 74
     0
 42
0.00000001
 43
0.00000001
 12
1.0
 22
0.0
 32
0.0
 13
1.0
 23
0.0
 33
0.0
 40
0.0
 40
0.0
 40
0.0
 40
0.0
 40
0.0624144169798167
 40
0.1249343024724023
 40
0.1871800304137822
 40
0.2496781031101709
 40
0.3119273643836508
 40
0.3743674652389139
 40
0.3821963438230913
 40
0.3900231661389468
 40
0.3962821113863618
 40
0.4009743325481109
 40
0.4056644667268555
 40
0.413475767268977
 40
0.4212789559776986
 40
0.4275147914843209
 40
0.4321873158148983
 40
0.4368557933685057
 40
0.4446268193648046
 40
0.4524128033122957
 40
0.4563108023544134
 40
0.4602116561240997
 40
0.4680210519090133
 40
0.4730239856527976
 40
0.4805343642576885
 40
0.4880507016156307
 40
0.4936910110904504
 40
0.4993331985983526
 40
0.5032521686773656
 40
0.5071715184139831
 40
0.5110910308718654
 40
0.5150104887485748
 40
0.5189296746464122
 40
0.5228483713430334
 40
0.5267663620627719
 40
0.5306834307476809
 40
0.5345993623298964
 40
0.5385139430043933
 40
0.542426960502919
 40
0.5463382043696149
 40
0.5502474662375001
 40
0.5541545401072974
 40
0.5580592226278893
 40
0.5619613133790388
 40
0.5658606151566308
 40
0.5697569342601893
 40
0.5736500807834958
 40
0.5775449424554808
 40
0.581444261127679
 40
0.58534628683928
 40
0.5892508686076174
 40
0.5931578499515158
 40
0.5970670691631401
 40
0.6009783595766184
 40
0.6048915498341888
 40
0.6088064641492202
 40
0.6127229225668531
 40
0.6166407412221632
 40
0.6244796056642409
 40
0.6959913210967184
 40
0.7495654718895093
 40
0.8211162174075587
 40
0.8746537934614328
 40
0.9462151626656536
 40
1.0
 40
1.0
 40
1.0
 40
1.0
 10
306.6627900107532
 20
53.49216074586306
 30
0.0
 10
306.6732994821261
 20
53.48742284200801
 30
0.0
 10
306.6943361838828
 20
53.47793902814009
 30
0.0
 10
306.723268445236
 20
53.45822669149149
 30
0.0
 10
306.7494792412144
 20
53.43464701536959
 30
0.0
 10
306.7721271441653
 20
53.40719507349975
 30
0.0
 10
306.7907431532153
 20
53.3764369108582
 30
0.0
 10
306.8004704826115
 20
53.35264242734888
 30
0.0
 10
306.8049928174323
 20
53.33820584584167
 30
0.0
 10
306.806185529528
 20
53.33412780180821
 30
0.0
 10
306.8071479778196
 20
53.33061442368077
 30
0.0
 10
306.8079107257698
 20
53.32767609850302
 30
0.0
 10
306.8087122290959
 20
53.32443547468811
 30
0.0
 10
306.8096001831066
 20
53.32059229089236
 30
0.0
 10
306.810475898573
 20
53.31643641951185
 30
0.0
 10
306.8111634585494
 20
53.3128632773991
 30
0.0
 10
306.8116950104967
 20
53.30988016219338
 30
0.0
 10
306.8122401946978
 20
53.30659543495817
 30
0.0
 10
306.8128229991677
 20
53.30270174746896
 30
0.0
 10
306.813308341566
 20
53.29894439931753
 30
0.0
 10
306.8136522050436
 20
53.29592845785294
 30
0.0
 10
306.8139666488498
 20
53.2929042640807
 30
0.0
 10
306.8142553867254
 20
53.2896604629003
 30
0.0
 10
306.8145430149349
 20
53.28571049038892
 30
0.0
 10
306.8147656194247
 20
53.28181277285724
 30
0.0
 10
306.8149201956115
 20
53.27778694248634
 30
0.0
 10
306.8150011912545
 20
53.27412308882234
 30
0.0
 10
306.8150254415635
 20
53.27115962660596
 30
0.0
 10
306.8150160025541
 20
53.26853163821495
 30
0.0
 10
306.8149856633669
 20
53.26623968863406
 30
0.0
 10
306.8149332292742
 20
53.26394810083271
 30
0.0
 10
306.8148587125057
 20
53.26165724330502
 30
0.0
 10
306.814762125296
 20
53.25936748648156
 30
0.0
 10
306.8146434798695
 20
53.25707920027411
 30
0.0
 10
306.8145027884445
 20
53.25479275473354
 30
0.0
 10
306.814340063232
 20
53.25250851987347
 30
0.0
 10
306.814155316436
 20
53.25022686571757
 30
0.0
 10
306.8139485602537
 20
53.24794816228683
 30
0.0
 10
306.8137198068751
 20
53.24567277960293
 30
0.0
 10
306.8134690684824
 20
53.24340108768755
 30
0.0
 10
306.8131963572536
 20
53.24113345656171
 30
0.0
 10
306.8129016853489
 20
53.23887025624904
 30
0.0
 10
306.81258506496
 20
53.23661185676355
 30
0.0
 10
306.8122465081275
 20
53.2343586281552
 30
0.0
 10
306.8118860274201
 20
53.23211094034007
 30
0.0
 10
306.8115036334027
 20
53.22986916373364
 30
0.0
 10
306.8110991684484
 20
53.22763269577521
 30
0.0
 10
306.810672296861
 20
53.22540039174022
 30
0.0
 10
306.8102230205273
 20
53.22317134418198
 30
0.0
 10
306.8097514243196
 20
53.22094562503131
 30
0.0
 10
306.8092577231483
 20
53.21872385144371
 30
0.0
 10
306.8087420672692
 20
53.21650633525017
 30
0.0
 10
306.8082046077565
 20
53.21429338825905
 30
0.0
 10
306.8076454953878
 20
53.21208532186786
 30
0.0
 10
306.8070648812697
 20
53.2098824491479
 30
0.0
 10
306.8064629154524
 20
53.20768507688838
 30
0.0
 10
306.805839751849
 20
53.20549353535356
 30
0.0
 10
306.8049806732646
 20
53.20257918411837
 30
0.0
 10
306.8001969058838
 20
53.18717332422686
 30
0.0
 10
306.7902068194926
 20
53.16336174359228
 30
0.0
 10
306.7704382887763
 20
53.13126846527934
 30
0.0
 10
306.7485448487893
 20
53.10519761513192
 30
0.0
 10
306.7208288484036
 20
53.08075365678462
 30
0.0
 10
306.6930066279644
 20
53.06211694897419
 30
0.0
 10
306.6718626751354
 20
53.05272749400506
 30
0.0
 10
306.6627900107532
 20
53.04869857025763
 30
0.0
  0
SPLINE
  5
2AC
330
1F
100
AcDbEntity
  8
0
  6
Continuous
 62
     7
370
    15
100
AcDbSpline
210
0.0
220
0.0
230
1.0
 70
     8
 71
     3
 72
    22
 73
    18
 74
     0
 42
0.00000001
 43
0.00000001
 12
1.0
 22
0.0
 32
0.0
 13
1.0
 23
0.0
 33
0.0
 40
0.0
 40
0.0
 40
0.0
 40
0.0
 40
0.0155548084072978
 40
0.0311347787199944
 40
0.0623553491975929
 40
0.1249311977282274
 40
0.1964119699131646
 40
0.2498130384935142
 40
0.3212009382840513
 40
0.374893376731702
 40
0.4374900350102894
 40
0.4731589749890406
 40
0.4998814364555005
 40
0.6249386975844416
 40
0.7498852716570772
 40
0.8749571172035935
 40
1.0
 40
1.0
 40
1.0
 40
1.0
 10
290.0860235559376
 20
59.98279253116097
 30
0.0
 10
290.0860340075114
 20
59.98123397172207
 30
0.0
 10
290.0860549275657
 20
59.97811433167372
 30
0.0
 10
290.086277390324
 20
59.97186998659306
 30
0.0
 10
290.0870213920006
 20
59.96093433323685
 30
0.0
 10
290.0892545160362
 20
59.94451023287472
 30
0.0
 10
290.0934988297226
 20
59.92620565744048
 30
0.0
 10
290.09958845135
 20
59.90754364804361
 30
0.0
 10
290.106586060736
 20
59.89113341649988
 30
0.0
 10
290.1153110133301
 20
59.87458742859025
 30
0.0
 10
290.1233440864094
 20
59.86177039723384
 30
0.0
 10
290.1305757986199
 20
59.85168354021866
 30
0.0
 10
290.1419986572235
 20
59.83701750767892
 30
0.0
 10
290.1608342664122
 20
59.8169868833261
 30
0.0
 10
290.1898386185999
 20
59.79393656316959
 30
0.0
 10
290.2215009193716
 20
59.77481187878094
 30
0.0
 10
290.2442321670959
 20
59.7656445679802
 30
0.0
 10
290.2555964748431
 20
59.76106144335731
 30
0.0
  0
LINE
  5
2AD
330
1F
100
AcDbEntity
  8
0
  6
Continuous
 62
     7
370
    15
100
AcDbLine
 10
290.0860245273
 20
59.9827927596
 30
0.0
 11
290.0860245273
 21
77.6784292481
 31
0.0
  0
SPLINE
  5
2AE
330
1F
100
AcDbEntity
  8
0
  6
Continuous
 62
     7
370
    15
100
AcDbSpline
210
0.0
220
0.0
230
1.0
 70
     8
 71
     3
 72
    25
 73
    21
 74
     0
 42
0.00000001
 43
0.00000001
 12
1.0
 22
0.0
 32
0.0
 13
1.0
 23
0.0
 33
0.0
 40
0.0
 40
0.0
 40
0.0
 40
0.0
 40
0.1245534619834383
 40
0.249375805138483
 40
0.373750091880212
 40
0.4987508387563024
 40
0.6234627889989128
 40
0.7488351711437807
 40
0.7644469784569692
 40
0.7800581835896843
 40
0.811377390095912
 40
0.8364952940115418
 40
0.8515783951572374
 40
0.8742006470975336
 40
0.899310582356315
 40
0.9143536304379486
 40
0.9368695980456014
 40
0.9511302522625922
 40
0.9728266463612413
 40
1.0
 40
1.0
 40
1.0
 40
1.0
 10
290.3606233922384
 20
77.91842965806035
 30
0.0
 10
290.344033701089
 20
77.91765370164804
 30
0.0
 10
290.3108185056099
 20
77.91610011371885
 30
0.0
 10
290.2622076552331
 20
77.90383859866415
 30
0.0
 10
290.2160511893086
 20
77.88410510877107
 30
0.0
 10
290.1738669730756
 20
77.85636260103104
 30
0.0
 10
290.1373821252254
 20
77.82088753143283
 30
0.0
 10
290.1170998728242
 20
77.79069715063284
 30
0.0
 10
290.1075678609336
 20
77.77165043149903
 30
0.0
 10
290.1039845542441
 20
77.76392823819575
 30
0.0
 10
290.100244533439
 20
77.75484790248058
 30
0.0
 10
290.097004705393
 20
77.74564647193239
 30
0.0
 10
290.0944603174181
 20
77.737460875031
 30
0.0
 10
290.0922026482084
 20
77.729186380823
 30
0.0
 10
290.090317414012
 20
77.72081862042978
 30
0.0
 10
290.0887576568706
 20
77.71239816727358
 30
0.0
 10
290.0877197502131
 20
77.70538886128817
 30
0.0
 10
290.0868452787423
 20
77.69744222282625
 30
0.0
 10
290.0861812151589
 20
77.68883067411744
 30
0.0
 10
290.0860798941156
 20
77.68214637242902
 30
0.0
 10
290.0860235559376
 20
77.67842965806037
 30
0.0
  0
LINE
  5
2AF
330
1F
100
AcDbEntity
  8
0
  6
Continuous
 62
     7
370
    15
100
AcDbLine
 10
295.2215160177
 20
77.9184292129
 30
0.0
 11
290.3606231258
 21
77.9184292129
 31
0.0
  0
SPLINE
  5
2B0
330
1F
100
AcDbEntity
  8
0
  6
Continuous
 62
     7
370
    15
100
AcDbSpline
210
0.0
220
0.0
230
1.0
 70
     8
 71
     3
 72
    42
 73
    38
 74
     0
 42
0.00000001
 43
0.00000001
 12
1.0
 22
0.0
 32
0.0
 13
1.0
 23
0.0
 33
0.0
 40
0.0
 40
0.0
 40
0.0
 40
0.0
 40
0.0077838100530815
 40
0.0155762754147507
 40
0.0233767191166492
 40
0.0311844318085204
 40
0.0389986742980677
 40
0.046818680050765
 40
0.0546436576537609
 40
0.0624727932452248
 40
0.0703052529136997
 40
0.0781401850694992
 40
0.0859767227926982
 40
0.0938139861596798
 40
0.1016510845539909
 40
0.1094871189629483
 40
0.1173211842661233
 40
0.1251523715167733
 40
0.132979770223432
 40
0.1408024706326387
 40
0.1486195660186242
 40
0.1564301549831654
 40
0.1642333437702708
 40
0.1720282485986475
 40
0.1876055306551927
 40
0.2125887486441018
 40
0.2276077331028397
 40
0.2501640341956771
 40
0.268081452027898
 40
0.2815228339546398
 40
0.3128693257806818
 40
0.3753331077580982
 40
0.5004338332733366
 40
0.6252805330366565
 40
0.7503389475317296
 40
0.8751318645511594
 40
1.0
 40
1.0
 40
1.0
 40
1.0
 10
295.4871248653213
 20
77.67842965806037
 30
0.0
 10
295.4871202971261
 20
77.67948086535279
 30
0.0
 10
295.4871111556558
 20
77.6815844488412
 30
0.0
 10
295.4870375737029
 20
77.684740721995
 30
0.0
 10
295.486920507336
 20
77.68789871294442
 30
0.0
 10
295.4867558821996
 20
77.69105740054006
 30
0.0
 10
295.4865451169294
 20
77.69421576388632
 30
0.0
 10
295.4862881561148
 20
77.69737278201359
 30
0.0
 10
295.4859853397826
 20
77.70052743396573
 30
0.0
 10
295.4856369018274
 20
77.7036786987764
 30
0.0
 10
295.4852431045615
 20
77.70682555547528
 30
0.0
 10
295.484804202628
 20
77.7099669830863
 30
0.0
 10
295.4843204526803
 20
77.71310196062835
 30
0.0
 10
295.4837921107874
 20
77.71622946711511
 30
0.0
 10
295.4832194331304
 20
77.71934848155523
 30
0.0
 10
295.4826026758193
 20
77.72245798295316
 30
0.0
 10
295.4819420949315
 20
77.72555695030702
 30
0.0
 10
295.4812379465441
 20
77.728644362617
 30
0.0
 10
295.4804904865686
 20
77.73171919885606
 30
0.0
 10
295.4796999713827
 20
77.7347804380791
 30
0.0
 10
295.4788666554671
 20
77.73782705901766
 30
0.0
 10
295.4779908002215
 20
77.74085804159114
 30
0.0
 10
295.4770726411004
 20
77.7438723612746
 30
0.0
 10
295.4757925929467
 20
77.74786749810367
 30
0.0
 10
295.4736732027625
 20
77.75401698645423
 30
0.0
 10
295.4709767136343
 20
77.76098476885646
 30
0.0
 10
295.4676673747293
 20
77.76870402163108
 30
0.0
 10
295.4645086472963
 20
77.77544529075948
 30
0.0
 10
295.4612157165773
 20
77.78187545716625
 30
0.0
 10
295.4571896463119
 20
77.78924119476464
 30
0.0
 10
295.449834432492
 20
77.80155792030025
 30
0.0
 10
295.4328822440106
 20
77.82537953116643
 30
0.0
 10
295.4037045439816
 20
77.8551884591196
 30
0.0
 10
295.3628388388365
 20
77.88339036934708
 30
0.0
 10
295.3178834915908
 20
77.90350519053052
 30
0.0
 10
295.2703112689692
 20
77.91607025941741
 30
0.0
 10
295.2377841798004
 20
77.9176430338964
 30
0.0
 10
295.2215157352995
 20
77.91842965806035
 30
0.0
  0
LINE
  5
2B1
330
1F
100
AcDbEntity
  8
0
  6
Continuous
 62
     7
370
    15
100
AcDbLine
 10
295.4871254907
 20
63.1900497771
 30
0.0
 11
295.4871254907
 21
77.6784292481
 31
0.0
  0
SPLINE
  5
2B2
330
1F
100
AcDbEntity
  8
0
  6
Continuous
 62
     7
370
    15
100
AcDbSpline
210
0.0
220
0.0
230
1.0
 70
     8
 71
     3
 72
    22
 73
    18
 74
     0
 42
0.00000001
 43
0.00000001
 12
1.0
 22
0.0
 32
0.0
 13
1.0
 23
0.0
 33
0.0
 40
0.0
 40
0.0
 40
0.0
 40
0.0
 40
0.1248809650360685
 40
0.2499846935008829
 40
0.3744684426493416
 40
0.4369629277444327
 40
0.4619966813780207
 40
0.4995400979273618
 40
0.5708943041229319
 40
0.6241918208251117
 40
0.6953916459138897
 40
0.7490510323128581
 40
0.7817913793647965
 40
0.830851699333131
 40
0.8919555963084187
 40
0.9535691467770671
 40
1.0
 40
1.0
 40
1.0
 40
1.0
 10
295.6508618360998
 20
62.9683189053709
 30
0.0
 10
295.6397820810897
 20
62.97295591060291
 30
0.0
 10
295.6176028069348
 20
62.98223819258522
 30
0.0
 10
295.5868694478656
 20
63.0015577115598
 30
0.0
 10
295.5634666840983
 20
63.02089161163535
 30
0.0
 10
295.5491081314254
 20
63.03575802487038
 30
0.0
 10
295.5410822798875
 20
63.04495323524467
 30
0.0
 10
295.5328441310589
 20
63.05512598488552
 30
0.0
 10
295.5236566320398
 20
63.06811429064555
 30
0.0
 10
295.5137981600548
 20
63.08464586340484
 30
0.0
 10
295.5060675786145
 20
63.10042631450835
 30
0.0
 10
295.5003751738385
 20
63.11491581194579
 30
0.0
 10
295.4961840921318
 20
63.12763444221225
 30
0.0
 10
295.4924750080201
 20
63.14129101920829
 30
0.0
 10
295.489252731029
 20
63.15801942697581
 30
0.0
 10
295.4874141200289
 20
63.17472260803481
 30
0.0
 10
295.4872118070306
 20
63.1854430186724
 30
0.0
 10
295.4871248653214
 20
63.19004999317361
 30
0.0
  0
SPLINE
  5
2B3
330
1F
100
AcDbEntity
  8
0
  6
Continuous
 62
     7
370
    15
100
AcDbSpline
210
0.0
220
0.0
230
1.0
 70
     8
 71
     3
 72
    19
 73
    15
 74
     0
 42
0.00000001
 43
0.00000001
 12
1.0
 22
0.0
 32
0.0
 13
1.0
 23
0.0
 33
0.0
 40
0.0
 40
0.0
 40
0.0
 40
0.0
 40
0.050786483651402
 40
0.1012492171056172
 40
0.1513882487088626
 40
0.2012036277503566
 40
0.2506954044868366
 40
0.3767980841620787
 40
0.5010611302869019
 40
0.6268224374476562
 40
0.7508954840487583
 40
0.8346210194989845
 40
0.9176557337383664
 40
0.9999999999999999
 40
0.9999999999999999
 40
0.9999999999999999
 40
0.9999999999999999
 10
314.2909261830077
 20
55.53579995708989
 30
0.0
 10
313.9852336987351
 20
55.66511570196807
 30
0.0
 10
313.3757974376993
 20
55.92292283857191
 30
0.0
 10
312.4603567286404
 20
56.30717124951276
 30
0.0
 10
311.5478015369071
 20
56.68804586625214
 30
0.0
 10
310.6379283361798
 20
57.06546078996766
 30
0.0
 10
309.2609413533699
 20
57.63321821768115
 30
0.0
 10
307.4183158137874
 20
58.38489709526077
 30
0.0
 10
305.0883611771458
 20
59.32101849023254
 30
0.0
 10
302.7530412608402
 20
60.24506846013877
 30
0.0
 10
300.6554566014862
 20
61.06250791249043
 30
0.0
 10
298.8157033612376
 20
61.77022413166025
 30
0.0
 10
297.2332203728227
 20
62.37318172846839
 30
0.0
 10
296.1768445784224
 20
62.77049276350699
 30
0.0
 10
295.6508618360999
 20
62.9683189053709
 30
0.0
  0
SPLINE
  5
2B4
330
1F
100
AcDbEntity
  8
0
  6
Continuous
 62
     7
370
    15
100
AcDbSpline
210
0.0
220
0.0
230
1.0
 70
     8
 71
     3
 72
    23
 73
    19
 74
     0
 42
0.00000001
 43
0.00000001
 12
1.0
 22
0.0
 32
0.0
 13
1.0
 23
0.0
 33
0.0
 40
0.0
 40
0.0
 40
0.0
 40
0.0
 40
0.0155509323309255
 40
0.0311244629956187
 40
0.0623269501136549
 40
0.1248663104910451
 40
0.1963596441297126
 40
0.2498304173058276
 40
0.3210229259297026
 40
0.3746245195801179
 40
0.4461561617488756
 40
0.4997113942091781
 40
0.5619975034458958
 40
0.5976758071357859
 40
0.6244771133854783
 40
0.7495396119342854
 40
0.8745721133914444
 40
1.0
 40
1.0
 40
1.0
 40
1.0
 10
314.4356675198122
 20
55.31406886928718
 30
0.0
 10
314.4356592888228
 20
55.31557043084931
 30
0.0
 10
314.4356428148826
 20
55.31857573601569
 30
0.0
 10
314.435467326503
 20
55.32459128695368
 30
0.0
 10
314.4348792685001
 20
55.33512907898908
 30
0.0
 10
314.4331078016276
 20
55.35098284830582
 30
0.0
 10
314.429718179624
 20
55.36872870222541
 30
0.0
 10
314.4248474853185
 20
55.38691471522947
 30
0.0
 10
314.4192082679755
 20
55.40300835503512
 30
0.0
 10
314.4117579585564
 20
55.42012941845812
 30
0.0
 10
314.4039035606662
 20
55.43511085885921
 30
0.0
 10
314.3946156445493
 20
55.45008234717101
 30
0.0
 10
314.3863357876453
 20
55.46158007507791
 30
0.0
 10
314.3790238779425
 20
55.47058124163841
 30
0.0
 10
314.3675907063157
 20
55.48366114955009
 30
0.0
 10
314.3491376411841
 20
55.50128456977686
 30
0.0
 10
314.3213826553188
 20
55.52135802627855
 30
0.0
 10
314.3010890191825
 20
55.53098091648069
 30
0.0
 10
314.2909261830077
 20
55.53579995709003
 30
0.0
  0
LINE
  5
2B5
330
1F
100
AcDbEntity
  8
0
  6
Continuous
 62
     7
370
    15
100
AcDbLine
 10
289.29996406
 20
77.9184292129
 30
0.0
 11
290.3606231258
 21
77.9184292129
 31
0.0
  0
LINE
  5
2B6
330
1F
100
AcDbEntity
  8
0
  6
Continuous
 62
     7
370
    15
100
AcDbLine
 10
289.29996406
 20
29.9184287957
 30
0.0
 11
290.3606231258
 21
29.9184287957
 31
0.0
  0
SPLINE
  5
2B7
330
1F
100
AcDbEntity
  8
0
  6
Continuous
 62
     7
370
    15
100
AcDbSpline
210
0.0
220
0.0
230
1.0
 70
     8
 71
     3
 72
    17
 73
    13
 74
     0
 42
0.00000001
 43
0.00000001
 12
1.0
 22
0.0
 32
0.0
 13
1.0
 23
0.0
 33
0.0
 40
0.0
 40
0.0
 40
0.0
 40
0.0
 40
0.0633296498407907
 40
0.1262093580589833
 40
0.1886391995255094
 40
0.2506192507427317
 40
0.3766008389103999
 40
0.5009318186028409
 40
0.626618890835159
 40
0.7507782341526975
 40
0.8760974248843207
 40
1.0
 40
1.0
 40
1.0
 40
1.0
 10
314.1112757994991
 20
49.0118210418156
 30
0.0
 10
313.7723243277086
 20
48.86863643353105
 30
0.0
 10
313.0968295511644
 20
48.58328450846987
 30
0.0
 10
312.0820566755255
 20
48.15829394281927
 30
0.0
 10
311.0709061810772
 20
47.73746599010036
 30
0.0
 10
309.7138361590725
 20
47.17651880383698
 30
0.0
 10
308.0117361813847
 20
46.48002626262112
 30
0.0
 10
305.9475226427703
 20
45.64672871546932
 30
0.0
 10
303.8790450713257
 20
44.82288131885541
 30
0.0
 10
301.790968193131
 20
44.00264603165163
 30
0.0
 10
299.7003561992162
 20
43.19171046234217
 30
0.0
 10
298.2941299504715
 20
42.65558806775994
 30
0.0
 10
297.5950134314052
 20
42.3890505723687
 30
0.0
  0
SPLINE
  5
2B8
330
1F
100
AcDbEntity
  8
0
  6
Continuous
 62
     7
370
    15
100
AcDbSpline
210
0.0
220
0.0
230
1.0
 70
     8
 71
     3
 72
    17
 73
    13
 74
     0
 42
0.00000001
 43
0.00000001
 12
1.0
 22
0.0
 32
0.0
 13
1.0
 23
0.0
 33
0.0
 40
0.0
 40
0.0
 40
0.0
 40
0.0
 40
0.0617727947288585
 40
0.1239009210452371
 40
0.1863844979389168
 40
0.2492236423799679
 40
0.3733776989760816
 40
0.499070050133143
 40
0.6233957329946803
 40
0.7493826101816728
 40
0.8737888645855177
 40
1.0
 40
1.0
 40
1.0
 40
1.0
 10
297.5950134314052
 20
64.15180874375197
 30
0.0
 10
297.9438576922823
 20
64.01907434861197
 30
0.0
 10
298.6435528479529
 20
63.75284203899387
 30
0.0
 10
299.6921471233845
 20
63.35040374439493
 30
0.0
 10
300.7437321197566
 20
62.94425582842597
 30
0.0
 10
302.1387926187051
 20
62.4016808251799
 30
0.0
 10
303.8789829966277
 20
61.71797064442729
 30
0.0
 10
305.9474603564237
 20
60.89415562721299
 30
0.0
 10
308.0117554086231
 20
60.06085684508225
 30
0.0
 10
310.0538606031489
 20
59.22507564154137
 30
0.0
 10
312.09205675313
 20
58.38036034046017
 30
0.0
 10
313.4349789922568
 20
57.81417147781308
 30
0.0
 10
314.1112757994991
 20
57.52903827430504
 30
0.0
  0
LINE
  5
2B9
330
1F
100
AcDbEntity
  8
0
  6
Continuous
 62
     7
370
    15
100
AcDbLine
 10
296.6345000015
 20
77.9184292129
 30
0.0
 11
297.69516093
 21
77.9184292129
 31
0.0
  0
SPLINE
  5
2BA
330
1F
100
AcDbEntity
  8
0
  6
Continuous
 62
     7
370
    15
100
AcDbSpline
210
0.0
220
0.0
230
1.0
 70
     8
 71
     3
 72
    27
 73
    23
 74
     0
 42
0.00000001
 43
0.00000001
 12
1.0
 22
0.0
 32
0.0
 13
1.0
 23
0.0
 33
0.0
 40
0.0
 40
0.0
 40
0.0
 40
0.0
 40
0.1249193581480152
 40
0.2498394131050504
 40
0.3746087601511136
 40
0.4993878329209208
 40
0.624109106385533
 40
0.6866820375990128
 40
0.7178706249879686
 40
0.7334259876957719
 40
0.7489682029436034
 40
0.7652620026487109
 40
0.7897698685936861
 40
0.820481408639474
 40
0.8420062059235272
 40
0.8742862012435725
 40
0.8993584334830164
 40
0.9143761354909755
 40
0.9368519100537762
 40
0.9511368729384411
 40
0.9728546173372874
 40
1.0
 40
1.0
 40
1.0
 40
1.0
 10
297.6951596381367
 20
77.91842965806035
 30
0.0
 10
297.6790587134491
 20
77.91762950929959
 30
0.0
 10
297.6468567742619
 20
77.91602920731479
 30
0.0
 10
297.5998205044369
 20
77.9033702826756
 30
0.0
 10
297.5554834311416
 20
77.88306724735537
 30
0.0
 10
297.5152257080607
 20
77.85487020514088
 30
0.0
 10
297.486630699124
 20
77.82497713462905
 30
0.0
 10
297.4699746382724
 20
77.80125900803012
 30
0.0
 10
297.4625857665132
 20
77.78874898572244
 30
0.0
 10
297.4586646542276
 20
77.78144789476336
 30
0.0
 10
297.4558324283927
 20
77.7758071335339
 30
0.0
 10
297.452655928787
 20
77.7690003507346
 30
0.0
 10
297.4489349428259
 20
77.76020879104469
 30
0.0
 10
297.4453981445556
 20
77.75057552033962
 30
0.0
 10
297.4419887614267
 20
77.73979073522084
 30
0.0
 10
297.4392808013736
 20
77.72957115491968
 30
0.0
 10
297.4372753596176
 20
77.72007342984331
 30
0.0
 10
297.4358404237927
 20
77.71180224278628
 30
0.0
 10
297.4348860828669
 20
77.7049155335349
 30
0.0
 10
297.4340842725292
 20
77.69710422684948
 30
0.0
 10
297.4334724506037
 20
77.68864122101827
 30
0.0
 10
297.4333794742825
 20
77.68207657582104
 30
0.0
 10
297.4333278222912
 20
77.67842965806037
 30
0.0
  0
SPLINE
  5
2BB
330
1F
100
AcDbEntity
  8
0
  6
Continuous
 62
     7
370
    15
100
AcDbSpline
210
0.0
220
0.0
230
1.0
 70
     8
 71
     3
 72
    13
 73
     9
 74
     0
 42
0.00000001
 43
0.00000001
 12
1.0
 22
0.0
 32
0.0
 13
1.0
 23
0.0
 33
0.0
 40
0.0
 40
0.0
 40
0.0
 40
0.0
 40
0.1632409102992542
 40
0.3278515240068714
 40
0.4938322988029925
 40
0.6611836811224214
 40
0.8299061065163815
 40
1.0
 40
1.0
 40
1.0
 40
1.0
 10
307.5887903719034
 20
65.83487031757677
 30
0.0
 10
307.9600931057345
 20
66.06682631328032
 30
0.0
 10
308.7058140584738
 20
66.53268457487984
 30
0.0
 10
309.8227213456037
 20
67.23697221153458
 30
0.0
 10
310.9441584284554
 20
67.94896705950858
 30
0.0
 10
312.0693566527813
 20
68.66890423565722
 30
0.0
 10
313.1987618738636
 20
69.39656129286601
 30
0.0
 10
313.9500349863378
 20
69.88527380511393
 30
0.0
 10
314.3271920524248
 20
70.13061917182411
 30
0.0
  0
SPLINE
  5
2BC
330
1F
100
AcDbEntity
  8
0
  6
Continuous
 62
     7
370
    15
100
AcDbSpline
210
0.0
220
0.0
230
1.0
 70
     8
 71
     3
 72
    67
 73
    63
 74
     0
 42
0.00000001
 43
0.00000001
 12
1.0
 22
0.0
 32
0.0
 13
1.0
 23
0.0
 33
0.0
 40
0.0
 40
0.0
 40
0.0
 40
0.0
 40
0.0624069747475641
 40
0.1249544798995815
 40
0.2493979203116027
 40
0.2993687993152198
 40
0.3740443977581241
 40
0.3896914734694399
 40
0.3975196068318949
 40
0.4053486884122138
 40
0.4178734235255528
 40
0.4253855441075816
 40
0.4366463982374353
 40
0.4423619785733472
 40
0.4509284193250219
 40
0.4594852561939254
 40
0.4722989775902783
 40
0.4829582468490073
 40
0.4893660928887266
 40
0.4941770270750674
 40
0.4989919399025873
 40
0.5068014696764493
 40
0.5146193111585642
 40
0.5224440930282552
 40
0.5302744117946351
 40
0.5381088381723836
 40
0.5420271836419858
 40
0.545946011486637
 40
0.5522166456113803
 40
0.556919691280673
 40
0.5616224271983316
 40
0.5694586950392618
 40
0.5733757618068096
 40
0.5772918447516475
 40
0.5835550424085154
 40
0.5882500605520589
 40
0.5929426801090347
 40
0.5968511515874487
 40
0.6007575728764648
 40
0.6046617724642552
 40
0.6085635811507396
 40
0.6124628322510733
 40
0.6163593618019041
 40
0.620253008768696
 40
0.6241457568682216
 40
0.6280436343611239
 40
0.6319440648233682
 40
0.6358469222581528
 40
0.6397520763072255
 40
0.6436593924465066
 40
0.6475687321797745
 40
0.6553928222625597
 40
0.6616567526625767
 40
0.6663570067892324
 40
0.6710589192892791
 40
0.6788982964765867
 40
0.6867401901251828
 40
0.7493440244844644
 40
0.8118224258780296
 40
0.874483565042067
 40
0.9371419601253306
 40
1.0
 40
1.0
 40
1.0
 40
1.0
 10
307.6267081819791
 20
65.41072528277901
 30
0.0
 10
307.6170439125643
 20
65.415076712354
 30
0.0
 10
307.5976936113643
 20
65.42378937021894
 30
0.0
 10
307.5619660436026
 20
65.44737728661636
 30
0.0
 10
307.5321867257792
 20
65.47645338718284
 30
0.0
 10
307.5072550375907
 20
65.5124550004487
 30
0.0
 10
307.4960050618795
 20
65.53478526614757
 30
0.0
 10
307.4897886819065
 20
65.55111939654168
 30
0.0
 10
307.4879392006299
 20
65.55638510713091
 30
0.0
 10
307.4863559517923
 20
65.56115741684992
 30
0.0
 10
307.4848960388674
 20
65.56591555170164
 30
0.0
 10
307.4833752309574
 20
65.57129903790099
 30
0.0
 10
307.4822732051721
 20
65.57553911337394
 30
0.0
 10
307.4812081789468
 20
65.57998533394057
 30
0.0
 10
307.4803199175813
 20
65.5839780745795
 30
0.0
 10
307.4792576961849
 20
65.58923647922981
 30
0.0
 10
307.4782594556
 20
65.59489317351472
 30
0.0
 10
307.4774734031677
 20
65.60019703275988
 30
0.0
 10
307.4769764672671
 20
65.60409249944158
 30
0.0
 10
307.4766498036238
 20
65.60695250817861
 30
0.0
 10
307.4763294959093
 20
65.61006687809659
 30
0.0
 10
307.4760074212621
 20
65.61372437122448
 30
0.0
 10
307.4757134795653
 20
65.61792720010382
 30
0.0
 10
307.475494621468
 20
65.62213902523733
 30
0.0
 10
307.4753507735181
 20
65.62635752311893
 30
0.0
 10
307.4752933511029
 20
65.6298762909831
 30
0.0
 10
307.4752848343717
 20
65.63269249306009
 30
0.0
 10
307.4752996190377
 20
65.63522764652987
 30
0.0
 10
307.4753460164495
 20
65.63790347703934
 30
0.0
 10
307.4754297316572
 20
65.64071915511084
 30
0.0
 10
307.4755546756654
 20
65.64381471223341
 30
0.0
 10
307.4757157451925
 20
65.64676703675751
 30
0.0
 10
307.4759064542604
 20
65.64957544511518
 30
0.0
 10
307.4761004200124
 20
65.6521000603598
 30
0.0
 10
307.4763358331456
 20
65.65476116964427
 30
0.0
 10
307.4766184072874
 20
65.65755735220577
 30
0.0
 10
307.4768838855388
 20
65.65992974368812
 30
0.0
 10
307.4771555615418
 20
65.66215846749375
 30
0.0
 10
307.4774288242528
 20
65.66424399095847
 30
0.0
 10
307.4777206557702
 20
65.66632541696266
 30
0.0
 10
307.4780310470443
 20
65.66840245762184
 30
0.0
 10
307.4783599880064
 20
65.67047482448169
 30
0.0
 10
307.4787074720635
 20
65.67254222853741
 30
0.0
 10
307.4790735468492
 20
65.67460476163787
 30
0.0
 10
307.4794585272505
 20
65.67666359131451
 30
0.0
 10
307.4798624828339
 20
65.67871949347604
 30
0.0
 10
307.4802854037275
 20
65.6807728779453
 30
0.0
 10
307.4807270956809
 20
65.6828230679437
 30
0.0
 10
307.4811874394615
 20
65.68486981963584
 30
0.0
 10
307.4816663192257
 20
65.68691289200973
 30
0.0
 10
307.4823295324323
 20
65.68963236657545
 30
0.0
 10
307.4831342551544
 20
65.69274980643175
 30
0.0
 10
307.4840257304576
 20
65.69598842027862
 30
0.0
 10
307.4848020738242
 20
65.69867813980737
 30
0.0
 10
307.4856874079493
 20
65.70162788744865
 30
0.0
 10
307.4867824980805
 20
65.70509828368596
 30
0.0
 10
307.4912179509834
 20
65.71833982899025
 30
0.0
 10
307.5004876116051
 20
65.74017564697465
 30
0.0
 10
307.5176622039278
 20
65.76860089915714
 30
0.0
 10
307.5383749332379
 20
65.7941472350426
 30
0.0
 10
307.5620409285831
 20
65.81675556642458
 30
0.0
 10
307.5798644408486
 20
65.82882566767796
 30
0.0
 10
307.5887903719035
 20
65.83487031757686
 30
0.0
  0
SPLINE
  5
2BD
330
1F
100
AcDbEntity
  8
0
  6
Continuous
 62
     7
370
    15
100
AcDbSpline
210
0.0
220
0.0
230
1.0
 70
     8
 71
     3
 72
    14
 73
    10
 74
     0
 42
0.00000001
 43
0.00000001
 12
1.0
 22
0.0
 32
0.0
 13
1.0
 23
0.0
 33
0.0
 40
0.0
 40
0.0
 40
0.0
 40
0.0
 40
0.1456700244483002
 40
0.2904021628237821
 40
0.4341965674036973
 40
0.5770533934657159
 40
0.7189727993667128
 40
0.8599549466241284
 40
1.0
 40
1.0
 40
1.0
 40
1.0
 10
314.2909261830077
 20
62.6484347551736
 30
0.0
 10
313.9710882293234
 20
62.78372306008667
 30
0.0
 10
313.3334715758298
 20
63.05342862580149
 30
0.0
 10
312.375531209637
 20
63.45533708238808
 30
0.0
 10
311.4205284780801
 20
63.85364345418127
 30
0.0
 10
310.4682652580527
 20
64.24826069584152
 30
0.0
 10
309.5188632674685
 20
64.63918593999385
 30
0.0
 10
308.5726957920668
 20
65.02651589743947
 30
0.0
 10
307.9413356220116
 20
65.28294050625888
 30
0.0
 10
307.6267081819791
 20
65.41072528277901
 30
0.0
  0
SPLINE
  5
2BE
330
1F
100
AcDbEntity
  8
0
  6
Continuous
 62
     7
370
    15
100
AcDbSpline
210
0.0
220
0.0
230
1.0
 70
     8
 71
     3
 72
    23
 73
    19
 74
     0
 42
0.00000001
 43
0.00000001
 12
1.0
 22
0.0
 32
0.0
 13
1.0
 23
0.0
 33
0.0
 40
0.0
 40
0.0
 40
0.0
 40
0.0
 40
0.0155509323310194
 40
0.031124462995711
 40
0.0623269501137456
 40
0.1248663104910371
 40
0.196359644129796
 40
0.2498304173058996
 40
0.3210229259297676
 40
0.3746245195801871
 40
0.4461561617489271
 40
0.4997113942091997
 40
0.5619975034459384
 40
0.597675807135825
 40
0.6244771133855147
 40
0.7495396119343097
 40
0.8745721133914565
 40
0.9999999999999999
 40
0.9999999999999999
 40
0.9999999999999999
 40
0.9999999999999999
 10
314.4356675198122
 20
62.42670366737089
 30
0.0
 10
314.4356592888227
 20
62.42820522893303
 30
0.0
 10
314.4356428148826
 20
62.43121053409943
 30
0.0
 10
314.435467326503
 20
62.43722608503742
 30
0.0
 10
314.4348792685001
 20
62.44776387707282
 30
0.0
 10
314.4331078016276
 20
62.46361764638955
 30
0.0
 10
314.429718179624
 20
62.48136350030914
 30
0.0
 10
314.4248474853185
 20
62.49954951331321
 30
0.0
 10
314.4192082679755
 20
62.51564315311886
 30
0.0
 10
314.4117579585564
 20
62.53276421654187
 30
0.0
 10
314.4039035606662
 20
62.54774565694294
 30
0.0
 10
314.3946156445493
 20
62.56271714525477
 30
0.0
 10
314.3863357876453
 20
62.57421487316166
 30
0.0
 10
314.3790238779425
 20
62.58321603972215
 30
0.0
 10
314.3675907063157
 20
62.59629594763383
 30
0.0
 10
314.3491376411841
 20
62.61391936786061
 30
0.0
 10
314.3213826553188
 20
62.6339928243623
 30
0.0
 10
314.3010890191825
 20
62.64361571456442
 30
0.0
 10
314.2909261830077
 20
62.64843475517377
 30
0.0
  0
LINE
  5
2BF
330
1F
100
AcDbEntity
  8
0
  6
Continuous
 62
     7
370
    15
100
AcDbLine
 10
314.4356693075
 20
57.7507692448
 30
0.0
 11
314.4356693075
 21
62.426703336
 31
0.0
  0
SPLINE
  5
2C0
330
1F
100
AcDbEntity
  8
0
  6
Continuous
 62
     7
370
    15
100
AcDbSpline
210
0.0
220
0.0
230
1.0
 70
     8
 71
     3
 72
    33
 73
    29
 74
     0
 42
0.00000001
 43
0.00000001
 12
1.0
 22
0.0
 32
0.0
 13
1.0
 23
0.0
 33
0.0
 40
0.0
 40
0.0
 40
0.0
 40
0.0
 40
0.0622574168101596
 40
0.1250248089767662
 40
0.2496656553421514
 40
0.3122817670858878
 40
0.3746993479122231
 40
0.4370828776226355
 40
0.4996779141226357
 40
0.6242046262140597
 40
0.6868064309822456
 40
0.7491452354170239
 40
0.8116323576377402
 40
0.8273086095533206
 40
0.8429843999658134
 40
0.8555190072810784
 40
0.8742996874568087
 40
0.888585098090338
 40
0.8971438757925994
 40
0.9099609489585488
 40
0.924324713110857
 40
0.9329707958067545
 40
0.9459470132921461
 40
0.9583092903866594
 40
0.9768491811774179
 40
0.9861142333841643
 40
0.9930592026229198
 40
1.0
 40
1.0
 40
1.0
 40
1.0
 10
314.1112757994991
 20
57.52903827430507
 30
0.0
 10
314.1200681252377
 20
57.52568451374825
 30
0.0
 10
314.1377247981649
 20
57.51894952064295
 30
0.0
 10
314.1744180670794
 20
57.51109279455103
 30
0.0
 10
314.2120758237069
 20
57.50969802693128
 30
0.0
 10
314.2490729840118
 20
57.51527654260166
 30
0.0
 10
314.2762664906965
 20
57.52277939746971
 30
0.0
 10
314.3024766055299
 20
57.5336996397206
 30
0.0
 10
314.3356185698659
 20
57.55245628166
 30
0.0
 10
314.365538352196
 20
57.57760095841481
 30
0.0
 10
314.3904305694021
 20
57.60804568139059
 30
0.0
 10
314.4064063077691
 20
57.63330782833751
 30
0.0
 10
314.415972083184
 20
57.65383738131533
 30
0.0
 10
314.4213075198994
 20
57.66802517976122
 30
0.0
 10
314.4236028037824
 20
57.67474782131573
 30
0.0
 10
314.4258639039065
 20
57.68202190617912
 30
0.0
 10
314.4278433140177
 20
57.6891581995041
 30
0.0
 10
314.4294372638045
 20
57.69573770385631
 30
0.0
 10
314.4306740819941
 20
57.70140949735305
 30
0.0
 10
314.4317910976241
 20
57.7071246938909
 30
0.0
 10
314.4327518136893
 20
57.71288868419278
 30
0.0
 10
314.433584291223
 20
57.71870210767481
 30
0.0
 10
314.4342523620052
 20
57.72421154209074
 30
0.0
 10
314.4349358436134
 20
57.73134787144856
 30
0.0
 10
314.4353619273103
 20
57.73790137528498
 30
0.0
 10
314.4355716375079
 20
57.74357915776995
 30
0.0
 10
314.4356537392264
 20
57.74736384841152
 30
0.0
 10
314.4356629272039
 20
57.74963441826687
 30
0.0
 10
314.4356675198124
 20
57.75076936210775
 30
0.0
  0
SPLINE
  5
2C1
330
1F
100
AcDbEntity
  8
0
  6
Continuous
 62
     7
370
    15
100
AcDbSpline
210
0.0
220
0.0
230
1.0
 70
     8
 71
     3
 72
    23
 73
    19
 74
     0
 42
0.00000001
 43
0.00000001
 12
1.0
 22
0.0
 32
0.0
 13
1.0
 23
0.0
 33
0.0
 40
0.0
 40
0.0
 40
0.0
 40
0.0
 40
0.0155517313315562
 40
0.0311276724639441
 40
0.0623382692462938
 40
0.1248943643928973
 40
0.1963741014845328
 40
0.2497826782207297
 40
0.3210960784271817
 40
0.3747559284711122
 40
0.4462814230707915
 40
0.4997477101491014
 40
0.53538960967874
 40
0.5621720089345394
 40
0.6247585814582914
 40
0.7497469892006554
 40
0.874837187191364
 40
1.0
 40
1.0
 40
1.0
 40
1.0
 10
297.4333278222912
 20
64.37353983155468
 30
0.0
 10
297.4333375075266
 20
64.37200202893726
 30
0.0
 10
297.4333568930747
 20
64.36892402976345
 30
0.0
 10
297.4335631664134
 20
64.36276300027563
 30
0.0
 10
297.4342535236689
 20
64.35197211768548
 30
0.0
 10
297.4363283003302
 20
64.33575473844111
 30
0.0
 10
297.4402812205224
 20
64.3176523565189
 30
0.0
 10
297.4459544393077
 20
64.29915914606666
 30
0.0
 10
297.4524962126892
 20
64.2828597374671
 30
0.0
 10
297.4610743085062
 20
64.26559660286685
 30
0.0
 10
297.4700537086961
 20
64.25058559674684
 30
0.0
 10
297.4791098214112
 20
64.23779992122026
 30
0.0
 10
297.486124477583
 20
64.22897389447562
 30
0.0
 10
297.4940289889032
 20
64.2197600642982
 30
0.0
 10
297.5083736236216
 20
64.20471447635258
 30
0.0
 10
297.5315148176776
 20
64.1852450306993
 30
0.0
 10
297.5619946382467
 20
64.1657973162112
 30
0.0
 10
297.5840050381317
 20
64.15647250315132
 30
0.0
 10
297.5950134314047
 20
64.15180874375133
 30
0.0
  0
LINE
  5
2C2
330
1F
100
AcDbEntity
  8
0
  6
Continuous
 62
     7
370
    15
100
AcDbLine
 10
297.4333289013
 20
64.373540046
 30
0.0
 11
297.4333289013
 21
69.0494741372
 31
0.0
  0
SPLINE
  5
2C3
330
1F
100
AcDbEntity
  8
0
  6
Continuous
 62
     7
370
    15
100
AcDbSpline
210
0.0
220
0.0
230
1.0
 70
     8
 71
     3
 72
    36
 73
    32
 74
     0
 42
0.00000001
 43
0.00000001
 12
1.0
 22
0.0
 32
0.0
 13
1.0
 23
0.0
 33
0.0
 40
0.0
 40
0.0
 40
0.0
 40
0.0
 40
0.0621794667962268
 40
0.1250302904826944
 40
0.2497194617584652
 40
0.3123322656142609
 40
0.374885116747066
 40
0.4995083087053283
 40
0.5620481419685381
 40
0.6242725162119114
 40
0.6867695778005634
 40
0.7493438036844765
 40
0.8116046456827697
 40
0.8429015768587163
 40
0.8491751392944504
 40
0.8585900482117671
 40
0.8742875123477527
 40
0.8886386770749314
 40
0.8972457055827097
 40
0.9101460895555407
 40
0.9208840439461302
 40
0.9273201552815045
 40
0.9369631196949931
 40
0.9512205645921187
 40
0.9598203294981789
 40
0.966335093379786
 40
0.9728513122359029
 40
0.9796397095118691
 40
0.9864278948898592
 40
0.9932149591720161
 40
1.0
 40
1.0
 40
1.0
 40
1.0
 10
297.7952408632931
 20
69.27120522462053
 30
0.0
 10
297.7856181762143
 20
69.27450815544486
 30
0.0
 10
297.7662689051015
 20
69.2811496791132
 30
0.0
 10
297.7262240653233
 20
69.28895438429298
 30
0.0
 10
297.6852212811349
 20
69.2905896759439
 30
0.0
 10
297.6447723560655
 20
69.28550694834854
 30
0.0
 10
297.6050414933321
 20
69.2761878754726
 30
0.0
 10
297.5669613462747
 20
69.26020913156124
 30
0.0
 10
297.5322615744138
 20
69.23807026910961
 30
0.0
 10
297.5082224956336
 20
69.21836749096435
 30
0.0
 10
297.4867438786702
 20
69.19566404994306
 30
0.0
 10
297.468166551868
 20
69.1703182539076
 30
0.0
 10
297.4555477077445
 20
69.1471872241918
 30
0.0
 10
297.4490939090455
 20
69.1316102383
 30
0.0
 10
297.4463601118652
 20
69.12415712956438
 30
0.0
 10
297.4446197192395
 20
69.11914488516308
 30
0.0
 10
297.4426052014375
 20
69.1127789163473
 30
0.0
 10
297.440839334443
 20
69.10647626380307
 30
0.0
 10
297.4393509387983
 20
69.10058717410027
 30
0.0
 10
297.4381399905178
 20
69.09525759933797
 30
0.0
 10
297.4371438379102
 20
69.09025625249862
 30
0.0
 10
297.4363433918587
 20
69.08577891383797
 30
0.0
 10
297.435531923445
 20
69.08069641651613
 30
0.0
 10
297.4348144909079
 20
69.07522658468132
 30
0.0
 10
297.4343017952147
 20
69.07026677435834
 30
0.0
 10
297.4339882039019
 20
69.06660768270777
 30
0.0
 10
297.4337514733053
 20
69.06325071311704
 30
0.0
 10
297.4335635520937
 20
69.05984384343584
 30
0.0
 10
297.4334283610014
 20
69.05638826785282
 30
0.0
 10
297.4333435720987
 20
69.05293140191098
 30
0.0
 10
297.4333330717052
 20
69.05062644396743
 30
0.0
 10
297.4333278222912
 20
69.04947413681782
 30
0.0
  0
SPLINE
  5
2C4
330
1F
100
AcDbEntity
  8
0
  6
Continuous
 62
     7
370
    15
100
AcDbSpline
210
0.0
220
0.0
230
1.0
 70
     8
 71
     3
 72
    12
 73
     8
 74
     0
 42
0.00000001
 43
0.00000001
 12
1.0
 22
0.0
 32
0.0
 13
1.0
 23
0.0
 33
0.0
 40
0.0
 40
0.0
 40
0.0
 40
0.0
 40
0.2023942240046795
 40
0.403590945572705
 40
0.6035905516258068
 40
0.8023934360774797
 40
1.0
 40
1.0
 40
1.0
 40
1.0
 10
303.2095765908928
 20
67.17582010625296
 30
0.0
 10
302.8469290292952
 20
67.31836001928548
 30
0.0
 10
302.1237795767129
 20
67.60259648188983
 30
0.0
 10
301.0376515102097
 20
68.02570215271548
 30
0.0
 10
299.9546535339592
 20
68.44478245109514
 30
0.0
 10
298.8748738306057
 20
68.85984735826979
 30
0.0
 10
298.1543937422588
 20
69.13436208768591
 30
0.0
 10
297.7952408632931
 20
69.27120522462053
 30
0.0
  0
SPLINE
  5
2C5
330
1F
100
AcDbEntity
  8
0
  6
Continuous
 62
     7
370
    15
100
AcDbSpline
210
0.0
220
0.0
230
1.0
 70
     8
 71
     3
 72
    32
 73
    28
 74
     0
 42
0.00000001
 43
0.00000001
 12
1.0
 22
0.0
 32
0.0
 13
1.0
 23
0.0
 33
0.0
 40
0.0
 40
0.0
 40
0.0
 40
0.0
 40
0.007787809464394
 40
0.0155856134389418
 40
0.0233924595541801
 40
0.0312073450332943
 40
0.0351175150333762
 40
0.0390292982078534
 40
0.0468570763531995
 40
0.0625252047050398
 40
0.0768592188358883
 40
0.0854606790733348
 40
0.0983595279199232
 40
0.1091022895027077
 40
0.1251975845725135
 40
0.1408155434732845
 40
0.156399234173467
 40
0.1876417744141549
 40
0.2503068749158284
 40
0.3751356402797292
 40
0.5000163127712242
 40
0.562629767338432
 40
0.6252037580609604
 40
0.7499713573141443
 40
0.8747559517685135
 40
0.9375377268198388
 40
1.0
 40
1.0
 40
1.0
 40
1.0
 10
303.5579719819797
 20
67.38798555291257
 30
0.0
 10
303.5579121444159
 20
67.38670881718434
 30
0.0
 10
303.5577923924953
 20
67.38415370722498
 30
0.0
 10
303.5575290756073
 20
67.38032394025832
 30
0.0
 10
303.557205013229
 20
67.37649510600704
 30
0.0
 10
303.5568797377711
 20
67.37330753758862
 30
0.0
 10
303.5565874794244
 20
67.3707596417609
 30
0.0
 10
303.5562736170154
 20
67.36821248501903
 30
0.0
 10
303.5556681660851
 20
67.36375955216849
 30
0.0
 10
303.5546796133721
 20
67.35763769660875
 30
0.0
 10
303.55347479428
 20
67.35142999735733
 30
0.0
 10
303.5522189747957
 20
67.34570020013683
 30
0.0
 10
303.5509736983416
 20
67.3405739256505
 30
0.0
 10
303.5492841108075
 20
67.33430116643457
 30
0.0
 10
303.5472918069609
 20
67.32765778869006
 30
0.0
 10
303.5448278415734
 20
67.32034432779344
 30
0.0
 10
303.5412572538131
 20
67.31081540482717
 30
0.0
 10
303.5341713745302
 20
67.29446906847333
 30
0.0
 10
303.5169771375963
 20
67.26340912282677
 30
0.0
 10
303.4844816280556
 20
67.22461262469903
 30
0.0
 10
303.4442561553611
 20
67.19520093520403
 30
0.0
 10
303.4090306343203
 20
67.177863032008
 30
0.0
 10
303.3722672540196
 20
67.16462703432215
 30
0.0
 10
303.3241382113916
 20
67.1560260636759
 30
0.0
 10
303.2753911580178
 20
67.15816883554463
 30
0.0
 10
303.23720626545
 20
67.16597226718396
 30
0.0
 10
303.218770805915
 20
67.17254308068696
 30
0.0
 10
303.2095765908928
 20
67.17582010625293
 30
0.0
  0
SPLINE
  5
2C6
330
1F
100
AcDbEntity
  8
0
  6
Continuous
 62
     7
370
    15
100
AcDbSpline
210
0.0
220
0.0
230
1.0
 70
     8
 71
     3
 72
    30
 73
    26
 74
     0
 42
0.00000001
 43
0.00000001
 12
1.0
 22
0.0
 32
0.0
 13
1.0
 23
0.0
 33
0.0
 40
0.0
 40
0.0
 40
0.0
 40
0.0
 40
0.0209985586625111
 40
0.0419646292716039
 40
0.0629150888092219
 40
0.094293493529207
 40
0.1255991245726689
 40
0.1880570486423104
 40
0.25033718391233
 40
0.3125000820601231
 40
0.3746428554295583
 40
0.4369086003588754
 40
0.4994948971412144
 40
0.5621614594994011
 40
0.6245715632806622
 40
0.6868575882918996
 40
0.7492163005774133
 40
0.780464578690309
 40
0.8117112336603641
 40
0.842968764441916
 40
0.8742510190993719
 40
0.9056230980930957
 40
0.9369571072951242
 40
0.9684824178496514
 40
1.0
 40
1.0
 40
1.0
 40
1.0
 10
297.7049412563059
 20
72.87473735759693
 30
0.0
 10
297.7669892018002
 20
72.87633829242297
 30
0.0
 10
297.890989094916
 20
72.87953768517858
 30
0.0
 10
298.0768650438183
 20
72.87736936854472
 30
0.0
 10
298.2931554766018
 20
72.86887517722091
 30
0.0
 10
298.5393920990187
 20
72.84988568022533
 30
0.0
 10
298.9060535668891
 20
72.80502650370988
 30
0.0
 10
299.3589072018971
 20
72.71816413919083
 30
0.0
 10
299.8897279668183
 20
72.56460826085167
 30
0.0
 10
300.4037173348708
 20
72.36188005551986
 30
0.0
 10
300.8969825855256
 20
72.11006107077509
 30
0.0
 10
301.3656216700116
 20
71.80916300907617
 30
0.0
 10
301.8046951133927
 20
71.46033295993213
 30
0.0
 10
302.2076977533126
 20
71.06587948079509
 30
0.0
 10
302.5679190453196
 20
70.62928025009587
 30
0.0
 10
302.8802480383376
 20
70.15469539807502
 30
0.0
 10
303.0967649845485
 20
69.73060675836076
 30
0.0
 10
303.2410866364339
 20
69.37691156988653
 30
0.0
 10
303.3344205050137
 20
69.10498152374814
 30
0.0
 10
303.4124226029991
 20
68.82760063268053
 30
0.0
 10
303.4747618179252
 20
68.54542556767564
 30
0.0
 10
303.5211656866384
 20
68.25956874867875
 30
0.0
 10
303.5509158162928
 20
67.97053819809919
 30
0.0
 10
303.5652270389305
 20
67.67959814546926
 30
0.0
 10
303.5603901366453
 20
67.48518180595649
 30
0.0
 10
303.5579719819797
 20
67.38798555291257
 30
0.0
  0
SPLINE
  5
2C7
330
1F
100
AcDbEntity
  8
0
  6
Continuous
 62
     7
370
    15
100
AcDbSpline
210
0.0
220
0.0
230
1.0
 70
     8
 71
     3
 72
    31
 73
    27
 74
     0
 42
0.00000001
 43
0.00000001
 12
1.0
 22
0.0
 32
0.0
 13
1.0
 23
0.0
 33
0.0
 40
0.0
 40
0.0
 40
0.0
 40
0.0
 40
0.00890263788433
 40
0.0178165924671078
 40
0.0267408070873712
 40
0.035674170062774
 40
0.0446155198541996
 40
0.0535636501405877
 40
0.0625173148115799
 40
0.0714752328876154
 40
0.0804360933752832
 40
0.089398560067819
 40
0.1073222187065602
 40
0.1216547068902014
 40
0.1431281184994401
 40
0.1645551390751466
 40
0.177381853971405
 40
0.1966434852481464
 40
0.223461034394007
 40
0.2503316105040032
 40
0.3753442427012084
 40
0.5005303778525372
 40
0.6254499769622834
 40
0.7505258613279403
 40
0.8752510198134354
 40
1.0
 40
1.0
 40
1.0
 40
1.0
 10
297.4333278222912
 20
73.11456952575769
 30
0.0
 10
297.4333339549229
 20
73.11334360549482
 30
0.0
 10
297.433346227982
 20
73.11089020662534
 30
0.0
 10
297.433444947627
 20
73.1072091057936
 30
0.0
 10
297.433601932862
 20
73.10352612167108
 30
0.0
 10
297.4338226069257
 20
73.09984284997176
 30
0.0
 10
297.4341050165585
 20
73.09616088584994
 30
0.0
 10
297.434449188231
 20
73.09248182500541
 30
0.0
 10
297.4348546174622
 20
73.08880726158637
 30
0.0
 10
297.4353209414332
 20
73.0851387954815
 30
0.0
 10
297.4358477624728
 20
73.08147800523423
 30
0.0
 10
297.4366302967491
 20
73.0766095426981
 30
0.0
 10
297.4376674264153
 20
73.07103636775526
 30
0.0
 10
297.4392320006247
 20
73.06381904232082
 30
0.0
 10
297.441148918177
 20
73.0561932760482
 30
0.0
 10
297.4433057084071
 20
73.04885410242568
 30
0.0
 10
297.4455991017458
 20
73.0418830428566
 30
0.0
 10
297.4483520096973
 20
73.03429463560975
 30
0.0
 10
297.4521513623879
 20
73.02505810360732
 30
0.0
 10
297.4625111414212
 20
73.00294424553405
 30
0.0
 10
297.4830868143361
 20
72.9709655018711
 30
0.0
 10
297.5190073565082
 20
72.93490785471576
 30
0.0
 10
297.5609190234677
 20
72.90676455140584
 30
0.0
 10
297.6069051641961
 20
72.88715716348248
 30
0.0
 10
297.6554428802721
 20
72.87555248215197
 30
0.0
 10
297.6884407473316
 20
72.87500908307793
 30
0.0
 10
297.7049412563059
 20
72.87473735759693
 30
0.0
  0
LINE
  5
2C8
330
1F
100
AcDbEntity
  8
0
  6
Continuous
 62
     7
370
    15
100
AcDbLine
 10
297.4333289013
 20
73.1145686529
 30
0.0
 11
297.4333289013
 21
77.6784292481
 31
0.0
  0
LINE
  5
2C9
330
1F
100
AcDbEntity
  8
0
  6
Continuous
 62
     7
370
    15
100
AcDbLine
 10
302.3336130128
 20
77.9184292129
 30
0.0
 11
297.69516093
 21
77.9184292129
 31
0.0
  0
SPLINE
  5
2CA
330
1F
100
AcDbEntity
  8
0
  6
Continuous
 62
     7
370
    15
100
AcDbSpline
210
0.0
220
0.0
230
1.0
 70
     8
 71
     3
 72
    42
 73
    38
 74
     0
 42
0.00000001
 43
0.00000001
 12
1.0
 22
0.0
 32
0.0
 13
1.0
 23
0.0
 33
0.0
 40
0.0
 40
0.0
 40
0.0
 40
0.0
 40
0.0077828895158818
 40
0.0155741106595905
 40
0.0233730240859818
 40
0.0311789636462187
 40
0.0389912385135104
 40
0.0468091352779706
 40
0.0546319200129063
 40
0.0624588403147342
 40
0.0702891273188736
 40
0.0781219976943732
 40
0.0859566556200032
 40
0.093792294744892
 40
0.1016281001350476
 40
0.1094632502112532
 40
0.1172969186789004
 40
0.125128276453415
 40
0.1329564935858853
 40
0.1407807411891496
 40
0.1486001933694401
 40
0.1564140291666965
 40
0.1642214345048934
 40
0.1720216041574804
 40
0.179813743730024
 40
0.1875970716622823
 40
0.2125525176461585
 40
0.2275571299361641
 40
0.2500957540241402
 40
0.2814367959221575
 40
0.312783106312072
 40
0.3752761108028197
 40
0.5002737950803146
 40
0.6250894296415315
 40
0.750158866538972
 40
0.8750010883072417
 40
1.0
 40
1.0
 40
1.0
 40
1.0
 10
302.587248575791
 20
77.67842965806037
 30
0.0
 10
302.5872443579785
 20
77.67946407412198
 30
0.0
 10
302.5872359178383
 20
77.68153401359352
 30
0.0
 10
302.5871679534764
 20
77.6846398136036
 30
0.0
 10
302.5870597895246
 20
77.68774732119498
 30
0.0
 10
302.5869076404128
 20
77.69085561020007
 30
0.0
 10
302.5867127918058
 20
77.69396375466111
 30
0.0
 10
302.5864751685716
 20
77.69707082855933
 30
0.0
 10
302.5861950606231
 20
77.70017590588722
 30
0.0
 10
302.5858726599039
 20
77.70327806062905
 30
0.0
 10
302.5855081845916
 20
77.70637636676604
 30
0.0
 10
302.5851018457869
 20
77.70946989827493
 30
0.0
 10
302.5846538564473
 20
77.71255772912852
 30
0.0
 10
302.5841644289926
 20
77.71563893329552
 30
0.0
 10
302.5836337759478
 20
77.71871258474096
 30
0.0
 10
302.5830621097714
 20
77.72177775742588
 30
0.0
 10
302.5824496429022
 20
77.72483352530871
 30
0.0
 10
302.5817965877456
 20
77.72787896234098
 30
0.0
 10
302.5811031566848
 20
77.73091314248448
 30
0.0
 10
302.5803695620492
 20
77.7339351396475
 30
0.0
 10
302.5795960162326
 20
77.73694402792344
 30
0.0
 10
302.5787827312502
 20
77.73993888070153
 30
0.0
 10
302.5779299203925
 20
77.74291877398228
 30
0.0
 10
302.5770377920577
 20
77.74588277402017
 30
0.0
 10
302.5761065727366
 20
77.74882998337523
 30
0.0
 10
302.5744225282103
 20
77.75391497991806
 30
0.0
 10
302.5722677032564
 20
77.75984130674563
 30
0.0
 10
302.5691871946906
 20
77.76748527324196
 30
0.0
 10
302.5655289041323
 20
77.77578831276224
 30
0.0
 10
302.5605524537528
 20
77.78582943420999
 30
0.0
 10
302.5525104287017
 20
77.800144822541
 30
0.0
 10
302.5366006059296
 20
77.823950743189
 30
0.0
 10
302.5089985088791
 20
77.85392621728465
 30
0.0
 10
302.4700273461009
 20
77.88255589943891
 30
0.0
 10
302.4268199838144
 20
77.9030895241896
 30
0.0
 10
302.3808729474366
 20
77.91600745556151
 30
0.0
 10
302.3493720517799
 20
77.91762191971924
 30
0.0
 10
302.3336117259286
 20
77.91842965806035
 30
0.0
  0
LINE
  5
2CB
330
1F
100
AcDbEntity
  8
0
  6
Continuous
 62
     7
370
    15
100
AcDbLine
 10
302.5872494028
 20
76.3004089764
 30
0.0
 11
302.5872494028
 21
77.6784292481
 31
0.0
  0
SPLINE
  5
2CC
330
1F
100
AcDbEntity
  8
0
  6
Continuous
 62
     7
370
    15
100
AcDbSpline
210
0.0
220
0.0
230
1.0
 70
     8
 71
     3
 72
    21
 73
    17
 74
     0
 42
0.00000001
 43
0.00000001
 12
1.0
 22
0.0
 32
0.0
 13
1.0
 23
0.0
 33
0.0
 40
0.0
 40
0.0
 40
0.0
 40
0.0
 40
0.1249026585144896
 40
0.2500665950989908
 40
0.3124691989294616
 40
0.3747052203251786
 40
0.4246797054901776
 40
0.4997808242615662
 40
0.5814295229370656
 40
0.642431776926212
 40
0.6851022416735388
 40
0.7493854819219635
 40
0.8209807788363475
 40
0.8746399203831031
 40
0.9245788544324511
 40
1.0
 40
1.0
 40
1.0
 40
1.0
 10
302.7223092775676
 20
76.08816529716549
 30
0.0
 10
302.7128546247081
 20
76.09333690787876
 30
0.0
 10
302.69392554124
 20
76.10369094755758
 30
0.0
 10
302.6724098881909
 20
76.12042942841032
 30
0.0
 10
302.656461496225
 20
76.1353051001675
 30
0.0
 10
302.6460158971077
 20
76.14650314908428
 30
0.0
 10
302.6355355582846
 20
76.15921207213424
 30
0.0
 10
302.6248963630655
 20
76.17405290640563
 30
0.0
 10
302.6150210847247
 20
76.1906635848916
 30
0.0
 10
302.6077586648622
 20
76.20547850836047
 30
0.0
 10
302.6019994042972
 20
76.21931256466058
 30
0.0
 10
302.5967979128873
 20
76.23441949374745
 30
0.0
 10
302.5925239096009
 20
76.25088238231665
 30
0.0
 10
302.5897012033487
 20
76.26636214461983
 30
0.0
 10
302.5877002787494
 20
76.28234229507669
 30
0.0
 10
302.5874182527842
 20
76.29362225649297
 30
0.0
 10
302.5872485757911
 20
76.3004086881431
 30
0.0
  0
SPLINE
  5
2CD
330
1F
100
AcDbEntity
  8
0
  6
Continuous
 62
     7
370
    15
100
AcDbSpline
210
0.0
220
0.0
230
1.0
 70
     8
 71
     3
 72
    20
 73
    16
 74
     0
 42
0.00000001
 43
0.00000001
 12
1.0
 22
0.0
 32
0.0
 13
1.0
 23
0.0
 33
0.0
 40
0.0
 40
0.0
 40
0.0
 40
0.0
 40
0.0418230271812587
 40
0.0836944813399427
 40
0.1256576932623172
 40
0.1879665730977811
 40
0.250539316954995
 40
0.3750234232863379
 40
0.4994487497565437
 40
0.6240329444729991
 40
0.7489224782139741
 40
0.8114748365610832
 40
0.8742361658002592
 40
0.9370390719544786
 40
1.0
 40
1.0
 40
1.0
 40
1.0
 10
307.2987121535538
 20
71.23444812972924
 30
0.0
 10
307.260530240012
 20
71.32332240843736
 30
0.0
 10
307.1841222020049
 20
71.50117387358121
 30
0.0
 10
307.0592256657897
 20
71.76300597927845
 30
0.0
 10
306.9055064438466
 20
72.06270888212659
 30
0.0
 10
306.7171128847348
 20
72.39713475082647
 30
0.0
 10
306.4137888530684
 20
72.88225955400098
 30
0.0
 10
305.9954342613926
 20
73.45934025304729
 30
0.0
 10
305.4367265154778
 20
74.10017661161989
 30
0.0
 10
304.8258779688094
 20
74.68710224005191
 30
0.0
 10
304.2776051666087
 20
75.1288035759472
 30
0.0
 10
303.8178011613563
 20
75.45282436884578
 30
0.0
 10
303.4623364063741
 20
75.68071227171895
 30
0.0
 10
303.0977109179133
 20
75.89452987984328
 30
0.0
 10
302.8475479340364
 20
76.02356611350751
 30
0.0
 10
302.7223092775676
 20
76.08816529716549
 30
0.0
  0
SPLINE
  5
2CE
330
1F
100
AcDbEntity
  8
0
  6
Continuous
 62
     7
370
    15
100
AcDbSpline
210
0.0
220
0.0
230
1.0
 70
     8
 71
     3
 72
    20
 73
    16
 74
     0
 42
0.00000001
 43
0.00000001
 12
1.0
 22
0.0
 32
0.0
 13
1.0
 23
0.0
 33
0.0
 40
0.0
 40
0.0
 40
0.0
 40
0.0
 40
0.0621941540539483
 40
0.1251054103193371
 40
0.2499118881448087
 40
0.3750659069974911
 40
0.4998221306218494
 40
0.6247710140696356
 40
0.7495662720988315
 40
0.87436197966686
 40
0.9372242201146989
 40
0.9686508629607681
 40
0.9843382615169483
 40
0.9921727243702267
 40
0.9999999999999999
 40
0.9999999999999999
 40
0.9999999999999999
 40
0.9999999999999999
 10
307.6577518507997
 20
71.12293464452588
 30
0.0
 10
307.6501108445942
 20
71.11850322401463
 30
0.0
 10
307.6347407309373
 20
71.10958928845604
 30
0.0
 10
307.6021030765708
 20
71.09615543707021
 30
0.0
 10
307.5592423590492
 20
71.08569086611845
 30
0.0
 10
307.5065962707095
 20
71.08427212985633
 30
0.0
 10
307.4546794442068
 20
71.09380341180305
 30
0.0
 10
307.4055136014305
 20
71.1140303964394
 30
0.0
 10
307.3613173753256
 20
71.14475538094119
 30
0.0
 10
307.3303578696625
 20
71.17830191303344
 30
0.0
 10
307.3129794630173
 20
71.2053571529229
 30
0.0
 10
307.3054199947658
 20
71.21968539081952
 30
0.0
 10
307.3019573298448
 20
71.22702001571699
 30
0.0
 10
307.3000686894125
 20
71.23124980100813
 30
0.0
 10
307.2991641938146
 20
71.23338234636626
 30
0.0
 10
307.2987121535538
 20
71.23444812972927
 30
0.0
  0
SPLINE
  5
2CF
330
1F
100
AcDbEntity
  8
0
  6
Continuous
 62
     7
370
    15
100
AcDbSpline
210
0.0
220
0.0
230
1.0
 70
     8
 71
     3
 72
    13
 73
     9
 74
     0
 42
0.00000001
 43
0.00000001
 12
1.0
 22
0.0
 32
0.0
 13
1.0
 23
0.0
 33
0.0
 40
0.0
 40
0.0
 40
0.0
 40
0.0
 40
0.1699239723714217
 40
0.338544496571567
 40
0.5058619600857295
 40
0.6718767595264108
 40
0.836589300919236
 40
1.0
 40
1.0
 40
1.0
 40
1.0
 10
314.0749572273999
 20
75.2113813710774
 30
0.0
 10
313.7159061277953
 20
74.97818495674409
 30
0.0
 10
313.0005581279652
 20
74.51358092477031
 30
0.0
 10
311.9252936597463
 20
73.82158094294286
 30
0.0
 10
310.8538423627737
 20
73.13657047206001
 30
0.0
 10
309.7857932789456
 20
72.45875177618831
 30
0.0
 10
308.7218353721514
 20
71.78791165482498
 30
0.0
 10
308.0115069389266
 20
71.34400657747138
 30
0.0
 10
307.6577518507997
 20
71.12293464452583
 30
0.0
  0
SPLINE
  5
2D0
330
1F
100
AcDbEntity
  8
0
  6
Continuous
 62
     7
370
    15
100
AcDbSpline
210
0.0
220
0.0
230
1.0
 70
     8
 71
     3
 72
    42
 73
    38
 74
     0
 42
0.00000001
 43
0.00000001
 12
1.0
 22
0.0
 32
0.0
 13
1.0
 23
0.0
 33
0.0
 40
0.0
 40
0.0
 40
0.0
 40
0.0
 40
0.0077877556965065
 40
0.0155860641961979
 40
0.0233937922752797
 40
0.0312097574019283
 40
0.0351204894782355
 40
0.0390328177653364
 40
0.0468615410543548
 40
0.053127819488992
 40
0.0578290101556079
 40
0.0625311345769291
 40
0.0703692219603345
 40
0.0782077343112461
 40
0.0821267628902028
 40
0.0860453834701339
 40
0.0938806310417107
 40
0.1064085003446629
 40
0.1139185266553034
 40
0.1195468045435918
 40
0.1251708661543722
 40
0.1290737391266039
 40
0.1329741796101493
 40
0.1407670388082005
 40
0.1563535855773591
 40
0.187622182715843
 40
0.2502675319406586
 40
0.3750128074592087
 40
0.4997468885368812
 40
0.5712681530949455
 40
0.6247132093588561
 40
0.6872804929788583
 40
0.7497629437162388
 40
0.8120968487435657
 40
0.8746538315659409
 40
0.9374099099172009
 40
1.0
 40
1.0
 40
1.0
 40
1.0
 10
314.4356675198122
 20
75.00896742408234
 30
0.0
 10
314.4356605136164
 20
75.01035532626773
 30
0.0
 10
314.4356464917308
 20
75.01313301131621
 30
0.0
 10
314.4355336785451
 20
75.01730064426472
 30
0.0
 10
314.4353542447279
 20
75.02147030427179
 30
0.0
 10
314.4351440155727
 20
75.02494420622438
 30
0.0
 10
314.4349405743166
 20
75.02772238863234
 30
0.0
 10
314.4347133856241
 20
75.03050064564344
 30
0.0
 10
314.4344115221937
 20
75.03369290105513
 30
0.0
 10
314.4340460423186
 20
75.0370187180589
 30
0.0
 10
314.4337088347028
 20
75.03978674627662
 30
0.0
 10
314.4333072260148
 20
75.04282776640926
 30
0.0
 10
314.4327844925677
 20
75.0464142778019
 30
0.0
 10
314.4322243779745
 20
75.04985232323762
 30
0.0
 10
314.4317419669666
 20
75.05259558154482
 30
0.0
 10
314.4312368123146
 20
75.0553333303417
 30
0.0
 10
314.4304011948236
 20
75.0595628857875
 30
0.0
 10
314.4293368615124
 20
75.06439220619711
 30
0.0
 10
314.4282619285577
 20
75.06881219115009
 30
0.0
 10
314.4274306840914
 20
75.07202952292138
 30
0.0
 10
314.4267278164305
 20
75.07461831315143
 30
0.0
 10
314.4260815095437
 20
75.07690406916564
 30
0.0
 10
314.425308373393
 20
75.07955127709872
 30
0.0
 10
314.4238972496155
 20
75.0841607104151
 30
0.0
 10
314.4208341357893
 20
75.09330531290654
 30
0.0
 10
314.4137753160774
 20
75.11123950643965
 30
0.0
 10
314.3962570594688
 20
75.14529042258718
 30
0.0
 10
314.3621246501298
 20
75.18748374240705
 30
0.0
 10
314.3178993203736
 20
75.21913313494046
 30
0.0
 10
314.2800625524133
 20
75.23571467168559
 30
0.0
 10
314.2504879843315
 20
75.24419559511891
 30
0.0
 10
314.2216584464151
 20
75.24869812557608
 30
0.0
 10
314.1910955623164
 20
75.24943342926316
 30
0.0
 10
314.1606686050296
 20
75.24605411785765
 30
0.0
 10
314.1308324156427
 20
75.238600107622
 30
0.0
 10
314.1018549055812
 20
75.22744962943672
 30
0.0
 10
314.0839152013091
 20
75.21673272661744
 30
0.0
 10
314.0749572273999
 20
75.21138137107745
 30
0.0
  0
LINE
  5
2D1
330
1F
100
AcDbEntity
  8
0
  6
Continuous
 62
     7
370
    15
100
AcDbLine
 10
314.4356693075
 20
70.3330322228
 30
0.0
 11
314.4356693075
 21
75.0089681766
 31
0.0
  0
SPLINE
  5
2D2
330
1F
100
AcDbEntity
  8
0
  6
Continuous
 62
     7
370
    15
100
AcDbSpline
210
0.0
220
0.0
230
1.0
 70
     8
 71
     3
 72
    18
 73
    14
 74
     0
 42
0.00000001
 43
0.00000001
 12
1.0
 22
0.0
 32
0.0
 13
1.0
 23
0.0
 33
0.0
 40
0.0
 40
0.0
 40
0.0
 40
0.0
 40
0.1249297736136334
 40
0.1876007500118443
 40
0.2502287141926642
 40
0.3073584977137659
 40
0.3927961858884279
 40
0.5000264117603412
 40
0.5818045280686203
 40
0.642985261498135
 40
0.7498316633251557
 40
0.8750825490868558
 40
1.0
 40
1.0
 40
1.0
 40
1.0
 10
314.3271920524248
 20
70.13061917182411
 30
0.0
 10
314.335057123571
 20
70.13614319596705
 30
0.0
 10
314.346867704854
 20
70.14443834485209
 30
0.0
 10
314.3612836223374
 20
70.15750353005278
 30
0.0
 10
314.3712924056624
 20
70.16763884041791
 30
0.0
 10
314.3819034270016
 20
70.1797642445986
 30
0.0
 10
314.3938177628445
 20
70.19552332628238
 30
0.0
 10
314.4052857116781
 20
70.21419142419771
 30
0.0
 10
314.4141849062855
 20
70.23221532065638
 30
0.0
 10
314.4218271350106
 20
70.25087671766029
 30
0.0
 10
314.4288882022694
 20
70.2736336447328
 30
0.0
 10
314.4345269676444
 20
70.30232308570625
 30
0.0
 10
314.4352876737233
 20
70.32280554107334
 30
0.0
 10
314.4356675198122
 20
70.3330331188192
 30
0.0
  0
LINE
  5
2D3
330
1F
100
AcDbEntity
  8
0
  6
Continuous
 62
     7
370
    15
100
AcDbLine
 10
296.6442826138
 20
72.8747381887
 30
0.0
 11
297.704939817
 21
72.8747381887
 31
0.0
  0
LINE
  5
2D4
330
1F
100
AcDbEntity
  8
0
  6
Continuous
 62
     7
370
    15
100
AcDbLine
 10
297.4333289013
 20
30.1584287605
 30
0.0
 11
297.4333289013
 21
42.1673192701
 31
0.0
  0
SPLINE
  5
2D5
330
1F
100
AcDbEntity
  8
0
  6
Continuous
 62
     7
370
    15
100
AcDbSpline
210
0.0
220
0.0
230
1.0
 70
     8
 71
     3
 72
    10
 73
     6
 74
     0
 42
0.00000001
 43
0.00000001
 12
1.0
 22
0.0
 32
0.0
 13
1.0
 23
0.0
 33
0.0
 40
0.0
 40
0.0
 40
0.0
 40
0.0
 40
0.3309139083765061
 40
0.6642471118591674
 40
0.9999999999999999
 40
0.9999999999999999
 40
0.9999999999999999
 40
0.9999999999999999
 10
311.2659400217133
 20
42.6234034207776
 30
0.0
 10
311.6011817899942
 20
42.76290694170208
 30
0.0
 10
312.2741162624304
 20
43.04293388684588
 30
0.0
 10
313.2825119462238
 20
43.4659493111041
 30
0.0
 10
313.9539786727489
 20
43.74992382228249
 30
0.0
 10
314.2909261830076
 20
43.89242456094703
 30
0.0
  0
SPLINE
  5
2D6
330
1F
100
AcDbEntity
  8
0
  6
Continuous
 62
     7
370
    15
100
AcDbSpline
210
0.0
220
0.0
230
1.0
 70
     8
 71
     3
 72
    23
 73
    19
 74
     0
 42
0.00000001
 43
0.00000001
 12
1.0
 22
0.0
 32
0.0
 13
1.0
 23
0.0
 33
0.0
 40
0.0
 40
0.0
 40
0.0
 40
0.0
 40
0.0155507801287474
 40
0.0311244130365156
 40
0.062327632570779
 40
0.1248686483235997
 40
0.1963590855490047
 40
0.2498196071384952
 40
0.3210275968630985
 40
0.3746393994959669
 40
0.4461716567743984
 40
0.499714382794371
 40
0.562009383658838
 40
0.5977029232752294
 40
0.6245120938233639
 40
0.7495697060453765
 40
0.8746179568358411
 40
1.0
 40
1.0
 40
1.0
 40
1.0
 10
311.1180960892603
 20
42.40167233297494
 30
0.0
 10
311.118104574167
 20
42.40317960989256
 30
0.0
 10
311.1181215564495
 20
42.4061963787592
 30
0.0
 10
311.11830242524
 20
42.41223487329392
 30
0.0
 10
311.118908387437
 20
42.42281259987922
 30
0.0
 10
311.1207330411763
 20
42.43872386254402
 30
0.0
 10
311.1242219377207
 20
42.45652628455566
 30
0.0
 10
311.1292335528411
 20
42.4747612636692
 30
0.0
 10
311.1350329653587
 20
42.49088775069091
 30
0.0
 10
311.142684520177
 20
42.50803196308969
 30
0.0
 10
311.1507415681793
 20
42.52301907065569
 30
0.0
 10
311.1602590659861
 20
42.5379822443246
 30
0.0
 10
311.1687371127554
 20
42.54946289306039
 30
0.0
 10
311.1762158879421
 20
42.55844782396213
 30
0.0
 10
311.1879008375091
 20
42.57149711255153
 30
0.0
 10
311.2067327863475
 20
42.58906203975468
 30
0.0
 10
311.2349993201279
 20
42.6090336649015
 30
0.0
 10
311.2556172941214
 20
42.61860924779951
 30
0.0
 10
311.2659400217133
 20
42.62340342077788
 30
0.0
  0
LINE
  5
2D7
330
1F
100
AcDbEntity
  8
0
  6
Continuous
 62
     7
370
    15
100
AcDbLine
 10
311.118097131
 20
35.2500326059
 30
0.0
 11
311.118097131
 21
42.4016726262
 31
0.0
  0
SPLINE
  5
2D8
330
1F
100
AcDbEntity
  8
0
  6
Continuous
 62
     7
370
    15
100
AcDbSpline
210
0.0
220
0.0
230
1.0
 70
     8
 71
     3
 72
    21
 73
    17
 74
     0
 42
0.00000001
 43
0.00000001
 12
1.0
 22
0.0
 32
0.0
 13
1.0
 23
0.0
 33
0.0
 40
0.0
 40
0.0
 40
0.0
 40
0.0
 40
0.1248366613723658
 40
0.2498816534839842
 40
0.3744049742475888
 40
0.3994124672795334
 40
0.4369583638627388
 40
0.4995250587609767
 40
0.5809843778433507
 40
0.6419286699418429
 40
0.6847676773099404
 40
0.7491553012926063
 40
0.8308287070119521
 40
0.8919168497719697
 40
0.9536834191240056
 40
1.0
 40
1.0
 40
1.0
 40
1.0
 10
311.2659400217134
 20
35.02830157433533
 30
0.0
 10
311.2556653950041
 20
35.03308052876871
 30
0.0
 10
311.2350989950153
 20
35.04264641288166
 30
0.0
 10
311.2068936256738
 20
35.06251812547865
 30
0.0
 10
311.1881946036585
 20
35.07990416761525
 30
0.0
 10
311.1765335600537
 20
35.09291165593342
 30
0.0
 10
311.1690276027058
 20
35.10191230580804
 30
0.0
 10
311.1588553510465
 20
35.11565172615526
 30
0.0
 10
311.148632590635
 20
35.1321866424567
 30
0.0
 10
311.1406790868347
 20
35.14795817294501
 30
0.0
 10
311.1343498842325
 20
35.16275299070437
 30
0.0
 10
311.1282827358495
 20
35.17986099593934
 30
0.0
 10
311.1232289993454
 20
35.19921989851161
 30
0.0
 10
311.1199300342666
 20
35.21873460184303
 30
0.0
 10
311.1183451399878
 20
35.2350664892768
 30
0.0
 10
311.1181707990936
 20
35.2455431338806
 30
0.0
 10
311.1180960892603
 20
35.25003266213804
 30
0.0
  0
SPLINE
  5
2D9
330
1F
100
AcDbEntity
  8
0
  6
Continuous
 62
     7
370
    15
100
AcDbSpline
210
0.0
220
0.0
230
1.0
 70
     8
 71
     3
 72
    10
 73
     6
 74
     0
 42
0.00000001
 43
0.00000001
 12
1.0
 22
0.0
 32
0.0
 13
1.0
 23
0.0
 33
0.0
 40
0.0
 40
0.0
 40
0.0
 40
0.0
 40
0.3357528881412517
 40
0.6690860916239147
 40
1.0
 40
1.0
 40
1.0
 40
1.0
 10
314.2909261830077
 20
33.75928043416592
 30
0.0
 10
313.9539786727486
 20
33.90178117283066
 30
0.0
 10
313.2825119462232
 20
34.18575568400925
 30
0.0
 10
312.2741162624296
 20
34.60877110826736
 30
0.0
 10
311.6011817899939
 20
34.88879805341103
 30
0.0
 10
311.2659400217135
 20
35.02830157433535
 30
0.0
  0
SPLINE
  5
2DA
330
1F
100
AcDbEntity
  8
0
  6
Continuous
 62
     7
370
    15
100
AcDbSpline
210
0.0
220
0.0
230
1.0
 70
     8
 71
     3
 72
    23
 73
    19
 74
     0
 42
0.00000001
 43
0.00000001
 12
1.0
 22
0.0
 32
0.0
 13
1.0
 23
0.0
 33
0.0
 40
0.0
 40
0.0
 40
0.0
 40
0.0
 40
0.0155509323309257
 40
0.0311244629957161
 40
0.0623269501136547
 40
0.1248663104909659
 40
0.1963596441297356
 40
0.2498304173058535
 40
0.3210229259297324
 40
0.3746245195801413
 40
0.446156161748903
 40
0.499711394209196
 40
0.5619975034458929
 40
0.5976758071357965
 40
0.6244771133854601
 40
0.7495396119342759
 40
0.8745721133914947
 40
1.0
 40
1.0
 40
1.0
 40
1.0
 10
314.4356675198122
 20
33.5375493463632
 30
0.0
 10
314.4356592888228
 20
33.53905090792534
 30
0.0
 10
314.4356428148826
 20
33.54205621309173
 30
0.0
 10
314.435467326503
 20
33.5480717640297
 30
0.0
 10
314.4348792685001
 20
33.55860955606511
 30
0.0
 10
314.4331078016276
 20
33.57446332538183
 30
0.0
 10
314.429718179624
 20
33.59220917930143
 30
0.0
 10
314.4248474853185
 20
33.61039519230549
 30
0.0
 10
314.4192082679755
 20
33.62648883211114
 30
0.0
 10
314.4117579585564
 20
33.64360989553415
 30
0.0
 10
314.4039035606662
 20
33.65859133593523
 30
0.0
 10
314.3946156445493
 20
33.67356282424704
 30
0.0
 10
314.3863357876453
 20
33.68506055215394
 30
0.0
 10
314.3790238779425
 20
33.69406171871442
 30
0.0
 10
314.3675907063157
 20
33.70714162662613
 30
0.0
 10
314.3491376411841
 20
33.72476504685289
 30
0.0
 10
314.3213826553189
 20
33.74483850335456
 30
0.0
 10
314.3010890191825
 20
33.7544613935567
 30
0.0
 10
314.2909261830077
 20
33.75928043416605
 30
0.0
  0
LINE
  5
2DB
330
1F
100
AcDbEntity
  8
0
  6
Continuous
 62
     7
370
    15
100
AcDbLine
 10
314.4356693075
 20
28.8616142294
 30
0.0
 11
314.4356693075
 21
33.5375501833
 31
0.0
  0
SPLINE
  5
2DC
330
1F
100
AcDbEntity
  8
0
  6
Continuous
 62
     7
370
    15
100
AcDbSpline
210
0.0
220
0.0
230
1.0
 70
     8
 71
     3
 72
    33
 73
    29
 74
     0
 42
0.00000001
 43
0.00000001
 12
1.0
 22
0.0
 32
0.0
 13
1.0
 23
0.0
 33
0.0
 40
0.0
 40
0.0
 40
0.0
 40
0.0
 40
0.0622574168111691
 40
0.125024808976777
 40
0.2496656553421889
 40
0.3122817670859078
 40
0.3746993479122296
 40
0.4370828776226747
 40
0.4996779141226378
 40
0.6242046262140729
 40
0.6868064309822333
 40
0.7491452354170267
 40
0.8116323576377937
 40
0.8273086095533312
 40
0.842984399965873
 40
0.85551900728113
 40
0.8742996874568677
 40
0.888585098090349
 40
0.8971438757925957
 40
0.9099609489585532
 40
0.9243247131109147
 40
0.9329707958067562
 40
0.9459470132921448
 40
0.9583092903867169
 40
0.9768491811774739
 40
0.9861142333841648
 40
0.9930592026229765
 40
1.0
 40
1.0
 40
1.0
 40
1.0
 10
314.1112757994991
 20
28.63988395329735
 30
0.0
 10
314.1200681252378
 20
28.63653019274045
 30
0.0
 10
314.1377247981651
 20
28.62979519963512
 30
0.0
 10
314.1744180670796
 20
28.62193847354335
 30
0.0
 10
314.2120758237069
 20
28.62054370592352
 30
0.0
 10
314.2490729840118
 20
28.626122221594
 30
0.0
 10
314.2762664906965
 20
28.63362507646196
 30
0.0
 10
314.3024766055299
 20
28.64454531871292
 30
0.0
 10
314.3356185698659
 20
28.66330196065226
 30
0.0
 10
314.365538352196
 20
28.68844663740707
 30
0.0
 10
314.3904305694021
 20
28.71889136038287
 30
0.0
 10
314.4064063077691
 20
28.74415350732979
 30
0.0
 10
314.415972083184
 20
28.76468306030762
 30
0.0
 10
314.4213075198994
 20
28.77887085875351
 30
0.0
 10
314.4236028037824
 20
28.78559350030804
 30
0.0
 10
314.4258639039065
 20
28.79286758517143
 30
0.0
 10
314.4278433140177
 20
28.8000038784964
 30
0.0
 10
314.4294372638045
 20
28.80658338284859
 30
0.0
 10
314.4306740819941
 20
28.81225517634534
 30
0.0
 10
314.4317910976241
 20
28.81797037288318
 30
0.0
 10
314.4327518136893
 20
28.82373436318507
 30
0.0
 10
314.433584291223
 20
28.82954778666709
 30
0.0
 10
314.4342523620052
 20
28.83505722108303
 30
0.0
 10
314.4349358436134
 20
28.84219355044086
 30
0.0
 10
314.4353619273103
 20
28.84874705427729
 30
0.0
 10
314.4355716375079
 20
28.85442483676225
 30
0.0
 10
314.4356537392264
 20
28.85820952740381
 30
0.0
 10
314.4356629272039
 20
28.86048009725916
 30
0.0
 10
314.4356675198124
 20
28.86161504110003
 30
0.0
  0
SPLINE
  5
2DD
330
1F
100
AcDbEntity
  8
0
  6
Continuous
 62
     7
370
    15
100
AcDbSpline
210
0.0
220
0.0
230
1.0
 70
     8
 71
     3
 72
    15
 73
    11
 74
     0
 42
0.00000001
 43
0.00000001
 12
1.0
 22
0.0
 32
0.0
 13
1.0
 23
0.0
 33
0.0
 40
0.0
 40
0.0
 40
0.0
 40
0.0
 40
0.0984976403870796
 40
0.1976853601863806
 40
0.297563346604281
 40
0.3981317829906006
 40
0.4993908489427664
 40
0.6641128952805881
 40
0.830982383594027
 40
1.0
 40
1.0
 40
1.0
 40
1.0
 10
302.9372592704788
 20
33.19834324281849
 30
0.0
 10
303.3108550947564
 20
33.05114859362246
 30
0.0
 10
304.0606641744078
 20
32.75572804213034
 30
0.0
 10
305.184160327154
 20
32.30894800485774
 30
0.0
 10
306.3115615220907
 20
31.85754239868571
 30
0.0
 10
307.4423321463226
 20
31.40135376855348
 30
0.0
 10
308.8107967542145
 20
30.84519284627664
 30
0.0
 10
310.4180261336219
 20
30.18539155720735
 30
0.0
 10
312.2651882371047
 20
29.41847422151551
 30
0.0
 10
313.4932952055028
 20
28.90051821910062
 30
0.0
 10
314.1112757994992
 20
28.63988395329735
 30
0.0
  0
SPLINE
  5
2DE
330
1F
100
AcDbEntity
  8
0
  6
Continuous
 62
     7
370
    15
100
AcDbSpline
210
0.0
220
0.0
230
1.0
 70
     8
 71
     3
 72
    36
 73
    32
 74
     0
 42
0.00000001
 43
0.00000001
 12
1.0
 22
0.0
 32
0.0
 13
1.0
 23
0.0
 33
0.0
 40
0.0
 40
0.0
 40
0.0
 40
0.0
 40
0.007790535169293
 40
0.0155913820492948
 40
0.0234015057014632
 40
0.0312198194210767
 40
0.0390451900806484
 40
0.0468764433803972
 40
0.050793938859152
 40
0.0547124484414524
 40
0.0625518051891394
 40
0.0768908588018543
 40
0.0854947186017532
 40
0.0983959935886534
 40
0.109139520377823
 40
0.1252333944128521
 40
0.1377273915649984
 40
0.1452115711484754
 40
0.1564368304853185
 40
0.1720597818638804
 40
0.1877113533862107
 40
0.2503997844018603
 40
0.375260764396635
 40
0.5001427703413629
 40
0.5628029697146157
 40
0.625303739137453
 40
0.687756888143933
 40
0.7503687791430393
 40
0.8750283306023725
 40
0.9377408027226868
 40
1.0
 40
1.0
 40
1.0
 40
1.0
 10
302.587248575791
 20
32.97661215501578
 30
0.0
 10
302.5872552946742
 20
32.97791769858552
 30
0.0
 10
302.5872687413339
 20
32.980530513769
 30
0.0
 10
302.5873768940876
 20
32.9844507802496
 30
0.0
 10
302.5875488789849
 20
32.98837298762825
 30
0.0
 10
302.5877906398716
 20
32.99229527793225
 30
0.0
 10
302.5881000360565
 20
32.99621578326848
 30
0.0
 10
302.5884142110009
 20
32.99947935834868
 30
0.0
 10
302.5886991024987
 20
33.00208758717969
 30
0.0
 10
302.5890063855601
 20
33.00469435551541
 30
0.0
 10
302.5895733304603
 20
33.00902666275361
 30
0.0
 10
302.590364529347
 20
33.01411808433291
 30
0.0
 10
302.5914317747904
 20
33.02001840161611
 30
0.0
 10
302.5925145674301
 20
33.02530113104129
 30
0.0
 10
302.5940138583142
 20
33.03177009070103
 30
0.0
 10
302.5956826882352
 20
33.03812291261889
 30
0.0
 10
302.5973931930334
 20
33.04389248424608
 30
0.0
 10
302.5989815126965
 20
33.04884544245462
 30
0.0
 10
302.600841541131
 20
33.05425378467299
 30
0.0
 10
302.6033382885153
 20
33.06087160892835
 30
0.0
 10
302.6093421985454
 20
33.07528719689959
 30
0.0
 10
302.6248415403271
 20
33.105265298302
 30
0.0
 10
302.6572125646665
 20
33.1457403190802
 30
0.0
 10
302.6978867842821
 20
33.17655485975071
 30
0.0
 10
302.7336656972652
 20
33.19480786598027
 30
0.0
 10
302.7617801176222
 20
33.20532060672074
 30
0.0
 10
302.7908070571594
 20
33.21248760968652
 30
0.0
 10
302.8301671716642
 20
33.21771168949743
 30
0.0
 10
302.8701059538514
 20
33.2161557677256
 30
0.0
 10
302.909088213343
 20
33.2083421936381
 30
0.0
 10
302.9278916515873
 20
33.20166815746906
 30
0.0
 10
302.9372592704788
 20
33.1983432428185
 30
0.0
  0
LINE
  5
2DF
330
1F
100
AcDbEntity
  8
0
  6
Continuous
 62
     7
370
    15
100
AcDbLine
 10
302.5872494028
 20
30.1584287605
 30
0.0
 11
302.5872494028
 21
32.976612734
 31
0.0
  0
SPLINE
  5
2E0
330
1F
100
AcDbEntity
  8
0
  6
Continuous
 62
     7
370
    15
100
AcDbSpline
210
0.0
220
0.0
230
1.0
 70
     8
 71
     3
 72
    26
 73
    22
 74
     0
 42
0.00000001
 43
0.00000001
 12
1.0
 22
0.0
 32
0.0
 13
1.0
 23
0.0
 33
0.0
 40
0.0
 40
0.0
 40
0.0
 40
0.0
 40
0.12490744231434
 40
0.2497709326311705
 40
0.374590924200462
 40
0.4992868599560717
 40
0.6241203570698439
 40
0.6866415135291689
 40
0.7177855513703131
 40
0.7333307283023414
 40
0.7489193798459043
 40
0.7652431047774629
 40
0.7897790261135997
 40
0.8204996000907525
 40
0.8420153235848392
 40
0.8742617880080968
 40
0.902864464213194
 40
0.9199851184686486
 40
0.9457781263977006
 40
0.9674702751900586
 40
1.0
 40
1.0
 40
1.0
 40
1.0
 10
302.3336117259286
 20
29.91842965806034
 30
0.0
 10
302.3493586451251
 20
29.91924302287304
 30
0.0
 10
302.380846942547
 20
29.92086946629444
 30
0.0
 10
302.4267696464132
 20
29.9337275393184
 30
0.0
 10
302.4699047476247
 20
29.95429648796542
 30
0.0
 10
302.5088989434498
 20
29.98277220123172
 30
0.0
 10
302.5364095619116
 20
30.01279025883428
 30
0.0
 10
302.5523707755925
 20
30.03649587542547
 30
0.0
 10
302.5594204125484
 20
30.04896480620148
 30
0.0
 10
302.5631573334736
 20
30.05624168988262
 30
0.0
 10
302.5658567218387
 20
30.06186911531875
 30
0.0
 10
302.5688862958447
 20
30.06865612825796
 30
0.0
 10
302.5724318094033
 20
30.07740489523368
 30
0.0
 10
302.5757993816713
 20
30.0869742844115
 30
0.0
 10
302.5790415155489
 20
30.09766996902728
 30
0.0
 10
302.5817296287071
 20
30.10824888730838
 30
0.0
 10
302.583748436633
 20
30.11839456357922
 30
0.0
 10
302.5852279400012
 20
30.12777164556595
 30
0.0
 10
302.5862288492415
 20
30.13629559099495
 30
0.0
 10
302.587063087748
 20
30.1468980107017
 30
0.0
 10
302.5871790223176
 20
30.15410557271728
 30
0.0
 10
302.5872485757911
 20
30.15842965806035
 30
0.0
  0
LINE
  5
2E1
330
1F
100
AcDbEntity
  8
0
  6
Continuous
 62
     7
370
    15
100
AcDbLine
 10
297.69516093
 20
29.9184287957
 30
0.0
 11
302.3336130128
 21
29.9184287957
 31
0.0
  0
SPLINE
  5
2E2
330
1F
100
AcDbEntity
  8
0
  6
Continuous
 62
     7
370
    15
100
AcDbSpline
210
0.0
220
0.0
230
1.0
 70
     8
 71
     3
 72
    41
 73
    37
 74
     0
 42
0.00000001
 43
0.00000001
 12
1.0
 22
0.0
 32
0.0
 13
1.0
 23
0.0
 33
0.0
 40
0.0
 40
0.0
 40
0.0
 40
0.0
 40
0.0077834651771551
 40
0.0155754836354556
 40
0.0233753911985202
 40
0.0311824929987088
 40
0.0389960658839105
 40
0.0468153607874433
 40
0.0546396050637018
 40
0.0624680047924795
 40
0.0702997470550062
 40
0.0781340021840951
 40
0.0859699259921487
 40
0.0938066619801051
 40
0.1016433435307719
 40
0.1094790960899837
 40
0.1173130393382324
 40
0.1251442893584877
 40
0.1329719608013821
 40
0.1407951690529541
 40
0.1486130324082058
 40
0.1564246742537248
 40
0.1642292252644484
 40
0.1720258256159154
 40
0.1876008062444458
 40
0.2125757551408194
 40
0.2275904253187502
 40
0.2501414591490211
 40
0.281493149816834
 40
0.3128402393756514
 40
0.3753102045459767
 40
0.5003829611210286
 40
0.6252168386642256
 40
0.7502823882758419
 40
0.8750915748194131
 40
1.0
 40
1.0
 40
1.0
 40
1.0
 10
297.4333278222912
 20
30.15842965806035
 30
0.0
 10
297.4333322836488
 20
30.15738404107641
 30
0.0
 10
297.4333412112667
 20
30.15529165807583
 30
0.0
 10
297.4334130801211
 20
30.15215218831529
 30
0.0
 10
297.433527431299
 20
30.14901100463665
 30
0.0
 10
297.4336882507655
 20
30.14586909761651
 30
0.0
 10
297.4338941600789
 20
30.14272745759125
 30
0.0
 10
297.43414522028
 20
30.13958707496733
 30
0.0
 10
297.4344411062138
 20
30.13644894013831
 30
0.0
 10
297.4347815963418
 20
30.1333140435073
 30
0.0
 10
297.4351664413478
 20
30.13018337548116
 30
0.0
 10
297.4355953993784
 20
30.12705792647197
 30
0.0
 10
297.4360682265919
 20
30.12393868689663
 30
0.0
 10
297.4365846796924
 20
30.12082664717676
 30
0.0
 10
297.43714451525
 20
30.11772279773864
 30
0.0
 10
297.4377474898804
 20
30.11462812901261
 30
0.0
 10
297.4383933602072
 20
30.11154363143445
 30
0.0
 10
297.4390818828334
 20
30.10847029543932
 30
0.0
 10
297.4398128144927
 20
30.10540911148335
 30
0.0
 10
297.4405859114752
 20
30.1023610699623
 30
0.0
 10
297.4414009317744
 20
30.09932716151387
 30
0.0
 10
297.4422576270828
 20
30.09630837589027
 30
0.0
 10
297.4431557726313
 20
30.09330570616009
 30
0.0
 10
297.4444077834386
 20
30.08932610854699
 30
0.0
 10
297.4464803457943
 20
30.08320052258461
 30
0.0
 10
297.4491185565794
 20
30.0762582461386
 30
0.0
 10
297.4523577252318
 20
30.06856462753872
 30
0.0
 10
297.4561998317582
 20
30.06021537447499
 30
0.0
 10
297.4614183450119
 20
30.05013165908332
 30
0.0
 10
297.4698349587278
 20
30.0357802565793
 30
0.0
 10
297.4864651097622
 20
30.01196765080851
 30
0.0
 10
297.5151525506445
 20
29.98210958430964
 30
0.0
 10
297.5554224748033
 20
29.95376705971997
 30
0.0
 10
297.5998201567398
 20
29.93350612975094
 30
0.0
 10
297.6468690686568
 20
29.92081406159978
 30
0.0
 10
297.6790585175775
 20
29.91922466978341
 30
0.0
 10
297.6951596381367
 20
29.91842965806034
 30
0.0
  0
SPLINE
  5
2E3
330
1F
100
AcDbEntity
  8
0
  6
Continuous
 62
     7
370
    15
100
AcDbSpline
210
0.0
220
0.0
230
1.0
 70
     8
 71
     3
 72
    22
 73
    18
 74
     0
 42
0.00000001
 43
0.00000001
 12
1.0
 22
0.0
 32
0.0
 13
1.0
 23
0.0
 33
0.0
 40
0.0
 40
0.0
 40
0.0
 40
0.0
 40
0.1248737286916667
 40
0.2499678488711212
 40
0.3744547361755364
 40
0.4369571102206444
 40
0.4619916288198764
 40
0.4995342058740144
 40
0.5708815889165855
 40
0.624169982221354
 40
0.695400925341561
 40
0.7490630779595308
 40
0.78179942945332
 40
0.8308481793052348
 40
0.8919317904526959
 40
0.9535873559376762
 40
1.0
 40
1.0
 40
1.0
 40
1.0
 10
297.5950134314052
 20
42.38905057236873
 30
0.0
 10
297.5840320918597
 20
42.38439419786783
 30
0.0
 10
297.5620500316404
 20
42.37507323076191
 30
0.0
 10
297.5316312820979
 20
42.35567770777886
 30
0.0
 10
297.5085021159409
 20
42.33628279349806
 30
0.0
 10
297.4943278678477
 20
42.32138614166478
 30
0.0
 10
297.486409604952
 20
42.31217676548191
 30
0.0
 10
297.4782865196917
 20
42.30199307808356
 30
0.0
 10
297.4692352950799
 20
42.28899956122878
 30
0.0
 10
297.4595323080126
 20
42.27246962594534
 30
0.0
 10
297.4519306432201
 20
42.2567024460332
 30
0.0
 10
297.446334153288
 20
42.24223596835511
 30
0.0
 10
297.442216868524
 20
42.22954615650995
 30
0.0
 10
297.4385752010992
 20
42.21592740315729
 30
0.0
 10
297.4354146156358
 20
42.19924622729852
 30
0.0
 10
297.43361168396
 20
42.1825963978016
 30
0.0
 10
297.4334131064561
 20
42.1719093215575
 30
0.0
 10
297.4333278222912
 20
42.16731948456602
 30
0.0
  0
SPLINE
  5
2E4
330
1F
100
AcDbEntity
  8
0
  6
Continuous
 62
     7
370
    15
100
AcDbSpline
210
0.0
220
0.0
230
1.0
 70
     8
 71
     3
 72
    37
 73
    33
 74
     0
 42
0.00000001
 43
0.00000001
 12
1.0
 22
0.0
 32
0.0
 13
1.0
 23
0.0
 33
0.0
 40
0.0
 40
0.0
 40
0.0
 40
0.0
 40
0.0077888504225907
 40
0.0155874691139814
 40
0.0233949073084332
 40
0.0312101774029015
 40
0.0390322570815088
 40
0.046860093375815
 40
0.0546926066663961
 40
0.0625286946337459
 40
0.0703672361658269
 40
0.0782070952301808
 40
0.0860471247181811
 40
0.093886170270464
 40
0.1017230740910363
 40
0.1095566787586436
 40
0.1173858310441051
 40
0.1252093857418013
 40
0.1377123742712939
 40
0.1564239057108956
 40
0.1720190340755936
 40
0.1876469124392677
 40
0.2502936367261636
 40
0.3750783180339827
 40
0.4466701903355724
 40
0.5001652590395997
 40
0.5627627334682088
 40
0.6253555332846567
 40
0.7501239498832762
 40
0.8748589886245434
 40
0.937507971439495
 40
1.0
 40
1.0
 40
1.0
 40
1.0
 10
314.4356675198122
 20
48.79008995401292
 30
0.0
 10
314.4356616223378
 20
48.79136330066262
 30
0.0
 10
314.4356498199928
 20
48.79391159091045
 30
0.0
 10
314.4355548256776
 20
48.79773509542869
 30
0.0
 10
314.4354036801727
 20
48.80156060355451
 30
0.0
 10
314.4351911088393
 20
48.80538650472418
 30
0.0
 10
314.434918930346
 20
48.80921118877095
 30
0.0
 10
314.4345870595669
 20
48.8130330454069
 30
0.0
 10
314.4341959220891
 20
48.81685046436189
 30
0.0
 10
314.4337458063756
 20
48.82066183534562
 30
0.0
 10
314.4332370375554
 20
48.82446554806058
 30
0.0
 10
314.4326699308152
 20
48.82825999218983
 30
0.0
 10
314.4320448039012
 20
48.83204355743493
 30
0.0
 10
314.4313619737624
 20
48.83581463337934
 30
0.0
 10
314.4306217574775
 20
48.83957160999977
 30
0.0
 10
314.4298244719105
 20
48.84331287576133
 30
0.0
 10
314.4289704341657
 20
48.84703682472392
 30
0.0
 10
314.427878165621
 20
48.8514816090177
 30
0.0
 10
314.4262406216963
 20
48.85760688849245
 30
0.0
 10
314.4240501821961
 20
48.86487560871547
 30
0.0
 10
314.4214479545923
 20
48.87252640642028
 30
0.0
 10
314.4161155141105
 20
48.88671878870801
 30
0.0
 10
314.4022870054476
 20
48.91635119519776
 30
0.0
 10
314.3780484817247
 20
48.9500119253761
 30
0.0
 10
314.3496467846575
 20
48.97664699359809
 30
0.0
 10
314.326298343404
 20
48.99369041807147
 30
0.0
 10
314.3025487614647
 20
49.00713068893127
 30
0.0
 10
314.2676129889613
 20
49.02167467232884
 30
0.0
 10
314.2214453851145
 20
49.03148049925512
 30
0.0
 10
314.1744911957767
 20
49.02979142821476
 30
0.0
 10
314.1377693670393
 20
49.02192017189682
 30
0.0
 10
314.1200996014263
 20
49.01518460254931
 30
0.0
 10
314.1112757994991
 20
49.01182104181563
 30
0.0
  0
LINE
  5
2E5
330
1F
100
AcDbEntity
  8
0
  6
Continuous
 62
     7
370
    15
100
AcDbLine
 10
314.4356693075
 20
44.1141559801
 30
0.0
 11
314.4356693075
 21
48.7900900713
 31
0.0
  0
SPLINE
  5
2E6
330
1F
100
AcDbEntity
  8
0
  6
Continuous
 62
     7
370
    15
100
AcDbSpline
210
0.0
220
0.0
230
1.0
 70
     8
 71
     3
 72
    21
 73
    17
 74
     0
 42
0.00000001
 43
0.00000001
 12
1.0
 22
0.0
 32
0.0
 13
1.0
 23
0.0
 33
0.0
 40
0.0
 40
0.0
 40
0.0
 40
0.0
 40
0.1248289442000938
 40
0.2498636415414567
 40
0.3743947841634211
 40
0.3994057012365946
 40
0.4369542566664377
 40
0.4995198900274249
 40
0.5809684401134755
 40
0.6419309319016318
 40
0.6847798175680198
 40
0.7491680336552968
 40
0.8308260386425298
 40
0.8919522365791102
 40
0.9537008775286511
 40
1.0
 40
1.0
 40
1.0
 40
1.0
 10
314.2909261830077
 20
43.89242456094709
 30
0.0
 10
314.3010369852935
 20
43.897226799209
 30
0.0
 10
314.3212752553056
 20
43.90683919116953
 30
0.0
 10
314.3489720495732
 20
43.92680244091309
 30
0.0
 10
314.3672947039929
 20
43.9442507703158
 30
0.0
 10
314.3787068891856
 20
43.95729079410322
 30
0.0
 10
314.3860481821948
 20
43.96630998451119
 30
0.0
 10
314.3959867721128
 20
43.9800673234845
 30
0.0
 10
314.4059606875357
 20
43.99660941319095
 30
0.0
 10
314.413708470217
 20
44.01237355125766
 30
0.0
 10
314.4198719991703
 20
44.02715028953757
 30
0.0
 10
314.4257747647624
 20
44.04422265470761
 30
0.0
 10
314.4306870995841
 20
44.0635293450069
 30
0.0
 10
314.4338873291576
 20
44.08297962263226
 30
0.0
 10
314.435425984122
 20
44.09925145831119
 30
0.0
 10
314.435595066841
 20
44.10968486895747
 30
0.0
 10
314.4356675198122
 20
44.11415564874977
 30
0.0
  0
SPLINE
  5
2E7
330
1F
100
AcDbEntity
  8
0
  6
Continuous
 62
     7
370
    15
100
AcDbSpline
210
0.0
220
0.0
230
1.0
 70
     8
 71
     3
 72
    14
 73
    10
 74
     0
 42
0.00000001
 43
0.00000001
 12
1.0
 22
0.0
 32
0.0
 13
1.0
 23
0.0
 33
0.0
 40
0.0
 40
0.0
 40
0.0
 40
0.0
 40
0.25
 40
0.25
 40
0.5
 40
0.5
 40
0.75
 40
0.75
 40
1.0
 40
1.0
 40
1.0
 40
1.0
 10
302.4014430369166
 20
39.04758358535921
 30
0.0
 10
302.3575175000144
 20
39.03037388074042
 30
0.0
 10
302.3183452546502
 20
39.0011326372823
 30
0.0
 10
302.2617440872115
 20
38.92412814008404
 30
0.0
 10
302.244818153331
 20
38.87516170650013
 30
0.0
 10
302.244691694617
 20
38.7773945788633
 30
0.0
 10
302.2613389783793
 20
38.72832743576375
 30
0.0
 10
302.3180413645228
 20
38.65073847955261
 30
0.0
 10
302.3574775147112
 20
38.62134678032232
 30
0.0
 10
302.4014430369166
 20
38.60412140975378
 30
0.0
  0
SPLINE
  5
2E8
330
1F
100
AcDbEntity
  8
0
  6
Continuous
 62
     7
370
    15
100
AcDbSpline
210
0.0
220
0.0
230
1.0
 70
     8
 71
     3
 72
    11
 73
     7
 74
     0
 42
0.00000001
 43
0.00000001
 12
1.0
 22
0.0
 32
0.0
 13
1.0
 23
0.0
 33
0.0
 40
0.0
 40
0.0
 40
0.0
 40
0.0
 40
0.2501733451332337
 40
0.5002224205211551
 40
0.7501602812899413
 40
1.0
 40
1.0
 40
1.0
 40
1.0
 10
306.2772813019429
 20
37.06623230121093
 30
0.0
 10
305.9558249284221
 20
37.19517246258562
 30
0.0
 10
305.3130718598694
 20
37.4529887363013
 30
0.0
 10
304.345174450097
 20
37.83808283808271
 30
0.0
 10
303.3750954464293
 20
38.22195744867484
 30
0.0
 10
302.7259513489603
 20
38.47675010073013
 30
0.0
 10
302.4014430369166
 20
38.60412140975377
 30
0.0
  0
SPLINE
  5
2E9
330
1F
100
AcDbEntity
  8
0
  6
Continuous
 62
     7
370
    15
100
AcDbSpline
210
0.0
220
0.0
230
1.0
 70
     8
 71
     3
 72
    23
 73
    19
 74
     0
 42
0.00000001
 43
0.00000001
 12
1.0
 22
0.0
 32
0.0
 13
1.0
 23
0.0
 33
0.0
 40
0.0
 40
0.0
 40
0.0
 40
0.0
 40
0.0670643369657931
 40
0.0670643369657931
 40
0.0670643369657931
 40
0.2332287401188973
 40
0.2332287401188973
 40
0.2332287401188973
 40
0.4168682323094255
 40
0.4168682323094255
 40
0.4168682323094255
 40
0.6117568502763233
 40
0.6117568502763233
 40
0.6117568502763233
 40
0.8058271777895966
 40
0.8058271777895966
 40
0.8058271777895966
 40
1.0
 40
1.0
 40
1.0
 40
1.0
 10
306.6189611249519
 20
37.28796338901365
 30
0.0
 10
306.6189611249519
 20
37.27670689898671
 30
0.0
 10
306.6181409836955
 20
37.26541728645249
 30
0.0
 10
306.6165201350236
 20
37.25429469986356
 30
0.0
 10
306.6125615670402
 20
37.22713021749787
 30
0.0
 10
306.6035939024324
 20
37.20037261516509
 30
0.0
 10
306.5907486631519
 20
37.17654813067973
 30
0.0
 10
306.5765735784742
 20
37.1502571385382
 30
0.0
 10
306.5572214154183
 20
37.1266225922006
 30
0.0
 10
306.535031605383
 20
37.10767510313025
 30
0.0
 10
306.511476628182
 20
37.08756192179341
 30
0.0
 10
306.4839618801541
 20
37.07200218543971
 30
0.0
 10
306.4552790747552
 20
37.06202267842086
 30
0.0
 10
306.4266779221883
 20
37.05207158058305
 30
0.0
 10
306.3960607681124
 20
37.04733032395141
 30
0.0
 10
306.3659780954733
 20
37.04803280671368
 30
0.0
 10
306.3358819972493
 20
37.04873560298672
 30
0.0
 10
306.3054601482902
 20
37.05490893801508
 30
0.0
 10
306.2772813019429
 20
37.06623230121095
 30
0.0
  0
LINE
  5
2EA
330
1F
100
AcDbEntity
  8
0
  6
Continuous
 62
     7
370
    15
100
AcDbLine
 10
306.6189597295
 20
37.2879638395
 30
0.0
 11
306.6189597295
 21
40.3637413926
 31
0.0
  0
SPLINE
  5
2EB
330
1F
100
AcDbEntity
  8
0
  6
Continuous
 62
     7
370
    15
100
AcDbSpline
210
0.0
220
0.0
230
1.0
 70
     8
 71
     3
 72
    23
 73
    19
 74
     0
 42
0.00000001
 43
0.00000001
 12
1.0
 22
0.0
 32
0.0
 13
1.0
 23
0.0
 33
0.0
 40
0.0
 40
0.0
 40
0.0
 40
0.0
 40
0.1855118594234877
 40
0.1855118594234877
 40
0.1855118594234877
 40
0.3704277486843219
 40
0.3704277486843219
 40
0.3704277486843219
 40
0.5405972960229019
 40
0.5405972960229019
 40
0.5405972960229019
 40
0.6972746161726111
 40
0.6972746161726111
 40
0.6972746161726111
 40
0.8484535499060951
 40
0.8484535499060951
 40
0.8484535499060951
 40
1.0
 40
1.0
 40
1.0
 40
1.0
 10
306.2772813019429
 20
40.58547269390203
 30
0.0
 10
306.3042085981141
 20
40.59629313525974
 30
0.0
 10
306.333166865698
 20
40.60241414711719
 30
0.0
 10
306.3619139715008
 20
40.60354481993249
 30
0.0
 10
306.3905741941524
 20
40.60467207548492
 30
0.0
 10
306.4197677397117
 20
40.6008716642973
 30
0.0
 10
306.4472959654369
 20
40.5923114469085
 30
0.0
 10
306.4726594205696
 20
40.58442438975366
 30
0.0
 10
306.4972103276042
 20
40.57230448207429
 30
0.0
 10
306.519104534602
 20
40.55653131196789
 30
0.0
 10
306.5392760395722
 20
40.54199922230455
 30
0.0
 10
306.5576421677931
 20
40.52402225433945
 30
0.0
 10
306.5726999712347
 20
40.50361465966358
 30
0.0
 10
306.5872221145164
 20
40.48393303643971
 30
0.0
 10
306.5989947278251
 20
40.46150036267976
 30
0.0
 10
306.6068810819184
 20
40.43790123248367
 30
0.0
 10
306.6147781669567
 20
40.41426999100213
 30
0.0
 10
306.6189611249519
 20
40.38883276753953
 30
0.0
 10
306.6189611249519
 20
40.36374160609932
 30
0.0
  0
SPLINE
  5
2EC
330
1F
100
AcDbEntity
  8
0
  6
Continuous
 62
     7
370
    15
100
AcDbSpline
210
0.0
220
0.0
230
1.0
 70
     8
 71
     3
 72
    11
 73
     7
 74
     0
 42
0.00000001
 43
0.00000001
 12
1.0
 22
0.0
 32
0.0
 13
1.0
 23
0.0
 33
0.0
 40
0.0
 40
0.0
 40
0.0
 40
0.0
 40
0.2498397187103147
 40
0.4997775794791863
 40
0.7498266548670233
 40
1.0
 40
1.0
 40
1.0
 40
1.0
 10
302.4014430369166
 20
39.04758358535919
 30
0.0
 10
302.7259513489606
 20
39.17495489438296
 30
0.0
 10
303.37509544643
 20
39.42974754643842
 30
0.0
 10
304.3451744500981
 20
39.81362215703067
 30
0.0
 10
305.3130718598701
 20
40.19871625881196
 30
0.0
 10
305.9558249284224
 20
40.45653253252745
 30
0.0
 10
306.2772813019429
 20
40.58547269390201
 30
0.0
  0
LINE
  5
2ED
330
1F
100
AcDbEntity
  8
0
  6
Continuous
 62
     7
370
    15
100
AcDbLine
 10
296.6345000015
 20
29.9184287957
 30
0.0
 11
297.69516093
 21
29.9184287957
 31
0.0
  0
LINE
  5
2EE
330
1F
100
AcDbEntity
  8
0
  6
Continuous
 62
     7
370
    15
100
AcDbLine
 10
305.5583025263
 20
37.3515154294
 30
0.0
 11
305.5583025263
 21
40.3001898027
 31
0.0
  0
CIRCLE
  5
2EF
330
1F
100
AcDbEntity
  8
0
  6
Continuous
 62
     7
370
    15
100
AcDbCircle
 10
-56.9106044041
 20
-58.7920161825
 30
0.0
 40
5.250000000000007
  0
CIRCLE
  5
2F0
330
1F
100
AcDbEntity
  8
0
  6
Continuous
 62
     7
370
    15
100
AcDbCircle
 10
15.2142872769
 20
-58.7920161825
 30
0.0
 40
5.250000000000007
  0
CIRCLE
  5
2F1
330
1F
100
AcDbEntity
  8
0
  6
Continuous
 62
     7
370
    15
100
AcDbCircle
 10
-56.9106044041
 20
13.3328754986
 30
0.0
 40
5.250000000000005
  0
CIRCLE
  5
2F2
330
1F
100
AcDbEntity
  8
0
  6
Continuous
 62
     7
370
    15
100
AcDbCircle
 10
15.2142872769
 20
13.3328754986
 30
0.0
 40
5.25
  0
CIRCLE
  5
2F3
330
1F
100
AcDbEntity
  8
0
  6
Continuous
 62
     7
370
    15
100
AcDbCircle
 10
-20.8481585636
 20
-22.7295703419
 30
0.0
 40
63.00000000000001
  0
LINE
  5
2F4
330
1F
100
AcDbEntity
  8
0
  6
Continuous
 62
     7
370
    15
100
AcDbLine
 10
-11.8481692924
 20
39.6242591611
 30
0.0
 11
-11.8481692924
 21
120.683372306
 31
0.0
  0
ELLIPSE
  5
2F5
330
1F
100
AcDbEntity
  8
0
  6
Continuous
 62
     7
370
    15
100
AcDbEllipse
 10
77.8261785846
 20
53.2704296581
 30
0.0
 11
147.2243186433545
 21
4.547473508864641E-13
 31
0.0
210
0.0
220
0.0
230
1.0
 40
0.5773502692
 41
2.221446479231451
 42
2.22572166552893
  0
LINE
  5
2F6
330
1F
100
AcDbEntity
  8
0
  6
Continuous
 62
     7
370
    15
100
AcDbLine
 10
-11.8481692924
 20
131.2704312674
 30
0.0
 11
-11.8481692924
 21
138.2704305521
 31
0.0
  0
LINE
  5
2F7
330
1F
100
AcDbEntity
  8
0
  6
Continuous
 62
     7
370
    15
100
AcDbLine
 10
17.1518447743
 20
8.4534923605
 30
0.0
 11
17.1518447743
 21
18.212259101
 31
0.0
  0
LINE
  5
2F8
330
1F
100
AcDbEntity
  8
0
  6
Continuous
 62
     7
370
    15
100
AcDbLine
 10
17.1518447743
 20
27.5198075048
 30
0.0
 11
17.1518447743
 21
138.2704305521
 31
0.0
  0
LINE
  5
2F9
330
1F
100
AcDbEntity
  8
0
  6
Continuous
 62
     7
370
    15
100
AcDbLine
 10
-44.3481681003
 20
97.4907468132
 30
0.0
 11
-44.3481681003
 21
35.7234015188
 31
0.0
  0
LINE
  5
2FA
330
1F
100
AcDbEntity
  8
0
  6
Continuous
 62
     7
370
    15
100
AcDbLine
 10
24.151844059
 20
89.8241813353
 30
0.0
 11
24.151844059
 21
21.361243265
 31
0.0
  0
LINE
  5
2FB
330
1F
100
AcDbEntity
  8
0
  6
Continuous
 62
     7
370
    15
100
AcDbLine
 10
24.151844059
 20
115.7704296581
 30
0.0
 11
24.151844059
 21
112.9009875528
 31
0.0
  0
LINE
  5
2FC
330
1F
100
AcDbEntity
  8
0
  6
Continuous
 62
     7
370
    15
100
AcDbLine
 10
41.6518422709
 20
115.318797814
 30
0.0
 11
41.4511236296
 21
115.318797814
 31
0.0
  0
LINE
  5
2FD
330
1F
100
AcDbEntity
  8
0
  6
Continuous
 62
     7
370
    15
100
AcDbLine
 10
41.6518422709
 20
115.318797814
 30
0.0
 11
41.6518422709
 21
-8.7779384979
 31
0.0
  0
LINE
  5
2FE
330
1F
100
AcDbEntity
  8
0
  6
Continuous
 62
     7
370
    15
100
AcDbLine
 10
41.4511236296
 20
-8.7779384979
 30
0.0
 11
41.6518422709
 21
-8.7779384979
 31
0.0
  0
LINE
  5
2FF
330
1F
100
AcDbEntity
  8
0
  6
Continuous
 62
     7
370
    15
100
AcDbLine
 10
474.8525592432
 20
-8.7779384979
 30
0.0
 11
474.651840602
 21
-8.7779384979
 31
0.0
  0
LINE
  5
300
330
1F
100
AcDbEntity
  8
0
  6
Continuous
 62
     7
370
    15
100
AcDbLine
 10
474.651840602
 20
115.318797814
 30
0.0
 11
474.651840602
 21
-8.7779384979
 31
0.0
  0
LINE
  5
301
330
1F
100
AcDbEntity
  8
0
  6
Continuous
 62
     7
370
    15
100
AcDbLine
 10
474.651840602
 20
115.318797814
 30
0.0
 11
474.8525592432
 21
115.318797814
 31
0.0
  0
LINE
  5
302
330
1F
100
AcDbEntity
  8
0
  6
Continuous
 62
     7
370
    15
100
AcDbLine
 10
519.1518488274
 20
53.2704296581
 30
0.0
 11
519.1518488274
 21
-9.2295703419
 31
0.0
  0
LINE
  5
303
330
1F
100
AcDbEntity
  8
0
  6
Continuous
 62
     7
370
    15
100
AcDbLine
 10
519.1518488274
 20
115.7704296581
 30
0.0
 11
519.1518488274
 21
53.2704296581
 31
0.0
  0
LINE
  5
304
330
1F
100
AcDbEntity
  8
0
  6
Continuous
 62
     7
370
    15
100
AcDbLine
 10
-44.3481681003
 20
97.4907468132
 30
0.0
 11
-44.3481681003
 21
99.2595593504
 31
0.0
  0
LINE
  5
305
330
1F
100
AcDbEntity
  8
0
  6
Continuous
 62
     7
370
    15
100
AcDbLine
 10
-44.3481681003
 20
109.2704313866
 30
0.0
 11
-11.8481692924
 21
109.2704313866
 31
0.0
  0
LINE
  5
306
330
1F
100
AcDbEntity
  8
0
  6
Continuous
 62
     7
370
    15
100
AcDbLine
 10
-44.3481681003
 20
106.2704290322
 30
0.0
 11
-44.3481681003
 21
109.2704313866
 31
0.0
  0
LINE
  5
307
330
1F
100
AcDbEntity
  8
0
  6
Continuous
 62
     7
370
    15
100
AcDbLine
 10
-44.3481681003
 20
106.2704290322
 30
0.0
 11
-44.3481681003
 21
99.2595593504
 31
0.0
  0
LINE
  5
308
330
1F
100
AcDbEntity
  8
0
  6
Continuous
 62
     7
370
    15
100
AcDbLine
 10
24.151844059
 20
112.9009875528
 30
0.0
 11
17.1518447743
 21
112.9009875528
 31
0.0
  0
LINE
  5
309
330
1F
100
AcDbEntity
  8
0
  6
Continuous
 62
     7
370
    15
100
AcDbLine
 10
24.151844059
 20
98.7588505319
 30
0.0
 11
17.1518447743
 21
98.7588505319
 31
0.0
  0
LINE
  5
30A
330
1F
100
AcDbEntity
  8
0
  6
Continuous
 62
     7
370
    15
100
AcDbLine
 10
24.151844059
 20
112.9009875528
 30
0.0
 11
24.151844059
 21
98.7588505319
 31
0.0
  0
LINE
  5
30B
330
1F
100
AcDbEntity
  8
0
  6
Continuous
 62
     7
370
    15
100
AcDbLine
 10
24.151844059
 20
73.5854900501
 30
0.0
 11
17.1518447743
 21
73.5854900501
 31
0.0
  0
LINE
  5
30C
330
1F
100
AcDbEntity
  8
0
  6
Continuous
 62
     7
370
    15
100
AcDbLine
 10
24.151844059
 20
98.7588505319
 30
0.0
 11
24.151844059
 21
89.8241813353
 31
0.0
  0
LINE
  5
30D
330
1F
100
AcDbEntity
  8
0
  6
Continuous
 62
     7
370
    15
100
AcDbLine
 10
24.151844059
 20
32.955369266
 30
0.0
 11
17.1518447743
 21
32.955369266
 31
0.0
  0
LINE
  5
30E
330
1F
100
AcDbEntity
  8
0
  6
Continuous
 62
     7
370
    15
100
AcDbLine
 10
-30.3481695308
 20
131.2704312674
 30
0.0
 11
-30.3481695308
 21
109.2704313866
 31
0.0
  0
LINE
  5
30F
330
1F
100
AcDbEntity
  8
0
  6
Continuous
 62
     7
370
    15
100
AcDbLine
 10
-20.8481726303
 20
131.2704312674
 30
0.0
 11
-20.8481726303
 21
109.2704313866
 31
0.0
  0
LINE
  5
310
330
1F
100
AcDbEntity
  8
0
  6
Continuous
 62
     7
370
    15
100
AcDbLine
 10
-30.3481695308
 20
131.2704312674
 30
0.0
 11
-20.8481726303
 21
131.2704312674
 31
0.0
  0
LINE
  5
311
330
1F
100
AcDbEntity
  8
0
  6
Continuous
 62
     7
370
    15
100
AcDbLine
 10
-11.3481459274
 20
131.2704312674
 30
0.0
 11
-11.3481459274
 21
120.9040957562
 31
0.0
  0
LINE
  5
312
330
1F
100
AcDbEntity
  8
0
  6
Continuous
 62
     7
370
    15
100
AcDbLine
 10
-20.8481726303
 20
131.2704312674
 30
0.0
 11
-11.3481459274
 21
131.2704312674
 31
0.0
  0
LINE
  5
313
330
1F
100
AcDbEntity
  8
0
  6
Continuous
 62
     7
370
    15
100
AcDbLine
 10
-52.3481545105
 20
10.7354561857
 30
0.0
 11
-52.3481545105
 21
15.9302952758
 31
0.0
  0
LINE
  5
314
330
1F
100
AcDbEntity
  8
0
  6
Continuous
 62
     7
370
    15
100
AcDbLine
 10
-52.3481545105
 20
31.8300298474
 30
0.0
 11
-52.3481545105
 21
96.7704284064
 31
0.0
  0
LINE
  5
315
330
1F
100
AcDbEntity
  8
0
  6
Continuous
 62
     7
370
    15
100
AcDbLine
 10
41.6518422709
 20
45.7704298257
 30
0.0
 11
131.7843171702
 21
45.7704298257
 31
0.0
  0
LINE
  5
316
330
1F
100
AcDbEntity
  8
0
  6
Continuous
 62
     7
370
    15
100
AcDbLine
 10
41.6518422709
 20
60.7704294904
 30
0.0
 11
131.7843171702
 21
60.7704294904
 31
0.0
  0
LINE
  5
317
330
1F
100
AcDbEntity
  8
0
  6
Continuous
 62
     7
370
    15
100
AcDbLine
 10
-62.7981600418
 20
46.7704295239
 30
0.0
 11
-62.7981600418
 21
59.7704297922
 31
0.0
  0
LINE
  5
318
330
1F
100
AcDbEntity
  8
0
  6
Continuous
 62
     7
370
    15
100
AcDbLine
 10
474.651840602
 20
45.7704298257
 30
0.0
 11
384.5193657027
 21
45.7704298257
 31
0.0
  0
LINE
  5
319
330
1F
100
AcDbEntity
  8
0
  6
Continuous
 62
     7
370
    15
100
AcDbLine
 10
474.651840602
 20
60.7704294904
 30
0.0
 11
384.5193657027
 21
60.7704294904
 31
0.0
  0
LINE
  5
31A
330
1F
100
AcDbEntity
  8
0
  6
Continuous
 62
     7
370
    15
100
AcDbLine
 10
57.5001063691
 20
82.317805203
 30
0.0
 11
57.5001063691
 21
60.7704294904
 31
0.0
  0
SPLINE
  5
31B
330
1F
100
AcDbEntity
  8
0
  6
Continuous
 62
     7
370
    15
100
AcDbSpline
210
0.0
220
0.0
230
1.0
 70
     8
 71
     3
 72
     8
 73
     4
 74
     0
 42
0.00000001
 43
0.00000001
 12
1.0
 22
0.0
 32
0.0
 13
1.0
 23
0.0
 33
0.0
 40
0.0
 40
0.0
 40
0.0
 40
0.0
 40
1.0
 40
1.0
 40
1.0
 40
1.0
 10
41.65184143642053
 20
91.69532393247572
 30
0.0
 10
46.9426109648079
 20
88.58305368200699
 30
0.0
 10
52.22791608254976
 20
85.46153162766684
 30
0.0
 10
57.5001063256757
 20
82.31780475461598
 30
0.0
  0
LINE
  5
31C
330
1F
100
AcDbEntity
  8
0
  6
Continuous
 62
     7
370
    15
100
AcDbLine
 10
458.8035765038
 20
60.7704294904
 30
0.0
 11
458.8035765038
 21
82.317805203
 31
0.0
  0
SPLINE
  5
31D
330
1F
100
AcDbEntity
  8
0
  6
Continuous
 62
     7
370
    15
100
AcDbSpline
210
0.0
220
0.0
230
1.0
 70
     8
 71
     3
 72
     8
 73
     4
 74
     0
 42
0.00000001
 43
0.00000001
 12
1.0
 22
0.0
 32
0.0
 13
1.0
 23
0.0
 33
0.0
 40
0.0
 40
0.0
 40
0.0
 40
0.0
 40
1.0
 40
1.0
 40
1.0
 40
1.0
 10
458.8035765471654
 20
82.31780475461598
 30
0.0
 10
464.0757698182676
 20
85.46153343320302
 30
0.0
 10
469.3610742131969
 20
88.58305503800867
 30
0.0
 10
474.6518414364206
 20
91.69532393247572
 30
0.0
  0
LINE
  5
31E
330
1F
100
AcDbEntity
  8
0
  6
Continuous
 62
     7
370
    15
100
AcDbLine
 10
57.5001063691
 20
45.7704298257
 30
0.0
 11
57.5001063691
 21
24.2230541132
 31
0.0
  0
SPLINE
  5
31F
330
1F
100
AcDbEntity
  8
0
  6
Continuous
 62
     7
370
    15
100
AcDbSpline
210
0.0
220
0.0
230
1.0
 70
     8
 71
     3
 72
     8
 73
     4
 74
     0
 42
0.00000001
 43
0.00000001
 12
1.0
 22
0.0
 32
0.0
 13
1.0
 23
0.0
 33
0.0
 40
0.0
 40
0.0
 40
0.0
 40
0.0
 40
1.0
 40
1.0
 40
1.0
 40
1.0
 10
57.5001063256757
 20
24.22305456150472
 30
0.0
 10
52.22791305457356
 20
21.07932588291768
 30
0.0
 10
46.9426086596442
 20
17.95780427811203
 30
0.0
 10
41.65184143642053
 20
14.84553538364498
 30
0.0
  0
LINE
  5
320
330
1F
100
AcDbEntity
  8
0
  6
Continuous
 62
     7
370
    15
100
AcDbLine
 10
458.8035765038
 20
24.2230541132
 30
0.0
 11
458.8035765038
 21
45.7704298257
 31
0.0
  0
SPLINE
  5
321
330
1F
100
AcDbEntity
  8
0
  6
Continuous
 62
     7
370
    15
100
AcDbSpline
210
0.0
220
0.0
230
1.0
 70
     8
 71
     3
 72
     8
 73
     4
 74
     0
 42
0.00000001
 43
0.00000001
 12
1.0
 22
0.0
 32
0.0
 13
1.0
 23
0.0
 33
0.0
 40
0.0
 40
0.0
 40
0.0
 40
0.0
 40
1.0
 40
1.0
 40
1.0
 40
1.0
 10
474.6518414364206
 20
14.84553538364498
 30
0.0
 10
469.3610719080332
 20
17.95780563411371
 30
0.0
 10
464.0757667902914
 20
21.07932768845385
 30
0.0
 10
458.8035765471654
 20
24.22305456150472
 30
0.0
  0
LINE
  5
322
330
1F
100
AcDbEntity
  8
0
  6
Continuous
 62
     7
370
    15
100
AcDbLine
 10
392.5718936072
 20
82.317805203
 30
0.0
 11
458.8035765038
 21
82.317805203
 31
0.0
  0
LINE
  5
323
330
1F
100
AcDbEntity
  8
0
  6
Continuous
 62
     7
370
    15
100
AcDbLine
 10
57.5001063691
 20
82.317805203
 30
0.0
 11
123.7317892657
 21
82.317805203
 31
0.0
  0
LINE
  5
324
330
1F
100
AcDbEntity
  8
0
  6
Continuous
 62
     7
370
    15
100
AcDbLine
 10
123.7317892657
 20
24.2230541132
 30
0.0
 11
57.5001063691
 21
24.2230541132
 31
0.0
  0
LINE
  5
325
330
1F
100
AcDbEntity
  8
0
  6
Continuous
 62
     7
370
    15
100
AcDbLine
 10
458.8035765038
 20
24.2230541132
 30
0.0
 11
392.5718936072
 21
24.2230541132
 31
0.0
  0
CIRCLE
  5
326
330
1F
100
AcDbEntity
  8
0
  6
Continuous
 62
     7
370
    15
100
AcDbCircle
 10
78.1518414364
 20
115.2704296581
 30
0.0
 40
19.65616497644444
  0
LINE
  5
327
330
1F
100
AcDbEntity
  8
0
  6
Continuous
 62
     7
370
    15
100
AcDbLine
 10
59.6518340454
 20
156.2704297773
 30
0.0
 11
41.4511236296
 21
115.318797814
 31
0.0
  0
CIRCLE
  5
328
330
1F
100
AcDbEntity
  8
0
  6
Continuous
 62
     7
370
    15
100
AcDbCircle
 10
438.1518414364
 20
115.2704296581
 30
0.0
 40
19.65616497644444
  0
LINE
  5
329
330
1F
100
AcDbEntity
  8
0
  6
Continuous
 62
     7
370
    15
100
AcDbLine
 10
456.6518488274
 20
156.2704297773
 30
0.0
 11
474.8525592432
 21
115.318797814
 31
0.0
  0
CIRCLE
  5
32A
330
1F
100
AcDbEntity
  8
0
  6
Continuous
 62
     7
370
    15
100
AcDbCircle
 10
78.1518414364
 20
115.2704296581
 30
0.0
 40
19.00000000000001
  0
CIRCLE
  5
32B
330
1F
100
AcDbEntity
  8
0
  6
Continuous
 62
     7
370
    15
100
AcDbCircle
 10
438.1518414364
 20
115.2704296581
 30
0.0
 40
19.00000000000001
  0
LINE
  5
32C
330
1F
100
AcDbEntity
  8
0
  6
Continuous
 62
     7
370
    15
100
AcDbLine
 10
59.6518340454
 20
-49.7295704611
 30
0.0
 11
41.4511236296
 21
-8.7779384979
 31
0.0
  0
CIRCLE
  5
32D
330
1F
100
AcDbEntity
  8
0
  6
Continuous
 62
     7
370
    15
100
AcDbCircle
 10
78.1518414364
 20
-8.7295703419
 30
0.0
 40
19.65616497644444
  0
CIRCLE
  5
32E
330
1F
100
AcDbEntity
  8
0
  6
Continuous
 62
     7
370
    15
100
AcDbCircle
 10
438.1518414364
 20
-8.7295703419
 30
0.0
 40
19.65616497644444
  0
LINE
  5
32F
330
1F
100
AcDbEntity
  8
0
  6
Continuous
 62
     7
370
    15
100
AcDbLine
 10
456.6518488274
 20
-49.7295704611
 30
0.0
 11
474.8525592432
 21
-8.7779384979
 31
0.0
  0
CIRCLE
  5
330
330
1F
100
AcDbEntity
  8
0
  6
Continuous
 62
     7
370
    15
100
AcDbCircle
 10
438.1518414364
 20
-8.7295703419
 30
0.0
 40
19.0
  0
CIRCLE
  5
331
330
1F
100
AcDbEntity
  8
0
  6
Continuous
 62
     7
370
    15
100
AcDbCircle
 10
78.1518414364
 20
-8.7295703419
 30
0.0
 40
19.0
  0
LINE
  5
332
330
1F
100
AcDbEntity
  8
0
  6
Continuous
 62
     7
370
    15
100
AcDbLine
 10
-62.7981600418
 20
82.7704298369
 30
0.0
 11
-62.7981600418
 21
95.7704301051
 31
0.0
  0
LINE
  5
333
330
1F
100
AcDbEntity
  8
0
  6
Continuous
 62
     8
370
     0
100
AcDbLine
 10
305.6021305666
 20
53.4921607411
 30
0.0
 11
306.6627914951
 21
53.4921607411
 31
0.0
  0
LINE
  5
334
330
1F
100
AcDbEntity
  8
0
  6
Continuous
 62
     8
370
     0
100
AcDbLine
 10
289.1949369506
 20
59.7610616184
 30
0.0
 11
290.2555960164
 21
59.7610616184
 31
0.0
  0
LINE
  5
335
330
1F
100
AcDbEntity
  8
0
  6
Continuous
 62
     8
370
     0
100
AcDbLine
 10
289.1949369506
 20
46.7797976977
 30
0.0
 11
290.2555960164
 21
46.7797976977
 31
0.0
  0
LINE
  5
336
330
1F
100
AcDbEntity
  8
0
  6
Continuous
 62
     8
370
     0
100
AcDbLine
 10
305.6021305666
 20
53.0486985751
 30
0.0
 11
306.6627914951
 21
53.0486985751
 31
0.0
  0
LINE
  5
337
330
1F
100
AcDbEntity
  8
0
  6
Continuous
 62
     8
370
     0
100
AcDbLine
 10
289.0253635989
 20
59.9827927596
 30
0.0
 11
290.0860245273
 21
59.9827927596
 31
0.0
  0
LINE
  5
338
330
1F
100
AcDbEntity
  8
0
  6
Continuous
 62
     8
370
     0
100
AcDbLine
 10
289.0253635989
 20
77.6784292481
 30
0.0
 11
290.0860245273
 21
77.6784292481
 31
0.0
  0
LINE
  5
339
330
1F
100
AcDbEntity
  8
0
  6
Continuous
 62
     8
370
     0
100
AcDbLine
 10
289.0253635989
 20
46.5580665565
 30
0.0
 11
290.0860245273
 21
46.5580665565
 31
0.0
  0
LINE
  5
33A
330
1F
100
AcDbEntity
  8
0
  6
Continuous
 62
     8
370
     0
100
AcDbLine
 10
289.0253635989
 20
30.1584287605
 30
0.0
 11
290.0860245273
 21
30.1584287605
 31
0.0
  0
LINE
  5
33B
330
1F
100
AcDbEntity
  8
0
  6
Continuous
 62
     8
370
     0
100
AcDbLine
 10
296.5343530224
 20
42.3890504113
 30
0.0
 11
297.5950139509
 21
42.3890504113
 31
0.0
  0
LINE
  5
33C
330
1F
100
AcDbEntity
  8
0
  6
Continuous
 62
     8
370
     0
100
AcDbLine
 10
313.0506138251
 20
49.0118212125
 30
0.0
 11
314.1112747536
 21
49.0118212125
 31
0.0
  0
LINE
  5
33D
330
1F
100
AcDbEntity
  8
0
  6
Continuous
 62
     8
370
     0
100
AcDbLine
 10
313.0506138251
 20
57.5290381036
 30
0.0
 11
314.1112747536
 21
57.5290381036
 31
0.0
  0
LINE
  5
33E
330
1F
100
AcDbEntity
  8
0
  6
Continuous
 62
     8
370
     0
100
AcDbLine
 10
296.5343530224
 20
64.1518089048
 30
0.0
 11
297.5950139509
 21
64.1518089048
 31
0.0
  0
LINE
  5
33F
330
1F
100
AcDbEntity
  8
0
  6
Continuous
 62
     8
370
     0
100
AcDbLine
 10
296.3726679728
 20
77.6784292481
 30
0.0
 11
297.4333289013
 21
77.6784292481
 31
0.0
  0
LINE
  5
340
330
1F
100
AcDbEntity
  8
0
  6
Continuous
 62
     8
370
     0
100
AcDbLine
 10
296.3726679728
 20
73.1145686529
 30
0.0
 11
297.4333289013
 21
73.1145686529
 31
0.0
  0
LINE
  5
341
330
1F
100
AcDbEntity
  8
0
  6
Continuous
 62
     8
370
     0
100
AcDbLine
 10
296.3726679728
 20
69.0494741372
 30
0.0
 11
297.4333289013
 21
69.0494741372
 31
0.0
  0
LINE
  5
342
330
1F
100
AcDbEntity
  8
0
  6
Continuous
 62
     8
370
     0
100
AcDbLine
 10
296.3726679728
 20
64.373540046
 30
0.0
 11
297.4333289013
 21
64.373540046
 31
0.0
  0
LINE
  5
343
330
1F
100
AcDbEntity
  8
0
  6
Continuous
 62
     8
370
     0
100
AcDbLine
 10
296.3726679728
 20
30.1584287605
 30
0.0
 11
297.4333289013
 21
30.1584287605
 31
0.0
  0
LINE
  5
344
330
1F
100
AcDbEntity
  8
0
  6
Continuous
 62
     8
370
     0
100
AcDbLine
 10
296.3726679728
 20
42.1673192701
 30
0.0
 11
297.4333289013
 21
42.1673192701
 31
0.0
  0
LINE
  5
345
330
1F
100
AcDbEntity
  8
0
  6
Continuous
 62
     8
370
     0
100
AcDbLine
 10
302.6661175237
 20
67.3879853509
 30
0.0
 11
303.5579706476
 21
67.3879853509
 31
0.0
  0
LINE
  5
346
330
1F
100
AcDbEntity
  8
0
  6
Continuous
 62
     8
370
     0
100
AcDbLine
 10
302.747377281
 20
33.1983438752
 30
0.0
 11
302.9372590528
 21
33.1983438752
 31
0.0
  0
LINE
  5
347
330
1F
100
AcDbEntity
  8
0
  6
Continuous
 62
     8
370
     0
100
AcDbLine
 10
313.0506138251
 20
28.6398830882
 30
0.0
 11
314.1112747536
 21
28.6398830882
 31
0.0
  0
LINE
  5
348
330
1F
100
AcDbEntity
  8
0
  6
Continuous
 62
     8
370
     0
100
AcDbLine
 10
305.7184676574
 20
40.3637413926
 30
0.0
 11
306.6189597295
 21
40.3637413926
 31
0.0
  0
LINE
  5
349
330
1F
100
AcDbEntity
  8
0
  6
Continuous
 62
     8
370
     0
100
AcDbLine
 10
305.7184676574
 20
37.2879638395
 30
0.0
 11
306.6189597295
 21
37.2879638395
 31
0.0
  0
LINE
  5
34A
330
1F
100
AcDbEntity
  8
0
  6
Continuous
 62
     8
370
     0
100
AcDbLine
 10
307.3960739122
 20
71.1229353271
 30
0.0
 11
307.6577532039
 21
71.1229353271
 31
0.0
  0
LINE
  5
34B
330
1F
100
AcDbEntity
  8
0
  6
Continuous
 62
     8
370
     0
100
AcDbLine
 10
313.01429597
 20
75.211381825
 30
0.0
 11
314.0749568985
 21
75.211381825
 31
0.0
  0
LINE
  5
34C
330
1F
100
AcDbEntity
  8
0
  6
Continuous
 62
     8
370
     0
100
AcDbLine
 10
-11.8481692924
 20
97.4907468132
 30
0.0
 11
-44.3481681003
 21
97.4907468132
 31
0.0
  0
LINE
  5
34D
330
1F
100
AcDbEntity
  8
0
  6
Continuous
 62
     8
370
     0
100
AcDbLine
 10
-44.3481681003
 20
99.2595593504
 30
0.0
 11
-11.8481692924
 21
99.2595593504
 31
0.0
  0
LINE
  5
34E
330
1F
100
AcDbEntity
  8
0
  6
Continuous
 62
     8
370
     0
100
AcDbLine
 10
-11.8481692924
 20
106.2704290322
 30
0.0
 11
-44.3481681003
 21
106.2704290322
 31
0.0
  0
INSERT
  5
35A
330
1F
100
AcDbEntity
  8
FORMAT
 62
     7
100
AcDbBlockReference
  2
SW_CENTERMARKSYMBOL_6
 10
-20.8481585636
 20
-22.7295703419
 30
0.0
  0
INSERT
  5
366
330
1F
100
AcDbEntity
  8
FORMAT
 62
     7
100
AcDbBlockReference
  2
SW_CENTERMARKSYMBOL_7
 10
258.1518414364
 20
53.2704296581
 30
0.0
  0
INSERT
  5
372
330
1F
100
AcDbEntity
  8
FORMAT
 62
     7
100
AcDbBlockReference
  2
SW_CENTERMARKSYMBOL_8
 10
78.1518414364
 20
-8.7295703419
 30
0.0
  0
INSERT
  5
37E
330
1F
100
AcDbEntity
  8
FORMAT
 62
     7
100
AcDbBlockReference
  2
SW_CENTERMARKSYMBOL_9
 10
78.1518414364
 20
115.2704296581
 30
0.0
  0
INSERT
  5
38A
330
1F
100
AcDbEntity
  8
FORMAT
 62
     7
100
AcDbBlockReference
  2
SW_CENTERMARKSYMBOL_10
 10
438.1518414364
 20
-8.7295703419
 30
0.0
  0
INSERT
  5
396
330
1F
100
AcDbEntity
  8
FORMAT
 62
     7
100
AcDbBlockReference
  2
SW_CENTERMARKSYMBOL_11
 10
438.1518414364
 20
115.2704296581
 30
0.0
  0
INSERT
  5
3BE
330
1F
100
AcDbEntity
  8
FORMAT
 62
     7
100
AcDbBlockReference
  2
SW_CENTERMARKSYMBOL_12
 10
-56.9106044041
 20
13.3328754986
 30
0.0
  0
ENDSEC
  0
SECTION
  2
OBJECTS
  0
DICTIONARY
  5
C
330
0
100
AcDbDictionary
281
     1
  3
ACAD_GROUP
350
D
  3
ACAD_LAYOUT
350
1A
  3
ACAD_MLINESTYLE
350
17
  3
ACAD_PLOTSETTINGS
350
19
  3
ACAD_PLOTSTYLENAME
350
E
  0
DICTIONARY
  5
D
102
{ACAD_REACTORS
330
C
102
}
330
C
100
AcDbDictionary
281
     1
  0
DICTIONARY
  5
1A
102
{ACAD_REACTORS
330
C
102
}
330
C
100
AcDbDictionary
281
     1
  3
Layout1
350
1E
  3
Layout2
350
26
  3
Model
350
22
  0
DICTIONARY
  5
17
102
{ACAD_REACTORS
330
C
102
}
330
C
100
AcDbDictionary
281
     1
  3
Standard
350
18
  0
DICTIONARY
  5
19
102
{ACAD_REACTORS
330
C
102
}
330
C
100
AcDbDictionary
281
     1
  0
ACDBDICTIONARYWDFLT
  5
E
102
{ACAD_REACTORS
330
C
102
}
330
C
100
AcDbDictionary
281
     1
  3
Normal
350
F
100
AcDbDictionaryWithDefault
340
F
  0
LAYOUT
  5
1E
102
{ACAD_REACTORS
330
1A
102
}
330
1A
100
AcDbPlotSettings
  1

  2
none_device
  4

  6

 40
0.0
 41
0.0
 42
0.0
 43
0.0
 44
0.0
 45
0.0
 46
0.0
 47
0.0
 48
0.0
 49
0.0
140
0.0
141
0.0
142
1.0
143
1.0
 70
   688
 72
     0
 73
     0
 74
     5
  7

 75
    16
147
1.0
148
0.0
149
0.0
100
AcDbLayout
  1
Layout1
 70
     1
 71
     1
 10
0.0
 20
0.0
 11
420.0
 21
297.0
 12
0.0
 22
0.0
 32
0.0
 14
1.0000000000E+20
 24
1.0000000000E+20
 34
1.0000000000E+20
 15
-1.0000000000E+20
 25
-1.0000000000E+20
 35
-1.0000000000E+20
146
0.0
 13
0.0
 23
0.0
 33
0.0
 16
1.0
 26
0.0
 36
0.0
 17
0.0
 27
1.0
 37
0.0
 76
     0
330
1B
  0
LAYOUT
  5
26
102
{ACAD_REACTORS
330
1A
102
}
330
1A
100
AcDbPlotSettings
  1

  2
none_device
  4

  6

 40
0.0
 41
0.0
 42
0.0
 43
0.0
 44
0.0
 45
0.0
 46
0.0
 47
0.0
 48
0.0
 49
0.0
140
0.0
141
0.0
142
1.0
143
1.0
 70
   688
 72
     0
 73
     0
 74
     5
  7

 75
    16
147
1.0
148
0.0
149
0.0
100
AcDbLayout
  1
Layout2
 70
     1
 71
     2
 10
0.0
 20
0.0
 11
0.0
 21
0.0
 12
0.0
 22
0.0
 32
0.0
 14
0.0
 24
0.0
 34
0.0
 15
0.0
 25
0.0
 35
0.0
146
0.0
 13
0.0
 23
0.0
 33
0.0
 16
1.0
 26
0.0
 36
0.0
 17
0.0
 27
1.0
 37
0.0
 76
     0
330
23
  0
LAYOUT
  5
22
102
{ACAD_REACTORS
330
1A
102
}
330
1A
100
AcDbPlotSettings
  1

  2
none_device
  4

  6

 40
0.0
 41
0.0
 42
0.0
 43
0.0
 44
0.0
 45
0.0
 46
0.0
 47
0.0
 48
0.0
 49
0.0
140
0.0
141
0.0
142
1.0
143
1.0
 70
  1712
 72
     0
 73
     0
 74
     0
  7

 75
     0
147
1.0
148
0.0
149
0.0
100
AcDbLayout
  1
Model
 70
     1
 71
     0
 10
0.0
 20
0.0
 11
841.0
 21
594.0
 12
0.0
 22
0.0
 32
0.0
 14
0.0
 24
0.0
 34
0.0
 15
841.0
 25
594.0
 35
0.0
146
0.0
 13
0.0
 23
0.0
 33
0.0
 16
1.0
 26
0.0
 36
0.0
 17
0.0
 27
1.0
 37
0.0
 76
     0
330
1F
331
29
  0
MLINESTYLE
  5
18
102
{ACAD_REACTORS
330
17
102
}
330
17
100
AcDbMlineStyle
  2
Standard
 70
     0
  3

 62
   256
 51
90.0
 52
90.0
 71
     2
 49
0.5
 62
   256
  6
BYLAYER
 49
-0.5
 62
   256
  6
BYLAYER
  0
ACDBPLACEHOLDER
  5
F
102
{ACAD_REACTORS
330
E
102
}
330
E
  0
ENDSEC
  0
EOF
