  0
SECTION
  2
HEADER
  9
$ACADVER
  1
AC1009
  9
$DWGCODEPAGE
  3
ansi_1252
  9
$INSBASE
 10
0.0
 20
0.0
 30
0.0
  9
$EXTMIN
 10
0.0
 20
0.0
 30
0.0
  9
$EXTMAX
 10
841.0
 20
594.0
 30
0.0
  9
$LIMMIN
 10
0.0
 20
0.0
  9
$LIMMAX
 10
841.0
 20
594.0
  9
$ORTHOMODE
 70
     0
  9
$REGENMODE
 70
     1
  9
$FILLMODE
 70
     1
  9
$QTEXTMODE
 70
     0
  9
$MIRRTEXT
 70
     1
  9
$DRAGMODE
 70
     2
  9
$LTSCALE
 40
1.0
  9
$OSMODE
 70
    37
  9
$ATTMODE
 70
     1
  9
$TEXTSIZE
 40
2.5
  9
$TRACEWID
 40
1.0
  9
$TEXTSTYLE
  7
STANDARD
  9
$CLAYER
  8
0
  9
$CELTYPE
  6
BYLAYER
  9
$CECOLOR
 62
   256
  9
$DIMSCALE
 40
1.0
  9
$DIMASZ
 40
2.5
  9
$DIMEXO
 40
1.0
  9
$DIMDLI
 40
3.75
  9
$DIMRND
 40
0.0
  9
$DIMDLE
 40
0.0
  9
$DIMEXE
 40
1.0
  9
$DIMTP
 40
0.0
  9
$DIMTM
 40
0.0
  9
$DIMTXT
 40
2.5
  9
$DIMCEN
 40
2.5
  9
$DIMTSZ
 40
0.0
  9
$DIMTOL
 70
     0
  9
$DIMLIM
 70
     0
  9
$DIMTIH
 70
     1
  9
$DIMTOH
 70
     1
  9
$DIMSE1
 70
     0
  9
$DIMSE2
 70
     0
  9
$DIMTAD
 70
     1
  9
$DIMZIN
 70
     0
  9
$DIMBLK
  1

  9
$DIMASO
 70
     1
  9
$DIMSHO
 70
     1
  9
$DIMPOST
  1

  9
$DIMAPOST
  1

  9
$DIMALT
 70
     0
  9
$DIMALTD
 70
     3
  9
$DIMALTF
 40
0.0393700787
  9
$DIMLFAC
 40
1.0
  9
$DIMTOFL
 70
     1
  9
$DIMTVP
 40
0.0
  9
$DIMTIX
 70
     0
  9
$DIMSOXD
 70
     0
  9
$DIMSAH
 70
     0
  9
$DIMBLK1
  1

  9
$DIMBLK2
  1

  9
$DIMSTYLE
  2
ISO-25
  9
$DIMCLRD
 70
     0
  9
$DIMCLRE
 70
     0
  9
$DIMCLRT
 70
     0
  9
$DIMTFAC
 40
1.0
  9
$DIMGAP
 40
1.524
  9
$LUNITS
 70
     2
  9
$LUPREC
 70
     2
  9
$SKETCHINC
 40
1.0
  9
$FILLETRAD
 40
10.0
  9
$AUNITS
 70
     0
  9
$AUPREC
 70
     2
  9
$MENU
  1
.
  9
$ELEVATION
 40
0.0
  9
$PELEVATION
 40
0.0
  9
$THICKNESS
 40
0.0
  9
$LIMCHECK
 70
     0
  9
$CHAMFERA
 40
10.0
  9
$CHAMFERB
 40
10.0
  9
$SKPOLY
 70
     0
  9
$TDCREATE
 40
2457374.564221898
  9
$TDUPDATE
 40
2457374.564225336
  9
$TDINDWG
 40
0.0000000116
  9
$TDUSRTIMER
 40
0.0000000116
  9
$USRTIMER
 70
     1
  9
$ANGBASE
 50
0.0
  9
$ANGDIR
 70
     0
  9
$PDMODE
 70
     0
  9
$PDSIZE
 40
-1.0
  9
$PLINEWID
 40
0.0
  9
$COORDS
 70
     1
  9
$SPLFRAME
 70
     0
  9
$SPLINETYPE
 70
     6
  9
$SPLINESEGS
 70
     8
  9
$ATTDIA
 70
     0
  9
$ATTREQ
 70
     1
  9
$HANDLING
 70
     1
  9
$HANDSEED
  5
BA7
  9
$SURFTAB1
 70
     6
  9
$SURFTAB2
 70
     6
  9
$SURFTYPE
 70
     6
  9
$SURFU
 70
     6
  9
$SURFV
 70
     6
  9
$UCSNAME
  2

  9
$UCSORG
 10
0.0
 20
0.0
 30
0.0
  9
$UCSXDIR
 10
1.0
 20
0.0
 30
0.0
  9
$UCSYDIR
 10
0.0
 20
1.0
 30
0.0
  9
$PUCSNAME
  2

  9
$PUCSORG
 10
0.0
 20
0.0
 30
0.0
  9
$PUCSXDIR
 10
1.0
 20
0.0
 30
0.0
  9
$PUCSYDIR
 10
0.0
 20
1.0
 30
0.0
  9
$USERI1
 70
     0
  9
$USERI2
 70
     0
  9
$USERI3
 70
     0
  9
$USERI4
 70
     0
  9
$USERI5
 70
     0
  9
$USERR1
 40
0.0
  9
$USERR2
 40
0.0
  9
$USERR3
 40
0.0
  9
$USERR4
 40
0.0
  9
$USERR5
 40
0.0
  9
$WORLDVIEW
 70
     1
  9
$SHADEDGE
 70
     3
  9
$SHADEDIF
 70
    70
  9
$TILEMODE
 70
     1
  9
$MAXACTVP
 70
    64
  9
$PLIMCHECK
 70
     0
  9
$PEXTMIN
 10
1.0000000000E+20
 20
1.0000000000E+20
 30
1.0000000000E+20
  9
$PEXTMAX
 10
-1.0000000000E+20
 20
-1.0000000000E+20
 30
-1.0000000000E+20
  9
$PLIMMIN
 10
0.0
 20
0.0
  9
$PLIMMAX
 10
420.0
 20
297.0
  9
$UNITMODE
 70
     0
  9
$VISRETAIN
 70
     1
  9
$PLINEGEN
 70
     0
  9
$PSLTSCALE
 70
     1
  0
ENDSEC
  0
SECTION
  2
TABLES
  0
TABLE
  2
VPORT
 70
     1
  0
VPORT
  2
*ACTIVE
 70
     0
 10
0.0
 20
0.0
 11
1.0
 21
1.0
 12
420.5
 22
297.0
 13
0.0
 23
0.0
 14
10.0
 24
10.0
 15
10.0
 25
10.0
 16
0.0
 26
0.0
 36
1.0
 17
0.0
 27
0.0
 37
0.0
 40
594.0
 41
1.4158249158
 42
50.0
 43
0.0
 44
0.0
 50
0.0
 51
0.0
 71
     0
 72
  2000
 73
     1
 74
     3
 75
     0
 76
     0
 77
     0
 78
     0
  0
ENDTAB
  0
TABLE
  2
LTYPE
 70
     6
  0
LTYPE
  2
CONTINUOUS
 70
     0
  3
Solid line
 72
    65
 73
     0
 40
0.0
  0
LTYPE
  2
HIDDEN
 70
     0
  3
Hidden __ __ __ __ __ __ __ __ __ __ __ __ __ __
 72
    65
 73
     2
 40
1.905
 49
1.27
 49
-0.635
  0
LTYPE
  2
PHANTOM
 70
     0
  3
Phantom ______  __  __  ______  __  __  ______
 72
    65
 73
     6
 40
12.7
 49
6.35
 49
-1.27
 49
1.27
 49
-1.27
 49
1.27
 49
-1.27
  0
LTYPE
  2
CENTER
 70
     0
  3
Center ____ _ ____ _ ____ _ ____ _ ____ _ ____
 72
    65
 73
     4
 40
10.16
 49
6.35
 49
-1.27
 49
1.27
 49
-1.27
  0
LTYPE
  2
CENTERX2
 70
     0
  3
Center (2x) ________  __  ________  __  _____
 72
    65
 73
     4
 40
20.32
 49
12.7
 49
-2.54
 49
2.54
 49
-2.54
  0
LTYPE
  2
DOT2
 70
     0
  3
Dot (.5x) ........................................
 72
    65
 73
     2
 40
0.635
 49
0.0
 49
-0.635
  0
ENDTAB
  0
TABLE
  2
LAYER
 70
     5
  0
LAYER
  2
0
 70
     0
 62
     7
  6
CONTINUOUS
  0
LAYER
  2
FORMAT
 70
     0
 62
     7
  6
CONTINUOUS
  0
LAYER
  2
PROTOTYPE
 70
     0
 62
     7
  6
CONTINUOUS
  0
LAYER
  2
TECH_TEXT
 70
     0
 62
     7
  6
CONTINUOUS
  0
LAYER
  2
TOOLING_TABLE
 70
     0
 62
    -7
  6
CONTINUOUS
  0
ENDTAB
  0
TABLE
  2
STYLE
 70
     1
  0
STYLE
  2
STANDARD
 70
     0
 40
0.0
 41
1.0
 50
0.0
 71
     0
 42
2.5
  3
txt
  4

  0
ENDTAB
  0
TABLE
  2
VIEW
 70
     0
  0
ENDTAB
  0
TABLE
  2
UCS
 70
     0
  0
ENDTAB
  0
TABLE
  2
APPID
 70
     1
  0
APPID
  2
ACAD
 70
     0
  0
ENDTAB
  0
TABLE
  2
DIMSTYLE
 70
     1
  0
DIMSTYLE
  2
ISO-25
 70
     0
  3

  4

  5

  6

  7

 40
1.0
 41
2.5
 42
0.625
 43
3.75
 44
1.25
 45
0.0
 46
0.0
 47
0.0
 48
0.0
140
2.5
141
2.5
142
0.0
143
0.0393700787
144
1.0
145
0.0
146
1.0
147
0.625
 71
     0
 72
     0
 73
     0
 74
     0
 75
     0
 76
     0
 77
     1
 78
     8
170
     0
171
     3
172
     1
173
     0
174
     0
175
     0
176
     0
177
     0
178
     0
  0
ENDTAB
  0
ENDSEC
  0
SECTION
  2
BLOCKS
  0
BLOCK
  8
0
  2
$MODEL_SPACE
 70
     0
 10
0.0
 20
0.0
 30
0.0
  3
$MODEL_SPACE
  1

  0
ENDBLK
  5
21
  8
0
  0
BLOCK
 67
     1
  8
0
  2
$PAPER_SPACE
 70
     0
 10
0.0
 20
0.0
 30
0.0
  3
$PAPER_SPACE
  1

  0
ENDBLK
  5
1D
 67
     1
  8
0
  0
BLOCK
  8
0
  2
SW_CENTERMARKSYMBOL_0
 70
     0
 10
0.0
 20
0.0
 30
0.0
  3
SW_CENTERMARKSYMBOL_0
  1

  0
LINE
  5
2EF
  8
FORMAT
 62
     0
 10
0.0
 20
0.0
 30
0.0
 11
0.0
 21
2.5
 31
0.0
  0
LINE
  5
2F0
  8
FORMAT
 62
     0
 10
0.0
 20
0.0
 30
0.0
 11
-2.5
 21
0.0
 31
0.0
  0
LINE
  5
2F1
  8
FORMAT
 62
     0
 10
0.0
 20
0.0
 30
0.0
 11
0.0
 21
-2.5
 31
0.0
  0
LINE
  5
2F2
  8
FORMAT
 62
     0
 10
0.0
 20
0.0
 30
0.0
 11
2.5
 21
0.0
 31
0.0
  0
LINE
  5
2F3
  8
FORMAT
 62
     0
 10
0.0
 20
5.0
 30
0.0
 11
0.0
 21
242.9322682302
 31
0.0
  0
LINE
  5
2F4
  8
FORMAT
 62
     0
 10
-5.0
 20
0.0
 30
0.0
 11
-49.5006112578
 21
0.0
 31
0.0
  0
LINE
  5
2F5
  8
FORMAT
 62
     0
 10
0.0
 20
-5.0
 30
0.0
 11
0.0
 21
-40.8768929003
 31
0.0
  0
LINE
  5
2F6
  8
FORMAT
 62
     0
 10
5.0
 20
0.0
 30
0.0
 11
49.2321473996
 21
0.0
 31
0.0
  0
ENDBLK
  5
2EE
  8
0
  0
BLOCK
  8
0
  2
SW_CENTERMARKSYMBOL_1
 70
     0
 10
0.0
 20
0.0
 30
0.0
  3
SW_CENTERMARKSYMBOL_1
  1

  0
LINE
  5
3D1
  8
FORMAT
 62
     0
 10
0.0
 20
0.0
 30
0.0
 11
0.0
 21
2.5
 31
0.0
  0
LINE
  5
3D2
  8
FORMAT
 62
     0
 10
0.0
 20
0.0
 30
0.0
 11
-2.5
 21
0.0
 31
0.0
  0
LINE
  5
3D3
  8
FORMAT
 62
     0
 10
0.0
 20
0.0
 30
0.0
 11
0.0
 21
-2.5
 31
0.0
  0
LINE
  5
3D4
  8
FORMAT
 62
     0
 10
0.0
 20
0.0
 30
0.0
 11
2.5
 21
0.0
 31
0.0
  0
LINE
  5
3D5
  8
FORMAT
 62
     0
 10
0.0
 20
5.0
 30
0.0
 11
0.0
 21
60.575068889
 31
0.0
  0
LINE
  5
3D6
  8
FORMAT
 62
     0
 10
-5.0
 20
0.0
 30
0.0
 11
-288.1526965632
 21
0.0
 31
0.0
  0
LINE
  5
3D7
  8
FORMAT
 62
     0
 10
0.0
 20
-5.0
 30
0.0
 11
0.0
 21
-61.2056099665
 31
0.0
  0
LINE
  5
3D8
  8
FORMAT
 62
     0
 10
5.0
 20
0.0
 30
0.0
 11
289.9091353717
 21
0.0
 31
0.0
  0
ENDBLK
  5
3D0
  8
0
  0
ENDSEC
  0
SECTION
  2
ENTITIES
  0
LINE
  5
48
  8
TOOLING_TABLE
 62
     7
 10
558.0
 20
36.8671069427
 30
0.0
 11
644.0
 21
36.8671069427
 31
0.0
  0
LINE
  5
49
  8
TOOLING_TABLE
 62
     7
 10
558.0
 20
24.8671069427
 30
0.0
 11
644.0
 21
24.8671069427
 31
0.0
  0
LINE
  5
4A
  8
TOOLING_TABLE
 62
     7
 10
558.0
 20
63.8671069427
 30
0.0
 11
558.0
 21
12.8671069427
 31
0.0
  0
LINE
  5
4B
  8
TOOLING_TABLE
 10
558.0
 20
12.8671069427
 30
0.0
 11
644.0
 21
12.8671069427
 31
0.0
  0
LINE
  5
4C
  8
TOOLING_TABLE
 10
644.0
 20
63.8671069427
 30
0.0
 11
644.0
 21
12.8671069427
 31
0.0
  0
LINE
  5
4D
  8
TOOLING_TABLE
 62
     7
 10
558.0
 20
45.8671069427
 30
0.0
 11
644.0
 21
45.8671069427
 31
0.0
  0
LINE
  5
4E
  8
TOOLING_TABLE
 62
     7
 10
558.0
 20
54.8671069427
 30
0.0
 11
644.0
 21
54.8671069427
 31
0.0
  0
LINE
  5
4F
  8
TOOLING_TABLE
 62
     7
 10
558.0
 20
63.8671069427
 30
0.0
 11
644.0
 21
63.8671069427
 31
0.0
  0
LINE
  5
50
  8
TOOLING_TABLE
 62
     7
 10
601.0
 20
63.8671069427
 30
0.0
 11
601.0
 21
36.8671069427
 31
0.0
  0
LINE
  5
51
  8
TOOLING_TABLE
 62
     7
 10
624.0
 20
54.8671069427
 30
0.0
 11
624.0
 21
45.8671069427
 31
0.0
  0
TEXT
  5
52
  8
TOOLING_TABLE
 10
602.1062783613
 20
53.1472890072
 30
0.0
 40
1.2
  1
Date:
 41
0.7
 11
602.1062783613
 21
52.7233769329
 31
0.0
 73
     1
  0
TEXT
  5
53
  8
TOOLING_TABLE
 10
603.018097772
 20
47.4888007685
 30
0.0
 40
2.5
  1
yyyy.mm.dd
 41
0.7
 11
603.018097772
 21
46.6056506137
 31
0.0
 73
     1
  0
TEXT
  5
54
  8
TOOLING_TABLE
 10
560.201296573
 20
16.6814315711
 30
0.0
 40
2.6458333333
  1
-
 41
0.7
 11
560.201296573
 21
15.746764324
 31
0.0
 73
     1
  0
TEXT
  5
55
  8
TOOLING_TABLE
 10
560.201296573
 20
28.9413815461
 30
0.0
 40
2.6458333333
  1
-
 41
0.7
 11
560.201296573
 21
28.006714299
 31
0.0
 73
     1
  0
TEXT
  5
56
  8
TOOLING_TABLE
 10
560.201296573
 20
38.9105738177
 30
0.0
 40
2.6458333333
  1
-
 41
0.7
 11
560.201296573
 21
37.9759065705
 31
0.0
 73
     1
  0
TEXT
  5
57
  8
TOOLING_TABLE
 10
559.8363625628
 20
47.5198317328
 30
0.0
 40
2.6458333333
  1
-
 41
0.7
 11
559.8363625628
 21
46.5851644856
 31
0.0
 73
     1
  0
TEXT
  5
58
  8
TOOLING_TABLE
 10
603.9499678367
 20
39.3226071614
 30
0.0
 40
2.5
  1
-
 41
0.7
 11
603.9499678367
 21
38.4394570066
 31
0.0
 73
     1
  0
TEXT
  5
59
  8
TOOLING_TABLE
 10
630.2212650386
 20
47.4250903135
 30
0.0
 40
3.175
  1
-
 41
0.7
 11
630.2212650386
 21
46.3034896169
 31
0.0
 73
     1
  0
TEXT
  5
5A
  8
TOOLING_TABLE
 10
610.1822179805
 20
57.6531886813
 30
0.0
 40
3.175
  1
T-
 41
0.7
 11
610.1822179805
 21
56.5315879847
 31
0.0
 73
     1
  0
TEXT
  5
5B
  8
TOOLING_TABLE
 62
     7
 10
559.1184091958
 20
44.3644642694
 30
0.0
 40
1.2
  1
Not specified chamfer:
 41
0.6681818182
 11
559.1184091958
 21
43.940552195
 31
0.0
 73
     1
  0
TEXT
  5
5C
  8
TOOLING_TABLE
 10
559.1184091958
 20
53.1472890072
 30
0.0
 40
1.2
  1
Not specified tolerance:
 41
0.6708333333
 11
559.1184091958
 21
52.7233769329
 31
0.0
 73
     1
  0
TEXT
  5
5D
  8
TOOLING_TABLE
 10
559.1184091958
 20
34.9954885695
 30
0.0
 40
1.2
  1
Hardening & Surfacing:
 41
0.6681818182
 11
559.1184091958
 21
34.5715764952
 31
0.0
 73
     1
  0
TEXT
  5
5E
  8
TOOLING_TABLE
 10
559.1184091958
 20
23.2152478097
 30
0.0
 40
1.2
  1
Notes:
 41
0.7
 11
559.1184091958
 21
22.7913357354
 31
0.0
 73
     1
  0
TEXT
  5
5F
  8
TOOLING_TABLE
 10
602.1062783613
 20
44.3644642694
 30
0.0
 40
1.2
  1
Ekstern part no.:
 41
0.6588235294
 11
602.1062783613
 21
43.940552195
 31
0.0
 73
     1
  0
TEXT
  5
60
  8
TOOLING_TABLE
 10
624.6246212708
 20
53.1472890072
 30
0.0
 40
1.2
  1
Number:
 41
0.7
 11
624.6246212708
 21
52.7233769329
 31
0.0
 73
     1
  0
TEXT
  5
61
  8
TOOLING_TABLE
 10
601.8747919494
 20
62.1407640834
 30
0.0
 40
1.2
  1
Order no.:
 41
0.7
 11
601.8747919494
 21
61.7168520091
 31
0.0
 73
     1
  0
TEXT
  5
62
  8
TOOLING_TABLE
 10
561.334242998
 20
57.6531886813
 30
0.0
 40
3.175
  1
AVK Tech Tooling
 41
0.65625
 11
561.334242998
 21
56.5315879847
 31
0.0
 73
     1
  0
LINE
  5
63
  8
0
  6
CONTINUOUS
 62
     7
 10
345.6110604545
 20
431.3743256826
 30
0.0
 11
345.8742708406
 21
421.3227101464
 31
0.0
  0
LINE
  5
64
  8
0
  6
CONTINUOUS
 62
     7
 10
305.3478509626
 20
421.3227101464
 30
0.0
 11
305.6110613486
 21
431.3743256826
 31
0.0
  0
LINE
  5
65
  8
0
  6
CONTINUOUS
 62
     7
 10
375.5063176593
 20
401.3743244905
 30
0.0
 11
375.6110616466
 21
405.3743251462
 31
0.0
  0
LINE
  5
66
  8
0
  6
CONTINUOUS
 62
     7
 10
275.6110601565
 20
405.3743251462
 30
0.0
 11
275.7158041438
 21
401.3743244905
 31
0.0
  0
LINE
  5
67
  8
0
  6
CONTINUOUS
 62
     7
 10
275.6560430369
 20
407.0920639534
 30
0.0
 11
275.6110601565
 21
405.3743251462
 31
0.0
  0
LINE
  5
68
  8
0
  6
CONTINUOUS
 62
     7
 10
375.6110616466
 20
405.3743251462
 30
0.0
 11
375.5660787663
 21
407.0920639534
 31
0.0
  0
ARC
  5
69
  8
0
  6
CONTINUOUS
 62
     7
 10
369.5681362783
 20
406.9350029148
 30
0.0
 40
5.999999999999976
 50
1.5
 51
60.0
  0
ARC
  5
6A
  8
0
  6
CONTINUOUS
 62
     7
 10
281.6539855249
 20
406.9350029148
 30
0.0
 40
5.999999999999976
 50
120.0
 51
178.5
  0
LINE
  5
6B
  8
0
  6
CONTINUOUS
 62
     7
 10
275.6110601565
 20
401.3743244905
 30
0.0
 11
276.4859483084
 21
391.3743191261
 31
0.0
  0
LINE
  5
6C
  8
0
  6
CONTINUOUS
 62
     7
 10
374.7361734947
 20
391.3743191261
 30
0.0
 11
375.6110616466
 21
401.3743244905
 31
0.0
  0
LINE
  5
6D
  8
0
  6
CONTINUOUS
 62
     7
 10
276.4859483084
 20
391.3743191261
 30
0.0
 11
282.1179762921
 21
389.8652263779
 31
0.0
  0
LINE
  5
6E
  8
0
  6
CONTINUOUS
 62
     7
 10
369.1041455111
 20
389.8652263779
 30
0.0
 11
374.7361734947
 21
391.3743191261
 31
0.0
  0
LINE
  5
6F
  8
0
  6
CONTINUOUS
 62
     7
 10
290.0232881746
 20
418.695225646
 30
0.0
 11
278.6539853057
 21
412.1311523814
 31
0.0
  0
LINE
  5
70
  8
0
  6
CONTINUOUS
 62
     7
 10
372.5681364974
 20
412.1311523814
 30
0.0
 11
361.1988336286
 21
418.695225646
 31
0.0
  0
LINE
  5
71
  8
0
  6
CONTINUOUS
 62
     7
 10
279.1369505665
 20
334.3743228216
 30
0.0
 11
261.2841710886
 21
334.3743228216
 31
0.0
  0
LINE
  5
72
  8
0
  6
CONTINUOUS
 62
     7
 10
389.9379507145
 20
334.3743228216
 30
0.0
 11
372.0851712367
 21
334.3743228216
 31
0.0
  0
LINE
  5
73
  8
0
  6
CONTINUOUS
 62
     7
 10
364.6110617062
 20
267.3743211527
 30
0.0
 11
389.9379507145
 21
267.3743211527
 31
0.0
  0
LINE
  5
74
  8
0
  6
CONTINUOUS
 62
     7
 10
261.2841710886
 20
267.3743211527
 30
0.0
 11
286.6110600969
 21
267.3743211527
 31
0.0
  0
LINE
  5
75
  8
0
  6
CONTINUOUS
 62
     7
 10
261.2841710886
 20
334.3743228216
 30
0.0
 11
242.285376831
 21
331.0243219931
 31
0.0
  0
LINE
  5
76
  8
0
  6
CONTINUOUS
 62
     7
 10
242.285376831
 20
270.7243219812
 30
0.0
 11
261.2841710886
 21
267.3743211527
 31
0.0
  0
LINE
  5
77
  8
0
  6
CONTINUOUS
 62
     7
 10
389.9379507145
 20
267.3743211527
 30
0.0
 11
408.9367449722
 21
270.7243219812
 31
0.0
  0
LINE
  5
78
  8
0
  6
CONTINUOUS
 62
     7
 10
408.9367449722
 20
331.0243219931
 30
0.0
 11
389.9379507145
 21
334.3743228216
 31
0.0
  0
LINE
  5
79
  8
0
  6
CONTINUOUS
 62
     7
 10
357.0090294322
 20
438.1765716571
 30
0.0
 11
356.6110603949
 21
453.3743255634
 31
0.0
  0
LINE
  5
7A
  8
0
  6
CONTINUOUS
 62
     7
 10
294.6110614082
 20
453.3743255634
 30
0.0
 11
294.2130923709
 21
438.1765716571
 31
0.0
  0
LINE
  5
7B
  8
0
  6
CONTINUOUS
 62
     7
 10
242.285376831
 20
331.0243219931
 30
0.0
 11
41.4193630656
 21
331.0243219931
 31
0.0
  0
LINE
  5
7C
  8
0
  6
CONTINUOUS
 62
     7
 10
41.4193630656
 20
270.7243219812
 30
0.0
 11
242.285376831
 21
270.7243219812
 31
0.0
  0
LINE
  5
7D
  8
0
  6
CONTINUOUS
 62
     7
 10
609.8027587375
 20
331.0243219931
 30
0.0
 11
408.9367449722
 21
331.0243219931
 31
0.0
  0
LINE
  5
7E
  8
0
  6
CONTINUOUS
 62
     7
 10
408.9367449722
 20
270.7243219812
 30
0.0
 11
609.8027587375
 21
270.7243219812
 31
0.0
  0
LINE
  5
7F
  8
0
  6
CONTINUOUS
 62
     7
 10
41.4193630656
 20
331.0243219931
 30
0.0
 11
40.6110644778
 21
329.6243225087
 31
0.0
  0
LINE
  5
80
  8
0
  6
CONTINUOUS
 62
     7
 10
40.6110644778
 20
272.1243214656
 30
0.0
 11
41.4193630656
 21
270.7243219812
 31
0.0
  0
LINE
  5
81
  8
0
  6
CONTINUOUS
 62
     7
 10
609.8027587375
 20
270.7243219812
 30
0.0
 11
610.6110573253
 21
272.1243214656
 31
0.0
  0
LINE
  5
82
  8
0
  6
CONTINUOUS
 62
     7
 10
610.6110573253
 20
329.6243225087
 30
0.0
 11
609.8027587375
 21
331.0243219931
 31
0.0
  0
LINE
  5
83
  8
0
  6
CONTINUOUS
 62
     7
 10
290.2987510404
 20
429.214625885
 30
0.0
 11
290.0232881746
 21
418.695225646
 31
0.0
  0
LINE
  5
84
  8
0
  6
CONTINUOUS
 62
     7
 10
361.1988336286
 20
418.695225646
 30
0.0
 11
360.9233707627
 21
429.214625885
 31
0.0
  0
LINE
  5
85
  8
0
  6
CONTINUOUS
 62
     7
 10
287.1110611102
 20
371.7623346347
 30
0.0
 11
287.1110611102
 21
341.7277552981
 31
0.0
  0
LINE
  5
86
  8
0
  6
CONTINUOUS
 62
     7
 10
364.1110606929
 20
341.7277552981
 30
0.0
 11
364.1110606929
 21
371.7623346347
 31
0.0
  0
LINE
  5
87
  8
0
  6
CONTINUOUS
 62
     7
 10
302.3599036476
 20
473.5008024473
 30
0.0
 11
298.8110617241
 21
453.3743255634
 31
0.0
  0
LINE
  5
88
  8
0
  6
CONTINUOUS
 62
     7
 10
352.411060079
 20
453.3743255634
 30
0.0
 11
348.8622181555
 21
473.5008024473
 31
0.0
  0
LINE
  5
89
  8
0
  6
CONTINUOUS
 62
     7
 10
348.8622181555
 20
473.5008024473
 30
0.0
 11
347.7600556305
 21
494.5313327808
 31
0.0
  0
LINE
  5
8A
  8
0
  6
CONTINUOUS
 62
     7
 10
303.4620661726
 20
494.5313327808
 30
0.0
 11
302.3599036476
 21
473.5008024473
 31
0.0
  0
ARC
  5
8B
  8
0
  6
CONTINUOUS
 62
     7
 10
306.4579546017
 20
494.3743219871
 30
0.0
 40
3.000000000000048
 50
90.0
 51
177.0
  0
ARC
  5
8C
  8
0
  6
CONTINUOUS
 62
     7
 10
344.7641672014
 20
494.3743219871
 30
0.0
 40
3.0
 50
3.0
 51
90.0
  0
LINE
  5
8D
  8
0
  6
CONTINUOUS
 62
     7
 10
344.6690220824
 20
497.374325325
 30
0.0
 11
343.6110601267
 21
503.3743225832
 31
0.0
  0
LINE
  5
8E
  8
0
  6
CONTINUOUS
 62
     7
 10
307.6110616764
 20
503.3743225832
 30
0.0
 11
306.5530997208
 21
497.374325325
 31
0.0
  0
ARC
  5
8F
  8
0
  6
CONTINUOUS
 62
     7
 10
279.1464183481
 20
342.3504506436
 30
0.0
 40
7.976144603832417
 50
269.9320694706
 51
356.5942144649
  0
ARC
  5
90
  8
0
  6
CONTINUOUS
 62
     7
 10
372.0758042515
 20
342.3506267816
 30
0.0
 40
7.976320622798088
 50
183.39636225
 51
270.0672049853
  0
LINE
  5
91
  8
0
  6
CONTINUOUS
 62
     7
 10
336.4110611817
 20
503.3743225832
 30
0.0
 11
336.4110611817
 21
510.1404928465
 31
0.0
  0
LINE
  5
92
  8
0
  6
CONTINUOUS
 62
     7
 10
314.8110606214
 20
510.1404928465
 30
0.0
 11
314.8110606214
 21
503.3743225832
 31
0.0
  0
POLYLINE
  5
93
  8
0
  6
CONTINUOUS
 62
     7
 66
     1
 10
0.0
 20
0.0
 30
0.0
  0
VERTEX
  5
3DA
  8
0
  6
CONTINUOUS
 62
     7
 10
360.9251812538
 20
405.3743251462
 30
0.0
  0
VERTEX
  5
3DB
  8
0
  6
CONTINUOUS
 62
     7
 10
361.0680126092
 20
405.3585969705
 30
0.0
  0
VERTEX
  5
3DC
  8
0
  6
CONTINUOUS
 62
     7
 10
361.211004152
 20
405.3116285104
 30
0.0
  0
VERTEX
  5
3DD
  8
0
  6
CONTINUOUS
 62
     7
 10
361.3541447064
 20
405.2334272165
 30
0.0
  0
VERTEX
  5
3DE
  8
0
  6
CONTINUOUS
 62
     7
 10
361.4974379977
 20
405.1239930887
 30
0.0
  0
VERTEX
  5
3DF
  8
0
  6
CONTINUOUS
 62
     7
 10
361.688724204
 20
404.9294882316
 30
0.0
  0
VERTEX
  5
3E0
  8
0
  6
CONTINUOUS
 62
     7
 10
361.88026373
 20
404.6794541974
 30
0.0
  0
VERTEX
  5
3E1
  8
0
  6
CONTINUOUS
 62
     7
 10
362.0720528504
 20
404.3738835354
 30
0.0
  0
VERTEX
  5
3E2
  8
0
  6
CONTINUOUS
 62
     7
 10
362.30252166
 20
403.9339043994
 30
0.0
  0
VERTEX
  5
3E3
  8
0
  6
CONTINUOUS
 62
     7
 10
362.5333331963
 20
403.4139507312
 30
0.0
  0
VERTEX
  5
3E4
  8
0
  6
CONTINUOUS
 62
     7
 10
362.7644688329
 20
402.8140448827
 30
0.0
  0
VERTEX
  5
3E5
  8
0
  6
CONTINUOUS
 62
     7
 10
362.9959211191
 20
402.1341645021
 30
0.0
  0
VERTEX
  5
3E6
  8
0
  6
CONTINUOUS
 62
     7
 10
363.2276826045
 20
401.3743244905
 30
0.0
  0
SEQEND
  5
BA6
  8
0
  6
CONTINUOUS
 62
     7
  0
LINE
  5
94
  8
0
  6
CONTINUOUS
 62
     7
 10
363.2276826045
 20
401.3743244905
 30
0.0
 11
362.5004239818
 21
401.3743244905
 31
0.0
  0
LINE
  5
95
  8
0
  6
CONTINUOUS
 62
     7
 10
288.7216978213
 20
401.3743244905
 30
0.0
 11
287.9944391987
 21
401.3743244905
 31
0.0
  0
POLYLINE
  5
96
  8
0
  6
CONTINUOUS
 62
     7
 66
     1
 10
0.0
 20
0.0
 30
0.0
  0
VERTEX
  5
3E7
  8
0
  6
CONTINUOUS
 62
     7
 10
290.2969405493
 20
405.3743251462
 30
0.0
  0
VERTEX
  5
3E8
  8
0
  6
CONTINUOUS
 62
     7
 10
290.154109194
 20
405.3585969705
 30
0.0
  0
VERTEX
  5
3E9
  8
0
  6
CONTINUOUS
 62
     7
 10
290.0111176511
 20
405.3116285104
 30
0.0
  0
VERTEX
  5
3EA
  8
0
  6
CONTINUOUS
 62
     7
 10
289.8679770967
 20
405.2334272165
 30
0.0
  0
VERTEX
  5
3EB
  8
0
  6
CONTINUOUS
 62
     7
 10
289.7246838054
 20
405.1239930887
 30
0.0
  0
VERTEX
  5
3EC
  8
0
  6
CONTINUOUS
 62
     7
 10
289.5333975991
 20
404.9294882316
 30
0.0
  0
VERTEX
  5
3ED
  8
0
  6
CONTINUOUS
 62
     7
 10
289.3418580732
 20
404.6794541974
 30
0.0
  0
VERTEX
  5
3EE
  8
0
  6
CONTINUOUS
 62
     7
 10
289.1500689527
 20
404.3738835354
 30
0.0
  0
VERTEX
  5
3EF
  8
0
  6
CONTINUOUS
 62
     7
 10
288.9196001431
 20
403.9339043994
 30
0.0
  0
VERTEX
  5
3F0
  8
0
  6
CONTINUOUS
 62
     7
 10
288.6887886068
 20
403.4139507312
 30
0.0
  0
VERTEX
  5
3F1
  8
0
  6
CONTINUOUS
 62
     7
 10
288.4576529702
 20
402.8140448827
 30
0.0
  0
VERTEX
  5
3F2
  8
0
  6
CONTINUOUS
 62
     7
 10
288.226200684
 20
402.1341645021
 30
0.0
  0
VERTEX
  5
3F3
  8
0
  6
CONTINUOUS
 62
     7
 10
287.9944391987
 20
401.3743244905
 30
0.0
  0
SEQEND
  5
BA5
  8
0
  6
CONTINUOUS
 62
     7
  0
LINE
  5
97
  8
0
  6
CONTINUOUS
 62
     7
 10
360.9251998803
 20
405.3743251462
 30
0.0
 11
290.2969219228
 21
405.3743251462
 31
0.0
  0
LINE
  5
98
  8
0
  6
CONTINUOUS
 62
     7
 10
290.4945560238
 20
391.3743191261
 30
0.0
 11
360.7275657794
 21
391.3743191261
 31
0.0
  0
LINE
  5
99
  8
0
  6
CONTINUOUS
 62
     7
 10
360.9218582949
 20
401.3743244905
 30
0.0
 11
290.3002635082
 21
401.3743244905
 31
0.0
  0
ARC
  5
9A
  8
0
  6
CONTINUOUS
 62
     7
 10
338.848138224
 20
480.23568599
 30
0.0
 40
87.76908498888707
 50
231.7188610294
 51
236.4459000861
  0
LINE
  5
9B
  8
0
  6
CONTINUOUS
 62
     7
 10
284.4733767649
 20
411.3386788268
 30
0.0
 11
284.5438257298
 21
411.3826372523
 31
0.0
  0
POLYLINE
  5
9C
  8
0
  6
CONTINUOUS
 62
     7
 66
     1
 10
0.0
 20
0.0
 30
0.0
  0
VERTEX
  5
3F4
  8
0
  6
CONTINUOUS
 62
     7
 10
284.5438257298
 20
411.3826372523
 30
0.0
  0
VERTEX
  5
3F5
  8
0
  6
CONTINUOUS
 62
     7
 10
285.3831485352
 20
410.9838523764
 30
0.0
  0
VERTEX
  5
3F6
  8
0
  6
CONTINUOUS
 62
     7
 10
286.2774081966
 20
410.5979197521
 30
0.0
  0
VERTEX
  5
3F7
  8
0
  6
CONTINUOUS
 62
     7
 10
286.9255677303
 20
410.3530564208
 30
0.0
  0
VERTEX
  5
3F8
  8
0
  6
CONTINUOUS
 62
     7
 10
287.6021959325
 20
410.1383530397
 30
0.0
  0
VERTEX
  5
3F9
  8
0
  6
CONTINUOUS
 62
     7
 10
288.30526252
 20
409.9681743283
 30
0.0
  0
VERTEX
  5
3FA
  8
0
  6
CONTINUOUS
 62
     7
 10
288.8885125956
 20
409.8735668559
 30
0.0
  0
VERTEX
  5
3FB
  8
0
  6
CONTINUOUS
 62
     7
 10
289.4853339037
 20
409.823610713
 30
0.0
  0
VERTEX
  5
3FC
  8
0
  6
CONTINUOUS
 62
     7
 10
290.1122332057
 20
409.8239981432
 30
0.0
  0
VERTEX
  5
3FD
  8
0
  6
CONTINUOUS
 62
     7
 10
290.7435134491
 20
409.8763682742
 30
0.0
  0
VERTEX
  5
3FE
  8
0
  6
CONTINUOUS
 62
     7
 10
291.4923824808
 20
410.0005172987
 30
0.0
  0
VERTEX
  5
3FF
  8
0
  6
CONTINUOUS
 62
     7
 10
292.2348961672
 20
410.1788022418
 30
0.0
  0
VERTEX
  5
400
  8
0
  6
CONTINUOUS
 62
     7
 10
292.9883510312
 20
410.4034521479
 30
0.0
  0
VERTEX
  5
401
  8
0
  6
CONTINUOUS
 62
     7
 10
293.73198603
 20
410.6564887662
 30
0.0
  0
VERTEX
  5
402
  8
0
  6
CONTINUOUS
 62
     7
 10
294.7268583318
 20
411.0248007674
 30
0.0
  0
VERTEX
  5
403
  8
0
  6
CONTINUOUS
 62
     7
 10
295.7055833629
 20
411.4023663897
 30
0.0
  0
VERTEX
  5
404
  8
0
  6
CONTINUOUS
 62
     7
 10
296.691278412
 20
411.7795818348
 30
0.0
  0
VERTEX
  5
405
  8
0
  6
CONTINUOUS
 62
     7
 10
297.6580657503
 20
412.1311523814
 30
0.0
  0
SEQEND
  5
BA4
  8
0
  6
CONTINUOUS
 62
     7
  0
POLYLINE
  5
9D
  8
0
  6
CONTINUOUS
 62
     7
 66
     1
 10
0.0
 20
0.0
 30
0.0
  0
VERTEX
  5
406
  8
0
  6
CONTINUOUS
 62
     7
 10
366.6782960734
 20
411.3826372523
 30
0.0
  0
VERTEX
  5
407
  8
0
  6
CONTINUOUS
 62
     7
 10
365.838973268
 20
410.9838523764
 30
0.0
  0
VERTEX
  5
408
  8
0
  6
CONTINUOUS
 62
     7
 10
364.9447136065
 20
410.5979197521
 30
0.0
  0
VERTEX
  5
409
  8
0
  6
CONTINUOUS
 62
     7
 10
364.2965540728
 20
410.3530564208
 30
0.0
  0
VERTEX
  5
40A
  8
0
  6
CONTINUOUS
 62
     7
 10
363.6199258706
 20
410.1383530397
 30
0.0
  0
VERTEX
  5
40B
  8
0
  6
CONTINUOUS
 62
     7
 10
362.9168592831
 20
409.9681743283
 30
0.0
  0
VERTEX
  5
40C
  8
0
  6
CONTINUOUS
 62
     7
 10
362.3336092076
 20
409.8735668559
 30
0.0
  0
VERTEX
  5
40D
  8
0
  6
CONTINUOUS
 62
     7
 10
361.7367878994
 20
409.823610713
 30
0.0
  0
VERTEX
  5
40E
  8
0
  6
CONTINUOUS
 62
     7
 10
361.1098885974
 20
409.8239981432
 30
0.0
  0
VERTEX
  5
40F
  8
0
  6
CONTINUOUS
 62
     7
 10
360.478608354
 20
409.8763682742
 30
0.0
  0
VERTEX
  5
410
  8
0
  6
CONTINUOUS
 62
     7
 10
359.7297393223
 20
410.0005172987
 30
0.0
  0
VERTEX
  5
411
  8
0
  6
CONTINUOUS
 62
     7
 10
358.9872256359
 20
410.1788022418
 30
0.0
  0
VERTEX
  5
412
  8
0
  6
CONTINUOUS
 62
     7
 10
358.2337707719
 20
410.4034521479
 30
0.0
  0
VERTEX
  5
413
  8
0
  6
CONTINUOUS
 62
     7
 10
357.4901357731
 20
410.6564887662
 30
0.0
  0
VERTEX
  5
414
  8
0
  6
CONTINUOUS
 62
     7
 10
356.4952634713
 20
411.0248007674
 30
0.0
  0
VERTEX
  5
415
  8
0
  6
CONTINUOUS
 62
     7
 10
355.5165384403
 20
411.4023663897
 30
0.0
  0
VERTEX
  5
416
  8
0
  6
CONTINUOUS
 62
     7
 10
354.5308433911
 20
411.7795818348
 30
0.0
  0
VERTEX
  5
417
  8
0
  6
CONTINUOUS
 62
     7
 10
353.5640560528
 20
412.1311523814
 30
0.0
  0
SEQEND
  5
BA3
  8
0
  6
CONTINUOUS
 62
     7
  0
LINE
  5
9E
  8
0
  6
CONTINUOUS
 62
     7
 10
366.7487450382
 20
411.3386788268
 30
0.0
 11
366.6782960734
 21
411.3826372523
 31
0.0
  0
ARC
  5
9F
  8
0
  6
CONTINUOUS
 62
     7
 10
312.3739835791
 20
480.23568599
 30
0.0
 40
87.76908498888712
 50
303.5540999139
 51
308.2811389706
  0
ARC
  5
A0
  8
0
  6
CONTINUOUS
 62
     7
 10
304.7610910962
 20
397.6571541216
 30
0.0
 40
9.218780156278262
 50
249.3432405128
 51
274.0388648276
  0
ARC
  5
A1
  8
0
  6
CONTINUOUS
 62
     7
 10
291.4517072757
 20
362.9568097806
 30
0.0
 40
27.94664054075207
 50
68.9075050942
 51
91.1526910725
  0
ARC
  5
A2
  8
0
  6
CONTINUOUS
 62
     7
 10
359.7704145274
 20
362.9568097806
 30
0.0
 40
27.94664054075207
 50
88.8473089275
 51
111.0924949058
  0
ARC
  5
A3
  8
0
  6
CONTINUOUS
 62
     7
 10
346.4610307069
 20
397.6571541216
 30
0.0
 40
9.218780156278243
 50
265.9611351724
 51
290.6567594872
  0
ARC
  5
A4
  8
0
  6
CONTINUOUS
 62
     7
 10
342.287702805
 20
294.5094705438
 30
0.0
 40
94.01786591003632
 50
87.851910345
 51
90.0153706219
  0
LINE
  5
A5
  8
0
  6
CONTINUOUS
 62
     7
 10
308.9596409789
 20
388.5273330707
 30
0.0
 11
342.2624808243
 21
388.5273330707
 31
0.0
  0
ARC
  5
A6
  8
0
  6
CONTINUOUS
 62
     7
 10
308.9344189981
 20
294.5094705438
 30
0.0
 40
94.01786591003632
 50
89.9846293781
 51
92.148089655
  0
POLYLINE
  5
A7
  8
0
  6
CONTINUOUS
 62
     7
 66
     1
 10
0.0
 20
0.0
 30
0.0
  0
VERTEX
  5
418
  8
0
  6
CONTINUOUS
 62
     7
 10
305.2730378201
 20
419.009394278
 30
0.0
  0
VERTEX
  5
419
  8
0
  6
CONTINUOUS
 62
     7
 10
305.166718035
 20
418.4141077895
 30
0.0
  0
VERTEX
  5
41A
  8
0
  6
CONTINUOUS
 62
     7
 10
304.9906962058
 20
417.8553738494
 30
0.0
  0
VERTEX
  5
41B
  8
0
  6
CONTINUOUS
 62
     7
 10
304.7408521613
 20
417.297265758
 30
0.0
  0
VERTEX
  5
41C
  8
0
  6
CONTINUOUS
 62
     7
 10
304.4186369023
 20
416.7435013551
 30
0.0
  0
VERTEX
  5
41D
  8
0
  6
CONTINUOUS
 62
     7
 10
304.0255014291
 20
416.1977835793
 30
0.0
  0
VERTEX
  5
41E
  8
0
  6
CONTINUOUS
 62
     7
 10
303.5628967425
 20
415.6638228197
 30
0.0
  0
VERTEX
  5
41F
  8
0
  6
CONTINUOUS
 62
     7
 10
303.0286323717
 20
415.1416786809
 30
0.0
  0
VERTEX
  5
420
  8
0
  6
CONTINUOUS
 62
     7
 10
302.4229225209
 20
414.6326252122
 30
0.0
  0
VERTEX
  5
421
  8
0
  6
CONTINUOUS
 62
     7
 10
301.749615415
 20
414.1409315962
 30
0.0
  0
VERTEX
  5
422
  8
0
  6
CONTINUOUS
 62
     7
 10
301.0125648668
 20
413.670881917
 30
0.0
  0
VERTEX
  5
423
  8
0
  6
CONTINUOUS
 62
     7
 10
300.2156209639
 20
413.2267379064
 30
0.0
  0
VERTEX
  5
424
  8
0
  6
CONTINUOUS
 62
     7
 10
299.4114648989
 20
412.8341593642
 30
0.0
  0
VERTEX
  5
425
  8
0
  6
CONTINUOUS
 62
     7
 10
298.5567808589
 20
412.467657854
 30
0.0
  0
VERTEX
  5
426
  8
0
  6
CONTINUOUS
 62
     7
 10
297.6580657503
 20
412.1311523814
 30
0.0
  0
SEQEND
  5
BA2
  8
0
  6
CONTINUOUS
 62
     7
  0
LINE
  5
A8
  8
0
  6
CONTINUOUS
 62
     7
 10
305.2730378201
 20
419.009394278
 30
0.0
 11
345.949083983
 21
419.009394278
 31
0.0
  0
POLYLINE
  5
A9
  8
0
  6
CONTINUOUS
 62
     7
 66
     1
 10
0.0
 20
0.0
 30
0.0
  0
VERTEX
  5
427
  8
0
  6
CONTINUOUS
 62
     7
 10
345.949083983
 20
419.009394278
 30
0.0
  0
VERTEX
  5
428
  8
0
  6
CONTINUOUS
 62
     7
 10
346.0554037681
 20
418.4141077895
 30
0.0
  0
VERTEX
  5
429
  8
0
  6
CONTINUOUS
 62
     7
 10
346.2314255974
 20
417.8553738494
 30
0.0
  0
VERTEX
  5
42A
  8
0
  6
CONTINUOUS
 62
     7
 10
346.4812696418
 20
417.297265758
 30
0.0
  0
VERTEX
  5
42B
  8
0
  6
CONTINUOUS
 62
     7
 10
346.8034849009
 20
416.7435013551
 30
0.0
  0
VERTEX
  5
42C
  8
0
  6
CONTINUOUS
 62
     7
 10
347.196620374
 20
416.1977835793
 30
0.0
  0
VERTEX
  5
42D
  8
0
  6
CONTINUOUS
 62
     7
 10
347.6592250606
 20
415.6638228197
 30
0.0
  0
VERTEX
  5
42E
  8
0
  6
CONTINUOUS
 62
     7
 10
348.1934894314
 20
415.1416786809
 30
0.0
  0
VERTEX
  5
42F
  8
0
  6
CONTINUOUS
 62
     7
 10
348.7991992822
 20
414.6326252122
 30
0.0
  0
VERTEX
  5
430
  8
0
  6
CONTINUOUS
 62
     7
 10
349.4725063881
 20
414.1409315962
 30
0.0
  0
VERTEX
  5
431
  8
0
  6
CONTINUOUS
 62
     7
 10
350.2095569363
 20
413.670881917
 30
0.0
  0
VERTEX
  5
432
  8
0
  6
CONTINUOUS
 62
     7
 10
351.0065008393
 20
413.2267379064
 30
0.0
  0
VERTEX
  5
433
  8
0
  6
CONTINUOUS
 62
     7
 10
351.8106569043
 20
412.8341593642
 30
0.0
  0
VERTEX
  5
434
  8
0
  6
CONTINUOUS
 62
     7
 10
352.6653409442
 20
412.467657854
 30
0.0
  0
VERTEX
  5
435
  8
0
  6
CONTINUOUS
 62
     7
 10
353.5640560528
 20
412.1311523814
 30
0.0
  0
SEQEND
  5
BA1
  8
0
  6
CONTINUOUS
 62
     7
  0
POLYLINE
  5
AA
  8
0
  6
CONTINUOUS
 62
     7
 66
     1
 10
0.0
 20
0.0
 30
0.0
  0
VERTEX
  5
436
  8
0
  6
CONTINUOUS
 62
     7
 10
280.1033318481
 20
420.4209142227
 30
0.0
  0
VERTEX
  5
437
  8
0
  6
CONTINUOUS
 62
     7
 10
280.0971143386
 20
422.4365793962
 30
0.0
  0
VERTEX
  5
438
  8
0
  6
CONTINUOUS
 62
     7
 10
280.0933070919
 20
424.5397516389
 30
0.0
  0
VERTEX
  5
439
  8
0
  6
CONTINUOUS
 62
     7
 10
280.0918989321
 20
426.7304384012
 30
0.0
  0
VERTEX
  5
43A
  8
0
  6
CONTINUOUS
 62
     7
 10
280.0928973099
 20
429.0086173315
 30
0.0
  0
VERTEX
  5
43B
  8
0
  6
CONTINUOUS
 62
     7
 10
280.0962910494
 20
431.3743256826
 30
0.0
  0
SEQEND
  5
BA0
  8
0
  6
CONTINUOUS
 62
     7
  0
LINE
  5
AB
  8
0
  6
CONTINUOUS
 62
     7
 10
280.0962910494
 20
431.3743256826
 30
0.0
 11
293.2076029917
 21
431.3743256826
 31
0.0
  0
POLYLINE
  5
AC
  8
0
  6
CONTINUOUS
 62
     7
 66
     1
 10
0.0
 20
0.0
 30
0.0
  0
VERTEX
  5
43C
  8
0
  6
CONTINUOUS
 62
     7
 10
293.2076029917
 20
431.3743256826
 30
0.0
  0
VERTEX
  5
43D
  8
0
  6
CONTINUOUS
 62
     7
 10
292.957062318
 20
430.1456057329
 30
0.0
  0
VERTEX
  5
43E
  8
0
  6
CONTINUOUS
 62
     7
 10
292.7070804378
 20
429.008572628
 30
0.0
  0
VERTEX
  5
43F
  8
0
  6
CONTINUOUS
 62
     7
 10
292.457616373
 20
427.9632263679
 30
0.0
  0
VERTEX
  5
440
  8
0
  6
CONTINUOUS
 62
     7
 10
292.293230488
 20
427.323534419
 30
0.0
  0
VERTEX
  5
441
  8
0
  6
CONTINUOUS
 62
     7
 10
292.1290383181
 20
426.723762681
 30
0.0
  0
VERTEX
  5
442
  8
0
  6
CONTINUOUS
 62
     7
 10
292.0922063729
 20
426.5946143169
 30
0.0
  0
VERTEX
  5
443
  8
0
  6
CONTINUOUS
 62
     7
 10
292.0553818783
 20
426.4674776096
 30
0.0
  0
VERTEX
  5
444
  8
0
  6
CONTINUOUS
 62
     7
 10
292.0185648343
 20
426.3423525591
 30
0.0
  0
VERTEX
  5
445
  8
0
  6
CONTINUOUS
 62
     7
 10
291.9817589661
 20
426.2192391653
 30
0.0
  0
VERTEX
  5
446
  8
0
  6
CONTINUOUS
 62
     7
 10
291.9449605486
 20
426.0981374283
 30
0.0
  0
VERTEX
  5
447
  8
0
  6
CONTINUOUS
 62
     7
 10
291.9081695816
 20
425.979047348
 30
0.0
  0
VERTEX
  5
448
  8
0
  6
CONTINUOUS
 62
     7
 10
291.8713897905
 20
425.8619763751
 30
0.0
  0
VERTEX
  5
449
  8
0
  6
CONTINUOUS
 62
     7
 10
291.6900128564
 20
425.3137924571
 30
0.0
  0
VERTEX
  5
44A
  8
0
  6
CONTINUOUS
 62
     7
 10
291.5089637479
 20
424.8151623506
 30
0.0
  0
VERTEX
  5
44B
  8
0
  6
CONTINUOUS
 62
     7
 10
291.3282238385
 20
424.3660935063
 30
0.0
  0
VERTEX
  5
44C
  8
0
  6
CONTINUOUS
 62
     7
 10
291.1477745017
 20
423.9665784735
 30
0.0
  0
VERTEX
  5
44D
  8
0
  6
CONTINUOUS
 62
     7
 10
290.9676045617
 20
423.6166172523
 30
0.0
  0
VERTEX
  5
44E
  8
0
  6
CONTINUOUS
 62
     7
 10
290.7876879415
 20
423.3162172932
 30
0.0
  0
VERTEX
  5
44F
  8
0
  6
CONTINUOUS
 62
     7
 10
290.5427463791
 20
422.9607202906
 30
0.0
  0
VERTEX
  5
450
  8
0
  6
CONTINUOUS
 62
     7
 10
290.2580373427
 20
422.5630306501
 30
0.0
  0
VERTEX
  5
451
  8
0
  6
CONTINUOUS
 62
     7
 10
289.8177303812
 20
421.928405096
 30
0.0
  0
VERTEX
  5
452
  8
0
  6
CONTINUOUS
 62
     7
 10
289.4616261563
 20
421.4066483874
 30
0.0
  0
VERTEX
  5
453
  8
0
  6
CONTINUOUS
 62
     7
 10
289.1138852081
 20
420.8884903092
 30
0.0
  0
VERTEX
  5
454
  8
0
  6
CONTINUOUS
 62
     7
 10
288.1801709971
 20
419.4474586148
 30
0.0
  0
VERTEX
  5
455
  8
0
  6
CONTINUOUS
 62
     7
 10
287.30803956
 20
418.0214770932
 30
0.0
  0
VERTEX
  5
456
  8
0
  6
CONTINUOUS
 62
     7
 10
286.4992082557
 20
416.6105457444
 30
0.0
  0
VERTEX
  5
457
  8
0
  6
CONTINUOUS
 62
     7
 10
285.754355087
 20
415.2146571178
 30
0.0
  0
VERTEX
  5
458
  8
0
  6
CONTINUOUS
 62
     7
 10
285.0732341847
 20
413.8338112135
 30
0.0
  0
VERTEX
  5
459
  8
0
  6
CONTINUOUS
 62
     7
 10
284.454821094
 20
412.4680154819
 30
0.0
  0
VERTEX
  5
45A
  8
0
  6
CONTINUOUS
 62
     7
 10
283.8974170825
 20
411.1172624726
 30
0.0
  0
SEQEND
  5
B9F
  8
0
  6
CONTINUOUS
 62
     7
  0
LINE
  5
AD
  8
0
  6
CONTINUOUS
 62
     7
 10
283.8974170825
 20
411.1172624726
 30
0.0
 11
284.4733804902
 21
411.3386788268
 31
0.0
  0
LINE
  5
AE
  8
0
  6
CONTINUOUS
 62
     7
 10
287.9944391987
 20
401.3743244905
 30
0.0
 11
282.0209064027
 21
401.3743244905
 31
0.0
  0
ARC
  5
AF
  8
0
  6
CONTINUOUS
 62
     7
 10
271.8222873484
 20
401.6657614762
 30
0.0
 40
10.20278227404035
 50
358.363154245
 51
21.3144089989
  0
ARC
  5
B0
  8
0
  6
CONTINUOUS
 62
     7
 10
-110.8968044352
 20
378.4089174989
 30
0.0
 40
394.8474803710097
 50
4.1946464676
 51
4.6890728911
  0
POLYLINE
  5
B1
  8
0
  6
CONTINUOUS
 62
     7
 66
     1
 10
0.0
 20
0.0
 30
0.0
  0
VERTEX
  5
45B
  8
0
  6
CONTINUOUS
 62
     7
 10
282.6291196486
 20
410.6870808501
 30
0.0
  0
VERTEX
  5
45C
  8
0
  6
CONTINUOUS
 62
     7
 10
282.5345978579
 20
411.8062176604
 30
0.0
  0
VERTEX
  5
45D
  8
0
  6
CONTINUOUS
 62
     7
 10
282.4427992543
 20
412.8374748726
 30
0.0
  0
VERTEX
  5
45E
  8
0
  6
CONTINUOUS
 62
     7
 10
282.3537275633
 20
413.7808375854
 30
0.0
  0
VERTEX
  5
45F
  8
0
  6
CONTINUOUS
 62
     7
 10
282.2673827848
 20
414.6363207001
 30
0.0
  0
VERTEX
  5
460
  8
0
  6
CONTINUOUS
 62
     7
 10
282.1837611934
 20
415.4039167661
 30
0.0
  0
VERTEX
  5
461
  8
0
  6
CONTINUOUS
 62
     7
 10
282.1081750533
 20
416.0410382647
 30
0.0
  0
VERTEX
  5
462
  8
0
  6
CONTINUOUS
 62
     7
 10
282.034961923
 20
416.6016124983
 30
0.0
  0
VERTEX
  5
463
  8
0
  6
CONTINUOUS
 62
     7
 10
281.9641218027
 20
417.085617115
 30
0.0
  0
VERTEX
  5
464
  8
0
  6
CONTINUOUS
 62
     7
 10
281.9186695358
 20
417.3631214399
 30
0.0
  0
VERTEX
  5
465
  8
0
  6
CONTINUOUS
 62
     7
 10
281.8742491743
 20
417.6072844166
 30
0.0
  0
VERTEX
  5
466
  8
0
  6
CONTINUOUS
 62
     7
 10
281.862786456
 20
417.6657193203
 30
0.0
  0
VERTEX
  5
467
  8
0
  6
CONTINUOUS
 62
     7
 10
281.851390793
 20
417.7218668956
 30
0.0
  0
VERTEX
  5
468
  8
0
  6
CONTINUOUS
 62
     7
 10
281.8400696358
 20
417.7757271428
 30
0.0
  0
VERTEX
  5
469
  8
0
  6
CONTINUOUS
 62
     7
 10
281.8288192591
 20
417.8273000617
 30
0.0
  0
VERTEX
  5
46A
  8
0
  6
CONTINUOUS
 62
     7
 10
281.8176396629
 20
417.8765856523
 30
0.0
  0
VERTEX
  5
46B
  8
0
  6
CONTINUOUS
 62
     7
 10
281.8065308472
 20
417.9235764641
 30
0.0
  0
VERTEX
  5
46C
  8
0
  6
CONTINUOUS
 62
     7
 10
281.7588992855
 20
418.1015782852
 30
0.0
  0
VERTEX
  5
46D
  8
0
  6
CONTINUOUS
 62
     7
 10
281.7086860975
 20
418.2443612117
 30
0.0
  0
VERTEX
  5
46E
  8
0
  6
CONTINUOUS
 62
     7
 10
281.6522814771
 20
418.342045774
 30
0.0
  0
VERTEX
  5
46F
  8
0
  6
CONTINUOUS
 62
     7
 10
281.5938130459
 20
418.3751710553
 30
0.0
  0
VERTEX
  5
470
  8
0
  6
CONTINUOUS
 62
     7
 10
281.5337688169
 20
418.3792465229
 30
0.0
  0
VERTEX
  5
471
  8
0
  6
CONTINUOUS
 62
     7
 10
281.4738400718
 20
418.3895208735
 30
0.0
  0
VERTEX
  5
472
  8
0
  6
CONTINUOUS
 62
     7
 10
281.4140305361
 20
418.406016459
 30
0.0
  0
VERTEX
  5
473
  8
0
  6
CONTINUOUS
 62
     7
 10
281.2307090005
 20
418.4957587022
 30
0.0
  0
VERTEX
  5
474
  8
0
  6
CONTINUOUS
 62
     7
 10
281.1230965397
 20
418.5763590831
 30
0.0
  0
VERTEX
  5
475
  8
0
  6
CONTINUOUS
 62
     7
 10
281.0159236631
 20
418.6774858136
 30
0.0
  0
VERTEX
  5
476
  8
0
  6
CONTINUOUS
 62
     7
 10
280.9091829201
 20
418.7991239924
 30
0.0
  0
VERTEX
  5
477
  8
0
  6
CONTINUOUS
 62
     7
 10
280.7051897487
 20
419.0907024641
 30
0.0
  0
VERTEX
  5
478
  8
0
  6
CONTINUOUS
 62
     7
 10
280.5028729579
 20
419.4581949014
 30
0.0
  0
VERTEX
  5
479
  8
0
  6
CONTINUOUS
 62
     7
 10
280.3022474488
 20
419.9016013045
 30
0.0
  0
VERTEX
  5
47A
  8
0
  6
CONTINUOUS
 62
     7
 10
280.1033318481
 20
420.4209142227
 30
0.0
  0
SEQEND
  5
B9E
  8
0
  6
CONTINUOUS
 62
     7
  0
ARC
  5
B2
  8
0
  6
CONTINUOUS
 62
     7
 10
762.1189262383
 20
378.4089174989
 30
0.0
 40
394.8474803710098
 50
175.3109271089
 51
175.8053535324
  0
ARC
  5
B3
  8
0
  6
CONTINUOUS
 62
     7
 10
379.3998344547
 20
401.6657614762
 30
0.0
 40
10.20278227404035
 50
158.6855910011
 51
181.636845755
  0
LINE
  5
B4
  8
0
  6
CONTINUOUS
 62
     7
 10
363.2276826045
 20
401.3743244905
 30
0.0
 11
369.2012154004
 21
401.3743244905
 31
0.0
  0
LINE
  5
B5
  8
0
  6
CONTINUOUS
 62
     7
 10
367.3247047207
 20
411.1172624726
 30
0.0
 11
366.7487413129
 21
411.3386788268
 31
0.0
  0
POLYLINE
  5
B6
  8
0
  6
CONTINUOUS
 62
     7
 66
     1
 10
0.0
 20
0.0
 30
0.0
  0
VERTEX
  5
47B
  8
0
  6
CONTINUOUS
 62
     7
 10
358.0145188114
 20
431.3743256826
 30
0.0
  0
VERTEX
  5
47C
  8
0
  6
CONTINUOUS
 62
     7
 10
358.2650594851
 20
430.1456057329
 30
0.0
  0
VERTEX
  5
47D
  8
0
  6
CONTINUOUS
 62
     7
 10
358.5150413653
 20
429.008572628
 30
0.0
  0
VERTEX
  5
47E
  8
0
  6
CONTINUOUS
 62
     7
 10
358.7645054301
 20
427.9632263679
 30
0.0
  0
VERTEX
  5
47F
  8
0
  6
CONTINUOUS
 62
     7
 10
358.9288913151
 20
427.323534419
 30
0.0
  0
VERTEX
  5
480
  8
0
  6
CONTINUOUS
 62
     7
 10
359.093083485
 20
426.723762681
 30
0.0
  0
VERTEX
  5
481
  8
0
  6
CONTINUOUS
 62
     7
 10
359.1299154302
 20
426.5946143169
 30
0.0
  0
VERTEX
  5
482
  8
0
  6
CONTINUOUS
 62
     7
 10
359.1667399248
 20
426.4674776096
 30
0.0
  0
VERTEX
  5
483
  8
0
  6
CONTINUOUS
 62
     7
 10
359.2035569688
 20
426.3423525591
 30
0.0
  0
VERTEX
  5
484
  8
0
  6
CONTINUOUS
 62
     7
 10
359.240362837
 20
426.2192391653
 30
0.0
  0
VERTEX
  5
485
  8
0
  6
CONTINUOUS
 62
     7
 10
359.2771612546
 20
426.0981374283
 30
0.0
  0
VERTEX
  5
486
  8
0
  6
CONTINUOUS
 62
     7
 10
359.3139522216
 20
425.979047348
 30
0.0
  0
VERTEX
  5
487
  8
0
  6
CONTINUOUS
 62
     7
 10
359.3507320127
 20
425.8619763751
 30
0.0
  0
VERTEX
  5
488
  8
0
  6
CONTINUOUS
 62
     7
 10
359.5321089467
 20
425.3137924571
 30
0.0
  0
VERTEX
  5
489
  8
0
  6
CONTINUOUS
 62
     7
 10
359.7131580552
 20
424.8151623506
 30
0.0
  0
VERTEX
  5
48A
  8
0
  6
CONTINUOUS
 62
     7
 10
359.8938979646
 20
424.3660935063
 30
0.0
  0
VERTEX
  5
48B
  8
0
  6
CONTINUOUS
 62
     7
 10
360.0743473014
 20
423.9665784735
 30
0.0
  0
VERTEX
  5
48C
  8
0
  6
CONTINUOUS
 62
     7
 10
360.2545172414
 20
423.6166172523
 30
0.0
  0
VERTEX
  5
48D
  8
0
  6
CONTINUOUS
 62
     7
 10
360.4344338617
 20
423.3162172932
 30
0.0
  0
VERTEX
  5
48E
  8
0
  6
CONTINUOUS
 62
     7
 10
360.6793754241
 20
422.9607202906
 30
0.0
  0
VERTEX
  5
48F
  8
0
  6
CONTINUOUS
 62
     7
 10
360.9640844604
 20
422.5630306501
 30
0.0
  0
VERTEX
  5
490
  8
0
  6
CONTINUOUS
 62
     7
 10
361.404391422
 20
421.928405096
 30
0.0
  0
VERTEX
  5
491
  8
0
  6
CONTINUOUS
 62
     7
 10
361.7604956469
 20
421.4066483874
 30
0.0
  0
VERTEX
  5
492
  8
0
  6
CONTINUOUS
 62
     7
 10
362.1082365951
 20
420.8884903092
 30
0.0
  0
VERTEX
  5
493
  8
0
  6
CONTINUOUS
 62
     7
 10
363.0419508061
 20
419.4474586148
 30
0.0
  0
VERTEX
  5
494
  8
0
  6
CONTINUOUS
 62
     7
 10
363.9140822431
 20
418.0214770932
 30
0.0
  0
VERTEX
  5
495
  8
0
  6
CONTINUOUS
 62
     7
 10
364.7229135474
 20
416.6105457444
 30
0.0
  0
VERTEX
  5
496
  8
0
  6
CONTINUOUS
 62
     7
 10
365.4677667162
 20
415.2146571178
 30
0.0
  0
VERTEX
  5
497
  8
0
  6
CONTINUOUS
 62
     7
 10
366.1488876185
 20
413.8338112135
 30
0.0
  0
VERTEX
  5
498
  8
0
  6
CONTINUOUS
 62
     7
 10
366.7673007092
 20
412.4680154819
 30
0.0
  0
VERTEX
  5
499
  8
0
  6
CONTINUOUS
 62
     7
 10
367.3247047207
 20
411.1172624726
 30
0.0
  0
SEQEND
  5
B9D
  8
0
  6
CONTINUOUS
 62
     7
  0
LINE
  5
B7
  8
0
  6
CONTINUOUS
 62
     7
 10
371.1258307537
 20
431.3743256826
 30
0.0
 11
358.0145188114
 21
431.3743256826
 31
0.0
  0
POLYLINE
  5
B8
  8
0
  6
CONTINUOUS
 62
     7
 66
     1
 10
0.0
 20
0.0
 30
0.0
  0
VERTEX
  5
49A
  8
0
  6
CONTINUOUS
 62
     7
 10
371.1187899551
 20
420.4209142227
 30
0.0
  0
VERTEX
  5
49B
  8
0
  6
CONTINUOUS
 62
     7
 10
371.1250074646
 20
422.4365793962
 30
0.0
  0
VERTEX
  5
49C
  8
0
  6
CONTINUOUS
 62
     7
 10
371.1288147113
 20
424.5397516389
 30
0.0
  0
VERTEX
  5
49D
  8
0
  6
CONTINUOUS
 62
     7
 10
371.130222871
 20
426.7304384012
 30
0.0
  0
VERTEX
  5
49E
  8
0
  6
CONTINUOUS
 62
     7
 10
371.1292244932
 20
429.0086173315
 30
0.0
  0
VERTEX
  5
49F
  8
0
  6
CONTINUOUS
 62
     7
 10
371.1258307537
 20
431.3743256826
 30
0.0
  0
SEQEND
  5
B9C
  8
0
  6
CONTINUOUS
 62
     7
  0
POLYLINE
  5
B9
  8
0
  6
CONTINUOUS
 62
     7
 66
     1
 10
0.0
 20
0.0
 30
0.0
  0
VERTEX
  5
4A0
  8
0
  6
CONTINUOUS
 62
     7
 10
368.5930021545
 20
410.6870808501
 30
0.0
  0
VERTEX
  5
4A1
  8
0
  6
CONTINUOUS
 62
     7
 10
368.6875239453
 20
411.8062176604
 30
0.0
  0
VERTEX
  5
4A2
  8
0
  6
CONTINUOUS
 62
     7
 10
368.7793225488
 20
412.8374748726
 30
0.0
  0
VERTEX
  5
4A3
  8
0
  6
CONTINUOUS
 62
     7
 10
368.8683942398
 20
413.7808375854
 30
0.0
  0
VERTEX
  5
4A4
  8
0
  6
CONTINUOUS
 62
     7
 10
368.9547390184
 20
414.6363207001
 30
0.0
  0
VERTEX
  5
4A5
  8
0
  6
CONTINUOUS
 62
     7
 10
369.0383606097
 20
415.4039167661
 30
0.0
  0
VERTEX
  5
4A6
  8
0
  6
CONTINUOUS
 62
     7
 10
369.1139467498
 20
416.0410382647
 30
0.0
  0
VERTEX
  5
4A7
  8
0
  6
CONTINUOUS
 62
     7
 10
369.1871598801
 20
416.6016124983
 30
0.0
  0
VERTEX
  5
4A8
  8
0
  6
CONTINUOUS
 62
     7
 10
369.2580000004
 20
417.085617115
 30
0.0
  0
VERTEX
  5
4A9
  8
0
  6
CONTINUOUS
 62
     7
 10
369.3034522673
 20
417.3631214399
 30
0.0
  0
VERTEX
  5
4AA
  8
0
  6
CONTINUOUS
 62
     7
 10
369.3478726288
 20
417.6072844166
 30
0.0
  0
VERTEX
  5
4AB
  8
0
  6
CONTINUOUS
 62
     7
 10
369.3593353471
 20
417.6657193203
 30
0.0
  0
VERTEX
  5
4AC
  8
0
  6
CONTINUOUS
 62
     7
 10
369.3707310101
 20
417.7218668956
 30
0.0
  0
VERTEX
  5
4AD
  8
0
  6
CONTINUOUS
 62
     7
 10
369.3820521673
 20
417.7757271428
 30
0.0
  0
VERTEX
  5
4AE
  8
0
  6
CONTINUOUS
 62
     7
 10
369.393302544
 20
417.8273000617
 30
0.0
  0
VERTEX
  5
4AF
  8
0
  6
CONTINUOUS
 62
     7
 10
369.4044821402
 20
417.8765856523
 30
0.0
  0
VERTEX
  5
4B0
  8
0
  6
CONTINUOUS
 62
     7
 10
369.4155909559
 20
417.9235764641
 30
0.0
  0
VERTEX
  5
4B1
  8
0
  6
CONTINUOUS
 62
     7
 10
369.4632225177
 20
418.1015782852
 30
0.0
  0
VERTEX
  5
4B2
  8
0
  6
CONTINUOUS
 62
     7
 10
369.5134357056
 20
418.2443612117
 30
0.0
  0
VERTEX
  5
4B3
  8
0
  6
CONTINUOUS
 62
     7
 10
369.569840326
 20
418.342045774
 30
0.0
  0
VERTEX
  5
4B4
  8
0
  6
CONTINUOUS
 62
     7
 10
369.6283087572
 20
418.3751710553
 30
0.0
  0
VERTEX
  5
4B5
  8
0
  6
CONTINUOUS
 62
     7
 10
369.6883529863
 20
418.3792465229
 30
0.0
  0
VERTEX
  5
4B6
  8
0
  6
CONTINUOUS
 62
     7
 10
369.7482817313
 20
418.3895208735
 30
0.0
  0
VERTEX
  5
4B7
  8
0
  6
CONTINUOUS
 62
     7
 10
369.808091267
 20
418.406016459
 30
0.0
  0
VERTEX
  5
4B8
  8
0
  6
CONTINUOUS
 62
     7
 10
369.9914128026
 20
418.4957587022
 30
0.0
  0
VERTEX
  5
4B9
  8
0
  6
CONTINUOUS
 62
     7
 10
370.0990252635
 20
418.5763590831
 30
0.0
  0
VERTEX
  5
4BA
  8
0
  6
CONTINUOUS
 62
     7
 10
370.2061981401
 20
418.6774858136
 30
0.0
  0
VERTEX
  5
4BB
  8
0
  6
CONTINUOUS
 62
     7
 10
370.312938883
 20
418.7991239924
 30
0.0
  0
VERTEX
  5
4BC
  8
0
  6
CONTINUOUS
 62
     7
 10
370.5169320544
 20
419.0907024641
 30
0.0
  0
VERTEX
  5
4BD
  8
0
  6
CONTINUOUS
 62
     7
 10
370.7192488453
 20
419.4581949014
 30
0.0
  0
VERTEX
  5
4BE
  8
0
  6
CONTINUOUS
 62
     7
 10
370.9198743543
 20
419.9016013045
 30
0.0
  0
VERTEX
  5
4BF
  8
0
  6
CONTINUOUS
 62
     7
 10
371.1187899551
 20
420.4209142227
 30
0.0
  0
SEQEND
  5
B9B
  8
0
  6
CONTINUOUS
 62
     7
  0
LINE
  5
BA
  8
0
  6
CONTINUOUS
 62
     7
 10
366.6782960734
 20
411.3826372523
 30
0.0
 11
367.3247047207
 21
411.1172624726
 31
0.0
  0
POLYLINE
  5
BB
  8
0
  6
CONTINUOUS
 62
     7
 66
     1
 10
0.0
 20
0.0
 30
0.0
  0
VERTEX
  5
4C0
  8
0
  6
CONTINUOUS
 62
     7
 10
345.8747365019
 20
421.3227250476
 30
0.0
  0
VERTEX
  5
4C1
  8
0
  6
CONTINUOUS
 62
     7
 10
345.905716016
 20
420.2570759554
 30
0.0
  0
VERTEX
  5
4C2
  8
0
  6
CONTINUOUS
 62
     7
 10
345.949083983
 20
419.009394278
 30
0.0
  0
SEQEND
  5
B9A
  8
0
  6
CONTINUOUS
 62
     7
  0
LINE
  5
BC
  8
0
  6
CONTINUOUS
 62
     7
 10
358.0145188114
 20
431.3743256826
 30
0.0
 11
345.6110604545
 21
431.3743256826
 31
0.0
  0
POLYLINE
  5
BD
  8
0
  6
CONTINUOUS
 62
     7
 66
     1
 10
0.0
 20
0.0
 30
0.0
  0
VERTEX
  5
4C3
  8
0
  6
CONTINUOUS
 62
     7
 10
305.3473853013
 20
421.3227250476
 30
0.0
  0
VERTEX
  5
4C4
  8
0
  6
CONTINUOUS
 62
     7
 10
305.3164057872
 20
420.2570759554
 30
0.0
  0
VERTEX
  5
4C5
  8
0
  6
CONTINUOUS
 62
     7
 10
305.2730378201
 20
419.009394278
 30
0.0
  0
SEQEND
  5
B99
  8
0
  6
CONTINUOUS
 62
     7
  0
LINE
  5
BE
  8
0
  6
CONTINUOUS
 62
     7
 10
284.5438257298
 20
411.3826372523
 30
0.0
 11
283.8974170825
 21
411.1172624726
 31
0.0
  0
LINE
  5
BF
  8
0
  6
CONTINUOUS
 62
     7
 10
293.2076029917
 20
431.3743256826
 30
0.0
 11
305.6110613486
 21
431.3743256826
 31
0.0
  0
LINE
  5
C0
  8
0
  6
CONTINUOUS
 62
     7
 10
282.1747534415
 20
391.3743191261
 30
0.0
 11
290.4945560238
 21
391.3743191261
 31
0.0
  0
LINE
  5
C1
  8
0
  6
CONTINUOUS
 62
     7
 10
281.8323582849
 20
401.3743244905
 30
0.0
 11
281.3261844656
 21
401.3743244905
 31
0.0
  0
LINE
  5
C2
  8
0
  6
CONTINUOUS
 62
     7
 10
290.3002635082
 20
401.3743244905
 30
0.0
 11
288.7216978213
 21
401.3743244905
 31
0.0
  0
LINE
  5
C3
  8
0
  6
CONTINUOUS
 62
     7
 10
369.3897635183
 20
401.3743244905
 30
0.0
 11
369.8959373376
 21
401.3743244905
 31
0.0
  0
LINE
  5
C4
  8
0
  6
CONTINUOUS
 62
     7
 10
369.0473683616
 20
391.3743191261
 30
0.0
 11
360.7275657794
 21
391.3743191261
 31
0.0
  0
LINE
  5
C5
  8
0
  6
CONTINUOUS
 62
     7
 10
360.9218582949
 20
401.3743244905
 30
0.0
 11
362.5004239818
 21
401.3743244905
 31
0.0
  0
ARC
  5
C6
  8
0
  6
CONTINUOUS
 62
     7
 10
291.8457332656
 20
519.068355476
 30
0.0
 40
128.1741275293919
 50
265.926360733
 51
269.5725486448
  0
ARC
  5
C7
  8
0
  6
CONTINUOUS
 62
     7
 10
359.3763885375
 20
519.068355476
 30
0.0
 40
128.1741275293919
 50
270.4274513552
 51
274.073639267
  0
LINE
  5
C8
  8
0
  6
CONTINUOUS
 62
     7
 10
283.2565404913
 20
376.8513866563
 30
0.0
 11
282.0041314205
 21
391.1664777298
 31
0.0
  0
ARC
  5
C9
  8
0
  6
CONTINUOUS
 62
     7
 10
282.4449245782
 20
390.1551465108
 30
0.0
 40
1.103217767402213
 50
74.46309891
 51
113.5501913836
  0
ARC
  5
CA
  8
0
  6
CONTINUOUS
 62
     7
 10
368.7771972249
 20
390.1551465108
 30
0.0
 40
1.103217767402213
 50
66.4498086164
 51
105.53690109
  0
LINE
  5
CB
  8
0
  6
CONTINUOUS
 62
     7
 10
367.9655813119
 20
376.8513866563
 30
0.0
 11
369.2179903826
 21
391.1664777298
 31
0.0
  0
LINE
  5
CC
  8
0
  6
CONTINUOUS
 62
     7
 10
289.2337091705
 20
371.3743232984
 30
0.0
 11
295.4565737834
 21
371.3743232984
 31
0.0
  0
ARC
  5
CD
  8
0
  6
CONTINUOUS
 62
     7
 10
289.2337078514
 20
377.3743219871
 30
0.0
 40
6.000000000000057
 50
185.0
 51
270.0
  0
LINE
  5
CE
  8
0
  6
CONTINUOUS
 62
     7
 10
361.9884126326
 20
371.3743232984
 30
0.0
 11
355.7655480197
 21
371.3743232984
 31
0.0
  0
ARC
  5
CF
  8
0
  6
CONTINUOUS
 62
     7
 10
361.9884139517
 20
377.3743219871
 30
0.0
 40
6.000000000000057
 50
270.0
 51
355.0
  0
POLYLINE
  5
D0
  8
0
  6
CONTINUOUS
 62
     7
 66
     1
 10
0.0
 20
0.0
 30
0.0
  0
VERTEX
  5
4C6
  8
0
  6
CONTINUOUS
 62
     7
 10
281.8780079922
 20
409.4057747025
 30
0.0
  0
VERTEX
  5
4C7
  8
0
  6
CONTINUOUS
 62
     7
 10
282.0344031295
 20
409.3761213917
 30
0.0
  0
VERTEX
  5
4C8
  8
0
  6
CONTINUOUS
 62
     7
 10
282.1704805335
 20
409.3019210596
 30
0.0
  0
VERTEX
  5
4C9
  8
0
  6
CONTINUOUS
 62
     7
 10
282.3071912369
 20
409.1771014828
 30
0.0
  0
VERTEX
  5
4CA
  8
0
  6
CONTINUOUS
 62
     7
 10
282.4419722399
 20
408.9950688977
 30
0.0
  0
VERTEX
  5
4CB
  8
0
  6
CONTINUOUS
 62
     7
 10
282.5520210406
 20
408.7911316056
 30
0.0
  0
VERTEX
  5
4CC
  8
0
  6
CONTINUOUS
 62
     7
 10
282.6560162446
 20
408.5338705082
 30
0.0
  0
VERTEX
  5
4CD
  8
0
  6
CONTINUOUS
 62
     7
 10
282.7360392055
 20
408.270902266
 30
0.0
  0
VERTEX
  5
4CE
  8
0
  6
CONTINUOUS
 62
     7
 10
282.8053184292
 20
407.9660021562
 30
0.0
  0
VERTEX
  5
4CF
  8
0
  6
CONTINUOUS
 62
     7
 10
282.85730113
 20
407.6408066649
 30
0.0
  0
VERTEX
  5
4D0
  8
0
  6
CONTINUOUS
 62
     7
 10
282.8930043122
 20
407.290040781
 30
0.0
  0
SEQEND
  5
B98
  8
0
  6
CONTINUOUS
 62
     7
  0
LINE
  5
D1
  8
0
  6
CONTINUOUS
 62
     7
 10
280.3974174401
 20
409.4057747025
 30
0.0
 11
281.8780079922
 21
409.4057747025
 31
0.0
  0
LINE
  5
D2
  8
0
  6
CONTINUOUS
 62
     7
 10
280.3974174401
 20
409.4057747025
 30
0.0
 11
280.1033318481
 21
420.4209142227
 31
0.0
  0
POLYLINE
  5
D3
  8
0
  6
CONTINUOUS
 62
     7
 66
     1
 10
0.0
 20
0.0
 30
0.0
  0
VERTEX
  5
4D1
  8
0
  6
CONTINUOUS
 62
     7
 10
369.3441138109
 20
409.4057747025
 30
0.0
  0
VERTEX
  5
4D2
  8
0
  6
CONTINUOUS
 62
     7
 10
369.1877186736
 20
409.3761213917
 30
0.0
  0
VERTEX
  5
4D3
  8
0
  6
CONTINUOUS
 62
     7
 10
369.0516412696
 20
409.3019210596
 30
0.0
  0
VERTEX
  5
4D4
  8
0
  6
CONTINUOUS
 62
     7
 10
368.9149305662
 20
409.1771014828
 30
0.0
  0
VERTEX
  5
4D5
  8
0
  6
CONTINUOUS
 62
     7
 10
368.7801495632
 20
408.9950688977
 30
0.0
  0
VERTEX
  5
4D6
  8
0
  6
CONTINUOUS
 62
     7
 10
368.6701007625
 20
408.7911316056
 30
0.0
  0
VERTEX
  5
4D7
  8
0
  6
CONTINUOUS
 62
     7
 10
368.5661055586
 20
408.5338705082
 30
0.0
  0
VERTEX
  5
4D8
  8
0
  6
CONTINUOUS
 62
     7
 10
368.4860825977
 20
408.270902266
 30
0.0
  0
VERTEX
  5
4D9
  8
0
  6
CONTINUOUS
 62
     7
 10
368.416803374
 20
407.9660021562
 30
0.0
  0
VERTEX
  5
4DA
  8
0
  6
CONTINUOUS
 62
     7
 10
368.3648206731
 20
407.6408066649
 30
0.0
  0
VERTEX
  5
4DB
  8
0
  6
CONTINUOUS
 62
     7
 10
368.3291174909
 20
407.290040781
 30
0.0
  0
SEQEND
  5
B97
  8
0
  6
CONTINUOUS
 62
     7
  0
LINE
  5
D4
  8
0
  6
CONTINUOUS
 62
     7
 10
370.824704363
 20
409.4057747025
 30
0.0
 11
369.3441138109
 21
409.4057747025
 31
0.0
  0
LINE
  5
D5
  8
0
  6
CONTINUOUS
 62
     7
 10
370.824704363
 20
409.4057747025
 30
0.0
 11
371.1187899551
 21
420.4209142227
 31
0.0
  0
LINE
  5
D6
  8
0
  6
CONTINUOUS
 62
     7
 10
313.5023950106
 20
368.0443235535
 30
0.0
 11
322.3210619269
 21
368.0443235535
 31
0.0
  0
LINE
  5
D7
  8
0
  6
CONTINUOUS
 62
     7
 10
325.6110609016
 20
360.0443222422
 30
0.0
 11
322.3210619269
 21
368.0443235535
 31
0.0
  0
LINE
  5
D8
  8
0
  6
CONTINUOUS
 62
     7
 10
328.9010598762
 20
368.0443235535
 30
0.0
 11
325.6110609016
 21
360.0443222422
 31
0.0
  0
LINE
  5
D9
  8
0
  6
CONTINUOUS
 62
     7
 10
328.9010598762
 20
368.0443235535
 30
0.0
 11
337.7197267926
 21
368.0443235535
 31
0.0
  0
LINE
  5
DA
  8
0
  6
CONTINUOUS
 62
     7
 10
337.7197267926
 20
365.6728931565
 30
0.0
 11
337.7197267926
 21
368.0443235535
 31
0.0
  0
LINE
  5
DB
  8
0
  6
CONTINUOUS
 62
     7
 10
330.542744088
 20
365.6728931565
 30
0.0
 11
337.7197267926
 21
365.6728931565
 31
0.0
  0
LINE
  5
DC
  8
0
  6
CONTINUOUS
 62
     7
 10
326.8185803406
 20
356.615751316
 30
0.0
 11
330.542744088
 21
365.6728931565
 31
0.0
  0
LINE
  5
DD
  8
0
  6
CONTINUOUS
 62
     7
 10
324.4035414625
 20
356.615751316
 30
0.0
 11
326.8185803406
 21
356.615751316
 31
0.0
  0
LINE
  5
DE
  8
0
  6
CONTINUOUS
 62
     7
 10
320.6793777151
 20
365.6728931565
 30
0.0
 11
324.4035414625
 21
356.615751316
 31
0.0
  0
LINE
  5
DF
  8
0
  6
CONTINUOUS
 62
     7
 10
313.5023950106
 20
365.6728931565
 30
0.0
 11
320.6793777151
 21
365.6728931565
 31
0.0
  0
LINE
  5
E0
  8
0
  6
CONTINUOUS
 62
     7
 10
313.5023950106
 20
368.0443235535
 30
0.0
 11
313.5023950106
 21
365.6728931565
 31
0.0
  0
LINE
  5
E1
  8
0
  6
CONTINUOUS
 62
     7
 10
322.3541827845
 20
368.0443235535
 30
0.0
 11
322.3210619269
 21
368.0443235535
 31
0.0
  0
LINE
  5
E2
  8
0
  6
CONTINUOUS
 62
     7
 10
325.6110609016
 20
360.0443222422
 30
0.0
 11
322.3541827845
 21
368.0443235535
 31
0.0
  0
LINE
  5
E3
  8
0
  6
CONTINUOUS
 62
     7
 10
328.8679390187
 20
368.0443235535
 30
0.0
 11
325.6110609016
 21
360.0443222422
 31
0.0
  0
LINE
  5
E4
  8
0
  6
CONTINUOUS
 62
     7
 10
328.8679390187
 20
368.0443235535
 30
0.0
 11
328.9010598762
 21
368.0443235535
 31
0.0
  0
LINE
  5
E5
  8
0
  6
CONTINUOUS
 62
     7
 10
323.4064098885
 20
356.615751316
 30
0.0
 11
320.0585944085
 21
364.7586100597
 31
0.0
  0
LINE
  5
E6
  8
0
  6
CONTINUOUS
 62
     7
 10
320.1144914581
 20
364.7586100597
 30
0.0
 11
320.0585944085
 21
364.7586100597
 31
0.0
  0
LINE
  5
E7
  8
0
  6
CONTINUOUS
 62
     7
 10
323.4286042368
 20
356.615751316
 30
0.0
 11
320.1144914581
 21
364.7586100597
 31
0.0
  0
LINE
  5
E8
  8
0
  6
CONTINUOUS
 62
     7
 10
313.5023950106
 20
362.4728948672
 30
0.0
 11
315.7674124902
 21
362.4728948672
 31
0.0
  0
LINE
  5
E9
  8
0
  6
CONTINUOUS
 62
     7
 10
313.5023950106
 20
364.7586100597
 30
0.0
 11
313.5023950106
 21
362.4728948672
 31
0.0
  0
LINE
  5
EA
  8
0
  6
CONTINUOUS
 62
     7
 10
313.5023950106
 20
364.7586100597
 30
0.0
 11
320.0585944085
 21
364.7586100597
 31
0.0
  0
LINE
  5
EB
  8
0
  6
CONTINUOUS
 62
     7
 10
320.8206705256
 20
356.615751316
 30
0.0
 11
323.4064098885
 21
356.615751316
 31
0.0
  0
LINE
  5
EC
  8
0
  6
CONTINUOUS
 62
     7
 10
320.303926195
 20
357.8728952307
 30
0.0
 11
320.8206705256
 21
356.615751316
 31
0.0
  0
LINE
  5
ED
  8
0
  6
CONTINUOUS
 62
     7
 10
316.5480796686
 20
357.8728952307
 30
0.0
 11
320.303926195
 21
357.8728952307
 31
0.0
  0
LINE
  5
EE
  8
0
  6
CONTINUOUS
 62
     7
 10
316.061552099
 20
356.615751316
 30
0.0
 11
316.5480796686
 21
357.8728952307
 31
0.0
  0
LINE
  5
EF
  8
0
  6
CONTINUOUS
 62
     7
 10
313.5023950106
 20
356.615751316
 30
0.0
 11
316.061552099
 21
356.615751316
 31
0.0
  0
LINE
  5
F0
  8
0
  6
CONTINUOUS
 62
     7
 10
315.7674124902
 20
362.4728948672
 30
0.0
 11
313.5023950106
 21
356.615751316
 31
0.0
  0
LINE
  5
F1
  8
0
  6
CONTINUOUS
 62
     7
 10
317.1417363426
 20
360.0443222422
 30
0.0
 11
319.4115212625
 21
360.0443222422
 31
0.0
  0
LINE
  5
F2
  8
0
  6
CONTINUOUS
 62
     7
 10
319.4115212625
 20
360.0443222422
 30
0.0
 11
318.2430159738
 21
362.8883988459
 31
0.0
  0
LINE
  5
F3
  8
0
  6
CONTINUOUS
 62
     7
 10
318.2430159738
 20
362.8883988459
 30
0.0
 11
317.1417363426
 21
360.0443222422
 31
0.0
  0
LINE
  5
F4
  8
0
  6
CONTINUOUS
 62
     7
 10
337.7197267926
 20
362.4728948672
 30
0.0
 11
337.7197267926
 21
364.7586100597
 31
0.0
  0
LINE
  5
F5
  8
0
  6
CONTINUOUS
 62
     7
 10
337.0292023262
 20
362.4728948672
 30
0.0
 11
337.7197267926
 21
362.4728948672
 31
0.0
  0
ARC
  5
F6
  8
0
  6
CONTINUOUS
 62
     7
 10
333.6547753671
 20
363.7793305325
 30
0.0
 40
3.618498507682567
 50
281.7892748155
 51
338.8357001536
  0
LINE
  5
F7
  8
0
  6
CONTINUOUS
 62
     7
 10
337.1443072772
 20
356.615751316
 30
0.0
 11
334.3940809807
 21
360.2371618945
 31
0.0
  0
LINE
  5
F8
  8
0
  6
CONTINUOUS
 62
     7
 10
334.1516241869
 20
356.615751316
 30
0.0
 11
337.1443072772
 21
356.615751316
 31
0.0
  0
LINE
  5
F9
  8
0
  6
CONTINUOUS
 62
     7
 10
331.7173844641
 20
359.8174818654
 30
0.0
 11
334.1516241869
 21
356.615751316
 31
0.0
  0
LINE
  5
FA
  8
0
  6
CONTINUOUS
 62
     7
 10
330.4014512776
 20
356.615751316
 30
0.0
 11
331.7173844641
 21
359.8174818654
 31
0.0
  0
LINE
  5
FB
  8
0
  6
CONTINUOUS
 62
     7
 10
331.1635273947
 20
364.7586100597
 30
0.0
 11
327.8157119146
 21
356.615751316
 31
0.0
  0
LINE
  5
FC
  8
0
  6
CONTINUOUS
 62
     7
 10
331.1635273947
 20
364.7586100597
 30
0.0
 11
333.747249513
 21
364.7586100597
 31
0.0
  0
LINE
  5
FD
  8
0
  6
CONTINUOUS
 62
     7
 10
332.5274968026
 20
361.7890843053
 30
0.0
 11
333.747249513
 21
364.7586100597
 31
0.0
  0
ARC
  5
FE
  8
0
  6
CONTINUOUS
 62
     7
 10
332.4344132881
 20
364.7702848577
 30
0.0
 40
2.982653394977839
 50
271.7883937335
 51
359.7757304416
  0
LINE
  5
FF
  8
0
  6
CONTINUOUS
 62
     7
 10
335.417043834
 20
364.7586100597
 30
0.0
 11
337.7197267926
 21
364.7586100597
 31
0.0
  0
LINE
  5
100
  8
0
  6
CONTINUOUS
 62
     7
 10
327.8157119146
 20
356.615751316
 30
0.0
 11
330.4014512776
 21
356.615751316
 31
0.0
  0
LINE
  5
101
  8
0
  6
CONTINUOUS
 62
     7
 10
331.1076303451
 20
364.7586100597
 30
0.0
 11
327.7935175663
 21
356.615751316
 31
0.0
  0
LINE
  5
102
  8
0
  6
CONTINUOUS
 62
     7
 10
331.1635273947
 20
364.7586100597
 30
0.0
 11
331.1076303451
 21
364.7586100597
 31
0.0
  0
LINE
  5
103
  8
0
  6
CONTINUOUS
 62
     7
 10
331.6956716096
 20
359.7646535237
 30
0.0
 11
334.0656454181
 21
356.615751316
 31
0.0
  0
LINE
  5
104
  8
0
  6
CONTINUOUS
 62
     7
 10
334.1516241869
 20
356.615751316
 30
0.0
 11
334.0656454181
 21
356.615751316
 31
0.0
  0
ARC
  5
105
  8
0
  6
CONTINUOUS
 62
     7
 10
332.3631465437
 20
364.7492532371
 30
0.0
 40
2.955193772990391
 50
273.2660603134
 51
0.1814119084
  0
LINE
  5
106
  8
0
  6
CONTINUOUS
 62
     7
 10
335.417043834
 20
364.7586100597
 30
0.0
 11
335.3183255037
 21
364.7586100597
 31
0.0
  0
LINE
  5
107
  8
0
  6
CONTINUOUS
 62
     7
 10
318.2813897236
 20
362.7949983675
 30
0.0
 11
317.226997993
 21
360.0443222422
 31
0.0
  0
LINE
  5
108
  8
0
  6
CONTINUOUS
 62
     7
 10
316.1576888031
 20
356.615751316
 30
0.0
 11
316.6393176159
 21
357.8728952307
 31
0.0
  0
LINE
  5
109
  8
0
  6
CONTINUOUS
 62
     7
 10
316.1576888031
 20
356.615751316
 30
0.0
 11
316.061552099
 21
356.615751316
 31
0.0
  0
LINE
  5
10A
  8
0
  6
CONTINUOUS
 62
     7
 10
369.8949240586
 20
405.3743251462
 30
0.0
 11
375.6110616466
 21
405.3743251462
 31
0.0
  0
LINE
  5
10B
  8
0
  6
CONTINUOUS
 62
     7
 10
369.2012154004
 20
401.3743244905
 30
0.0
 11
369.3897635183
 21
401.3743244905
 31
0.0
  0
LINE
  5
10C
  8
0
  6
CONTINUOUS
 62
     7
 10
281.3271977445
 20
405.3743251462
 30
0.0
 11
275.6110601565
 21
405.3743251462
 31
0.0
  0
LINE
  5
10D
  8
0
  6
CONTINUOUS
 62
     7
 10
282.0209064027
 20
401.3743244905
 30
0.0
 11
281.8323582849
 21
401.3743244905
 31
0.0
  0
POLYLINE
  5
10E
  8
0
  6
CONTINUOUS
 62
     7
 66
     1
 10
0.0
 20
0.0
 30
0.0
  0
VERTEX
  5
4DC
  8
0
  6
CONTINUOUS
 62
     7
 10
297.3312721094
 20
371.3743232984
 30
0.0
  0
VERTEX
  5
4DD
  8
0
  6
CONTINUOUS
 62
     7
 10
297.7585461429
 20
371.3981055517
 30
0.0
  0
VERTEX
  5
4DE
  8
0
  6
CONTINUOUS
 62
     7
 10
298.190635114
 20
371.4682825703
 30
0.0
  0
VERTEX
  5
4DF
  8
0
  6
CONTINUOUS
 62
     7
 10
298.6378711155
 20
371.5875589151
 30
0.0
  0
VERTEX
  5
4E0
  8
0
  6
CONTINUOUS
 62
     7
 10
299.0830805591
 20
371.751635601
 30
0.0
  0
VERTEX
  5
4E1
  8
0
  6
CONTINUOUS
 62
     7
 10
299.5089371195
 20
371.950335135
 30
0.0
  0
VERTEX
  5
4E2
  8
0
  6
CONTINUOUS
 62
     7
 10
299.9274995616
 20
372.1850731272
 30
0.0
  0
VERTEX
  5
4E3
  8
0
  6
CONTINUOUS
 62
     7
 10
300.3452890059
 20
372.4587180514
 30
0.0
  0
VERTEX
  5
4E4
  8
0
  6
CONTINUOUS
 62
     7
 10
300.7518578759
 20
372.7631040711
 30
0.0
  0
VERTEX
  5
4E5
  8
0
  6
CONTINUOUS
 62
     7
 10
301.4040630749
 20
373.3316504259
 30
0.0
  0
VERTEX
  5
4E6
  8
0
  6
CONTINUOUS
 62
     7
 10
302.0208742907
 20
373.9612244863
 30
0.0
  0
VERTEX
  5
4E7
  8
0
  6
CONTINUOUS
 62
     7
 10
302.6178539237
 20
374.655156662
 30
0.0
  0
VERTEX
  5
4E8
  8
0
  6
CONTINUOUS
 62
     7
 10
303.1848971239
 20
375.3853657145
 30
0.0
  0
VERTEX
  5
4E9
  8
0
  6
CONTINUOUS
 62
     7
 10
303.8850263199
 20
376.3630607028
 30
0.0
  0
VERTEX
  5
4EA
  8
0
  6
CONTINUOUS
 62
     7
 10
304.5694198897
 20
377.361736526
 30
0.0
  0
VERTEX
  5
4EB
  8
0
  6
CONTINUOUS
 62
     7
 10
304.5780104092
 20
377.3743205566
 30
0.0
  0
SEQEND
  5
B96
  8
0
  6
CONTINUOUS
 62
     7
  0
LINE
  5
10F
  8
0
  6
CONTINUOUS
 62
     7
 10
295.4565737834
 20
371.3743232984
 30
0.0
 11
297.3312721094
 21
371.3743232984
 31
0.0
  0
LINE
  5
110
  8
0
  6
CONTINUOUS
 62
     7
 10
355.7655480197
 20
371.3743232984
 30
0.0
 11
353.8908496937
 21
371.3743232984
 31
0.0
  0
POLYLINE
  5
111
  8
0
  6
CONTINUOUS
 62
     7
 66
     1
 10
0.0
 20
0.0
 30
0.0
  0
VERTEX
  5
4EC
  8
0
  6
CONTINUOUS
 62
     7
 10
353.8908496937
 20
371.3743232984
 30
0.0
  0
VERTEX
  5
4ED
  8
0
  6
CONTINUOUS
 62
     7
 10
353.4635756603
 20
371.3981055517
 30
0.0
  0
VERTEX
  5
4EE
  8
0
  6
CONTINUOUS
 62
     7
 10
353.0314866891
 20
371.4682825703
 30
0.0
  0
VERTEX
  5
4EF
  8
0
  6
CONTINUOUS
 62
     7
 10
352.5842506876
 20
371.5875589151
 30
0.0
  0
VERTEX
  5
4F0
  8
0
  6
CONTINUOUS
 62
     7
 10
352.1390412441
 20
371.751635601
 30
0.0
  0
VERTEX
  5
4F1
  8
0
  6
CONTINUOUS
 62
     7
 10
351.7131846836
 20
371.950335135
 30
0.0
  0
VERTEX
  5
4F2
  8
0
  6
CONTINUOUS
 62
     7
 10
351.2946222415
 20
372.1850731272
 30
0.0
  0
VERTEX
  5
4F3
  8
0
  6
CONTINUOUS
 62
     7
 10
350.8768327972
 20
372.4587180514
 30
0.0
  0
VERTEX
  5
4F4
  8
0
  6
CONTINUOUS
 62
     7
 10
350.4702639273
 20
372.7631040711
 30
0.0
  0
VERTEX
  5
4F5
  8
0
  6
CONTINUOUS
 62
     7
 10
349.8180587283
 20
373.3316504259
 30
0.0
  0
VERTEX
  5
4F6
  8
0
  6
CONTINUOUS
 62
     7
 10
349.2012475124
 20
373.9612244863
 30
0.0
  0
VERTEX
  5
4F7
  8
0
  6
CONTINUOUS
 62
     7
 10
348.6042678794
 20
374.655156662
 30
0.0
  0
VERTEX
  5
4F8
  8
0
  6
CONTINUOUS
 62
     7
 10
348.0372246793
 20
375.3853657145
 30
0.0
  0
VERTEX
  5
4F9
  8
0
  6
CONTINUOUS
 62
     7
 10
347.3370954832
 20
376.3630607028
 30
0.0
  0
VERTEX
  5
4FA
  8
0
  6
CONTINUOUS
 62
     7
 10
346.6527019134
 20
377.361736526
 30
0.0
  0
VERTEX
  5
4FB
  8
0
  6
CONTINUOUS
 62
     7
 10
346.644111394
 20
377.3743205566
 30
0.0
  0
SEQEND
  5
B95
  8
0
  6
CONTINUOUS
 62
     7
  0
LINE
  5
112
  8
0
  6
CONTINUOUS
 62
     7
 10
282.1747534415
 20
391.3743191261
 30
0.0
 11
276.4859483084
 21
391.3743191261
 31
0.0
  0
LINE
  5
113
  8
0
  6
CONTINUOUS
 62
     7
 10
275.6110601565
 20
401.3743244905
 30
0.0
 11
281.3261844656
 21
401.3743244905
 31
0.0
  0
LINE
  5
114
  8
0
  6
CONTINUOUS
 62
     7
 10
369.0473683616
 20
391.3743191261
 30
0.0
 11
374.7361734947
 21
391.3743191261
 31
0.0
  0
LINE
  5
115
  8
0
  6
CONTINUOUS
 62
     7
 10
375.6110616466
 20
401.3743244905
 30
0.0
 11
369.8959373376
 21
401.3743244905
 31
0.0
  0
POLYLINE
  5
116
  8
0
  6
CONTINUOUS
 62
     7
 66
     1
 10
0.0
 20
0.0
 30
0.0
  0
VERTEX
  5
4FC
  8
0
  6
CONTINUOUS
 62
     7
 10
347.4480607053
 20
440.5366771717
 30
0.0
  0
VERTEX
  5
4FD
  8
0
  6
CONTINUOUS
 62
     7
 10
346.4889102122
 20
440.2981244821
 30
0.0
  0
VERTEX
  5
4FE
  8
0
  6
CONTINUOUS
 62
     7
 10
345.1870199731
 20
439.9770044584
 30
0.0
  0
VERTEX
  5
4FF
  8
0
  6
CONTINUOUS
 62
     7
 10
343.8232601127
 20
439.6484487552
 30
0.0
  0
VERTEX
  5
500
  8
0
  6
CONTINUOUS
 62
     7
 10
342.4030024996
 20
439.3188499708
 30
0.0
  0
VERTEX
  5
501
  8
0
  6
CONTINUOUS
 62
     7
 10
340.9316134146
 20
438.9946603079
 30
0.0
  0
VERTEX
  5
502
  8
0
  6
CONTINUOUS
 62
     7
 10
339.4144647261
 20
438.6822574634
 30
0.0
  0
VERTEX
  5
503
  8
0
  6
CONTINUOUS
 62
     7
 10
337.856925509
 20
438.3880787391
 30
0.0
  0
VERTEX
  5
504
  8
0
  6
CONTINUOUS
 62
     7
 10
336.2149572438
 20
438.1102614898
 30
0.0
  0
VERTEX
  5
505
  8
0
  6
CONTINUOUS
 62
     7
 10
334.5331879771
 20
437.8622167606
 30
0.0
  0
VERTEX
  5
506
  8
0
  6
CONTINUOUS
 62
     7
 10
332.819591227
 20
437.6498454113
 30
0.0
  0
VERTEX
  5
507
  8
0
  6
CONTINUOUS
 62
     7
 10
331.4698668635
 20
437.5129931469
 30
0.0
  0
VERTEX
  5
508
  8
0
  6
CONTINUOUS
 62
     7
 10
330.1046094364
 20
437.4024265308
 30
0.0
  0
VERTEX
  5
509
  8
0
  6
CONTINUOUS
 62
     7
 10
328.7285852218
 20
437.3196803827
 30
0.0
  0
VERTEX
  5
50A
  8
0
  6
CONTINUOUS
 62
     7
 10
327.3465600303
 20
437.2663640279
 30
0.0
  0
VERTEX
  5
50B
  8
0
  6
CONTINUOUS
 62
     7
 10
325.6108609016
 20
437.2424476642
 30
0.0
  0
VERTEX
  5
50C
  8
0
  6
CONTINUOUS
 62
     7
 10
323.9595489083
 20
437.2652166385
 30
0.0
  0
VERTEX
  5
50D
  8
0
  6
CONTINUOUS
 62
     7
 10
322.3088331958
 20
437.3316758175
 30
0.0
  0
VERTEX
  5
50E
  8
0
  6
CONTINUOUS
 62
     7
 10
320.6666083513
 20
437.4390088815
 30
0.0
  0
VERTEX
  5
50F
  8
0
  6
CONTINUOUS
 62
     7
 10
319.0407682648
 20
437.5843995113
 30
0.0
  0
VERTEX
  5
510
  8
0
  6
CONTINUOUS
 62
     7
 10
317.4392082235
 20
437.7650313873
 30
0.0
  0
VERTEX
  5
511
  8
0
  6
CONTINUOUS
 62
     7
 10
315.8698216519
 20
437.9781030912
 30
0.0
  0
VERTEX
  5
512
  8
0
  6
CONTINUOUS
 62
     7
 10
314.3373331493
 20
438.2197105188
 30
0.0
  0
VERTEX
  5
513
  8
0
  6
CONTINUOUS
 62
     7
 10
312.8353184527
 20
438.485681345
 30
0.0
  0
VERTEX
  5
514
  8
0
  6
CONTINUOUS
 62
     7
 10
311.3687685197
 20
438.7707256574
 30
0.0
  0
VERTEX
  5
515
  8
0
  6
CONTINUOUS
 62
     7
 10
309.9426743081
 20
439.0695833463
 30
0.0
  0
VERTEX
  5
516
  8
0
  6
CONTINUOUS
 62
     7
 10
308.5620258441
 20
439.3769943018
 30
0.0
  0
VERTEX
  5
517
  8
0
  6
CONTINUOUS
 62
     7
 10
307.2318140855
 20
439.6876686115
 30
0.0
  0
VERTEX
  5
518
  8
0
  6
CONTINUOUS
 62
     7
 10
306.0337923905
 20
439.9771683712
 30
0.0
  0
VERTEX
  5
519
  8
0
  6
CONTINUOUS
 62
     7
 10
304.8800532213
 20
440.2616762418
 30
0.0
  0
VERTEX
  5
51A
  8
0
  6
CONTINUOUS
 62
     7
 10
303.7740610978
 20
440.5366771717
 30
0.0
  0
SEQEND
  5
B94
  8
0
  6
CONTINUOUS
 62
     7
  0
LINE
  5
117
  8
0
  6
CONTINUOUS
 62
     7
 10
351.842336773
 20
275.2118327517
 30
0.0
 11
351.8065330079
 21
275.30731753
 31
0.0
  0
LINE
  5
118
  8
0
  6
CONTINUOUS
 62
     7
 10
299.3797850302
 20
275.2118327517
 30
0.0
 11
299.4155887952
 21
275.30731753
 31
0.0
  0
ARC
  5
119
  8
0
  6
CONTINUOUS
 62
     7
 10
350.1343418704
 20
431.5034212158
 30
0.0
 40
9.424635736843289
 50
68.6105617275
 51
106.5542953783
  0
ARC
  5
11A
  8
0
  6
CONTINUOUS
 62
     7
 10
301.0877799327
 20
431.5034212158
 30
0.0
 40
9.424635736843276
 50
73.4457046217
 51
111.3894382725
  0
LINE
  5
11B
  8
0
  6
CONTINUOUS
 62
     7
 10
356.6110603949
 20
267.6139839787
 30
0.0
 11
294.6110614082
 21
267.6139839787
 31
0.0
  0
LINE
  5
11C
  8
0
  6
CONTINUOUS
 62
     7
 10
261.2841710886
 20
334.3743228216
 30
0.0
 11
261.2841710886
 21
267.3743211527
 31
0.0
  0
LINE
  5
11D
  8
0
  6
CONTINUOUS
 62
     7
 10
389.9379507145
 20
334.3743228216
 30
0.0
 11
389.9379507145
 21
267.3743211527
 31
0.0
  0
LINE
  5
11E
  8
0
  6
CONTINUOUS
 62
     7
 10
242.285376831
 20
270.7243219812
 30
0.0
 11
242.285376831
 21
331.0243219931
 31
0.0
  0
LINE
  5
11F
  8
0
  6
CONTINUOUS
 62
     7
 10
408.9367449722
 20
331.0243219931
 30
0.0
 11
408.9367449722
 21
270.7243219812
 31
0.0
  0
LINE
  5
120
  8
0
  6
CONTINUOUS
 62
     7
 10
294.6110614082
 20
453.3743255634
 30
0.0
 11
356.6110603949
 21
453.3743255634
 31
0.0
  0
ARC
  5
121
  8
0
  6
CONTINUOUS
 62
     7
 10
346.9309221097
 20
425.5596177373
 30
0.0
 40
16.14793402940451
 50
51.3830146038
 51
65.7174155905
  0
ARC
  5
122
  8
0
  6
CONTINUOUS
 62
     7
 10
304.2911996934
 20
425.5596177373
 30
0.0
 40
16.14793402940451
 50
114.2825844095
 51
128.6169853962
  0
LINE
  5
123
  8
0
  6
CONTINUOUS
 62
     7
 10
330.6110607898
 20
483.3743267555
 30
0.0
 11
320.6110610133
 21
483.3743267555
 31
0.0
  0
LINE
  5
124
  8
0
  6
CONTINUOUS
 62
     7
 10
320.6110610133
 20
483.3743267555
 30
0.0
 11
320.6110610133
 21
453.3743255634
 31
0.0
  0
LINE
  5
125
  8
0
  6
CONTINUOUS
 62
     7
 10
330.6110607898
 20
483.3743267555
 30
0.0
 11
330.6110607898
 21
453.3743255634
 31
0.0
  0
LINE
  5
126
  8
0
  6
CONTINUOUS
 62
     7
 10
41.4193630656
 20
331.0243219931
 30
0.0
 11
41.4193630656
 21
270.7243219812
 31
0.0
  0
LINE
  5
127
  8
0
  6
CONTINUOUS
 62
     7
 10
609.8027587375
 20
331.0243219931
 30
0.0
 11
609.8027587375
 21
270.7243219812
 31
0.0
  0
LINE
  5
128
  8
0
  6
CONTINUOUS
 62
     7
 10
40.6110644778
 20
329.6243225087
 30
0.0
 11
40.6110644778
 21
272.1243214656
 31
0.0
  0
LINE
  5
129
  8
0
  6
CONTINUOUS
 62
     7
 10
610.6110573253
 20
329.6243225087
 30
0.0
 11
610.6110573253
 21
272.1243214656
 31
0.0
  0
LINE
  5
12A
  8
0
  6
CONTINUOUS
 62
     7
 10
294.6110614082
 20
262.874323209
 30
0.0
 11
294.6110614082
 21
266.6507803697
 31
0.0
  0
LINE
  5
12B
  8
0
  6
CONTINUOUS
 62
     7
 10
294.6110614082
 20
262.874323209
 30
0.0
 11
286.6110600969
 21
262.874323209
 31
0.0
  0
LINE
  5
12C
  8
0
  6
CONTINUOUS
 62
     7
 10
286.6110600969
 20
262.874323209
 30
0.0
 11
286.6110600969
 21
266.6507803697
 31
0.0
  0
LINE
  5
12D
  8
0
  6
CONTINUOUS
 62
     7
 10
356.6110603949
 20
262.874323209
 30
0.0
 11
364.6110617062
 21
262.874323209
 31
0.0
  0
LINE
  5
12E
  8
0
  6
CONTINUOUS
 62
     7
 10
356.6110603949
 20
262.874323209
 30
0.0
 11
356.6110603949
 21
266.6507803697
 31
0.0
  0
LINE
  5
12F
  8
0
  6
CONTINUOUS
 62
     7
 10
364.6110617062
 20
262.874323209
 30
0.0
 11
364.6110617062
 21
266.6507803697
 31
0.0
  0
LINE
  5
130
  8
0
  6
CONTINUOUS
 62
     7
 10
294.6110614082
 20
266.6507803697
 30
0.0
 11
294.6110614082
 21
278.6970113266
 31
0.0
  0
LINE
  5
131
  8
0
  6
CONTINUOUS
 62
     7
 10
286.6110600969
 20
266.6507803697
 30
0.0
 11
286.6110600969
 21
278.6970113266
 31
0.0
  0
LINE
  5
132
  8
0
  6
CONTINUOUS
 62
     7
 10
356.6110603949
 20
266.6507803697
 30
0.0
 11
356.6110603949
 21
278.6970113266
 31
0.0
  0
LINE
  5
133
  8
0
  6
CONTINUOUS
 62
     7
 10
364.6110617062
 20
266.6507803697
 30
0.0
 11
364.6110617062
 21
278.6970113266
 31
0.0
  0
ARC
  5
134
  8
0
  6
CONTINUOUS
 62
     7
 10
287.6012218094
 20
341.9112886705
 30
0.0
 40
0.4844954792965681
 50
156.3925789118
 51
184.1999181775
  0
ARC
  5
135
  8
0
  6
CONTINUOUS
 62
     7
 10
363.6230040018
 20
341.9120265834
 30
0.0
 40
0.4822720723101164
 50
355.8698426925
 51
23.627193585
  0
LINE
  5
136
  8
0
  6
CONTINUOUS
 62
     7
 10
330.6110607898
 20
503.3743225832
 30
0.0
 11
320.6110610133
 21
503.3743225832
 31
0.0
  0
LINE
  5
137
  8
0
  6
CONTINUOUS
 62
     7
 10
320.6110610133
 20
503.3743225832
 30
0.0
 11
320.6110610133
 21
483.3743267555
 31
0.0
  0
LINE
  5
138
  8
0
  6
CONTINUOUS
 62
     7
 10
330.6110607898
 20
503.3743225832
 30
0.0
 11
330.6110607898
 21
483.3743267555
 31
0.0
  0
LINE
  5
139
  8
0
  6
CONTINUOUS
 62
     7
 10
294.6110614082
 20
278.6970113266
 30
0.0
 11
294.6110614082
 21
281.2324420411
 31
0.0
  0
LINE
  5
13A
  8
0
  6
CONTINUOUS
 62
     7
 10
286.6110600969
 20
278.6970113266
 30
0.0
 11
286.6110600969
 21
281.2324420411
 31
0.0
  0
LINE
  5
13B
  8
0
  6
CONTINUOUS
 62
     7
 10
356.6110603949
 20
278.6970113266
 30
0.0
 11
356.6110603949
 21
281.2324420411
 31
0.0
  0
LINE
  5
13C
  8
0
  6
CONTINUOUS
 62
     7
 10
364.6110617062
 20
278.6970113266
 30
0.0
 11
364.6110617062
 21
281.2324420411
 31
0.0
  0
LINE
  5
13D
  8
0
  6
CONTINUOUS
 62
     7
 10
302.3599036476
 20
473.5008024473
 30
0.0
 11
320.6110610133
 21
473.5008024473
 31
0.0
  0
LINE
  5
13E
  8
0
  6
CONTINUOUS
 62
     7
 10
330.6110607898
 20
473.5008024473
 30
0.0
 11
348.8622181555
 21
473.5008024473
 31
0.0
  0
LINE
  5
13F
  8
0
  6
CONTINUOUS
 62
     7
 10
306.4579539439
 20
497.374325325
 30
0.0
 11
320.6110610133
 21
497.374325325
 31
0.0
  0
LINE
  5
140
  8
0
  6
CONTINUOUS
 62
     7
 10
330.6110607898
 20
497.374325325
 30
0.0
 11
344.7641678592
 21
497.374325325
 31
0.0
  0
LINE
  5
141
  8
0
  6
CONTINUOUS
 62
     7
 10
330.6110607898
 20
503.3743225832
 30
0.0
 11
343.6110601267
 21
503.3743225832
 31
0.0
  0
LINE
  5
142
  8
0
  6
CONTINUOUS
 62
     7
 10
307.6110616764
 20
503.3743225832
 30
0.0
 11
320.6110610133
 21
503.3743225832
 31
0.0
  0
LINE
  5
143
  8
0
  6
CONTINUOUS
 62
     7
 10
279.9150184235
 20
334.4154574771
 30
0.0
 11
279.1369505665
 21
334.3743116457
 31
0.0
  0
LINE
  5
144
  8
0
  6
CONTINUOUS
 62
     7
 10
371.3070922038
 20
334.4154574771
 30
0.0
 11
372.0851712367
 21
334.3743116457
 31
0.0
  0
ARC
  5
145
  8
0
  6
CONTINUOUS
 62
     7
 10
348.0210101904
 20
428.9396177053
 30
0.0
 40
12.88820422715581
 50
10.8891677364
 51
45.7825537632
  0
ARC
  5
146
  8
0
  6
CONTINUOUS
 62
     7
 10
303.2011116128
 20
428.9396177053
 30
0.0
 40
12.88820422715586
 50
134.2174462368
 51
169.1108322636
  0
LINE
  5
147
  8
0
  6
CONTINUOUS
 62
     7
 10
318.6604869059
 20
512.6743160982
 30
0.0
 11
332.5616348973
 21
512.6743160982
 31
0.0
  0
ARC
  5
148
  8
0
  6
CONTINUOUS
 62
     7
 10
325.6110609016
 20
520.9405084461
 30
0.0
 40
10.8000192038048
 50
229.9414174652
 51
310.0585825348
  0
POLYLINE
  5
149
  8
0
  6
CONTINUOUS
 62
     7
 66
     1
 10
0.0
 20
0.0
 30
0.0
  0
VERTEX
  5
51B
  8
0
  6
CONTINUOUS
 62
     7
 10
314.8110606214
 20
510.1404928465
 30
0.0
  0
VERTEX
  5
51C
  8
0
  6
CONTINUOUS
 62
     7
 10
314.8138070917
 20
510.1432346601
 30
0.0
  0
VERTEX
  5
51D
  8
0
  6
CONTINUOUS
 62
     7
 10
314.8357723346
 20
510.1651989717
 30
0.0
  0
VERTEX
  5
51E
  8
0
  6
CONTINUOUS
 62
     7
 10
314.8796571857
 20
510.2090828914
 30
0.0
  0
VERTEX
  5
51F
  8
0
  6
CONTINUOUS
 62
     7
 10
314.9453722378
 20
510.2747970123
 30
0.0
  0
VERTEX
  5
520
  8
0
  6
CONTINUOUS
 62
     7
 10
315.0327843121
 20
510.3622072239
 30
0.0
  0
VERTEX
  5
521
  8
0
  6
CONTINUOUS
 62
     7
 10
315.1417155257
 20
510.4711496133
 30
0.0
  0
VERTEX
  5
522
  8
0
  6
CONTINUOUS
 62
     7
 10
315.2719451552
 20
510.601370861
 30
0.0
  0
VERTEX
  5
523
  8
0
  6
CONTINUOUS
 62
     7
 10
315.4232068425
 20
510.7526325483
 30
0.0
  0
VERTEX
  5
524
  8
0
  6
CONTINUOUS
 62
     7
 10
315.5951932511
 20
510.9246217508
 30
0.0
  0
VERTEX
  5
525
  8
0
  6
CONTINUOUS
 62
     7
 10
315.7875551349
 20
511.1169808407
 30
0.0
  0
VERTEX
  5
526
  8
0
  6
CONTINUOUS
 62
     7
 10
315.9999004072
 20
511.3293223877
 30
0.0
  0
VERTEX
  5
527
  8
0
  6
CONTINUOUS
 62
     7
 10
316.2317978656
 20
511.5612291593
 30
0.0
  0
VERTEX
  5
528
  8
0
  6
CONTINUOUS
 62
     7
 10
316.4827743983
 20
511.8122094173
 30
0.0
  0
VERTEX
  5
529
  8
0
  6
CONTINUOUS
 62
     7
 10
316.7523215031
 20
512.0817565221
 30
0.0
  0
VERTEX
  5
52A
  8
0
  6
CONTINUOUS
 62
     7
 10
317.0398896998
 20
512.3693191309
 30
0.0
  0
VERTEX
  5
52B
  8
0
  6
CONTINUOUS
 62
     7
 10
317.3448931864
 20
512.6743160982
 30
0.0
  0
SEQEND
  5
B93
  8
0
  6
CONTINUOUS
 62
     7
  0
POLYLINE
  5
14A
  8
0
  6
CONTINUOUS
 62
     7
 66
     1
 10
0.0
 20
0.0
 30
0.0
  0
VERTEX
  5
52C
  8
0
  6
CONTINUOUS
 62
     7
 10
317.974307525
 20
527.0902805824
 30
0.0
  0
VERTEX
  5
52D
  8
0
  6
CONTINUOUS
 62
     7
 10
317.7579552373
 20
522.1350037355
 30
0.0
  0
VERTEX
  5
52E
  8
0
  6
CONTINUOUS
 62
     7
 10
317.548092871
 20
517.3283510704
 30
0.0
  0
VERTEX
  5
52F
  8
0
  6
CONTINUOUS
 62
     7
 10
317.3448931864
 20
512.6743160982
 30
0.0
  0
SEQEND
  5
B92
  8
0
  6
CONTINUOUS
 62
     7
  0
POLYLINE
  5
14B
  8
0
  6
CONTINUOUS
 62
     7
 66
     1
 10
0.0
 20
0.0
 30
0.0
  0
VERTEX
  5
530
  8
0
  6
CONTINUOUS
 62
     7
 10
318.6604869059
 20
512.6743160982
 30
0.0
  0
VERTEX
  5
531
  8
0
  6
CONTINUOUS
 62
     7
 10
318.4257600894
 20
517.3283510704
 30
0.0
  0
VERTEX
  5
532
  8
0
  6
CONTINUOUS
 62
     7
 10
318.1969704544
 20
522.1350037355
 30
0.0
  0
VERTEX
  5
533
  8
0
  6
CONTINUOUS
 62
     7
 10
317.974307525
 20
527.0902805824
 30
0.0
  0
SEQEND
  5
B91
  8
0
  6
CONTINUOUS
 62
     7
  0
POLYLINE
  5
14C
  8
0
  6
CONTINUOUS
 62
     7
 66
     1
 10
0.0
 20
0.0
 30
0.0
  0
VERTEX
  5
534
  8
0
  6
CONTINUOUS
 62
     7
 10
333.2478142781
 20
527.0902805824
 30
0.0
  0
VERTEX
  5
535
  8
0
  6
CONTINUOUS
 62
     7
 10
333.0251513487
 20
522.1350037355
 30
0.0
  0
VERTEX
  5
536
  8
0
  6
CONTINUOUS
 62
     7
 10
332.7963617137
 20
517.3283510704
 30
0.0
  0
VERTEX
  5
537
  8
0
  6
CONTINUOUS
 62
     7
 10
332.5616348973
 20
512.6743160982
 30
0.0
  0
SEQEND
  5
B90
  8
0
  6
CONTINUOUS
 62
     7
  0
POLYLINE
  5
14D
  8
0
  6
CONTINUOUS
 62
     7
 66
     1
 10
0.0
 20
0.0
 30
0.0
  0
VERTEX
  5
538
  8
0
  6
CONTINUOUS
 62
     7
 10
333.8772286168
 20
512.6743160982
 30
0.0
  0
VERTEX
  5
539
  8
0
  6
CONTINUOUS
 62
     7
 10
333.6740289321
 20
517.3283510704
 30
0.0
  0
VERTEX
  5
53A
  8
0
  6
CONTINUOUS
 62
     7
 10
333.4641665658
 20
522.1350037355
 30
0.0
  0
VERTEX
  5
53B
  8
0
  6
CONTINUOUS
 62
     7
 10
333.2478142781
 20
527.0902805824
 30
0.0
  0
SEQEND
  5
B8F
  8
0
  6
CONTINUOUS
 62
     7
  0
POLYLINE
  5
14E
  8
0
  6
CONTINUOUS
 62
     7
 66
     1
 10
0.0
 20
0.0
 30
0.0
  0
VERTEX
  5
53C
  8
0
  6
CONTINUOUS
 62
     7
 10
333.8772286168
 20
512.6743160982
 30
0.0
  0
VERTEX
  5
53D
  8
0
  6
CONTINUOUS
 62
     7
 10
334.1822321033
 20
512.3693191309
 30
0.0
  0
VERTEX
  5
53E
  8
0
  6
CONTINUOUS
 62
     7
 10
334.4698003
 20
512.0817565221
 30
0.0
  0
VERTEX
  5
53F
  8
0
  6
CONTINUOUS
 62
     7
 10
334.7393474048
 20
511.8122094173
 30
0.0
  0
VERTEX
  5
540
  8
0
  6
CONTINUOUS
 62
     7
 10
334.9903239375
 20
511.5612291593
 30
0.0
  0
VERTEX
  5
541
  8
0
  6
CONTINUOUS
 62
     7
 10
335.222221396
 20
511.3293223877
 30
0.0
  0
VERTEX
  5
542
  8
0
  6
CONTINUOUS
 62
     7
 10
335.4345666683
 20
511.1169808407
 30
0.0
  0
VERTEX
  5
543
  8
0
  6
CONTINUOUS
 62
     7
 10
335.6269285521
 20
510.9246217508
 30
0.0
  0
VERTEX
  5
544
  8
0
  6
CONTINUOUS
 62
     7
 10
335.7989149606
 20
510.7526325483
 30
0.0
  0
VERTEX
  5
545
  8
0
  6
CONTINUOUS
 62
     7
 10
335.9501766479
 20
510.601370861
 30
0.0
  0
VERTEX
  5
546
  8
0
  6
CONTINUOUS
 62
     7
 10
336.0804062775
 20
510.4711496133
 30
0.0
  0
VERTEX
  5
547
  8
0
  6
CONTINUOUS
 62
     7
 10
336.1893374911
 20
510.3622072239
 30
0.0
  0
VERTEX
  5
548
  8
0
  6
CONTINUOUS
 62
     7
 10
336.2767495653
 20
510.2747970123
 30
0.0
  0
VERTEX
  5
549
  8
0
  6
CONTINUOUS
 62
     7
 10
336.3424646175
 20
510.2090828914
 30
0.0
  0
VERTEX
  5
54A
  8
0
  6
CONTINUOUS
 62
     7
 10
336.3863494685
 20
510.1651989717
 30
0.0
  0
VERTEX
  5
54B
  8
0
  6
CONTINUOUS
 62
     7
 10
336.4083147114
 20
510.1432346601
 30
0.0
  0
VERTEX
  5
54C
  8
0
  6
CONTINUOUS
 62
     7
 10
336.4110611817
 20
510.1404928465
 30
0.0
  0
SEQEND
  5
B8E
  8
0
  6
CONTINUOUS
 62
     7
  0
LINE
  5
14F
  8
0
  6
CONTINUOUS
 62
     7
 10
317.974307525
 20
527.0902805824
 30
0.0
 11
318.6110606855
 21
541.6743152637
 31
0.0
  0
LINE
  5
150
  8
0
  6
CONTINUOUS
 62
     7
 10
318.6110606855
 20
541.6743152637
 30
0.0
 11
332.6110611176
 21
541.6743152637
 31
0.0
  0
LINE
  5
151
  8
0
  6
CONTINUOUS
 62
     7
 10
333.2478142781
 20
527.0902805824
 30
0.0
 11
332.6110611176
 21
541.6743152637
 31
0.0
  0
LINE
  5
152
  8
0
  6
CONTINUOUS
 62
     7
 10
294.6110614082
 20
262.874323209
 30
0.0
 11
356.6110603949
 21
262.874323209
 31
0.0
  0
LINE
  5
153
  8
0
  6
CONTINUOUS
 62
     7
 10
299.1442088476
 20
483.3743267555
 30
0.0
 11
296.8711857191
 21
453.3743255634
 31
0.0
  0
LINE
  5
154
  8
0
  6
CONTINUOUS
 62
     7
 10
299.2953625014
 20
503.3743225832
 30
0.0
 11
299.1442088476
 21
483.3743267555
 31
0.0
  0
LINE
  5
155
  8
0
  6
CONTINUOUS
 62
     7
 10
307.6110616764
 20
503.3743225832
 30
0.0
 11
299.2953625014
 21
503.3743225832
 31
0.0
  0
LINE
  5
156
  8
0
  6
CONTINUOUS
 62
     7
 10
351.9267593017
 20
503.3743225832
 30
0.0
 11
352.0779129556
 21
483.3743267555
 31
0.0
  0
LINE
  5
157
  8
0
  6
CONTINUOUS
 62
     7
 10
352.0779129556
 20
483.3743267555
 30
0.0
 11
354.3509360841
 21
453.3743255634
 31
0.0
  0
LINE
  5
158
  8
0
  6
CONTINUOUS
 62
     7
 10
343.6110601267
 20
503.3743225832
 30
0.0
 11
351.9267593017
 21
503.3743225832
 31
0.0
  0
LINE
  5
159
  8
0
  6
CONTINUOUS
 62
     8
 10
290.3360672733
 20
407.0920639534
 30
0.0
 11
290.2969405493
 21
405.3743698497
 31
0.0
  0
LINE
  5
15A
  8
0
  6
CONTINUOUS
 62
     8
 10
290.3360672733
 20
407.0920639534
 30
0.0
 11
360.8860545298
 21
407.0920639534
 31
0.0
  0
LINE
  5
15B
  8
0
  6
CONTINUOUS
 62
     8
 10
360.8860545298
 20
407.0920639534
 30
0.0
 11
360.9251812538
 21
405.3743698497
 31
0.0
  0
LINE
  5
15C
  8
0
  6
CONTINUOUS
 62
     8
 10
360.7275657794
 20
391.3743191261
 30
0.0
 11
360.9218582949
 21
401.3743244905
 31
0.0
  0
LINE
  5
15D
  8
0
  6
CONTINUOUS
 62
     8
 10
290.4945560238
 20
391.3743191261
 30
0.0
 11
290.3002635082
 21
401.3743244905
 31
0.0
  0
LINE
  5
15E
  8
0
  6
CONTINUOUS
 62
     8
 10
353.5640560528
 20
412.1311523814
 30
0.0
 11
297.6580657503
 21
412.1311523814
 31
0.0
  0
LINE
  5
15F
  8
0
  6
CONTINUOUS
 62
     8
 10
290.8895075759
 20
390.8977948923
 30
0.0
 11
290.4945560238
 21
391.3743191261
 31
0.0
  0
LINE
  5
160
  8
0
  6
CONTINUOUS
 62
     8
 10
360.3326142272
 20
390.8977948923
 30
0.0
 11
360.7275657794
 21
391.3743191261
 31
0.0
  0
LINE
  5
161
  8
0
  6
CONTINUOUS
 62
     8
 10
281.3271977445
 20
405.3743251462
 30
0.0
 11
281.3636497101
 21
407.0920639534
 31
0.0
  0
ARC
  5
162
  8
0
  6
CONTINUOUS
 62
     8
 10
280.7774993162
 20
417.6260734406
 30
0.0
 40
10.55030485477383
 50
273.1848803438
 51
281.5671352978
  0
ARC
  5
163
  8
0
  6
CONTINUOUS
 62
     8
 10
370.4446224869
 20
417.6260734406
 30
0.0
 40
10.55030485477383
 50
258.4328647022
 51
266.8151196562
  0
LINE
  5
164
  8
0
  6
CONTINUOUS
 62
     8
 10
369.8949240586
 20
405.3743251462
 30
0.0
 11
369.858472093
 21
407.0920639534
 31
0.0
  0
LINE
  5
165
  8
0
  6
CONTINUOUS
 62
     8
 10
282.1747534415
 20
391.3743191261
 30
0.0
 11
281.3261844656
 21
401.3743244905
 31
0.0
  0
LINE
  5
166
  8
0
  6
CONTINUOUS
 62
     8
 10
369.0473683616
 20
391.3743191261
 30
0.0
 11
369.8959373376
 21
401.3743244905
 31
0.0
  0
LINE
  5
167
  8
0
  6
CONTINUOUS
 62
     8
 10
282.7404313227
 20
391.2180506487
 30
0.0
 11
282.1747534415
 21
391.3743191261
 31
0.0
  0
LINE
  5
168
  8
0
  6
CONTINUOUS
 62
     8
 10
368.4816904804
 20
391.2180506487
 30
0.0
 11
369.0473683616
 21
391.3743191261
 31
0.0
  0
LINE
  5
169
  8
0
  6
CONTINUOUS
 62
     8
 10
300.4925031653
 20
376.8513866563
 30
0.0
 11
283.2565404913
 21
376.8513866563
 31
0.0
  0
POLYLINE
  5
16A
  8
0
  6
CONTINUOUS
 62
     8
 66
     1
 10
0.0
 20
0.0
 30
0.0
  0
VERTEX
  5
54D
  8
0
  6
CONTINUOUS
 62
     8
 10
301.5089933267
 20
389.0310444731
 30
0.0
  0
VERTEX
  5
54E
  8
0
  6
CONTINUOUS
 62
     8
 10
300.739411681
 20
379.8329972524
 30
0.0
  0
VERTEX
  5
54F
  8
0
  6
CONTINUOUS
 62
     8
 10
300.4925031653
 20
376.8513866563
 30
0.0
  0
SEQEND
  5
B8D
  8
0
  6
CONTINUOUS
 62
     8
  0
LINE
  5
16B
  8
0
  6
CONTINUOUS
 62
     8
 10
350.7296186378
 20
376.8513866563
 30
0.0
 11
367.9655813119
 21
376.8513866563
 31
0.0
  0
POLYLINE
  5
16C
  8
0
  6
CONTINUOUS
 62
     8
 66
     1
 10
0.0
 20
0.0
 30
0.0
  0
VERTEX
  5
550
  8
0
  6
CONTINUOUS
 62
     8
 10
349.7131284764
 20
389.0310444731
 30
0.0
  0
VERTEX
  5
551
  8
0
  6
CONTINUOUS
 62
     8
 10
350.4827101221
 20
379.8329972524
 30
0.0
  0
VERTEX
  5
552
  8
0
  6
CONTINUOUS
 62
     8
 10
350.7296186378
 20
376.8513866563
 30
0.0
  0
SEQEND
  5
B8C
  8
0
  6
CONTINUOUS
 62
     8
  0
ARC
  5
16D
  8
0
  6
CONTINUOUS
 62
     8
 10
295.0000568042
 20
376.8477657607
 30
0.0
 40
5.492447554622895
 50
274.7677664368
 51
0.0377722401
  0
ARC
  5
16E
  8
0
  6
CONTINUOUS
 62
     8
 10
356.2220649989
 20
376.8477657607
 30
0.0
 40
5.4924475546229
 50
179.9622277599
 51
265.2322335632
  0
ARC
  5
16F
  8
0
  6
CONTINUOUS
 62
     8
 10
287.5166588695
 20
406.9382342827
 30
0.0
 40
6.154928061292347
 50
156.3652437132
 51
178.5678616145
  0
ARC
  5
170
  8
0
  6
CONTINUOUS
 62
     8
 10
363.7054629336
 20
406.9382342827
 30
0.0
 40
6.154928061292296
 50
1.4321383855
 51
23.6347562868
  0
ARC
  5
171
  8
0
  6
CONTINUOUS
 62
     8
 10
410.9110807238
 20
260.8386829057
 30
0.0
 40
110.1642634950706
 50
157.7362023018
 51
159.9797232959
  0
ARC
  5
172
  8
0
  6
CONTINUOUS
 62
     8
 10
325.6110609016
 20
110.1046750936
 30
0.0
 40
193.1910494328853
 50
85.0554576448
 51
94.9445423552
  0
ARC
  5
173
  8
0
  6
CONTINUOUS
 62
     8
 10
240.3110410793
 20
260.8386829057
 30
0.0
 40
110.1642634950705
 50
20.0202767041
 51
22.2637976982
  0
ARC
  5
174
  8
0
  6
CONTINUOUS
 62
     8
 10
212.3500147053
 20
318.3054097645
 30
0.0
 40
132.946411710499
 50
348.604797306
 51
351.4558641093
  0
ARC
  5
175
  8
0
  6
CONTINUOUS
 62
     8
 10
325.6110609016
 20
133.4916852738
 30
0.0
 40
159.4625100421957
 50
83.8567975165
 51
96.1432024835
  0
ARC
  5
176
  8
0
  6
CONTINUOUS
 62
     8
 10
438.8721070978
 20
318.3054097645
 30
0.0
 40
132.946411710499
 50
188.5441358907
 51
191.395202694
  0
POLYLINE
  5
177
  8
0
  6
CONTINUOUS
 62
     8
 66
     1
 10
0.0
 20
0.0
 30
0.0
  0
VERTEX
  5
553
  8
0
  6
CONTINUOUS
 62
     8
 10
308.9596409789
 20
302.5767816326
 30
0.0
  0
VERTEX
  5
554
  8
0
  6
CONTINUOUS
 62
     8
 10
308.9302912792
 20
302.5677635197
 30
0.0
  0
VERTEX
  5
555
  8
0
  6
CONTINUOUS
 62
     8
 10
308.9224290541
 20
302.5653475525
 30
0.0
  0
VERTEX
  5
556
  8
0
  6
CONTINUOUS
 62
     8
 10
308.9089211514
 20
302.5611956
 30
0.0
  0
VERTEX
  5
557
  8
0
  6
CONTINUOUS
 62
     8
 10
308.8576928219
 20
302.5454442578
 30
0.0
  0
VERTEX
  5
558
  8
0
  6
CONTINUOUS
 62
     8
 10
308.7548058918
 20
302.5137828991
 30
0.0
  0
VERTEX
  5
559
  8
0
  6
CONTINUOUS
 62
     8
 10
308.5483745178
 20
302.4501551736
 30
0.0
  0
VERTEX
  5
55A
  8
0
  6
CONTINUOUS
 62
     8
 10
308.1347275963
 20
302.3222736411
 30
0.0
  0
VERTEX
  5
55B
  8
0
  6
CONTINUOUS
 62
     8
 10
307.3055021903
 20
302.0646008991
 30
0.0
  0
VERTEX
  5
55C
  8
0
  6
CONTINUOUS
 62
     8
 10
306.4592112294
 20
301.8002923673
 30
0.0
  0
VERTEX
  5
55D
  8
0
  6
CONTINUOUS
 62
     8
 10
305.6199331274
 20
301.537446303
 30
0.0
  0
SEQEND
  5
B8B
  8
0
  6
CONTINUOUS
 62
     8
  0
ARC
  5
178
  8
0
  6
CONTINUOUS
 62
     8
 10
345.7651896347
 20
323.5147020105
 30
0.0
 40
45.76725235871123
 50
208.6982098493
 51
213.0499239065
  0
POLYLINE
  5
179
  8
0
  6
CONTINUOUS
 62
     8
 66
     1
 10
0.0
 20
0.0
 30
0.0
  0
VERTEX
  5
55E
  8
0
  6
CONTINUOUS
 62
     8
 10
342.2624808243
 20
302.5767816326
 30
0.0
  0
VERTEX
  5
55F
  8
0
  6
CONTINUOUS
 62
     8
 10
342.2918305239
 20
302.5677635197
 30
0.0
  0
VERTEX
  5
560
  8
0
  6
CONTINUOUS
 62
     8
 10
342.2996927491
 20
302.5653475525
 30
0.0
  0
VERTEX
  5
561
  8
0
  6
CONTINUOUS
 62
     8
 10
342.3132006517
 20
302.5611956
 30
0.0
  0
VERTEX
  5
562
  8
0
  6
CONTINUOUS
 62
     8
 10
342.3644289812
 20
302.5454442578
 30
0.0
  0
VERTEX
  5
563
  8
0
  6
CONTINUOUS
 62
     8
 10
342.4673159113
 20
302.5137828991
 30
0.0
  0
VERTEX
  5
564
  8
0
  6
CONTINUOUS
 62
     8
 10
342.6737472853
 20
302.4501551736
 30
0.0
  0
VERTEX
  5
565
  8
0
  6
CONTINUOUS
 62
     8
 10
343.0873942068
 20
302.3222736411
 30
0.0
  0
VERTEX
  5
566
  8
0
  6
CONTINUOUS
 62
     8
 10
343.9166196129
 20
302.0646008991
 30
0.0
  0
VERTEX
  5
567
  8
0
  6
CONTINUOUS
 62
     8
 10
344.7629105738
 20
301.8002923673
 30
0.0
  0
VERTEX
  5
568
  8
0
  6
CONTINUOUS
 62
     8
 10
345.6021886757
 20
301.537446303
 30
0.0
  0
SEQEND
  5
B8A
  8
0
  6
CONTINUOUS
 62
     8
  0
ARC
  5
17A
  8
0
  6
CONTINUOUS
 62
     8
 10
305.4569321684
 20
323.5147020105
 30
0.0
 40
45.76725235871118
 50
326.9500760935
 51
331.3017901507
  0
ARC
  5
17B
  8
0
  6
CONTINUOUS
 62
     8
 10
295.3851540815
 20
432.9742088918
 30
0.0
 40
56.35473529661142
 50
275.1997692944
 51
279.3883190234
  0
POLYLINE
  5
17C
  8
0
  6
CONTINUOUS
 62
     8
 66
     1
 10
0.0
 20
0.0
 30
0.0
  0
VERTEX
  5
569
  8
0
  6
CONTINUOUS
 62
     8
 10
304.5780104092
 20
377.3743205566
 30
0.0
  0
VERTEX
  5
56A
  8
0
  6
CONTINUOUS
 62
     8
 10
304.7386002233
 20
379.5279481311
 30
0.0
  0
VERTEX
  5
56B
  8
0
  6
CONTINUOUS
 62
     8
 10
305.4103985867
 20
388.4612687726
 30
0.0
  0
SEQEND
  5
B89
  8
0
  6
CONTINUOUS
 62
     8
  0
ARC
  5
17D
  8
0
  6
CONTINUOUS
 62
     8
 10
355.8369677216
 20
432.9742088918
 30
0.0
 40
56.35473529661144
 50
260.6116809766
 51
264.8002307056
  0
POLYLINE
  5
17E
  8
0
  6
CONTINUOUS
 62
     8
 66
     1
 10
0.0
 20
0.0
 30
0.0
  0
VERTEX
  5
56C
  8
0
  6
CONTINUOUS
 62
     8
 10
346.644111394
 20
377.3743205566
 30
0.0
  0
VERTEX
  5
56D
  8
0
  6
CONTINUOUS
 62
     8
 10
346.4835215798
 20
379.5279481311
 30
0.0
  0
VERTEX
  5
56E
  8
0
  6
CONTINUOUS
 62
     8
 10
345.8117232165
 20
388.4612687726
 30
0.0
  0
SEQEND
  5
B88
  8
0
  6
CONTINUOUS
 62
     8
  0
LINE
  5
17F
  8
0
  6
CONTINUOUS
 62
     8
 10
308.9596409789
 20
302.5767816326
 30
0.0
 11
308.9596409789
 21
388.5273330707
 31
0.0
  0
LINE
  5
180
  8
0
  6
CONTINUOUS
 62
     8
 10
342.2624808243
 20
302.5767816326
 30
0.0
 11
342.2624808243
 21
388.5273330707
 31
0.0
  0
POLYLINE
  5
181
  8
0
  6
CONTINUOUS
 62
     8
 66
     1
 10
0.0
 20
0.0
 30
0.0
  0
VERTEX
  5
56F
  8
0
  6
CONTINUOUS
 62
     8
 10
305.6199331274
 20
301.537446303
 30
0.0
  0
VERTEX
  5
570
  8
0
  6
CONTINUOUS
 62
     8
 10
305.0409503719
 20
302.9089947559
 30
0.0
  0
VERTEX
  5
571
  8
0
  6
CONTINUOUS
 62
     8
 10
304.4665907016
 20
304.26742489
 30
0.0
  0
VERTEX
  5
572
  8
0
  6
CONTINUOUS
 62
     8
 10
303.8972657612
 20
305.6117643464
 30
0.0
  0
VERTEX
  5
573
  8
0
  6
CONTINUOUS
 62
     8
 10
303.3333853325
 20
306.9410508361
 30
0.0
  0
VERTEX
  5
574
  8
0
  6
CONTINUOUS
 62
     8
 10
302.7753536096
 20
308.2543320816
 30
0.0
  0
VERTEX
  5
575
  8
0
  6
CONTINUOUS
 62
     8
 10
302.2235654732
 20
309.5506674472
 30
0.0
  0
VERTEX
  5
576
  8
0
  6
CONTINUOUS
 62
     8
 10
301.6784213921
 20
310.829130267
 30
0.0
  0
VERTEX
  5
577
  8
0
  6
CONTINUOUS
 62
     8
 10
301.1403087964
 20
312.0888027225
 30
0.0
  0
VERTEX
  5
578
  8
0
  6
CONTINUOUS
 62
     8
 10
300.6096132538
 20
313.3287851561
 30
0.0
  0
VERTEX
  5
579
  8
0
  6
CONTINUOUS
 62
     8
 10
300.0867147437
 20
314.5481890861
 30
0.0
  0
VERTEX
  5
57A
  8
0
  6
CONTINUOUS
 62
     8
 10
299.5719895205
 20
315.7461409319
 30
0.0
  0
VERTEX
  5
57B
  8
0
  6
CONTINUOUS
 62
     8
 10
299.0658026627
 20
316.9217829455
 30
0.0
  0
VERTEX
  5
57C
  8
0
  6
CONTINUOUS
 62
     8
 10
298.5685192486
 20
318.0742741425
 30
0.0
  0
VERTEX
  5
57D
  8
0
  6
CONTINUOUS
 62
     8
 10
298.0804950437
 20
319.2027875085
 30
0.0
  0
VERTEX
  5
57E
  8
0
  6
CONTINUOUS
 62
     8
 10
297.602080225
 20
320.3065183807
 30
0.0
  0
VERTEX
  5
57F
  8
0
  6
CONTINUOUS
 62
     8
 10
297.1336137941
 20
321.3846732725
 30
0.0
  0
VERTEX
  5
580
  8
0
  6
CONTINUOUS
 62
     8
 10
296.6754347524
 20
322.4364810486
 30
0.0
  0
VERTEX
  5
581
  8
0
  6
CONTINUOUS
 62
     8
 10
296.2278690627
 20
323.4611892004
 30
0.0
  0
VERTEX
  5
582
  8
0
  6
CONTINUOUS
 62
     8
 10
295.7912389627
 20
324.4580638457
 30
0.0
  0
VERTEX
  5
583
  8
0
  6
CONTINUOUS
 62
     8
 10
295.3658573767
 20
325.4263897289
 30
0.0
  0
VERTEX
  5
584
  8
0
  6
CONTINUOUS
 62
     8
 10
294.9520260534
 20
326.3654776711
 30
0.0
  0
VERTEX
  5
585
  8
0
  6
CONTINUOUS
 62
     8
 10
294.5500430158
 20
327.2746496696
 30
0.0
  0
VERTEX
  5
586
  8
0
  6
CONTINUOUS
 62
     8
 10
294.160196974
 20
328.1532593865
 30
0.0
  0
VERTEX
  5
587
  8
0
  6
CONTINUOUS
 62
     8
 10
293.7827654621
 20
329.0006753851
 30
0.0
  0
VERTEX
  5
588
  8
0
  6
CONTINUOUS
 62
     8
 10
293.4180185637
 20
329.8162923057
 30
0.0
  0
VERTEX
  5
589
  8
0
  6
CONTINUOUS
 62
     8
 10
293.0662207743
 20
330.5995234151
 30
0.0
  0
VERTEX
  5
58A
  8
0
  6
CONTINUOUS
 62
     8
 10
292.7276179632
 20
331.3498117823
 30
0.0
  0
VERTEX
  5
58B
  8
0
  6
CONTINUOUS
 62
     8
 10
292.4024597248
 20
332.0666172404
 30
0.0
  0
VERTEX
  5
58C
  8
0
  6
CONTINUOUS
 62
     8
 10
292.0909733018
 20
332.7494294245
 30
0.0
  0
VERTEX
  5
58D
  8
0
  6
CONTINUOUS
 62
     8
 10
291.7933822116
 20
333.397752871
 30
0.0
  0
VERTEX
  5
58E
  8
0
  6
CONTINUOUS
 62
     8
 10
291.5099025211
 20
334.0111330945
 30
0.0
  0
VERTEX
  5
58F
  8
0
  6
CONTINUOUS
 62
     8
 10
291.2407353958
 20
334.5891230602
 30
0.0
  0
VERTEX
  5
590
  8
0
  6
CONTINUOUS
 62
     8
 10
290.986074551
 20
335.1313129861
 30
0.0
  0
VERTEX
  5
591
  8
0
  6
CONTINUOUS
 62
     8
 10
290.7461025259
 20
335.6373117168
 30
0.0
  0
VERTEX
  5
592
  8
0
  6
CONTINUOUS
 62
     8
 10
290.5209869584
 20
336.1067616243
 30
0.0
  0
VERTEX
  5
593
  8
0
  6
CONTINUOUS
 62
     8
 10
290.3108954868
 20
336.5393237073
 30
0.0
  0
VERTEX
  5
594
  8
0
  6
CONTINUOUS
 62
     8
 10
290.1159733972
 20
336.9346850414
 30
0.0
  0
VERTEX
  5
595
  8
0
  6
CONTINUOUS
 62
     8
 10
289.9363622507
 20
337.2925662298
 30
0.0
  0
VERTEX
  5
596
  8
0
  6
CONTINUOUS
 62
     8
 10
289.7721924326
 20
337.6127102275
 30
0.0
  0
VERTEX
  5
597
  8
0
  6
CONTINUOUS
 62
     8
 10
289.6235794267
 20
337.8948897917
 30
0.0
  0
VERTEX
  5
598
  8
0
  6
CONTINUOUS
 62
     8
 10
289.4906275412
 20
338.1389000315
 30
0.0
  0
VERTEX
  5
599
  8
0
  6
CONTINUOUS
 62
     8
 10
289.3734336337
 20
338.3445695836
 30
0.0
  0
VERTEX
  5
59A
  8
0
  6
CONTINUOUS
 62
     8
 10
289.2720871112
 20
338.5117457111
 30
0.0
  0
SEQEND
  5
B87
  8
0
  6
CONTINUOUS
 62
     8
  0
LINE
  5
182
  8
0
  6
CONTINUOUS
 62
     8
 10
289.2720871112
 20
338.5117457111
 30
0.0
 11
289.2720871112
 21
371.3743232984
 31
0.0
  0
LINE
  5
183
  8
0
  6
CONTINUOUS
 62
     8
 10
361.950034692
 20
338.5117457111
 30
0.0
 11
361.950034692
 21
371.3743232984
 31
0.0
  0
POLYLINE
  5
184
  8
0
  6
CONTINUOUS
 62
     8
 66
     1
 10
0.0
 20
0.0
 30
0.0
  0
VERTEX
  5
59B
  8
0
  6
CONTINUOUS
 62
     8
 10
345.6021886757
 20
301.537446303
 30
0.0
  0
VERTEX
  5
59C
  8
0
  6
CONTINUOUS
 62
     8
 10
346.1811714312
 20
302.9089947559
 30
0.0
  0
VERTEX
  5
59D
  8
0
  6
CONTINUOUS
 62
     8
 10
346.7555311015
 20
304.26742489
 30
0.0
  0
VERTEX
  5
59E
  8
0
  6
CONTINUOUS
 62
     8
 10
347.3248560419
 20
305.6117643464
 30
0.0
  0
VERTEX
  5
59F
  8
0
  6
CONTINUOUS
 62
     8
 10
347.8887364706
 20
306.9410508361
 30
0.0
  0
VERTEX
  5
5A0
  8
0
  6
CONTINUOUS
 62
     8
 10
348.4467681935
 20
308.2543320816
 30
0.0
  0
VERTEX
  5
5A1
  8
0
  6
CONTINUOUS
 62
     8
 10
348.9985563299
 20
309.5506674472
 30
0.0
  0
VERTEX
  5
5A2
  8
0
  6
CONTINUOUS
 62
     8
 10
349.543700411
 20
310.829130267
 30
0.0
  0
VERTEX
  5
5A3
  8
0
  6
CONTINUOUS
 62
     8
 10
350.0818130067
 20
312.0888027225
 30
0.0
  0
VERTEX
  5
5A4
  8
0
  6
CONTINUOUS
 62
     8
 10
350.6125085494
 20
313.3287851561
 30
0.0
  0
VERTEX
  5
5A5
  8
0
  6
CONTINUOUS
 62
     8
 10
351.1354070595
 20
314.5481890861
 30
0.0
  0
VERTEX
  5
5A6
  8
0
  6
CONTINUOUS
 62
     8
 10
351.6501322827
 20
315.7461409319
 30
0.0
  0
VERTEX
  5
5A7
  8
0
  6
CONTINUOUS
 62
     8
 10
352.1563191405
 20
316.9217829455
 30
0.0
  0
VERTEX
  5
5A8
  8
0
  6
CONTINUOUS
 62
     8
 10
352.6536025545
 20
318.0742741425
 30
0.0
  0
VERTEX
  5
5A9
  8
0
  6
CONTINUOUS
 62
     8
 10
353.1416267595
 20
319.2027875085
 30
0.0
  0
VERTEX
  5
5AA
  8
0
  6
CONTINUOUS
 62
     8
 10
353.6200415781
 20
320.3065183807
 30
0.0
  0
VERTEX
  5
5AB
  8
0
  6
CONTINUOUS
 62
     8
 10
354.088508009
 20
321.3846732725
 30
0.0
  0
VERTEX
  5
5AC
  8
0
  6
CONTINUOUS
 62
     8
 10
354.5466870507
 20
322.4364810486
 30
0.0
  0
VERTEX
  5
5AD
  8
0
  6
CONTINUOUS
 62
     8
 10
354.9942527404
 20
323.4611892004
 30
0.0
  0
VERTEX
  5
5AE
  8
0
  6
CONTINUOUS
 62
     8
 10
355.4308828404
 20
324.4580638457
 30
0.0
  0
VERTEX
  5
5AF
  8
0
  6
CONTINUOUS
 62
     8
 10
355.8562644264
 20
325.4263897289
 30
0.0
  0
VERTEX
  5
5B0
  8
0
  6
CONTINUOUS
 62
     8
 10
356.2700957498
 20
326.3654776711
 30
0.0
  0
VERTEX
  5
5B1
  8
0
  6
CONTINUOUS
 62
     8
 10
356.6720787874
 20
327.2746496696
 30
0.0
  0
VERTEX
  5
5B2
  8
0
  6
CONTINUOUS
 62
     8
 10
357.0619248292
 20
328.1532593865
 30
0.0
  0
VERTEX
  5
5B3
  8
0
  6
CONTINUOUS
 62
     8
 10
357.439356341
 20
329.0006753851
 30
0.0
  0
VERTEX
  5
5B4
  8
0
  6
CONTINUOUS
 62
     8
 10
357.8041032395
 20
329.8162923057
 30
0.0
  0
VERTEX
  5
5B5
  8
0
  6
CONTINUOUS
 62
     8
 10
358.1559010288
 20
330.5995234151
 30
0.0
  0
VERTEX
  5
5B6
  8
0
  6
CONTINUOUS
 62
     8
 10
358.4945038399
 20
331.3498117823
 30
0.0
  0
VERTEX
  5
5B7
  8
0
  6
CONTINUOUS
 62
     8
 10
358.8196620783
 20
332.0666172404
 30
0.0
  0
VERTEX
  5
5B8
  8
0
  6
CONTINUOUS
 62
     8
 10
359.1311485013
 20
332.7494294245
 30
0.0
  0
VERTEX
  5
5B9
  8
0
  6
CONTINUOUS
 62
     8
 10
359.4287395915
 20
333.397752871
 30
0.0
  0
VERTEX
  5
5BA
  8
0
  6
CONTINUOUS
 62
     8
 10
359.7122192821
 20
334.0111330945
 30
0.0
  0
VERTEX
  5
5BB
  8
0
  6
CONTINUOUS
 62
     8
 10
359.9813864073
 20
334.5891230602
 30
0.0
  0
VERTEX
  5
5BC
  8
0
  6
CONTINUOUS
 62
     8
 10
360.2360472521
 20
335.1313129861
 30
0.0
  0
VERTEX
  5
5BD
  8
0
  6
CONTINUOUS
 62
     8
 10
360.4760192773
 20
335.6373117168
 30
0.0
  0
VERTEX
  5
5BE
  8
0
  6
CONTINUOUS
 62
     8
 10
360.7011348447
 20
336.1067616243
 30
0.0
  0
VERTEX
  5
5BF
  8
0
  6
CONTINUOUS
 62
     8
 10
360.9112263164
 20
336.5393237073
 30
0.0
  0
VERTEX
  5
5C0
  8
0
  6
CONTINUOUS
 62
     8
 10
361.106148406
 20
336.9346850414
 30
0.0
  0
VERTEX
  5
5C1
  8
0
  6
CONTINUOUS
 62
     8
 10
361.2857595524
 20
337.2925662298
 30
0.0
  0
VERTEX
  5
5C2
  8
0
  6
CONTINUOUS
 62
     8
 10
361.4499293706
 20
337.6127102275
 30
0.0
  0
VERTEX
  5
5C3
  8
0
  6
CONTINUOUS
 62
     8
 10
361.5985423764
 20
337.8948897917
 30
0.0
  0
VERTEX
  5
5C4
  8
0
  6
CONTINUOUS
 62
     8
 10
361.7314942619
 20
338.1389000315
 30
0.0
  0
VERTEX
  5
5C5
  8
0
  6
CONTINUOUS
 62
     8
 10
361.8486881694
 20
338.3445695836
 30
0.0
  0
VERTEX
  5
5C6
  8
0
  6
CONTINUOUS
 62
     8
 10
361.950034692
 20
338.5117457111
 30
0.0
  0
SEQEND
  5
B86
  8
0
  6
CONTINUOUS
 62
     8
  0
LINE
  5
185
  8
0
  6
CONTINUOUS
 62
     8
 10
275.6560430369
 20
407.0920639534
 30
0.0
 11
281.3636497101
 21
407.0920639534
 31
0.0
  0
LINE
  5
186
  8
0
  6
CONTINUOUS
 62
     8
 10
375.5660787663
 20
407.0920639534
 30
0.0
 11
369.858472093
 21
407.0920639534
 31
0.0
  0
LINE
  5
187
  8
0
  6
CONTINUOUS
 62
     8
 10
370.9079497
 20
412.1311523814
 30
0.0
 11
372.5681364974
 21
412.1311523814
 31
0.0
  0
LINE
  5
188
  8
0
  6
CONTINUOUS
 62
     8
 10
280.3141721031
 20
412.1311523814
 30
0.0
 11
278.6539853057
 21
412.1311523814
 31
0.0
  0
POLYLINE
  5
189
  8
0
  6
CONTINUOUS
 62
     8
 66
     1
 10
0.0
 20
0.0
 30
0.0
  0
VERTEX
  5
5C7
  8
0
  6
CONTINUOUS
 62
     8
 10
298.1700715115
 20
299.3167458663
 30
0.0
  0
VERTEX
  5
5C8
  8
0
  6
CONTINUOUS
 62
     8
 10
298.3335987171
 20
299.1294513086
 30
0.0
  0
VERTEX
  5
5C9
  8
0
  6
CONTINUOUS
 62
     8
 10
298.5379998079
 20
298.9693942109
 30
0.0
  0
VERTEX
  5
5CA
  8
0
  6
CONTINUOUS
 62
     8
 10
298.7692788681
 20
298.8348051768
 30
0.0
  0
VERTEX
  5
5CB
  8
0
  6
CONTINUOUS
 62
     8
 10
299.0149654886
 20
298.7230776671
 30
0.0
  0
VERTEX
  5
5CC
  8
0
  6
CONTINUOUS
 62
     8
 10
299.2641576072
 20
298.6310427405
 30
0.0
  0
VERTEX
  5
5CD
  8
0
  6
CONTINUOUS
 62
     8
 10
299.4177867165
 20
298.5820602954
 30
0.0
  0
VERTEX
  5
5CE
  8
0
  6
CONTINUOUS
 62
     8
 10
299.5757185361
 20
298.5368150149
 30
0.0
  0
VERTEX
  5
5CF
  8
0
  6
CONTINUOUS
 62
     8
 10
299.7372135958
 20
298.495213534
 30
0.0
  0
VERTEX
  5
5D0
  8
0
  6
CONTINUOUS
 62
     8
 10
299.9015640905
 20
298.4571454909
 30
0.0
  0
VERTEX
  5
5D1
  8
0
  6
CONTINUOUS
 62
     8
 10
300.0680957427
 20
298.4224842258
 30
0.0
  0
VERTEX
  5
5D2
  8
0
  6
CONTINUOUS
 62
     8
 10
300.2361622146
 20
298.3910872463
 30
0.0
  0
VERTEX
  5
5D3
  8
0
  6
CONTINUOUS
 62
     8
 10
300.405154421
 20
298.3627990216
 30
0.0
  0
VERTEX
  5
5D4
  8
0
  6
CONTINUOUS
 62
     8
 10
300.8700501612
 20
298.2996185638
 30
0.0
  0
VERTEX
  5
5D5
  8
0
  6
CONTINUOUS
 62
     8
 10
301.326953291
 20
298.2547080938
 30
0.0
  0
VERTEX
  5
5D6
  8
0
  6
CONTINUOUS
 62
     8
 10
301.5671693227
 20
298.2365552198
 30
0.0
  0
VERTEX
  5
5D7
  8
0
  6
CONTINUOUS
 62
     8
 10
301.8070705673
 20
298.2217707068
 30
0.0
  0
VERTEX
  5
5D8
  8
0
  6
CONTINUOUS
 62
     8
 10
302.0458542248
 20
298.2102528077
 30
0.0
  0
VERTEX
  5
5D9
  8
0
  6
CONTINUOUS
 62
     8
 10
302.2827826878
 20
298.2018709045
 30
0.0
  0
VERTEX
  5
5DA
  8
0
  6
CONTINUOUS
 62
     8
 10
302.5171649149
 20
298.1964662068
 30
0.0
  0
VERTEX
  5
5DB
  8
0
  6
CONTINUOUS
 62
     8
 10
302.7483694693
 20
298.1938529156
 30
0.0
  0
VERTEX
  5
5DC
  8
0
  6
CONTINUOUS
 62
     8
 10
302.9758170685
 20
298.1938175254
 30
0.0
  0
VERTEX
  5
5DD
  8
0
  6
CONTINUOUS
 62
     8
 10
303.5778612336
 20
298.204977331
 30
0.0
  0
VERTEX
  5
5DE
  8
0
  6
CONTINUOUS
 62
     8
 10
304.1390371015
 20
298.2278496821
 30
0.0
  0
VERTEX
  5
5DF
  8
0
  6
CONTINUOUS
 62
     8
 10
304.6250869027
 20
298.2555029776
 30
0.0
  0
VERTEX
  5
5E0
  8
0
  6
CONTINUOUS
 62
     8
 10
305.0881218603
 20
298.2892021865
 30
0.0
  0
VERTEX
  5
5E1
  8
0
  6
CONTINUOUS
 62
     8
 10
305.525850921
 20
298.3275801271
 30
0.0
  0
VERTEX
  5
5E2
  8
0
  6
CONTINUOUS
 62
     8
 10
305.9918884626
 20
298.3743448604
 30
0.0
  0
VERTEX
  5
5E3
  8
0
  6
CONTINUOUS
 62
     8
 10
306.4861916444
 20
298.4304726452
 30
0.0
  0
VERTEX
  5
5E4
  8
0
  6
CONTINUOUS
 62
     8
 10
306.9548331639
 20
298.4905117519
 30
0.0
  0
VERTEX
  5
5E5
  8
0
  6
CONTINUOUS
 62
     8
 10
307.4011732331
 20
298.5533988431
 30
0.0
  0
SEQEND
  5
B85
  8
0
  6
CONTINUOUS
 62
     8
  0
ARC
  5
18A
  8
0
  6
CONTINUOUS
 62
     8
 10
313.3397287142
 20
262.0377495389
 30
0.0
 40
40.24700347057782
 50
101.0584585006
 51
112.1424101557
  0
POLYLINE
  5
18B
  8
0
  6
CONTINUOUS
 62
     8
 66
     1
 10
0.0
 20
0.0
 30
0.0
  0
VERTEX
  5
5E6
  8
0
  6
CONTINUOUS
 62
     8
 10
353.0520502916
 20
299.3167458663
 30
0.0
  0
VERTEX
  5
5E7
  8
0
  6
CONTINUOUS
 62
     8
 10
352.888523086
 20
299.1294513086
 30
0.0
  0
VERTEX
  5
5E8
  8
0
  6
CONTINUOUS
 62
     8
 10
352.6841219953
 20
298.9693942109
 30
0.0
  0
VERTEX
  5
5E9
  8
0
  6
CONTINUOUS
 62
     8
 10
352.452842935
 20
298.8348051768
 30
0.0
  0
VERTEX
  5
5EA
  8
0
  6
CONTINUOUS
 62
     8
 10
352.2071563145
 20
298.7230776671
 30
0.0
  0
VERTEX
  5
5EB
  8
0
  6
CONTINUOUS
 62
     8
 10
351.9579641959
 20
298.6310427405
 30
0.0
  0
VERTEX
  5
5EC
  8
0
  6
CONTINUOUS
 62
     8
 10
351.8043350866
 20
298.5820602954
 30
0.0
  0
VERTEX
  5
5ED
  8
0
  6
CONTINUOUS
 62
     8
 10
351.6464032671
 20
298.5368150149
 30
0.0
  0
VERTEX
  5
5EE
  8
0
  6
CONTINUOUS
 62
     8
 10
351.4849082073
 20
298.495213534
 30
0.0
  0
VERTEX
  5
5EF
  8
0
  6
CONTINUOUS
 62
     8
 10
351.3205577126
 20
298.4571454909
 30
0.0
  0
VERTEX
  5
5F0
  8
0
  6
CONTINUOUS
 62
     8
 10
351.1540260604
 20
298.4224842258
 30
0.0
  0
VERTEX
  5
5F1
  8
0
  6
CONTINUOUS
 62
     8
 10
350.9859595886
 20
298.3910872463
 30
0.0
  0
VERTEX
  5
5F2
  8
0
  6
CONTINUOUS
 62
     8
 10
350.8169673821
 20
298.3627990216
 30
0.0
  0
VERTEX
  5
5F3
  8
0
  6
CONTINUOUS
 62
     8
 10
350.352071642
 20
298.2996185638
 30
0.0
  0
VERTEX
  5
5F4
  8
0
  6
CONTINUOUS
 62
     8
 10
349.8951685121
 20
298.2547080938
 30
0.0
  0
VERTEX
  5
5F5
  8
0
  6
CONTINUOUS
 62
     8
 10
349.6549524805
 20
298.2365552198
 30
0.0
  0
VERTEX
  5
5F6
  8
0
  6
CONTINUOUS
 62
     8
 10
349.4150512358
 20
298.2217707068
 30
0.0
  0
VERTEX
  5
5F7
  8
0
  6
CONTINUOUS
 62
     8
 10
349.1762675783
 20
298.2102528077
 30
0.0
  0
VERTEX
  5
5F8
  8
0
  6
CONTINUOUS
 62
     8
 10
348.9393391153
 20
298.2018709045
 30
0.0
  0
VERTEX
  5
5F9
  8
0
  6
CONTINUOUS
 62
     8
 10
348.7049568882
 20
298.1964662068
 30
0.0
  0
VERTEX
  5
5FA
  8
0
  6
CONTINUOUS
 62
     8
 10
348.4737523338
 20
298.1938529156
 30
0.0
  0
VERTEX
  5
5FB
  8
0
  6
CONTINUOUS
 62
     8
 10
348.2463047346
 20
298.1938175254
 30
0.0
  0
VERTEX
  5
5FC
  8
0
  6
CONTINUOUS
 62
     8
 10
347.6442605695
 20
298.204977331
 30
0.0
  0
VERTEX
  5
5FD
  8
0
  6
CONTINUOUS
 62
     8
 10
347.0830847016
 20
298.2278496821
 30
0.0
  0
VERTEX
  5
5FE
  8
0
  6
CONTINUOUS
 62
     8
 10
346.5970349005
 20
298.2555029776
 30
0.0
  0
VERTEX
  5
5FF
  8
0
  6
CONTINUOUS
 62
     8
 10
346.1339999428
 20
298.2892021865
 30
0.0
  0
VERTEX
  5
600
  8
0
  6
CONTINUOUS
 62
     8
 10
345.6962708822
 20
298.3275801271
 30
0.0
  0
VERTEX
  5
601
  8
0
  6
CONTINUOUS
 62
     8
 10
345.2302333405
 20
298.3743448604
 30
0.0
  0
VERTEX
  5
602
  8
0
  6
CONTINUOUS
 62
     8
 10
344.7359301588
 20
298.4304726452
 30
0.0
  0
VERTEX
  5
603
  8
0
  6
CONTINUOUS
 62
     8
 10
344.2672886392
 20
298.4905117519
 30
0.0
  0
VERTEX
  5
604
  8
0
  6
CONTINUOUS
 62
     8
 10
343.8209485701
 20
298.5533988431
 30
0.0
  0
SEQEND
  5
B84
  8
0
  6
CONTINUOUS
 62
     8
  0
ARC
  5
18C
  8
0
  6
CONTINUOUS
 62
     8
 10
337.882393089
 20
262.0377495389
 30
0.0
 40
40.24700347057781
 50
67.8575898443
 51
78.9415414994
  0
POLYLINE
  5
18D
  8
0
  6
CONTINUOUS
 62
     8
 66
     1
 10
0.0
 20
0.0
 30
0.0
  0
VERTEX
  5
605
  8
0
  6
CONTINUOUS
 62
     8
 10
298.1702093473
 20
299.3166365523
 30
0.0
  0
VERTEX
  5
606
  8
0
  6
CONTINUOUS
 62
     8
 10
298.0049685082
 20
300.0854795428
 30
0.0
  0
VERTEX
  5
607
  8
0
  6
CONTINUOUS
 62
     8
 10
297.8403330287
 20
300.84711973
 30
0.0
  0
VERTEX
  5
608
  8
0
  6
CONTINUOUS
 62
     8
 10
297.6762377164
 20
301.6013352063
 30
0.0
  0
VERTEX
  5
609
  8
0
  6
CONTINUOUS
 62
     8
 10
297.5126397303
 20
302.3479186559
 30
0.0
  0
VERTEX
  5
60A
  8
0
  6
CONTINUOUS
 62
     8
 10
297.3495260319
 20
303.0866766676
 30
0.0
  0
VERTEX
  5
60B
  8
0
  6
CONTINUOUS
 62
     8
 10
297.1869115224
 20
303.8174291469
 30
0.0
  0
VERTEX
  5
60C
  8
0
  6
CONTINUOUS
 62
     8
 10
297.0248260042
 20
304.5400076408
 30
0.0
  0
VERTEX
  5
60D
  8
0
  6
CONTINUOUS
 62
     8
 10
296.8633234939
 20
305.2542561527
 30
0.0
  0
VERTEX
  5
60E
  8
0
  6
CONTINUOUS
 62
     8
 10
296.4380126884
 20
307.1088816833
 30
0.0
  0
VERTEX
  5
60F
  8
0
  6
CONTINUOUS
 62
     8
 10
296.0187480292
 20
308.9033339966
 30
0.0
  0
VERTEX
  5
610
  8
0
  6
CONTINUOUS
 62
     8
 10
295.6078522345
 20
310.6355558012
 30
0.0
  0
VERTEX
  5
611
  8
0
  6
CONTINUOUS
 62
     8
 10
295.4536531558
 20
311.2802042488
 30
0.0
  0
VERTEX
  5
612
  8
0
  6
CONTINUOUS
 62
     8
 10
295.2962615034
 20
311.9358767618
 30
0.0
  0
VERTEX
  5
613
  8
0
  6
CONTINUOUS
 62
     8
 10
295.1360293171
 20
312.6018850926
 30
0.0
  0
VERTEX
  5
614
  8
0
  6
CONTINUOUS
 62
     8
 10
294.9733272633
 20
313.2775065351
 30
0.0
  0
VERTEX
  5
615
  8
0
  6
CONTINUOUS
 62
     8
 10
294.870226129
 20
313.7056774322
 30
0.0
  0
VERTEX
  5
616
  8
0
  6
CONTINUOUS
 62
     8
 10
294.7652679375
 20
314.1418791238
 30
0.0
  0
VERTEX
  5
617
  8
0
  6
CONTINUOUS
 62
     8
 10
294.6585793486
 20
314.585796823
 30
0.0
  0
VERTEX
  5
618
  8
0
  6
CONTINUOUS
 62
     8
 10
294.5811137995
 20
314.9085848455
 30
0.0
  0
VERTEX
  5
619
  8
0
  6
CONTINUOUS
 62
     8
 10
294.5022996953
 20
315.2374618549
 30
0.0
  0
VERTEX
  5
61A
  8
0
  6
CONTINUOUS
 62
     8
 10
294.4244746557
 20
315.5627569977
 30
0.0
  0
VERTEX
  5
61B
  8
0
  6
CONTINUOUS
 62
     8
 10
294.4148261538
 20
315.6031251747
 30
0.0
  0
VERTEX
  5
61C
  8
0
  6
CONTINUOUS
 62
     8
 10
294.4051385364
 20
315.6436684404
 30
0.0
  0
VERTEX
  5
61D
  8
0
  6
CONTINUOUS
 62
     8
 10
294.3954118034
 20
315.6843867947
 30
0.0
  0
VERTEX
  5
61E
  8
0
  6
CONTINUOUS
 62
     8
 10
294.3856440922
 20
315.7252802376
 30
0.0
  0
VERTEX
  5
61F
  8
0
  6
CONTINUOUS
 62
     8
 10
294.356780543
 20
315.8462227184
 30
0.0
  0
VERTEX
  5
620
  8
0
  6
CONTINUOUS
 62
     8
 10
294.3494677982
 20
315.8769079346
 30
0.0
  0
VERTEX
  5
621
  8
0
  6
CONTINUOUS
 62
     8
 10
294.3475828013
 20
315.8848232452
 30
0.0
  0
VERTEX
  5
622
  8
0
  6
CONTINUOUS
 62
     8
 10
294.3470836124
 20
315.8869261716
 30
0.0
  0
VERTEX
  5
623
  8
0
  6
CONTINUOUS
 62
     8
 10
294.3469420513
 20
315.8875129048
 30
0.0
  0
VERTEX
  5
624
  8
0
  6
CONTINUOUS
 62
     8
 10
294.3469010731
 20
315.8876907874
 30
0.0
  0
VERTEX
  5
625
  8
0
  6
CONTINUOUS
 62
     8
 10
294.3468787214
 20
315.8877913702
 30
0.0
  0
SEQEND
  5
B83
  8
0
  6
CONTINUOUS
 62
     8
  0
ARC
  5
18E
  8
0
  6
CONTINUOUS
 62
     8
 10
-166.6675732675
 20
214.7996171974
 30
0.0
 40
471.9673255558532
 50
12.3675294389
 51
14.910596801
  0
ARC
  5
18F
  8
0
  6
CONTINUOUS
 62
     8
 10
297.8835084327
 20
337.8882908818
 30
0.0
 40
8.633960452876433
 50
175.8590907523
 51
190.9905820682
  0
ARC
  5
190
  8
0
  6
CONTINUOUS
 62
     8
 10
353.3386133704
 20
337.8882908818
 30
0.0
 40
8.633960452876378
 50
349.0094179318
 51
4.1409092477
  0
ARC
  5
191
  8
0
  6
CONTINUOUS
 62
     8
 10
817.8896950707
 20
214.7996171974
 30
0.0
 40
471.9673255558531
 50
165.089403199
 51
167.6324705611
  0
POLYLINE
  5
192
  8
0
  6
CONTINUOUS
 62
     8
 66
     1
 10
0.0
 20
0.0
 30
0.0
  0
VERTEX
  5
626
  8
0
  6
CONTINUOUS
 62
     8
 10
353.0519124558
 20
299.3166365523
 30
0.0
  0
VERTEX
  5
627
  8
0
  6
CONTINUOUS
 62
     8
 10
353.217153295
 20
300.0854795428
 30
0.0
  0
VERTEX
  5
628
  8
0
  6
CONTINUOUS
 62
     8
 10
353.3817887744
 20
300.84711973
 30
0.0
  0
VERTEX
  5
629
  8
0
  6
CONTINUOUS
 62
     8
 10
353.5458840868
 20
301.6013352063
 30
0.0
  0
VERTEX
  5
62A
  8
0
  6
CONTINUOUS
 62
     8
 10
353.7094820729
 20
302.3479186559
 30
0.0
  0
VERTEX
  5
62B
  8
0
  6
CONTINUOUS
 62
     8
 10
353.8725957712
 20
303.0866766676
 30
0.0
  0
VERTEX
  5
62C
  8
0
  6
CONTINUOUS
 62
     8
 10
354.0352102807
 20
303.8174291469
 30
0.0
  0
VERTEX
  5
62D
  8
0
  6
CONTINUOUS
 62
     8
 10
354.1972957989
 20
304.5400076408
 30
0.0
  0
VERTEX
  5
62E
  8
0
  6
CONTINUOUS
 62
     8
 10
354.3587983092
 20
305.2542561527
 30
0.0
  0
VERTEX
  5
62F
  8
0
  6
CONTINUOUS
 62
     8
 10
354.7841091147
 20
307.1088816833
 30
0.0
  0
VERTEX
  5
630
  8
0
  6
CONTINUOUS
 62
     8
 10
355.203373774
 20
308.9033339966
 30
0.0
  0
VERTEX
  5
631
  8
0
  6
CONTINUOUS
 62
     8
 10
355.6142695686
 20
310.6355558012
 30
0.0
  0
VERTEX
  5
632
  8
0
  6
CONTINUOUS
 62
     8
 10
355.7684686473
 20
311.2802042488
 30
0.0
  0
VERTEX
  5
633
  8
0
  6
CONTINUOUS
 62
     8
 10
355.9258602997
 20
311.9358767618
 30
0.0
  0
VERTEX
  5
634
  8
0
  6
CONTINUOUS
 62
     8
 10
356.0860924861
 20
312.6018850926
 30
0.0
  0
VERTEX
  5
635
  8
0
  6
CONTINUOUS
 62
     8
 10
356.2487945399
 20
313.2775065351
 30
0.0
  0
VERTEX
  5
636
  8
0
  6
CONTINUOUS
 62
     8
 10
356.3518956742
 20
313.7056774322
 30
0.0
  0
VERTEX
  5
637
  8
0
  6
CONTINUOUS
 62
     8
 10
356.4568538657
 20
314.1418791238
 30
0.0
  0
VERTEX
  5
638
  8
0
  6
CONTINUOUS
 62
     8
 10
356.5635424545
 20
314.585796823
 30
0.0
  0
VERTEX
  5
639
  8
0
  6
CONTINUOUS
 62
     8
 10
356.6410080036
 20
314.9085848455
 30
0.0
  0
VERTEX
  5
63A
  8
0
  6
CONTINUOUS
 62
     8
 10
356.7198221078
 20
315.2374618549
 30
0.0
  0
VERTEX
  5
63B
  8
0
  6
CONTINUOUS
 62
     8
 10
356.7976471475
 20
315.5627569977
 30
0.0
  0
VERTEX
  5
63C
  8
0
  6
CONTINUOUS
 62
     8
 10
356.8072956493
 20
315.6031251747
 30
0.0
  0
VERTEX
  5
63D
  8
0
  6
CONTINUOUS
 62
     8
 10
356.8169832668
 20
315.6436684404
 30
0.0
  0
VERTEX
  5
63E
  8
0
  6
CONTINUOUS
 62
     8
 10
356.8267099997
 20
315.6843867947
 30
0.0
  0
VERTEX
  5
63F
  8
0
  6
CONTINUOUS
 62
     8
 10
356.8364777109
 20
315.7252802376
 30
0.0
  0
VERTEX
  5
640
  8
0
  6
CONTINUOUS
 62
     8
 10
356.8653412601
 20
315.8462227184
 30
0.0
  0
VERTEX
  5
641
  8
0
  6
CONTINUOUS
 62
     8
 10
356.872654005
 20
315.8769079346
 30
0.0
  0
VERTEX
  5
642
  8
0
  6
CONTINUOUS
 62
     8
 10
356.8745390019
 20
315.8848232452
 30
0.0
  0
VERTEX
  5
643
  8
0
  6
CONTINUOUS
 62
     8
 10
356.8750381908
 20
315.8869261716
 30
0.0
  0
VERTEX
  5
644
  8
0
  6
CONTINUOUS
 62
     8
 10
356.8751797518
 20
315.8875129048
 30
0.0
  0
VERTEX
  5
645
  8
0
  6
CONTINUOUS
 62
     8
 10
356.87522073
 20
315.8876907874
 30
0.0
  0
VERTEX
  5
646
  8
0
  6
CONTINUOUS
 62
     8
 10
356.8752430817
 20
315.8877913702
 30
0.0
  0
SEQEND
  5
B82
  8
0
  6
CONTINUOUS
 62
     8
  0
POLYLINE
  5
193
  8
0
  6
CONTINUOUS
 62
     8
 66
     1
 10
0.0
 20
0.0
 30
0.0
  0
VERTEX
  5
647
  8
0
  6
CONTINUOUS
 62
     8
 10
298.4559912672
 20
297.7832239449
 30
0.0
  0
VERTEX
  5
648
  8
0
  6
CONTINUOUS
 62
     8
 10
298.6346338382
 20
297.3544639863
 30
0.0
  0
VERTEX
  5
649
  8
0
  6
CONTINUOUS
 62
     8
 10
298.8444850287
 20
296.934291986
 30
0.0
  0
VERTEX
  5
64A
  8
0
  6
CONTINUOUS
 62
     8
 10
299.0848854622
 20
296.524031819
 30
0.0
  0
VERTEX
  5
64B
  8
0
  6
CONTINUOUS
 62
     8
 10
299.3550770423
 20
296.1249745313
 30
0.0
  0
VERTEX
  5
64C
  8
0
  6
CONTINUOUS
 62
     8
 10
299.6542122653
 20
295.7383769427
 30
0.0
  0
VERTEX
  5
64D
  8
0
  6
CONTINUOUS
 62
     8
 10
299.9813449076
 20
295.3654562917
 30
0.0
  0
VERTEX
  5
64E
  8
0
  6
CONTINUOUS
 62
     8
 10
300.3354486516
 20
295.0073869761
 30
0.0
  0
VERTEX
  5
64F
  8
0
  6
CONTINUOUS
 62
     8
 10
300.7154059103
 20
294.665296362
 30
0.0
  0
VERTEX
  5
650
  8
0
  6
CONTINUOUS
 62
     8
 10
301.1200208655
 20
294.3402615238
 30
0.0
  0
VERTEX
  5
651
  8
0
  6
CONTINUOUS
 62
     8
 10
301.5480213305
 20
294.0333059851
 30
0.0
  0
VERTEX
  5
652
  8
0
  6
CONTINUOUS
 62
     8
 10
301.9980568877
 20
293.7453964587
 30
0.0
  0
VERTEX
  5
653
  8
0
  6
CONTINUOUS
 62
     8
 10
302.4687119266
 20
293.4774395872
 30
0.0
  0
VERTEX
  5
654
  8
0
  6
CONTINUOUS
 62
     8
 10
302.9585037818
 20
293.2302786831
 30
0.0
  0
VERTEX
  5
655
  8
0
  6
CONTINUOUS
 62
     8
 10
303.4658901831
 20
293.0046918664
 30
0.0
  0
VERTEX
  5
656
  8
0
  6
CONTINUOUS
 62
     8
 10
303.9892748436
 20
292.8013906676
 30
0.0
  0
VERTEX
  5
657
  8
0
  6
CONTINUOUS
 62
     8
 10
304.5270093223
 20
292.621013974
 30
0.0
  0
VERTEX
  5
658
  8
0
  6
CONTINUOUS
 62
     8
 10
305.0773986122
 20
292.4641298924
 30
0.0
  0
VERTEX
  5
659
  8
0
  6
CONTINUOUS
 62
     8
 10
305.6387123158
 20
292.3312329549
 30
0.0
  0
VERTEX
  5
65A
  8
0
  6
CONTINUOUS
 62
     8
 10
306.2091809204
 20
292.2227413256
 30
0.0
  0
VERTEX
  5
65B
  8
0
  6
CONTINUOUS
 62
     8
 10
306.787008836
 20
292.1389967997
 30
0.0
  0
VERTEX
  5
65C
  8
0
  6
CONTINUOUS
 62
     8
 10
307.3703762582
 20
292.0802629415
 30
0.0
  0
VERTEX
  5
65D
  8
0
  6
CONTINUOUS
 62
     8
 10
307.957446619
 20
292.046724153
 30
0.0
  0
VERTEX
  5
65E
  8
0
  6
CONTINUOUS
 62
     8
 10
308.5463721743
 20
292.0384875361
 30
0.0
  0
SEQEND
  5
B81
  8
0
  6
CONTINUOUS
 62
     8
  0
ARC
  5
194
  8
0
  6
CONTINUOUS
 62
     8
 10
195.0468023976
 20
279.1254089996
 30
0.0
 40
105.0788960791801
 50
10.227672259
 51
11.078224496
  0
ARC
  5
195
  8
0
  6
CONTINUOUS
 62
     8
 10
456.1753194056
 20
279.1254089996
 30
0.0
 40
105.0788960791802
 50
168.921775504
 51
169.772327741
  0
POLYLINE
  5
196
  8
0
  6
CONTINUOUS
 62
     8
 66
     1
 10
0.0
 20
0.0
 30
0.0
  0
VERTEX
  5
65F
  8
0
  6
CONTINUOUS
 62
     8
 10
352.7661305359
 20
297.7832239449
 30
0.0
  0
VERTEX
  5
660
  8
0
  6
CONTINUOUS
 62
     8
 10
352.5874879649
 20
297.3544639863
 30
0.0
  0
VERTEX
  5
661
  8
0
  6
CONTINUOUS
 62
     8
 10
352.3776367745
 20
296.934291986
 30
0.0
  0
VERTEX
  5
662
  8
0
  6
CONTINUOUS
 62
     8
 10
352.1372363409
 20
296.524031819
 30
0.0
  0
VERTEX
  5
663
  8
0
  6
CONTINUOUS
 62
     8
 10
351.8670447609
 20
296.1249745313
 30
0.0
  0
VERTEX
  5
664
  8
0
  6
CONTINUOUS
 62
     8
 10
351.5679095378
 20
295.7383769427
 30
0.0
  0
VERTEX
  5
665
  8
0
  6
CONTINUOUS
 62
     8
 10
351.2407768956
 20
295.3654562917
 30
0.0
  0
VERTEX
  5
666
  8
0
  6
CONTINUOUS
 62
     8
 10
350.8866731515
 20
295.0073869761
 30
0.0
  0
VERTEX
  5
667
  8
0
  6
CONTINUOUS
 62
     8
 10
350.5067158928
 20
294.665296362
 30
0.0
  0
VERTEX
  5
668
  8
0
  6
CONTINUOUS
 62
     8
 10
350.1021009376
 20
294.3402615238
 30
0.0
  0
VERTEX
  5
669
  8
0
  6
CONTINUOUS
 62
     8
 10
349.6741004726
 20
294.0333059851
 30
0.0
  0
VERTEX
  5
66A
  8
0
  6
CONTINUOUS
 62
     8
 10
349.2240649155
 20
293.7453964587
 30
0.0
  0
VERTEX
  5
66B
  8
0
  6
CONTINUOUS
 62
     8
 10
348.7534098765
 20
293.4774395872
 30
0.0
  0
VERTEX
  5
66C
  8
0
  6
CONTINUOUS
 62
     8
 10
348.2636180213
 20
293.2302786831
 30
0.0
  0
VERTEX
  5
66D
  8
0
  6
CONTINUOUS
 62
     8
 10
347.75623162
 20
293.0046918664
 30
0.0
  0
VERTEX
  5
66E
  8
0
  6
CONTINUOUS
 62
     8
 10
347.2328469595
 20
292.8013906676
 30
0.0
  0
VERTEX
  5
66F
  8
0
  6
CONTINUOUS
 62
     8
 10
346.6951124808
 20
292.621013974
 30
0.0
  0
VERTEX
  5
670
  8
0
  6
CONTINUOUS
 62
     8
 10
346.1447231909
 20
292.4641298924
 30
0.0
  0
VERTEX
  5
671
  8
0
  6
CONTINUOUS
 62
     8
 10
345.5834094873
 20
292.3312329549
 30
0.0
  0
VERTEX
  5
672
  8
0
  6
CONTINUOUS
 62
     8
 10
345.0129408827
 20
292.2227413256
 30
0.0
  0
VERTEX
  5
673
  8
0
  6
CONTINUOUS
 62
     8
 10
344.4351129672
 20
292.1389967997
 30
0.0
  0
VERTEX
  5
674
  8
0
  6
CONTINUOUS
 62
     8
 10
343.851745545
 20
292.0802629415
 30
0.0
  0
VERTEX
  5
675
  8
0
  6
CONTINUOUS
 62
     8
 10
343.2646751842
 20
292.046724153
 30
0.0
  0
VERTEX
  5
676
  8
0
  6
CONTINUOUS
 62
     8
 10
342.6757496288
 20
292.0384875361
 30
0.0
  0
SEQEND
  5
B80
  8
0
  6
CONTINUOUS
 62
     8
  0
POLYLINE
  5
197
  8
0
  6
CONTINUOUS
 62
     8
 66
     1
 10
0.0
 20
0.0
 30
0.0
  0
VERTEX
  5
677
  8
0
  6
CONTINUOUS
 62
     8
 10
347.4480662933
 20
440.5368559856
 30
0.0
  0
VERTEX
  5
678
  8
0
  6
CONTINUOUS
 62
     8
 10
347.4449594012
 20
440.442695548
 30
0.0
  0
VERTEX
  5
679
  8
0
  6
CONTINUOUS
 62
     8
 10
347.4413328311
 20
440.34378164
 30
0.0
  0
VERTEX
  5
67A
  8
0
  6
CONTINUOUS
 62
     8
 10
347.4371605059
 20
440.2399801511
 30
0.0
  0
VERTEX
  5
67B
  8
0
  6
CONTINUOUS
 62
     8
 10
347.4324163487
 20
440.1311420698
 30
0.0
  0
VERTEX
  5
67C
  8
0
  6
CONTINUOUS
 62
     8
 10
347.4010419538
 20
439.4859813947
 30
0.0
  0
VERTEX
  5
67D
  8
0
  6
CONTINUOUS
 62
     8
 10
347.3631035974
 20
438.7795918483
 30
0.0
  0
VERTEX
  5
67E
  8
0
  6
CONTINUOUS
 62
     8
 10
347.3202255061
 20
438.0265318651
 30
0.0
  0
VERTEX
  5
67F
  8
0
  6
CONTINUOUS
 62
     8
 10
347.2741138628
 20
437.2403615017
 30
0.0
  0
VERTEX
  5
680
  8
0
  6
CONTINUOUS
 62
     8
 10
347.2322434625
 20
436.5311556358
 30
0.0
  0
VERTEX
  5
681
  8
0
  6
CONTINUOUS
 62
     8
 10
347.1904084524
 20
435.8139478464
 30
0.0
  0
VERTEX
  5
682
  8
0
  6
CONTINUOUS
 62
     8
 10
347.1796051106
 20
435.6257163782
 30
0.0
  0
VERTEX
  5
683
  8
0
  6
CONTINUOUS
 62
     8
 10
347.1689060768
 20
435.4375594158
 30
0.0
  0
VERTEX
  5
684
  8
0
  6
CONTINUOUS
 62
     8
 10
347.1583318403
 20
435.2496110696
 30
0.0
  0
VERTEX
  5
685
  8
0
  6
CONTINUOUS
 62
     8
 10
347.1479028901
 20
435.0619756479
 30
0.0
  0
VERTEX
  5
686
  8
0
  6
CONTINUOUS
 62
     8
 10
347.1376397154
 20
434.8747723598
 30
0.0
  0
VERTEX
  5
687
  8
0
  6
CONTINUOUS
 62
     8
 10
347.1275628051
 20
434.6881204147
 30
0.0
  0
VERTEX
  5
688
  8
0
  6
CONTINUOUS
 62
     8
 10
347.046574994
 20
433.0862008829
 30
0.0
  0
VERTEX
  5
689
  8
0
  6
CONTINUOUS
 62
     8
 10
346.9697166672
 20
431.3742213745
 30
0.0
  0
SEQEND
  5
B7F
  8
0
  6
CONTINUOUS
 62
     8
  0
POLYLINE
  5
198
  8
0
  6
CONTINUOUS
 62
     8
 66
     1
 10
0.0
 20
0.0
 30
0.0
  0
VERTEX
  5
68A
  8
0
  6
CONTINUOUS
 62
     8
 10
303.7740555098
 20
440.5368559856
 30
0.0
  0
VERTEX
  5
68B
  8
0
  6
CONTINUOUS
 62
     8
 10
303.777162402
 20
440.442695548
 30
0.0
  0
VERTEX
  5
68C
  8
0
  6
CONTINUOUS
 62
     8
 10
303.7807889721
 20
440.34378164
 30
0.0
  0
VERTEX
  5
68D
  8
0
  6
CONTINUOUS
 62
     8
 10
303.7849612972
 20
440.2399801511
 30
0.0
  0
VERTEX
  5
68E
  8
0
  6
CONTINUOUS
 62
     8
 10
303.7897054544
 20
440.1311420698
 30
0.0
  0
VERTEX
  5
68F
  8
0
  6
CONTINUOUS
 62
     8
 10
303.8210798493
 20
439.4859813947
 30
0.0
  0
VERTEX
  5
690
  8
0
  6
CONTINUOUS
 62
     8
 10
303.8590182057
 20
438.7795918483
 30
0.0
  0
VERTEX
  5
691
  8
0
  6
CONTINUOUS
 62
     8
 10
303.901896297
 20
438.0265318651
 30
0.0
  0
VERTEX
  5
692
  8
0
  6
CONTINUOUS
 62
     8
 10
303.9480079403
 20
437.2403615017
 30
0.0
  0
VERTEX
  5
693
  8
0
  6
CONTINUOUS
 62
     8
 10
303.9898783406
 20
436.5311556358
 30
0.0
  0
VERTEX
  5
694
  8
0
  6
CONTINUOUS
 62
     8
 10
304.0317133507
 20
435.8139478464
 30
0.0
  0
VERTEX
  5
695
  8
0
  6
CONTINUOUS
 62
     8
 10
304.0425166926
 20
435.6257163782
 30
0.0
  0
VERTEX
  5
696
  8
0
  6
CONTINUOUS
 62
     8
 10
304.0532157263
 20
435.4375594158
 30
0.0
  0
VERTEX
  5
697
  8
0
  6
CONTINUOUS
 62
     8
 10
304.0637899628
 20
435.2496110696
 30
0.0
  0
VERTEX
  5
698
  8
0
  6
CONTINUOUS
 62
     8
 10
304.074218913
 20
435.0619756479
 30
0.0
  0
VERTEX
  5
699
  8
0
  6
CONTINUOUS
 62
     8
 10
304.0844820878
 20
434.8747723598
 30
0.0
  0
VERTEX
  5
69A
  8
0
  6
CONTINUOUS
 62
     8
 10
304.094558998
 20
434.6881204147
 30
0.0
  0
VERTEX
  5
69B
  8
0
  6
CONTINUOUS
 62
     8
 10
304.1755468091
 20
433.0862008829
 30
0.0
  0
VERTEX
  5
69C
  8
0
  6
CONTINUOUS
 62
     8
 10
304.2524051359
 20
431.3742213745
 30
0.0
  0
SEQEND
  5
B7E
  8
0
  6
CONTINUOUS
 62
     8
  0
LINE
  5
199
  8
0
  6
CONTINUOUS
 62
     8
 10
299.4154360583
 20
275.3073398817
 30
0.0
 11
299.5501146158
 21
275.2864112008
 31
0.0
  0
POLYLINE
  5
19A
  8
0
  6
CONTINUOUS
 62
     8
 66
     1
 10
0.0
 20
0.0
 30
0.0
  0
VERTEX
  5
69D
  8
0
  6
CONTINUOUS
 62
     8
 10
299.5501146158
 20
275.2864112008
 30
0.0
  0
VERTEX
  5
69E
  8
0
  6
CONTINUOUS
 62
     8
 10
299.5512210271
 20
275.2892852623
 30
0.0
  0
VERTEX
  5
69F
  8
0
  6
CONTINUOUS
 62
     8
 10
299.6145993909
 20
275.3936529953
 30
0.0
  0
VERTEX
  5
6A0
  8
0
  6
CONTINUOUS
 62
     8
 10
300.0348438015
 20
275.8907128919
 30
0.0
  0
VERTEX
  5
6A1
  8
0
  6
CONTINUOUS
 62
     8
 10
300.4993688753
 20
276.3724786092
 30
0.0
  0
VERTEX
  5
6A2
  8
0
  6
CONTINUOUS
 62
     8
 10
300.963957279
 20
276.8542201121
 30
0.0
  0
VERTEX
  5
6A3
  8
0
  6
CONTINUOUS
 62
     8
 10
301.9779477706
 20
277.9770952512
 30
0.0
  0
VERTEX
  5
6A4
  8
0
  6
CONTINUOUS
 62
     8
 10
302.951358675
 20
279.1152515311
 30
0.0
  0
VERTEX
  5
6A5
  8
0
  6
CONTINUOUS
 62
     8
 10
303.8745843312
 20
280.270199557
 30
0.0
  0
VERTEX
  5
6A6
  8
0
  6
CONTINUOUS
 62
     8
 10
304.7380209407
 20
281.4434480716
 30
0.0
  0
VERTEX
  5
6A7
  8
0
  6
CONTINUOUS
 62
     8
 10
305.567250072
 20
282.6902990092
 30
0.0
  0
VERTEX
  5
6A8
  8
0
  6
CONTINUOUS
 62
     8
 10
306.3143756679
 20
283.9589838732
 30
0.0
  0
VERTEX
  5
6A9
  8
0
  6
CONTINUOUS
 62
     8
 10
306.9699112764
 20
285.2475841392
 30
0.0
  0
VERTEX
  5
6AA
  8
0
  6
CONTINUOUS
 62
     8
 10
307.4046396157
 20
286.2484699909
 30
0.0
  0
VERTEX
  5
6AB
  8
0
  6
CONTINUOUS
 62
     8
 10
307.7760715475
 20
287.2607962091
 30
0.0
  0
VERTEX
  5
6AC
  8
0
  6
CONTINUOUS
 62
     8
 10
308.0792822382
 20
288.282259633
 30
0.0
  0
VERTEX
  5
6AD
  8
0
  6
CONTINUOUS
 62
     8
 10
308.3093394032
 20
289.310559896
 30
0.0
  0
SEQEND
  5
B7D
  8
0
  6
CONTINUOUS
 62
     8
  0
ARC
  5
19B
  8
0
  6
CONTINUOUS
 62
     8
 10
295.0058424993
 20
291.8427593886
 30
0.0
 40
13.54194422478472
 50
349.2229937587
 51
0.8281519322
  0
ARC
  5
19C
  8
0
  6
CONTINUOUS
 62
     8
 10
356.2162793038
 20
291.8427593886
 30
0.0
 40
13.54194422478483
 50
179.1718480678
 51
190.7770062413
  0
POLYLINE
  5
19D
  8
0
  6
CONTINUOUS
 62
     8
 66
     1
 10
0.0
 20
0.0
 30
0.0
  0
VERTEX
  5
6AE
  8
0
  6
CONTINUOUS
 62
     8
 10
351.6720071873
 20
275.2864112008
 30
0.0
  0
VERTEX
  5
6AF
  8
0
  6
CONTINUOUS
 62
     8
 10
351.6709007761
 20
275.2892852623
 30
0.0
  0
VERTEX
  5
6B0
  8
0
  6
CONTINUOUS
 62
     8
 10
351.6075224122
 20
275.3936529953
 30
0.0
  0
VERTEX
  5
6B1
  8
0
  6
CONTINUOUS
 62
     8
 10
351.1872780016
 20
275.8907128919
 30
0.0
  0
VERTEX
  5
6B2
  8
0
  6
CONTINUOUS
 62
     8
 10
350.7227529278
 20
276.3724786092
 30
0.0
  0
VERTEX
  5
6B3
  8
0
  6
CONTINUOUS
 62
     8
 10
350.2581645241
 20
276.8542201121
 30
0.0
  0
VERTEX
  5
6B4
  8
0
  6
CONTINUOUS
 62
     8
 10
349.2441740325
 20
277.9770952512
 30
0.0
  0
VERTEX
  5
6B5
  8
0
  6
CONTINUOUS
 62
     8
 10
348.2707631281
 20
279.1152515311
 30
0.0
  0
VERTEX
  5
6B6
  8
0
  6
CONTINUOUS
 62
     8
 10
347.3475374719
 20
280.270199557
 30
0.0
  0
VERTEX
  5
6B7
  8
0
  6
CONTINUOUS
 62
     8
 10
346.4841008624
 20
281.4434480716
 30
0.0
  0
VERTEX
  5
6B8
  8
0
  6
CONTINUOUS
 62
     8
 10
345.6548717311
 20
282.6902990092
 30
0.0
  0
VERTEX
  5
6B9
  8
0
  6
CONTINUOUS
 62
     8
 10
344.9077461353
 20
283.9589838732
 30
0.0
  0
VERTEX
  5
6BA
  8
0
  6
CONTINUOUS
 62
     8
 10
344.2522105267
 20
285.2475841392
 30
0.0
  0
VERTEX
  5
6BB
  8
0
  6
CONTINUOUS
 62
     8
 10
343.8174821874
 20
286.2484699909
 30
0.0
  0
VERTEX
  5
6BC
  8
0
  6
CONTINUOUS
 62
     8
 10
343.4460502556
 20
287.2607962091
 30
0.0
  0
VERTEX
  5
6BD
  8
0
  6
CONTINUOUS
 62
     8
 10
343.142839565
 20
288.282259633
 30
0.0
  0
VERTEX
  5
6BE
  8
0
  6
CONTINUOUS
 62
     8
 10
342.9127823999
 20
289.310559896
 30
0.0
  0
SEQEND
  5
B7C
  8
0
  6
CONTINUOUS
 62
     8
  0
LINE
  5
19E
  8
0
  6
CONTINUOUS
 62
     8
 10
351.8066857448
 20
275.3073398817
 30
0.0
 11
351.6720071873
 21
275.2864112008
 31
0.0
  0
LINE
  5
19F
  8
0
  6
CONTINUOUS
 62
     8
 10
299.3797850302
 20
275.2118327517
 30
0.0
 11
351.842336773
 21
275.2118327517
 31
0.0
  0
ARC
  5
1A0
  8
0
  6
CONTINUOUS
 62
     8
 10
308.8549061219
 20
301.2775845199
 30
0.0
 40
11.97944167889322
 50
213.7586295471
 51
267.3878202505
  0
POLYLINE
  5
1A1
  8
0
  6
CONTINUOUS
 62
     8
 66
     1
 10
0.0
 20
0.0
 30
0.0
  0
VERTEX
  5
6BF
  8
0
  6
CONTINUOUS
 62
     8
 10
298.4559912672
 20
297.7832239449
 30
0.0
  0
VERTEX
  5
6C0
  8
0
  6
CONTINUOUS
 62
     8
 10
298.6916214666
 20
296.1989778888
 30
0.0
  0
VERTEX
  5
6C1
  8
0
  6
CONTINUOUS
 62
     8
 10
298.8952886751
 20
294.6213039432
 30
0.0
  0
SEQEND
  5
B7B
  8
0
  6
CONTINUOUS
 62
     8
  0
POLYLINE
  5
1A2
  8
0
  6
CONTINUOUS
 62
     8
 66
     1
 10
0.0
 20
0.0
 30
0.0
  0
VERTEX
  5
6C2
  8
0
  6
CONTINUOUS
 62
     8
 10
352.7661305359
 20
297.7832239449
 30
0.0
  0
VERTEX
  5
6C3
  8
0
  6
CONTINUOUS
 62
     8
 10
352.5305003366
 20
296.1989778888
 30
0.0
  0
VERTEX
  5
6C4
  8
0
  6
CONTINUOUS
 62
     8
 10
352.326833128
 20
294.6213039432
 30
0.0
  0
SEQEND
  5
B7A
  8
0
  6
CONTINUOUS
 62
     8
  0
ARC
  5
1A3
  8
0
  6
CONTINUOUS
 62
     8
 10
342.3669664453
 20
301.2771685467
 30
0.0
 40
11.97904994787578
 50
272.6115411321
 51
326.2468643731
  0
ARC
  5
1A4
  8
0
  6
CONTINUOUS
 62
     8
 10
182.1682062827
 20
281.8141254154
 30
0.0
 40
117.4276033751217
 50
356.8238966607
 51
6.2614457074
  0
ARC
  5
1A5
  8
0
  6
CONTINUOUS
 62
     8
 10
469.0539155205
 20
281.8141254154
 30
0.0
 40
117.4276033751217
 50
173.7385542926
 51
183.1761033393
  0
ARC
  5
1A6
  8
0
  6
CONTINUOUS
 62
     8
 10
347.3582677338
 20
428.936234529
 30
0.0
 40
12.93295722032787
 50
10.8662906103
 51
61.2869815806
  0
ARC
  5
1A7
  8
0
  6
CONTINUOUS
 62
     8
 10
303.8638540693
 20
428.936234529
 30
0.0
 40
12.93295722032787
 50
118.7130184194
 51
169.1337093897
  0
ARC
  5
1A8
  8
0
  6
CONTINUOUS
 62
     8
 10
297.8212611006
 20
284.6881403143
 30
0.0
 40
9.991082607983905
 50
83.8297928786
 51
104.5631418507
  0
ARC
  5
1A9
  8
0
  6
CONTINUOUS
 62
     8
 10
-28.1970650453
 20
221.8089802289
 30
0.0
 40
331.5413324351343
 50
12.6400001684
 51
16.0541093325
  0
POLYLINE
  5
1AA
  8
0
  6
CONTINUOUS
 62
     8
 66
     1
 10
0.0
 20
0.0
 30
0.0
  0
VERTEX
  5
6C5
  8
0
  6
CONTINUOUS
 62
     8
 10
290.4144511065
 20
313.4951826979
 30
0.0
  0
VERTEX
  5
6C6
  8
0
  6
CONTINUOUS
 62
     8
 10
290.8961907467
 20
313.6072794769
 30
0.0
  0
VERTEX
  5
6C7
  8
0
  6
CONTINUOUS
 62
     8
 10
291.3918555221
 20
313.7470737893
 30
0.0
  0
VERTEX
  5
6C8
  8
0
  6
CONTINUOUS
 62
     8
 10
291.8890439412
 20
313.9141307075
 30
0.0
  0
VERTEX
  5
6C9
  8
0
  6
CONTINUOUS
 62
     8
 10
292.2542974791
 20
314.0561164219
 30
0.0
  0
VERTEX
  5
6CA
  8
0
  6
CONTINUOUS
 62
     8
 10
292.6058009705
 20
314.2107541535
 30
0.0
  0
VERTEX
  5
6CB
  8
0
  6
CONTINUOUS
 62
     8
 10
292.937068685
 20
314.3759772975
 30
0.0
  0
VERTEX
  5
6CC
  8
0
  6
CONTINUOUS
 62
     8
 10
293.2420172235
 20
314.5492712829
 30
0.0
  0
VERTEX
  5
6CD
  8
0
  6
CONTINUOUS
 62
     8
 10
293.5153007945
 20
314.7277937133
 30
0.0
  0
VERTEX
  5
6CE
  8
0
  6
CONTINUOUS
 62
     8
 10
293.7526353141
 20
314.9085280348
 30
0.0
  0
VERTEX
  5
6CF
  8
0
  6
CONTINUOUS
 62
     8
 10
293.9510032973
 20
315.0884493116
 30
0.0
  0
VERTEX
  5
6D0
  8
0
  6
CONTINUOUS
 62
     8
 10
294.108776792
 20
315.2646918643
 30
0.0
  0
VERTEX
  5
6D1
  8
0
  6
CONTINUOUS
 62
     8
 10
294.2557581207
 20
315.4895718072
 30
0.0
  0
VERTEX
  5
6D2
  8
0
  6
CONTINUOUS
 62
     8
 10
294.333117499
 20
315.6984320704
 30
0.0
  0
VERTEX
  5
6D3
  8
0
  6
CONTINUOUS
 62
     8
 10
294.3468489191
 20
315.8877997521
 30
0.0
  0
SEQEND
  5
B79
  8
0
  6
CONTINUOUS
 62
     8
  0
POLYLINE
  5
1AB
  8
0
  6
CONTINUOUS
 62
     8
 66
     1
 10
0.0
 20
0.0
 30
0.0
  0
VERTEX
  5
6D4
  8
0
  6
CONTINUOUS
 62
     8
 10
360.8076893231
 20
313.4952171568
 30
0.0
  0
VERTEX
  5
6D5
  8
0
  6
CONTINUOUS
 62
     8
 10
360.3259236058
 20
313.6073185925
 30
0.0
  0
VERTEX
  5
6D6
  8
0
  6
CONTINUOUS
 62
     8
 10
359.8302215776
 20
313.747101729
 30
0.0
  0
VERTEX
  5
6D7
  8
0
  6
CONTINUOUS
 62
     8
 10
359.3329847297
 20
313.9141316388
 30
0.0
  0
VERTEX
  5
6D8
  8
0
  6
CONTINUOUS
 62
     8
 10
358.9676902136
 20
314.0560847569
 30
0.0
  0
VERTEX
  5
6D9
  8
0
  6
CONTINUOUS
 62
     8
 10
358.6161494693
 20
314.2106796477
 30
0.0
  0
VERTEX
  5
6DA
  8
0
  6
CONTINUOUS
 62
     8
 10
358.2848370513
 20
314.3758478437
 30
0.0
  0
VERTEX
  5
6DB
  8
0
  6
CONTINUOUS
 62
     8
 10
357.9798549852
 20
314.5490757052
 30
0.0
  0
VERTEX
  5
6DC
  8
0
  6
CONTINUOUS
 62
     8
 10
357.7065416118
 20
314.7275208358
 30
0.0
  0
VERTEX
  5
6DD
  8
0
  6
CONTINUOUS
 62
     8
 10
357.4691884658
 20
314.9081657503
 30
0.0
  0
VERTEX
  5
6DE
  8
0
  6
CONTINUOUS
 62
     8
 10
357.2708093068
 20
315.0879892383
 30
0.0
  0
VERTEX
  5
6DF
  8
0
  6
CONTINUOUS
 62
     8
 10
357.1130320868
 20
315.2641246889
 30
0.0
  0
VERTEX
  5
6E0
  8
0
  6
CONTINUOUS
 62
     8
 10
356.9660619339
 20
315.4888500322
 30
0.0
  0
VERTEX
  5
6E1
  8
0
  6
CONTINUOUS
 62
     8
 10
356.8887174567
 20
315.697547314
 30
0.0
  0
VERTEX
  5
6E2
  8
0
  6
CONTINUOUS
 62
     8
 10
356.875015839
 20
315.8867473576
 30
0.0
  0
SEQEND
  5
B78
  8
0
  6
CONTINUOUS
 62
     8
  0
ARC
  5
1AC
  8
0
  6
CONTINUOUS
 62
     8
 10
679.4191868484
 20
221.8089802289
 30
0.0
 40
331.5413324351343
 50
163.9458906675
 51
167.3599998316
  0
ARC
  5
1AD
  8
0
  6
CONTINUOUS
 62
     8
 10
353.4008854852
 20
284.6801422413
 30
0.0
 40
9.99910864626121
 50
75.4487980503
 51
96.1673318817
  0
ARC
  5
1AE
  8
0
  6
CONTINUOUS
 62
     8
 10
-65.2040620254
 20
207.7029086636
 30
0.0
 40
370.7813862175439
 50
10.4904737059
 51
13.5156099973
  0
ARC
  5
1AF
  8
0
  6
CONTINUOUS
 62
     8
 10
716.4261838286
 20
207.7029086636
 30
0.0
 40
370.7813862175439
 50
166.4843900027
 51
169.5095262941
  0
ARC
  5
1B0
  8
0
  6
CONTINUOUS
 62
     8
 10
-111.1741564058
 20
221.4750783232
 30
0.0
 40
416.366507756664
 50
13.1060408303
 51
16.4935889307
  0
ARC
  5
1B1
  8
0
  6
CONTINUOUS
 62
     8
 10
236.0939816178
 20
297.1609664023
 30
0.0
 40
56.72289384648532
 50
16.7359964556
 51
37.4263550876
  0
ARC
  5
1B2
  8
0
  6
CONTINUOUS
 62
     8
 10
281.0272706941
 20
338.7297119138
 30
0.0
 40
7.096799521299809
 50
270.9071319919
 51
7.7349973355
  0
ARC
  5
1B3
  8
0
  6
CONTINUOUS
 62
     8
 10
415.1281401853
 20
297.1609664023
 30
0.0
 40
56.72289384648529
 50
142.5736449124
 51
163.2640035444
  0
ARC
  5
1B4
  8
0
  6
CONTINUOUS
 62
     8
 10
762.3962782089
 20
221.4750783232
 30
0.0
 40
416.3665077566639
 50
163.5064110693
 51
166.8939591697
  0
ARC
  5
1B5
  8
0
  6
CONTINUOUS
 62
     8
 10
370.1948500045
 20
338.7297130481
 30
0.0
 40
7.096798775571887
 50
172.2649807365
 51
269.0928768311
  0
ARC
  5
1B6
  8
0
  6
CONTINUOUS
 62
     8
 10
265.205600175
 20
328.7480954734
 30
0.0
 40
25.33602141465334
 50
17.2049376619
 51
25.5735604556
  0
ARC
  5
1B7
  8
0
  6
CONTINUOUS
 62
     8
 10
386.0165216281
 20
328.7480954734
 30
0.0
 40
25.33602141465334
 50
154.4264395444
 51
162.7950623381
  0
LINE
  5
1B8
  8
0
  6
CONTINUOUS
 62
     8
 10
294.6110614082
 20
281.2324420411
 30
0.0
 11
286.6110600969
 21
281.2324420411
 31
0.0
  0
LINE
  5
1B9
  8
0
  6
CONTINUOUS
 62
     8
 10
356.6110603949
 20
281.2324420411
 30
0.0
 11
364.6110617062
 21
281.2324420411
 31
0.0
  0
ARC
  5
1BA
  8
0
  6
CONTINUOUS
 62
     8
 10
293.3035520267
 20
342.6247755727
 30
0.0
 40
16.39397961245201
 50
210.2159903692
 51
222.100054402
  0
ARC
  5
1BB
  8
0
  6
CONTINUOUS
 62
     8
 10
357.9185697764
 20
342.6247755727
 30
0.0
 40
16.39397961245201
 50
317.899945598
 51
329.7840096308
  0
LINE
  5
1BC
  8
0
  6
CONTINUOUS
 62
     8
 10
294.6110614082
 20
266.6507803697
 30
0.0
 11
286.6110600969
 21
266.6507803697
 31
0.0
  0
LINE
  5
1BD
  8
0
  6
CONTINUOUS
 62
     8
 10
356.6110603949
 20
266.6507803697
 30
0.0
 11
364.6110617062
 21
266.6507803697
 31
0.0
  0
LINE
  5
1BE
  8
0
  6
CONTINUOUS
 62
     8
 10
294.6110614082
 20
278.6970113266
 30
0.0
 11
286.6110600969
 21
278.6970113266
 31
0.0
  0
LINE
  5
1BF
  8
0
  6
CONTINUOUS
 62
     8
 10
356.6110603949
 20
278.6970113266
 30
0.0
 11
364.6110617062
 21
278.6970113266
 31
0.0
  0
POLYLINE
  5
1C0
  8
0
  6
CONTINUOUS
 62
     8
 66
     1
 10
0.0
 20
0.0
 30
0.0
  0
VERTEX
  5
6E3
  8
0
  6
CONTINUOUS
 62
     8
 10
289.2720871112
 20
338.5117457111
 30
0.0
  0
VERTEX
  5
6E4
  8
0
  6
CONTINUOUS
 62
     8
 10
288.5979250511
 20
340.3026827473
 30
0.0
  0
VERTEX
  5
6E5
  8
0
  6
CONTINUOUS
 62
     8
 10
288.0490184268
 20
341.558157732
 30
0.0
  0
VERTEX
  5
6E6
  8
0
  6
CONTINUOUS
 62
     8
 10
287.6257546684
 20
342.2772803206
 30
0.0
  0
VERTEX
  5
6E7
  8
0
  6
CONTINUOUS
 62
     8
 10
287.3284355244
 20
342.4595438738
 30
0.0
  0
VERTEX
  5
6E8
  8
0
  6
CONTINUOUS
 62
     8
 10
287.1572733363
 20
342.104814281
 30
0.0
  0
SEQEND
  5
B77
  8
0
  6
CONTINUOUS
 62
     8
  0
ARC
  5
1C1
  8
0
  6
CONTINUOUS
 62
     8
 10
263.3532872746
 20
331.8518025073
 30
0.0
 40
25.91821758642142
 50
17.5911715
 51
23.3028338858
  0
POLYLINE
  5
1C2
  8
0
  6
CONTINUOUS
 62
     8
 66
     1
 10
0.0
 20
0.0
 30
0.0
  0
VERTEX
  5
6E9
  8
0
  6
CONTINUOUS
 62
     8
 10
361.950034692
 20
338.5117457111
 30
0.0
  0
VERTEX
  5
6EA
  8
0
  6
CONTINUOUS
 62
     8
 10
362.624196752
 20
340.3026827473
 30
0.0
  0
VERTEX
  5
6EB
  8
0
  6
CONTINUOUS
 62
     8
 10
363.1731033763
 20
341.558157732
 30
0.0
  0
VERTEX
  5
6EC
  8
0
  6
CONTINUOUS
 62
     8
 10
363.5963671347
 20
342.2772803206
 30
0.0
  0
VERTEX
  5
6ED
  8
0
  6
CONTINUOUS
 62
     8
 10
363.8936862787
 20
342.4595438738
 30
0.0
  0
VERTEX
  5
6EE
  8
0
  6
CONTINUOUS
 62
     8
 10
364.0648484668
 20
342.104814281
 30
0.0
  0
SEQEND
  5
B76
  8
0
  6
CONTINUOUS
 62
     8
  0
ARC
  5
1C3
  8
0
  6
CONTINUOUS
 62
     8
 10
387.8688345285
 20
331.8518025073
 30
0.0
 40
25.91821758642142
 50
156.6971661142
 51
162.4088285
  0
LINE
  5
1C4
  8
0
  6
CONTINUOUS
 62
     8
 10
330.6110607898
 20
494.5313327808
 30
0.0
 11
347.7600556305
 21
494.5313327808
 31
0.0
  0
LINE
  5
1C5
  8
0
  6
CONTINUOUS
 62
     8
 10
303.4620661726
 20
494.5313327808
 30
0.0
 11
320.6110610133
 21
494.5313327808
 31
0.0
  0
LINE
  5
1C6
  8
FORMAT
  6
CENTERX2
 10
38.6110609016
 20
300.8743219871
 30
0.0
 11
613.2999166214
 21
300.8743219871
 31
0.0
  0
LINE
  5
1C7
  8
FORMAT
  6
CENTERX2
 10
325.6110609016
 20
258.6971007276
 30
0.0
 11
325.6110609016
 21
546.5311575153
 31
0.0
  0
LINE
  5
1C8
  8
0
  6
CONTINUOUS
 62
     7
 10
703.4849540137
 20
423.4363728065
 30
0.0
 11
703.6928177618
 21
431.3743256826
 31
0.0
  0
LINE
  5
1C9
  8
0
  6
CONTINUOUS
 62
     7
 10
761.6928160929
 20
431.3743256826
 30
0.0
 11
761.9006798409
 21
423.4363728065
 31
0.0
  0
LINE
  5
1CA
  8
0
  6
CONTINUOUS
 62
     7
 10
680.1152170442
 20
390.8312165041
 30
0.0
 11
681.3382969045
 21
376.8513866563
 31
0.0
  0
LINE
  5
1CB
  8
0
  6
CONTINUOUS
 62
     7
 10
784.0473369502
 20
376.8513866563
 30
0.0
 11
785.2704168104
 21
390.8312165041
 31
0.0
  0
ARC
  5
1CC
  8
0
  6
CONTINUOUS
 62
     7
 10
687.3154638772
 20
377.3743219871
 30
0.0
 40
6.000000000000057
 50
185.0
 51
270.0
  0
ARC
  5
1CD
  8
0
  6
CONTINUOUS
 62
     7
 10
778.0701699774
 20
377.3743219871
 30
0.0
 40
6.000000000000057
 50
270.0
 51
355.0
  0
LINE
  5
1CE
  8
0
  6
CONTINUOUS
 62
     7
 10
677.765303924
 20
428.6062114734
 30
0.0
 11
678.2449089729
 21
410.2908068199
 31
0.0
  0
LINE
  5
1CF
  8
0
  6
CONTINUOUS
 62
     7
 10
787.1407248818
 20
410.2908068199
 30
0.0
 11
787.6203299307
 21
428.6062114734
 31
0.0
  0
ARC
  5
1D0
  8
0
  6
CONTINUOUS
 62
     7
 10
679.7357415506
 20
406.9350029148
 30
0.0
 40
6.000000000000009
 50
120.0
 51
178.5
  0
ARC
  5
1D1
  8
0
  6
CONTINUOUS
 62
     7
 10
785.649892304
 20
406.9350029148
 30
0.0
 40
5.999999999999951
 50
1.5
 51
60.0
  0
LINE
  5
1D2
  8
0
  6
CONTINUOUS
 62
     7
 10
673.6928165697
 20
405.3743251462
 30
0.0
 11
673.797560557
 21
401.3743244905
 31
0.0
  0
LINE
  5
1D3
  8
0
  6
CONTINUOUS
 62
     7
 10
791.5880732976
 20
401.3743244905
 30
0.0
 11
791.6928172849
 21
405.3743251462
 31
0.0
  0
LINE
  5
1D4
  8
0
  6
CONTINUOUS
 62
     7
 10
673.73779945
 20
407.0920639534
 30
0.0
 11
673.6928165697
 21
405.3743251462
 31
0.0
  0
LINE
  5
1D5
  8
0
  6
CONTINUOUS
 62
     7
 10
791.6928172849
 20
405.3743251462
 30
0.0
 11
791.6478344046
 21
407.0920639534
 31
0.0
  0
LINE
  5
1D6
  8
0
  6
CONTINUOUS
 62
     7
 10
673.6928165697
 20
401.3743244905
 30
0.0
 11
674.5677047216
 21
391.3743191261
 31
0.0
  0
LINE
  5
1D7
  8
0
  6
CONTINUOUS
 62
     7
 10
790.8179291331
 20
391.3743191261
 30
0.0
 11
791.6928172849
 21
401.3743244905
 31
0.0
  0
LINE
  5
1D8
  8
0
  6
CONTINUOUS
 62
     7
 10
674.5677047216
 20
391.3743191261
 30
0.0
 11
680.1997327052
 21
389.8652263779
 31
0.0
  0
LINE
  5
1D9
  8
0
  6
CONTINUOUS
 62
     7
 10
785.1859011494
 20
389.8652263779
 30
0.0
 11
790.8179291331
 21
391.3743191261
 31
0.0
  0
LINE
  5
1DA
  8
0
  6
CONTINUOUS
 62
     7
 10
764.1152457141
 20
437.2424476642
 30
0.0
 11
763.6928164207
 21
453.3743255634
 31
0.0
  0
LINE
  5
1DB
  8
0
  6
CONTINUOUS
 62
     7
 10
701.692817434
 20
453.3743255634
 30
0.0
 11
701.2703881406
 21
437.2424476642
 31
0.0
  0
LINE
  5
1DC
  8
0
  6
CONTINUOUS
 62
     7
 10
678.1749591969
 20
412.962085833
 30
0.0
 11
676.7357417189
 21
412.1311523814
 31
0.0
  0
LINE
  5
1DD
  8
0
  6
CONTINUOUS
 62
     7
 10
788.6498921357
 20
412.1311523814
 30
0.0
 11
787.2106746577
 21
412.962085833
 31
0.0
  0
ARC
  5
1DE
  8
0
  6
CONTINUOUS
 62
     7
 10
716.9928169273
 20
412.8743219871
 30
0.0
 40
29.0000000000001
 50
122.8304138869
 51
167.7865585534
  0
ARC
  5
1DF
  8
0
  6
CONTINUOUS
 62
     7
 10
748.3928169273
 20
412.8743219871
 30
0.0
 40
29.00000000000005
 50
12.2134414466
 51
57.1697119717
  0
LINE
  5
1E0
  8
0
  6
CONTINUOUS
 62
     7
 10
709.4416596733
 20
473.5008024473
 30
0.0
 11
705.8928177499
 21
453.3743255634
 31
0.0
  0
ARC
  5
1E1
  8
0
  6
CONTINUOUS
 62
     7
 10
698.6928169273
 20
303.2955636605
 30
0.0
 40
13.49999999999998
 50
180.0365900148
 51
230.0
  0
ARC
  5
1E2
  8
0
  6
CONTINUOUS
 62
     7
 10
766.6928169273
 20
303.2955636605
 30
0.0
 40
13.49999999999999
 50
310.0
 51
359.9631918731
  0
LINE
  5
1E3
  8
0
  6
CONTINUOUS
 62
     7
 10
710.5438221984
 20
494.5313327808
 30
0.0
 11
709.4416596733
 21
473.5008024473
 31
0.0
  0
LINE
  5
1E4
  8
0
  6
CONTINUOUS
 62
     7
 10
685.1928175234
 20
371.7623346347
 30
0.0
 11
685.1928175234
 21
303.2955637064
 31
0.0
  0
LINE
  5
1E5
  8
0
  6
CONTINUOUS
 62
     7
 10
780.1928163313
 20
368.0443235535
 30
0.0
 11
780.1928163313
 21
371.7623346347
 31
0.0
  0
LINE
  5
1E6
  8
0
  6
CONTINUOUS
 62
     7
 10
780.1928163313
 20
303.2955637064
 30
0.0
 11
780.1928163313
 21
356.615751316
 31
0.0
  0
ARC
  5
1E7
  8
0
  6
CONTINUOUS
 62
     7
 10
713.5397106275
 20
494.3743219871
 30
0.0
 40
3.000000000000048
 50
90.0
 51
177.0
  0
LINE
  5
1E8
  8
0
  6
CONTINUOUS
 62
     7
 10
714.6106564246
 20
502.9083632726
 30
0.0
 11
713.6348557465
 21
497.374325325
 31
0.0
  0
LINE
  5
1E9
  8
0
  6
CONTINUOUS
 62
     7
 10
781.6928156458
 20
356.615751316
 30
0.0
 11
781.6928156458
 21
360.0443222422
 31
0.0
  0
LINE
  5
1EA
  8
0
  6
CONTINUOUS
 62
     7
 10
743.4928172075
 20
503.3743225832
 30
0.0
 11
743.4928172075
 21
510.1404928465
 31
0.0
  0
LINE
  5
1EB
  8
0
  6
CONTINUOUS
 62
     7
 10
721.8928166472
 20
510.1404928465
 30
0.0
 11
721.8928166472
 21
503.3743225832
 31
0.0
  0
CIRCLE
  5
1EC
  8
0
  6
CONTINUOUS
 62
     7
 10
732.6928169273
 20
300.8743219871
 30
0.0
 40
27.25
  0
CIRCLE
  5
1ED
  8
0
  6
CONTINUOUS
 62
     7
 10
732.6928169273
 20
300.8743219871
 30
0.0
 40
28.74999999999989
  0
CIRCLE
  5
1EE
  8
0
  6
CONTINUOUS
 62
     7
 10
732.6928169273
 20
300.8743219871
 30
0.0
 40
30.14999999999998
  0
CIRCLE
  5
1EF
  8
0
  6
CONTINUOUS
 62
     7
 10
732.6928169273
 20
300.8743219871
 30
0.0
 40
25.0
  0
CIRCLE
  5
1F0
  8
0
  6
CONTINUOUS
 62
     7
 10
732.6928169273
 20
300.8743219871
 30
0.0
 40
33.49999999999989
  0
POLYLINE
  5
1F1
  8
0
  6
CONTINUOUS
 62
     7
 66
     1
 10
0.0
 20
0.0
 30
0.0
  0
VERTEX
  5
6EF
  8
0
  6
CONTINUOUS
 62
     7
 10
781.219755932
 20
401.3743244905
 30
0.0
  0
VERTEX
  5
6F0
  8
0
  6
CONTINUOUS
 62
     7
 10
780.991168394
 20
402.1341645021
 30
0.0
  0
VERTEX
  5
6F1
  8
0
  6
CONTINUOUS
 62
     7
 10
780.7628490769
 20
402.8140448827
 30
0.0
  0
VERTEX
  5
6F2
  8
0
  6
CONTINUOUS
 62
     7
 10
780.5348054313
 20
403.4139581818
 30
0.0
  0
VERTEX
  5
6F3
  8
0
  6
CONTINUOUS
 62
     7
 10
780.3070523583
 20
403.9339043994
 30
0.0
  0
VERTEX
  5
6F4
  8
0
  6
CONTINUOUS
 62
     7
 10
780.0795973085
 20
404.3738909859
 30
0.0
  0
VERTEX
  5
6F5
  8
0
  6
CONTINUOUS
 62
     7
 10
779.8902855061
 20
404.6794541974
 30
0.0
  0
VERTEX
  5
6F6
  8
0
  6
CONTINUOUS
 62
     7
 10
779.7011897706
 20
404.9294956822
 30
0.0
  0
VERTEX
  5
6F7
  8
0
  6
CONTINUOUS
 62
     7
 10
779.5123175525
 20
405.1240005393
 30
0.0
  0
VERTEX
  5
6F8
  8
0
  6
CONTINUOUS
 62
     7
 10
779.3708124005
 20
405.2334346671
 30
0.0
  0
VERTEX
  5
6F9
  8
0
  6
CONTINUOUS
 62
     7
 10
779.2294376336
 20
405.311635961
 30
0.0
  0
VERTEX
  5
6FA
  8
0
  6
CONTINUOUS
 62
     7
 10
779.0881969773
 20
405.3585969705
 30
0.0
  0
VERTEX
  5
6FB
  8
0
  6
CONTINUOUS
 62
     7
 10
778.9470904313
 20
405.3743251462
 30
0.0
  0
SEQEND
  5
B75
  8
0
  6
CONTINUOUS
 62
     7
  0
LINE
  5
1F2
  8
0
  6
CONTINUOUS
 62
     7
 10
781.219755932
 20
401.3743244905
 30
0.0
 11
780.5007302009
 21
401.3743244905
 31
0.0
  0
LINE
  5
1F3
  8
0
  6
CONTINUOUS
 62
     7
 10
684.8849036537
 20
401.3743244905
 30
0.0
 11
684.1658779227
 21
401.3743244905
 31
0.0
  0
POLYLINE
  5
1F4
  8
0
  6
CONTINUOUS
 62
     7
 66
     1
 10
0.0
 20
0.0
 30
0.0
  0
VERTEX
  5
6FC
  8
0
  6
CONTINUOUS
 62
     7
 10
684.1658779227
 20
401.3743244905
 30
0.0
  0
VERTEX
  5
6FD
  8
0
  6
CONTINUOUS
 62
     7
 10
684.3944654607
 20
402.1341645021
 30
0.0
  0
VERTEX
  5
6FE
  8
0
  6
CONTINUOUS
 62
     7
 10
684.6227847778
 20
402.8140448827
 30
0.0
  0
VERTEX
  5
6FF
  8
0
  6
CONTINUOUS
 62
     7
 10
684.8508284234
 20
403.4139581818
 30
0.0
  0
VERTEX
  5
700
  8
0
  6
CONTINUOUS
 62
     7
 10
685.0785814964
 20
403.9339043994
 30
0.0
  0
VERTEX
  5
701
  8
0
  6
CONTINUOUS
 62
     7
 10
685.3060365461
 20
404.3738909859
 30
0.0
  0
VERTEX
  5
702
  8
0
  6
CONTINUOUS
 62
     7
 10
685.4953483485
 20
404.6794541974
 30
0.0
  0
VERTEX
  5
703
  8
0
  6
CONTINUOUS
 62
     7
 10
685.6844440841
 20
404.9294956822
 30
0.0
  0
VERTEX
  5
704
  8
0
  6
CONTINUOUS
 62
     7
 10
685.8733163022
 20
405.1240005393
 30
0.0
  0
VERTEX
  5
705
  8
0
  6
CONTINUOUS
 62
     7
 10
686.0148214542
 20
405.2334346671
 30
0.0
  0
VERTEX
  5
706
  8
0
  6
CONTINUOUS
 62
     7
 10
686.156196221
 20
405.311635961
 30
0.0
  0
VERTEX
  5
707
  8
0
  6
CONTINUOUS
 62
     7
 10
686.2974368774
 20
405.3585969705
 30
0.0
  0
VERTEX
  5
708
  8
0
  6
CONTINUOUS
 62
     7
 10
686.4385434233
 20
405.3743251462
 30
0.0
  0
SEQEND
  5
B74
  8
0
  6
CONTINUOUS
 62
     7
  0
LINE
  5
1F5
  8
0
  6
CONTINUOUS
 62
     7
 10
778.9470904313
 20
405.3743251462
 30
0.0
 11
686.4385434233
 21
405.3743251462
 31
0.0
  0
LINE
  5
1F6
  8
0
  6
CONTINUOUS
 62
     7
 10
778.7300810956
 20
391.3743191261
 30
0.0
 11
686.6555527591
 21
391.3743191261
 31
0.0
  0
LINE
  5
1F7
  8
0
  6
CONTINUOUS
 62
     7
 10
686.4425853633
 20
401.3743244905
 30
0.0
 11
778.9430484914
 21
401.3743244905
 31
0.0
  0
ARC
  5
1F8
  8
0
  6
CONTINUOUS
 62
     7
 10
759.1412856584
 20
393.0141665533
 30
0.0
 40
21.09037675486415
 50
51.0056425834
 51
65.0168031194
  0
LINE
  5
1F9
  8
0
  6
CONTINUOUS
 62
     7
 10
772.4122755967
 20
409.4057747025
 30
0.0
 11
778.7785433971
 21
409.4057747025
 31
0.0
  0
LINE
  5
1FA
  8
0
  6
CONTINUOUS
 62
     7
 10
692.9733582579
 20
409.4057747025
 30
0.0
 11
686.6070904576
 21
409.4057747025
 31
0.0
  0
ARC
  5
1FB
  8
0
  6
CONTINUOUS
 62
     7
 10
706.2443481963
 20
393.0141665533
 30
0.0
 40
21.09037675486422
 50
114.9831968806
 51
128.9943574166
  0
ARC
  5
1FC
  8
0
  6
CONTINUOUS
 62
     7
 10
688.2247606637
 20
351.8858970708
 30
0.0
 40
39.35804011149973
 50
86.404747785
 51
92.0781727934
  0
ARC
  5
1FD
  8
0
  6
CONTINUOUS
 62
     7
 10
777.1608731909
 20
351.8858970708
 30
0.0
 40
39.35804011149973
 50
87.9218272066
 51
93.595252215
  0
POLYLINE
  5
1FE
  8
0
  6
CONTINUOUS
 62
     7
 66
     1
 10
0.0
 20
0.0
 30
0.0
  0
VERTEX
  5
709
  8
0
  6
CONTINUOUS
 62
     7
 10
774.6928163611
 20
391.1664777298
 30
0.0
  0
VERTEX
  5
70A
  8
0
  6
CONTINUOUS
 62
     7
 10
767.7028530084
 20
390.773109426
 30
0.0
  0
VERTEX
  5
70B
  8
0
  6
CONTINUOUS
 62
     7
 10
760.7091625028
 20
390.4485844869
 30
0.0
  0
VERTEX
  5
70C
  8
0
  6
CONTINUOUS
 62
     7
 10
753.7127208703
 20
390.1944377322
 30
0.0
  0
VERTEX
  5
70D
  8
0
  6
CONTINUOUS
 62
     7
 10
746.707488484
 20
390.0119134087
 30
0.0
  0
VERTEX
  5
70E
  8
0
  6
CONTINUOUS
 62
     7
 10
739.7005410672
 20
389.9019875426
 30
0.0
  0
VERTEX
  5
70F
  8
0
  6
CONTINUOUS
 62
     7
 10
732.6930169273
 20
389.8652263779
 30
0.0
  0
VERTEX
  5
710
  8
0
  6
CONTINUOUS
 62
     7
 10
725.6920297437
 20
389.9019130368
 30
0.0
  0
VERTEX
  5
711
  8
0
  6
CONTINUOUS
 62
     7
 10
718.6916188144
 20
390.0116302867
 30
0.0
  0
VERTEX
  5
712
  8
0
  6
CONTINUOUS
 62
     7
 10
711.6929177933
 20
390.193819334
 30
0.0
  0
VERTEX
  5
713
  8
0
  6
CONTINUOUS
 62
     7
 10
704.6898023032
 20
390.448033144
 30
0.0
  0
VERTEX
  5
714
  8
0
  6
CONTINUOUS
 62
     7
 10
697.6894416653
 20
390.7727666993
 30
0.0
  0
VERTEX
  5
715
  8
0
  6
CONTINUOUS
 62
     7
 10
690.6928174936
 20
391.1664777298
 30
0.0
  0
SEQEND
  5
B73
  8
0
  6
CONTINUOUS
 62
     7
  0
POLYLINE
  5
1FF
  8
0
  6
CONTINUOUS
 62
     7
 66
     1
 10
0.0
 20
0.0
 30
0.0
  0
VERTEX
  5
716
  8
0
  6
CONTINUOUS
 62
     7
 10
697.3367758833
 20
412.1311523814
 30
0.0
  0
VERTEX
  5
717
  8
0
  6
CONTINUOUS
 62
     7
 10
698.2982286059
 20
412.6053669352
 30
0.0
  0
VERTEX
  5
718
  8
0
  6
CONTINUOUS
 62
     7
 10
699.1870567941
 20
413.1138988633
 30
0.0
  0
VERTEX
  5
719
  8
0
  6
CONTINUOUS
 62
     7
 10
699.9956571304
 20
413.6502512593
 30
0.0
  0
VERTEX
  5
71A
  8
0
  6
CONTINUOUS
 62
     7
 10
700.6872349225
 20
414.1827517051
 30
0.0
  0
VERTEX
  5
71B
  8
0
  6
CONTINUOUS
 62
     7
 10
701.30425848
 20
414.7354134221
 30
0.0
  0
VERTEX
  5
71C
  8
0
  6
CONTINUOUS
 62
     7
 10
701.8435296409
 20
415.3033786316
 30
0.0
  0
VERTEX
  5
71D
  8
0
  6
CONTINUOUS
 62
     7
 10
702.301848381
 20
415.881789555
 30
0.0
  0
VERTEX
  5
71E
  8
0
  6
CONTINUOUS
 62
     7
 10
702.7169779681
 20
416.5374257464
 30
0.0
  0
VERTEX
  5
71F
  8
0
  6
CONTINUOUS
 62
     7
 10
703.0314483486
 20
417.2021069426
 30
0.0
  0
VERTEX
  5
720
  8
0
  6
CONTINUOUS
 62
     7
 10
703.2432012998
 20
417.8695895571
 30
0.0
  0
VERTEX
  5
721
  8
0
  6
CONTINUOUS
 62
     7
 10
703.3501730107
 20
418.5336523552
 30
0.0
  0
VERTEX
  5
722
  8
0
  6
CONTINUOUS
 62
     7
 10
703.3602312945
 20
418.695225646
 30
0.0
  0
SEQEND
  5
B72
  8
0
  6
CONTINUOUS
 62
     7
  0
LINE
  5
200
  8
0
  6
CONTINUOUS
 62
     7
 10
703.3602312945
 20
418.695225646
 30
0.0
 11
762.0254025601
 21
418.695225646
 31
0.0
  0
POLYLINE
  5
201
  8
0
  6
CONTINUOUS
 62
     7
 66
     1
 10
0.0
 20
0.0
 30
0.0
  0
VERTEX
  5
723
  8
0
  6
CONTINUOUS
 62
     7
 10
768.0488579713
 20
412.1311523814
 30
0.0
  0
VERTEX
  5
724
  8
0
  6
CONTINUOUS
 62
     7
 10
767.0874052488
 20
412.6053669352
 30
0.0
  0
VERTEX
  5
725
  8
0
  6
CONTINUOUS
 62
     7
 10
766.1985770606
 20
413.1138988633
 30
0.0
  0
VERTEX
  5
726
  8
0
  6
CONTINUOUS
 62
     7
 10
765.3899767243
 20
413.6502512593
 30
0.0
  0
VERTEX
  5
727
  8
0
  6
CONTINUOUS
 62
     7
 10
764.6983989321
 20
414.1827517051
 30
0.0
  0
VERTEX
  5
728
  8
0
  6
CONTINUOUS
 62
     7
 10
764.0813753747
 20
414.7354134221
 30
0.0
  0
VERTEX
  5
729
  8
0
  6
CONTINUOUS
 62
     7
 10
763.5421042137
 20
415.3033786316
 30
0.0
  0
VERTEX
  5
72A
  8
0
  6
CONTINUOUS
 62
     7
 10
763.0837854736
 20
415.881789555
 30
0.0
  0
VERTEX
  5
72B
  8
0
  6
CONTINUOUS
 62
     7
 10
762.6686558865
 20
416.5374257464
 30
0.0
  0
VERTEX
  5
72C
  8
0
  6
CONTINUOUS
 62
     7
 10
762.354185506
 20
417.2021069426
 30
0.0
  0
VERTEX
  5
72D
  8
0
  6
CONTINUOUS
 62
     7
 10
762.1424325548
 20
417.8695895571
 30
0.0
  0
VERTEX
  5
72E
  8
0
  6
CONTINUOUS
 62
     7
 10
762.0354608439
 20
418.5336523552
 30
0.0
  0
VERTEX
  5
72F
  8
0
  6
CONTINUOUS
 62
     7
 10
762.0254025601
 20
418.695225646
 30
0.0
  0
SEQEND
  5
B71
  8
0
  6
CONTINUOUS
 62
     7
  0
POLYLINE
  5
202
  8
0
  6
CONTINUOUS
 62
     7
 66
     1
 10
0.0
 20
0.0
 30
0.0
  0
VERTEX
  5
730
  8
0
  6
CONTINUOUS
 62
     7
 10
732.6928169273
 20
341.7277552981
 30
0.0
  0
VERTEX
  5
731
  8
0
  6
CONTINUOUS
 62
     7
 10
732.6928762584
 20
341.0045311649
 30
0.0
  0
VERTEX
  5
732
  8
0
  6
CONTINUOUS
 62
     7
 10
732.6929935281
 20
340.2818620999
 30
0.0
  0
VERTEX
  5
733
  8
0
  6
CONTINUOUS
 62
     7
 10
732.6930951575
 20
339.5696238477
 30
0.0
  0
VERTEX
  5
734
  8
0
  6
CONTINUOUS
 62
     7
 10
732.6931346509
 20
338.8778262634
 30
0.0
  0
VERTEX
  5
735
  8
0
  6
CONTINUOUS
 62
     7
 10
732.6930958934
 20
338.2161402006
 30
0.0
  0
VERTEX
  5
736
  8
0
  6
CONTINUOUS
 62
     7
 10
732.6929944552
 20
337.5934765536
 30
0.0
  0
VERTEX
  5
737
  8
0
  6
CONTINUOUS
 62
     7
 10
732.6928767192
 20
337.0175354976
 30
0.0
  0
VERTEX
  5
738
  8
0
  6
CONTINUOUS
 62
     7
 10
732.6928169273
 20
336.4945270915
 30
0.0
  0
VERTEX
  5
739
  8
0
  6
CONTINUOUS
 62
     7
 10
732.6928169589
 20
336.4939608473
 30
0.0
  0
VERTEX
  5
73A
  8
0
  6
CONTINUOUS
 62
     7
 10
732.692817028
 20
336.4935063619
 30
0.0
  0
VERTEX
  5
73B
  8
0
  6
CONTINUOUS
 62
     7
 10
732.692817248
 20
336.4926644463
 30
0.0
  0
VERTEX
  5
73C
  8
0
  6
CONTINUOUS
 62
     7
 10
732.6928179488
 20
336.4910737474
 30
0.0
  0
VERTEX
  5
73D
  8
0
  6
CONTINUOUS
 62
     7
 10
732.6928201768
 20
336.4879556794
 30
0.0
  0
VERTEX
  5
73E
  8
0
  6
CONTINUOUS
 62
     7
 10
732.6928272417
 20
336.4815034766
 30
0.0
  0
VERTEX
  5
73F
  8
0
  6
CONTINUOUS
 62
     7
 10
732.692849508
 20
336.467187186
 30
0.0
  0
VERTEX
  5
740
  8
0
  6
CONTINUOUS
 62
     7
 10
732.6929186614
 20
336.4327841301
 30
0.0
  0
VERTEX
  5
741
  8
0
  6
CONTINUOUS
 62
     7
 10
732.6931251481
 20
336.3439471323
 30
0.0
  0
VERTEX
  5
742
  8
0
  6
CONTINUOUS
 62
     7
 10
732.6933791287
 20
336.2364501555
 30
0.0
  0
VERTEX
  5
743
  8
0
  6
CONTINUOUS
 62
     7
 10
732.6936713311
 20
336.1046084065
 30
0.0
  0
VERTEX
  5
744
  8
0
  6
CONTINUOUS
 62
     7
 10
732.6940259098
 20
335.9198936124
 30
0.0
  0
VERTEX
  5
745
  8
0
  6
CONTINUOUS
 62
     7
 10
732.6943344371
 20
335.7109048266
 30
0.0
  0
VERTEX
  5
746
  8
0
  6
CONTINUOUS
 62
     7
 10
732.6945422028
 20
335.4853906531
 30
0.0
  0
VERTEX
  5
747
  8
0
  6
CONTINUOUS
 62
     7
 10
732.6945991007
 20
335.2210291524
 30
0.0
  0
VERTEX
  5
748
  8
0
  6
CONTINUOUS
 62
     7
 10
732.6944311206
 20
334.9636302192
 30
0.0
  0
VERTEX
  5
749
  8
0
  6
CONTINUOUS
 62
     7
 10
732.6940507375
 20
334.7313844461
 30
0.0
  0
VERTEX
  5
74A
  8
0
  6
CONTINUOUS
 62
     7
 10
732.6935366964
 20
334.5435329575
 30
0.0
  0
VERTEX
  5
74B
  8
0
  6
CONTINUOUS
 62
     7
 10
732.6930460212
 20
334.4189406235
 30
0.0
  0
VERTEX
  5
74C
  8
0
  6
CONTINUOUS
 62
     7
 10
732.6928169273
 20
334.3743116457
 30
0.0
  0
SEQEND
  5
B70
  8
0
  6
CONTINUOUS
 62
     7
  0
ARC
  5
203
  8
0
  6
CONTINUOUS
 62
     7
 10
726.3338801381
 20
295.3570644313
 30
0.0
 40
46.80466908929192
 50
82.1915802746
 51
87.1864579357
  0
ARC
  5
204
  8
0
  6
CONTINUOUS
 62
     7
 10
739.0517537165
 20
295.3570644313
 30
0.0
 40
46.80466908920002
 50
92.8135420643
 51
97.8084197254
  0
ARC
  5
205
  8
0
  6
CONTINUOUS
 62
     7
 10
784.082850051
 20
390.1342427789
 30
0.0
 40
102.5826813957966
 50
168.4423463664
 51
170.3726880183
  0
LINE
  5
206
  8
0
  6
CONTINUOUS
 62
     7
 10
678.314411714
 20
401.3743244905
 30
0.0
 11
684.1658779227
 21
401.3743244905
 31
0.0
  0
ARC
  5
207
  8
0
  6
CONTINUOUS
 62
     7
 10
667.3188867429
 20
401.6394788347
 30
0.0
 40
10.99872157187555
 50
358.6185942879
 51
19.8507360702
  0
ARC
  5
208
  8
0
  6
CONTINUOUS
 62
     7
 10
685.7822189618
 20
404.0589781454
 30
0.0
 40
8.63139187258072
 50
122.4992758884
 51
159.4269264483
  0
LINE
  5
209
  8
0
  6
CONTINUOUS
 62
     7
 10
681.7730569087
 20
411.1172624726
 30
0.0
 11
681.1446674906
 21
411.3386788268
 31
0.0
  0
ARC
  5
20A
  8
0
  6
CONTINUOUS
 62
     7
 10
720.7047575058
 20
429.4693912987
 30
0.0
 40
43.04042220786813
 50
177.4633063574
 51
205.2388589567
  0
LINE
  5
20B
  8
0
  6
CONTINUOUS
 62
     7
 10
694.2114175104
 20
431.3743256826
 30
0.0
 11
677.7065113925
 21
431.3743256826
 31
0.0
  0
POLYLINE
  5
20C
  8
0
  6
CONTINUOUS
 62
     7
 66
     1
 10
0.0
 20
0.0
 30
0.0
  0
VERTEX
  5
74D
  8
0
  6
CONTINUOUS
 62
     7
 10
692.9691226028
 20
420.4209142227
 30
0.0
  0
VERTEX
  5
74E
  8
0
  6
CONTINUOUS
 62
     7
 10
693.2168618583
 20
422.4365793962
 30
0.0
  0
VERTEX
  5
74F
  8
0
  6
CONTINUOUS
 62
     7
 10
693.4649326645
 20
424.5397516389
 30
0.0
  0
VERTEX
  5
750
  8
0
  6
CONTINUOUS
 62
     7
 10
693.7133610987
 20
426.7304384012
 30
0.0
  0
VERTEX
  5
751
  8
0
  6
CONTINUOUS
 62
     7
 10
693.9621806883
 20
429.0086173315
 30
0.0
  0
VERTEX
  5
752
  8
0
  6
CONTINUOUS
 62
     7
 10
694.2114175104
 20
431.3743256826
 30
0.0
  0
SEQEND
  5
B6F
  8
0
  6
CONTINUOUS
 62
     7
  0
POLYLINE
  5
20D
  8
0
  6
CONTINUOUS
 62
     7
 66
     1
 10
0.0
 20
0.0
 30
0.0
  0
VERTEX
  5
753
  8
0
  6
CONTINUOUS
 62
     7
 10
683.5801766061
 20
410.6870808501
 30
0.0
  0
VERTEX
  5
754
  8
0
  6
CONTINUOUS
 62
     7
 10
683.8199623667
 20
411.8062176604
 30
0.0
  0
VERTEX
  5
755
  8
0
  6
CONTINUOUS
 62
     7
 10
684.0598002814
 20
412.8374748726
 30
0.0
  0
VERTEX
  5
756
  8
0
  6
CONTINUOUS
 62
     7
 10
684.2996791743
 20
413.7808375854
 30
0.0
  0
VERTEX
  5
757
  8
0
  6
CONTINUOUS
 62
     7
 10
684.5395841442
 20
414.6363207001
 30
0.0
  0
VERTEX
  5
758
  8
0
  6
CONTINUOUS
 62
     7
 10
684.7795077406
 20
415.4039167661
 30
0.0
  0
VERTEX
  5
759
  8
0
  6
CONTINUOUS
 62
     7
 10
685.0034461163
 20
416.0410382647
 30
0.0
  0
VERTEX
  5
75A
  8
0
  6
CONTINUOUS
 62
     7
 10
685.2273807668
 20
416.6016124983
 30
0.0
  0
VERTEX
  5
75B
  8
0
  6
CONTINUOUS
 62
     7
 10
685.4513079666
 20
417.085617115
 30
0.0
  0
VERTEX
  5
75C
  8
0
  6
CONTINUOUS
 62
     7
 10
685.5990902327
 20
417.3631214399
 30
0.0
  0
VERTEX
  5
75D
  8
0
  6
CONTINUOUS
 62
     7
 10
685.7468650483
 20
417.6072844166
 30
0.0
  0
VERTEX
  5
75E
  8
0
  6
CONTINUOUS
 62
     7
 10
685.7855633639
 20
417.6657193203
 30
0.0
  0
VERTEX
  5
75F
  8
0
  6
CONTINUOUS
 62
     7
 10
685.8242654048
 20
417.7218668956
 30
0.0
  0
VERTEX
  5
760
  8
0
  6
CONTINUOUS
 62
     7
 10
685.8629637204
 20
417.7757271428
 30
0.0
  0
VERTEX
  5
761
  8
0
  6
CONTINUOUS
 62
     7
 10
685.9016620361
 20
417.8273000617
 30
0.0
  0
VERTEX
  5
762
  8
0
  6
CONTINUOUS
 62
     7
 10
685.9403566264
 20
417.8765856523
 30
0.0
  0
VERTEX
  5
763
  8
0
  6
CONTINUOUS
 62
     7
 10
685.9790512167
 20
417.9235764641
 30
0.0
  0
VERTEX
  5
764
  8
0
  6
CONTINUOUS
 62
     7
 10
686.1478776478
 20
418.1015782852
 30
0.0
  0
VERTEX
  5
765
  8
0
  6
CONTINUOUS
 62
     7
 10
686.3313854479
 20
418.2443612117
 30
0.0
  0
VERTEX
  5
766
  8
0
  6
CONTINUOUS
 62
     7
 10
686.5451798581
 20
418.342045774
 30
0.0
  0
VERTEX
  5
767
  8
0
  6
CONTINUOUS
 62
     7
 10
686.775305941
 20
418.3751710553
 30
0.0
  0
VERTEX
  5
768
  8
0
  6
CONTINUOUS
 62
     7
 10
687.0161645852
 20
418.3792465229
 30
0.0
  0
VERTEX
  5
769
  8
0
  6
CONTINUOUS
 62
     7
 10
687.2572281205
 20
418.3895208735
 30
0.0
  0
VERTEX
  5
76A
  8
0
  6
CONTINUOUS
 62
     7
 10
687.4985002719
 20
418.406016459
 30
0.0
  0
VERTEX
  5
76B
  8
0
  6
CONTINUOUS
 62
     7
 10
688.2422917329
 20
418.4957587022
 30
0.0
  0
VERTEX
  5
76C
  8
0
  6
CONTINUOUS
 62
     7
 10
688.6819542192
 20
418.5763590831
 30
0.0
  0
VERTEX
  5
76D
  8
0
  6
CONTINUOUS
 62
     7
 10
689.1221456968
 20
418.6774858136
 30
0.0
  0
VERTEX
  5
76E
  8
0
  6
CONTINUOUS
 62
     7
 10
689.5628624402
 20
418.7991239924
 30
0.0
  0
VERTEX
  5
76F
  8
0
  6
CONTINUOUS
 62
     7
 10
690.4117108129
 20
419.0907024641
 30
0.0
  0
VERTEX
  5
770
  8
0
  6
CONTINUOUS
 62
     7
 10
691.2623622261
 20
419.4581949014
 30
0.0
  0
VERTEX
  5
771
  8
0
  6
CONTINUOUS
 62
     7
 10
692.1148278557
 20
419.9016013045
 30
0.0
  0
VERTEX
  5
772
  8
0
  6
CONTINUOUS
 62
     7
 10
692.9691226028
 20
420.4209142227
 30
0.0
  0
SEQEND
  5
B6E
  8
0
  6
CONTINUOUS
 62
     7
  0
POLYLINE
  5
20E
  8
0
  6
CONTINUOUS
 62
     7
 66
     1
 10
0.0
 20
0.0
 30
0.0
  0
VERTEX
  5
773
  8
0
  6
CONTINUOUS
 62
     7
 10
772.4165112518
 20
420.4209142227
 30
0.0
  0
VERTEX
  5
774
  8
0
  6
CONTINUOUS
 62
     7
 10
772.1687719964
 20
422.4365793962
 30
0.0
  0
VERTEX
  5
775
  8
0
  6
CONTINUOUS
 62
     7
 10
771.9207011901
 20
424.5397516389
 30
0.0
  0
VERTEX
  5
776
  8
0
  6
CONTINUOUS
 62
     7
 10
771.672272756
 20
426.7304384012
 30
0.0
  0
VERTEX
  5
777
  8
0
  6
CONTINUOUS
 62
     7
 10
771.4234531664
 20
429.0086173315
 30
0.0
  0
VERTEX
  5
778
  8
0
  6
CONTINUOUS
 62
     7
 10
771.1742163442
 20
431.3743256826
 30
0.0
  0
SEQEND
  5
B6D
  8
0
  6
CONTINUOUS
 62
     7
  0
LINE
  5
20F
  8
0
  6
CONTINUOUS
 62
     7
 10
771.1742163442
 20
431.3743256826
 30
0.0
 11
787.6791224622
 21
431.3743256826
 31
0.0
  0
ARC
  5
210
  8
0
  6
CONTINUOUS
 62
     7
 10
744.6808763488
 20
429.4693912987
 30
0.0
 40
43.04042220786813
 50
334.7611410433
 51
2.5366936426
  0
LINE
  5
211
  8
0
  6
CONTINUOUS
 62
     7
 10
783.6125769459
 20
411.1172624726
 30
0.0
 11
784.240966364
 21
411.3386788268
 31
0.0
  0
ARC
  5
212
  8
0
  6
CONTINUOUS
 62
     7
 10
779.6034148928
 20
404.0589781454
 30
0.0
 40
8.63139187258072
 50
20.5730735517
 51
57.5007241116
  0
ARC
  5
213
  8
0
  6
CONTINUOUS
 62
     7
 10
798.0667471117
 20
401.6394788347
 30
0.0
 40
10.99872157187567
 50
160.1492639298
 51
181.3814057121
  0
LINE
  5
214
  8
0
  6
CONTINUOUS
 62
     7
 10
787.0712221407
 20
401.3743244905
 30
0.0
 11
781.219755932
 21
401.3743244905
 31
0.0
  0
ARC
  5
215
  8
0
  6
CONTINUOUS
 62
     7
 10
681.3027838037
 20
390.1342427789
 30
0.0
 40
102.5826813957966
 50
9.6273119817
 51
11.5576536336
  0
POLYLINE
  5
216
  8
0
  6
CONTINUOUS
 62
     7
 66
     1
 10
0.0
 20
0.0
 30
0.0
  0
VERTEX
  5
779
  8
0
  6
CONTINUOUS
 62
     7
 10
781.8054572486
 20
410.6870808501
 30
0.0
  0
VERTEX
  5
77A
  8
0
  6
CONTINUOUS
 62
     7
 10
781.5656714879
 20
411.8062176604
 30
0.0
  0
VERTEX
  5
77B
  8
0
  6
CONTINUOUS
 62
     7
 10
781.3258335732
 20
412.8374748726
 30
0.0
  0
VERTEX
  5
77C
  8
0
  6
CONTINUOUS
 62
     7
 10
781.0859546803
 20
413.7808375854
 30
0.0
  0
VERTEX
  5
77D
  8
0
  6
CONTINUOUS
 62
     7
 10
780.8460497104
 20
414.6363207001
 30
0.0
  0
VERTEX
  5
77E
  8
0
  6
CONTINUOUS
 62
     7
 10
780.606126114
 20
415.4039167661
 30
0.0
  0
VERTEX
  5
77F
  8
0
  6
CONTINUOUS
 62
     7
 10
780.3821877383
 20
416.0410382647
 30
0.0
  0
VERTEX
  5
780
  8
0
  6
CONTINUOUS
 62
     7
 10
780.1582530879
 20
416.6016124983
 30
0.0
  0
VERTEX
  5
781
  8
0
  6
CONTINUOUS
 62
     7
 10
779.934325888
 20
417.085617115
 30
0.0
  0
VERTEX
  5
782
  8
0
  6
CONTINUOUS
 62
     7
 10
779.7865436219
 20
417.3631214399
 30
0.0
  0
VERTEX
  5
783
  8
0
  6
CONTINUOUS
 62
     7
 10
779.6387688063
 20
417.6072844166
 30
0.0
  0
VERTEX
  5
784
  8
0
  6
CONTINUOUS
 62
     7
 10
779.6000704907
 20
417.6657193203
 30
0.0
  0
VERTEX
  5
785
  8
0
  6
CONTINUOUS
 62
     7
 10
779.5613684498
 20
417.7218668956
 30
0.0
  0
VERTEX
  5
786
  8
0
  6
CONTINUOUS
 62
     7
 10
779.5226701342
 20
417.7757271428
 30
0.0
  0
VERTEX
  5
787
  8
0
  6
CONTINUOUS
 62
     7
 10
779.4839718186
 20
417.8273000617
 30
0.0
  0
VERTEX
  5
788
  8
0
  6
CONTINUOUS
 62
     7
 10
779.4452772282
 20
417.8765856523
 30
0.0
  0
VERTEX
  5
789
  8
0
  6
CONTINUOUS
 62
     7
 10
779.4065826379
 20
417.9235764641
 30
0.0
  0
VERTEX
  5
78A
  8
0
  6
CONTINUOUS
 62
     7
 10
779.2377562069
 20
418.1015782852
 30
0.0
  0
VERTEX
  5
78B
  8
0
  6
CONTINUOUS
 62
     7
 10
779.0542484068
 20
418.2443612117
 30
0.0
  0
VERTEX
  5
78C
  8
0
  6
CONTINUOUS
 62
     7
 10
778.8404539965
 20
418.342045774
 30
0.0
  0
VERTEX
  5
78D
  8
0
  6
CONTINUOUS
 62
     7
 10
778.6103279136
 20
418.3751710553
 30
0.0
  0
VERTEX
  5
78E
  8
0
  6
CONTINUOUS
 62
     7
 10
778.3694692694
 20
418.3792465229
 30
0.0
  0
VERTEX
  5
78F
  8
0
  6
CONTINUOUS
 62
     7
 10
778.1284057342
 20
418.3895208735
 30
0.0
  0
VERTEX
  5
790
  8
0
  6
CONTINUOUS
 62
     7
 10
777.8871335827
 20
418.406016459
 30
0.0
  0
VERTEX
  5
791
  8
0
  6
CONTINUOUS
 62
     7
 10
777.1433421217
 20
418.4957587022
 30
0.0
  0
VERTEX
  5
792
  8
0
  6
CONTINUOUS
 62
     7
 10
776.7036796354
 20
418.5763590831
 30
0.0
  0
VERTEX
  5
793
  8
0
  6
CONTINUOUS
 62
     7
 10
776.2634881579
 20
418.6774858136
 30
0.0
  0
VERTEX
  5
794
  8
0
  6
CONTINUOUS
 62
     7
 10
775.8227714144
 20
418.7991239924
 30
0.0
  0
VERTEX
  5
795
  8
0
  6
CONTINUOUS
 62
     7
 10
774.9739230417
 20
419.0907024641
 30
0.0
  0
VERTEX
  5
796
  8
0
  6
CONTINUOUS
 62
     7
 10
774.1232716285
 20
419.4581949014
 30
0.0
  0
VERTEX
  5
797
  8
0
  6
CONTINUOUS
 62
     7
 10
773.2708059989
 20
419.9016013045
 30
0.0
  0
VERTEX
  5
798
  8
0
  6
CONTINUOUS
 62
     7
 10
772.4165112518
 20
420.4209142227
 30
0.0
  0
SEQEND
  5
B6C
  8
0
  6
CONTINUOUS
 62
     7
  0
LINE
  5
217
  8
0
  6
CONTINUOUS
 62
     7
 10
703.6928177618
 20
431.3743256826
 30
0.0
 11
694.2114175104
 21
431.3743256826
 31
0.0
  0
POLYLINE
  5
218
  8
0
  6
CONTINUOUS
 62
     7
 66
     1
 10
0.0
 20
0.0
 30
0.0
  0
VERTEX
  5
799
  8
0
  6
CONTINUOUS
 62
     7
 10
703.436713367
 20
421.5988361139
 30
0.0
  0
VERTEX
  5
79A
  8
0
  6
CONTINUOUS
 62
     7
 10
703.4678214036
 20
422.7783151765
 30
0.0
  0
VERTEX
  5
79B
  8
0
  6
CONTINUOUS
 62
     7
 10
703.4849130355
 20
423.434286644
 30
0.0
  0
SEQEND
  5
B6B
  8
0
  6
CONTINUOUS
 62
     7
  0
LINE
  5
219
  8
0
  6
CONTINUOUS
 62
     7
 10
703.3602312945
 20
418.695225646
 30
0.0
 11
703.4368158125
 21
421.6027402181
 31
0.0
  0
LINE
  5
21A
  8
0
  6
CONTINUOUS
 62
     7
 10
692.9733582579
 20
409.4057747025
 30
0.0
 11
692.9691226028
 21
420.4209142227
 31
0.0
  0
LINE
  5
21B
  8
0
  6
CONTINUOUS
 62
     7
 10
762.0254025601
 20
418.695225646
 30
0.0
 11
761.9488180422
 21
421.6027402181
 31
0.0
  0
POLYLINE
  5
21C
  8
0
  6
CONTINUOUS
 62
     7
 66
     1
 10
0.0
 20
0.0
 30
0.0
  0
VERTEX
  5
79C
  8
0
  6
CONTINUOUS
 62
     7
 10
761.9489204876
 20
421.5988361139
 30
0.0
  0
VERTEX
  5
79D
  8
0
  6
CONTINUOUS
 62
     7
 10
761.917812451
 20
422.7783151765
 30
0.0
  0
VERTEX
  5
79E
  8
0
  6
CONTINUOUS
 62
     7
 10
761.9007208191
 20
423.434286644
 30
0.0
  0
SEQEND
  5
B6A
  8
0
  6
CONTINUOUS
 62
     7
  0
LINE
  5
21D
  8
0
  6
CONTINUOUS
 62
     7
 10
761.6928160929
 20
431.3743256826
 30
0.0
 11
771.1742163442
 21
431.3743256826
 31
0.0
  0
LINE
  5
21E
  8
0
  6
CONTINUOUS
 62
     7
 10
772.4122755967
 20
409.4057747025
 30
0.0
 11
772.4165112518
 21
420.4209142227
 31
0.0
  0
ARC
  5
21F
  8
0
  6
CONTINUOUS
 62
     7
 10
686.070757916
 20
406.1067609505
 30
0.0
 40
3.342326185624358
 50
80.7660053335
 51
159.266064616
  0
ARC
  5
220
  8
0
  6
CONTINUOUS
 62
     7
 10
779.3148759386
 20
406.1067609505
 30
0.0
 40
3.342326185624358
 50
20.733935384
 51
99.2339946665
  0
LINE
  5
221
  8
0
  6
CONTINUOUS
 62
     7
 10
686.6555527591
 20
391.3743191261
 30
0.0
 11
678.5163522505
 21
391.3743191261
 31
0.0
  0
LINE
  5
222
  8
0
  6
CONTINUOUS
 62
     7
 10
677.6633129262
 20
401.3743244905
 30
0.0
 11
678.1390175961
 21
401.3743244905
 31
0.0
  0
LINE
  5
223
  8
0
  6
CONTINUOUS
 62
     7
 10
684.8849036537
 20
401.3743244905
 30
0.0
 11
686.4425853633
 21
401.3743244905
 31
0.0
  0
LINE
  5
224
  8
0
  6
CONTINUOUS
 62
     7
 10
778.7300810956
 20
391.3743191261
 30
0.0
 11
786.8692816042
 21
391.3743191261
 31
0.0
  0
LINE
  5
225
  8
0
  6
CONTINUOUS
 62
     7
 10
787.7223209285
 20
401.3743244905
 30
0.0
 11
787.2466162585
 21
401.3743244905
 31
0.0
  0
LINE
  5
226
  8
0
  6
CONTINUOUS
 62
     7
 10
780.5007302009
 20
401.3743244905
 30
0.0
 11
778.9430484914
 21
401.3743244905
 31
0.0
  0
POLYLINE
  5
227
  8
0
  6
CONTINUOUS
 62
     7
 66
     1
 10
0.0
 20
0.0
 30
0.0
  0
VERTEX
  5
79F
  8
0
  6
CONTINUOUS
 62
     7
 10
680.2503519498
 20
390.8977948923
 30
0.0
  0
VERTEX
  5
7A0
  8
0
  6
CONTINUOUS
 62
     7
 10
680.1568695151
 20
390.8787512083
 30
0.0
  0
VERTEX
  5
7A1
  8
0
  6
CONTINUOUS
 62
     7
 10
680.1166177534
 20
390.846460392
 30
0.0
  0
VERTEX
  5
7A2
  8
0
  6
CONTINUOUS
 62
     7
 10
680.121091827
 20
390.8317305941
 30
0.0
  0
SEQEND
  5
B69
  8
0
  6
CONTINUOUS
 62
     7
  0
ARC
  5
228
  8
0
  6
CONTINUOUS
 62
     7
 10
692.828575624
 20
200.8379585918
 30
0.0
 40
190.4755970862188
 50
91.8144676423
 51
93.7863324957
  0
ARC
  5
229
  8
0
  6
CONTINUOUS
 62
     7
 10
772.5570582307
 20
200.8379585918
 30
0.0
 40
190.4755970862188
 50
86.2136675043
 51
88.1855323577
  0
POLYLINE
  5
22A
  8
0
  6
CONTINUOUS
 62
     7
 66
     1
 10
0.0
 20
0.0
 30
0.0
  0
VERTEX
  5
7A3
  8
0
  6
CONTINUOUS
 62
     7
 10
785.1352819048
 20
390.8977948923
 30
0.0
  0
VERTEX
  5
7A4
  8
0
  6
CONTINUOUS
 62
     7
 10
785.2287643396
 20
390.8787512083
 30
0.0
  0
VERTEX
  5
7A5
  8
0
  6
CONTINUOUS
 62
     7
 10
785.2690161012
 20
390.846460392
 30
0.0
  0
VERTEX
  5
7A6
  8
0
  6
CONTINUOUS
 62
     7
 10
785.2645420276
 20
390.8317305941
 30
0.0
  0
SEQEND
  5
B68
  8
0
  6
CONTINUOUS
 62
     7
  0
LINE
  5
22B
  8
0
  6
CONTINUOUS
 62
     7
 10
690.6928174936
 20
371.3743232984
 30
0.0
 11
687.3154655837
 21
371.3743232984
 31
0.0
  0
LINE
  5
22C
  8
0
  6
CONTINUOUS
 62
     7
 10
705.2468822144
 20
371.3743232984
 30
0.0
 11
690.6928174936
 21
371.3743232984
 31
0.0
  0
LINE
  5
22D
  8
0
  6
CONTINUOUS
 62
     7
 10
760.1387516402
 20
371.3743232984
 30
0.0
 11
774.6928163611
 21
371.3743232984
 31
0.0
  0
POLYLINE
  5
22E
  8
0
  6
CONTINUOUS
 62
     7
 66
     1
 10
0.0
 20
0.0
 30
0.0
  0
VERTEX
  5
7A7
  8
0
  6
CONTINUOUS
 62
     7
 10
760.1387516402
 20
371.3743232984
 30
0.0
  0
VERTEX
  5
7A8
  8
0
  6
CONTINUOUS
 62
     7
 10
757.1700268232
 20
371.3901632328
 30
0.0
  0
VERTEX
  5
7A9
  8
0
  6
CONTINUOUS
 62
     7
 10
754.1945908957
 20
371.4310147662
 30
0.0
  0
VERTEX
  5
7AA
  8
0
  6
CONTINUOUS
 62
     7
 10
751.2095269554
 20
371.4874082107
 30
0.0
  0
VERTEX
  5
7AB
  8
0
  6
CONTINUOUS
 62
     7
 10
748.2193602987
 20
371.5511926312
 30
0.0
  0
VERTEX
  5
7AC
  8
0
  6
CONTINUOUS
 62
     7
 10
744.3484428145
 20
371.6325455208
 30
0.0
  0
VERTEX
  5
7AD
  8
0
  6
CONTINUOUS
 62
     7
 10
740.4717790701
 20
371.7010908622
 30
0.0
  0
VERTEX
  5
7AE
  8
0
  6
CONTINUOUS
 62
     7
 10
736.5833315339
 20
371.7463084359
 30
0.0
  0
VERTEX
  5
7AF
  8
0
  6
CONTINUOUS
 62
     7
 10
732.6928169273
 20
371.7623346347
 30
0.0
  0
VERTEX
  5
7B0
  8
0
  6
CONTINUOUS
 62
     7
 10
729.6923388999
 20
371.7527978916
 30
0.0
  0
VERTEX
  5
7B1
  8
0
  6
CONTINUOUS
 62
     7
 10
726.6928168752
 20
371.7252158422
 30
0.0
  0
VERTEX
  5
7B2
  8
0
  6
CONTINUOUS
 62
     7
 10
723.6914454766
 20
371.6815628905
 30
0.0
  0
VERTEX
  5
7B3
  8
0
  6
CONTINUOUS
 62
     7
 10
720.692816823
 20
371.6257878441
 30
0.0
  0
VERTEX
  5
7B4
  8
0
  6
CONTINUOUS
 62
     7
 10
716.8222718679
 20
371.5436228413
 30
0.0
  0
VERTEX
  5
7B5
  8
0
  6
CONTINUOUS
 62
     7
 10
712.9592017077
 20
371.4631267686
 30
0.0
  0
VERTEX
  5
7B6
  8
0
  6
CONTINUOUS
 62
     7
 10
709.0976160758
 20
371.4000203509
 30
0.0
  0
VERTEX
  5
7B7
  8
0
  6
CONTINUOUS
 62
     7
 10
705.2468822144
 20
371.3743232984
 30
0.0
  0
SEQEND
  5
B67
  8
0
  6
CONTINUOUS
 62
     7
  0
LINE
  5
22F
  8
0
  6
CONTINUOUS
 62
     7
 10
774.6928163611
 20
371.3743232984
 30
0.0
 11
778.070168271
 21
371.3743232984
 31
0.0
  0
LINE
  5
230
  8
0
  6
CONTINUOUS
 62
     7
 10
681.1753191792
 20
411.3826372523
 30
0.0
 11
681.7730569087
 21
411.1172624726
 31
0.0
  0
POLYLINE
  5
231
  8
0
  6
CONTINUOUS
 62
     7
 66
     1
 10
0.0
 20
0.0
 30
0.0
  0
VERTEX
  5
7B8
  8
0
  6
CONTINUOUS
 62
     7
 10
681.1753191792
 20
411.3826372523
 30
0.0
  0
VERTEX
  5
7B9
  8
0
  6
CONTINUOUS
 62
     7
 10
680.535996034
 20
410.9838523764
 30
0.0
  0
VERTEX
  5
7BA
  8
0
  6
CONTINUOUS
 62
     7
 10
679.9673528217
 20
410.5979197521
 30
0.0
  0
VERTEX
  5
7BB
  8
0
  6
CONTINUOUS
 62
     7
 10
679.6173804246
 20
410.3530564208
 30
0.0
  0
VERTEX
  5
7BC
  8
0
  6
CONTINUOUS
 62
     7
 10
679.3015279614
 20
410.1383530397
 30
0.0
  0
VERTEX
  5
7BD
  8
0
  6
CONTINUOUS
 62
     7
 10
679.0223286294
 20
409.9681743283
 30
0.0
  0
VERTEX
  5
7BE
  8
0
  6
CONTINUOUS
 62
     7
 10
678.8260542594
 20
409.8735668559
 30
0.0
  0
VERTEX
  5
7BF
  8
0
  6
CONTINUOUS
 62
     7
 10
678.6563784622
 20
409.823610713
 30
0.0
  0
VERTEX
  5
7C0
  8
0
  6
CONTINUOUS
 62
     7
 10
678.5108425461
 20
409.8239981432
 30
0.0
  0
VERTEX
  5
7C1
  8
0
  6
CONTINUOUS
 62
     7
 10
678.3967741572
 20
409.8763682742
 30
0.0
  0
VERTEX
  5
7C2
  8
0
  6
CONTINUOUS
 62
     7
 10
678.3029601716
 20
410.0005172987
 30
0.0
  0
VERTEX
  5
7C3
  8
0
  6
CONTINUOUS
 62
     7
 10
678.2535292946
 20
410.1788022418
 30
0.0
  0
VERTEX
  5
7C4
  8
0
  6
CONTINUOUS
 62
     7
 10
678.2506049417
 20
410.2909558315
 30
0.0
  0
SEQEND
  5
B66
  8
0
  6
CONTINUOUS
 62
     7
  0
POLYLINE
  5
232
  8
0
  6
CONTINUOUS
 62
     7
 66
     1
 10
0.0
 20
0.0
 30
0.0
  0
VERTEX
  5
7C5
  8
0
  6
CONTINUOUS
 62
     7
 10
784.2103146755
 20
411.3826372523
 30
0.0
  0
VERTEX
  5
7C6
  8
0
  6
CONTINUOUS
 62
     7
 10
784.8496378206
 20
410.9838523764
 30
0.0
  0
VERTEX
  5
7C7
  8
0
  6
CONTINUOUS
 62
     7
 10
785.4182810329
 20
410.5979197521
 30
0.0
  0
VERTEX
  5
7C8
  8
0
  6
CONTINUOUS
 62
     7
 10
785.76825343
 20
410.3530564208
 30
0.0
  0
VERTEX
  5
7C9
  8
0
  6
CONTINUOUS
 62
     7
 10
786.0841058933
 20
410.1383530397
 30
0.0
  0
VERTEX
  5
7CA
  8
0
  6
CONTINUOUS
 62
     7
 10
786.3633052253
 20
409.9681743283
 30
0.0
  0
VERTEX
  5
7CB
  8
0
  6
CONTINUOUS
 62
     7
 10
786.5595795952
 20
409.8735668559
 30
0.0
  0
VERTEX
  5
7CC
  8
0
  6
CONTINUOUS
 62
     7
 10
786.7292553924
 20
409.823610713
 30
0.0
  0
VERTEX
  5
7CD
  8
0
  6
CONTINUOUS
 62
     7
 10
786.8747913085
 20
409.8239981432
 30
0.0
  0
VERTEX
  5
7CE
  8
0
  6
CONTINUOUS
 62
     7
 10
786.9888596975
 20
409.8763682742
 30
0.0
  0
VERTEX
  5
7CF
  8
0
  6
CONTINUOUS
 62
     7
 10
787.0826736831
 20
410.0005172987
 30
0.0
  0
VERTEX
  5
7D0
  8
0
  6
CONTINUOUS
 62
     7
 10
787.13210456
 20
410.1788022418
 30
0.0
  0
VERTEX
  5
7D1
  8
0
  6
CONTINUOUS
 62
     7
 10
787.1350289129
 20
410.2909558315
 30
0.0
  0
SEQEND
  5
B65
  8
0
  6
CONTINUOUS
 62
     7
  0
LINE
  5
233
  8
0
  6
CONTINUOUS
 62
     7
 10
784.2103146755
 20
411.3826372523
 30
0.0
 11
783.6125769459
 21
411.1172624726
 31
0.0
  0
LINE
  5
234
  8
0
  6
CONTINUOUS
 62
     7
 10
681.1446637653
 20
411.3386788268
 30
0.0
 11
681.1753191792
 21
411.3826372523
 31
0.0
  0
LINE
  5
235
  8
0
  6
CONTINUOUS
 62
     7
 10
784.2409700893
 20
411.3386788268
 30
0.0
 11
784.2103146755
 21
411.3826372523
 31
0.0
  0
ARC
  5
236
  8
0
  6
CONTINUOUS
 62
     7
 10
703.1250399528
 20
279.4734676867
 30
0.0
 40
3.000000000000029
 50
345.0
 51
35.8966345502
  0
ARC
  5
237
  8
0
  6
CONTINUOUS
 62
     7
 10
762.2605939018
 20
279.4734676867
 30
0.0
 40
3.000000000000029
 50
144.1033654498
 51
195.0
  0
LINE
  5
238
  8
0
  6
CONTINUOUS
 62
     7
 10
762.590594291
 20
266.6507803697
 30
0.0
 11
759.3628165119
 21
278.6970113266
 31
0.0
  0
ARC
  5
239
  8
0
  6
CONTINUOUS
 62
     7
 10
759.6928169273
 20
265.8743219871
 30
0.0
 40
3.0
 50
270.0
 51
15.0
  0
LINE
  5
23A
  8
0
  6
CONTINUOUS
 62
     7
 10
759.6928176277
 20
262.874323209
 30
0.0
 11
705.692816227
 21
262.874323209
 31
0.0
  0
ARC
  5
23B
  8
0
  6
CONTINUOUS
 62
     7
 10
705.6928169273
 20
265.8743219871
 30
0.0
 40
3.0
 50
165.0
 51
270.0
  0
LINE
  5
23C
  8
0
  6
CONTINUOUS
 62
     7
 10
702.7950395637
 20
266.6507803697
 30
0.0
 11
706.0228173428
 21
278.6970113266
 31
0.0
  0
LINE
  5
23D
  8
0
  6
CONTINUOUS
 62
     7
 10
673.6928165697
 20
405.3743251462
 30
0.0
 11
677.6640728854
 21
405.3743251462
 31
0.0
  0
LINE
  5
23E
  8
0
  6
CONTINUOUS
 62
     7
 10
678.1390175961
 20
401.3743244905
 30
0.0
 11
678.314411714
 21
401.3743244905
 31
0.0
  0
LINE
  5
23F
  8
0
  6
CONTINUOUS
 62
     7
 10
791.6928172849
 20
405.3743251462
 30
0.0
 11
787.7215609692
 21
405.3743251462
 31
0.0
  0
LINE
  5
240
  8
0
  6
CONTINUOUS
 62
     7
 10
787.2466162585
 20
401.3743244905
 30
0.0
 11
787.0712221407
 21
401.3743244905
 31
0.0
  0
ARC
  5
241
  8
0
  6
CONTINUOUS
 62
     7
 10
734.2584964597
 20
497.4813436899
 30
0.0
 40
59.32543584549902
 50
254.625648822
 51
268.4877102917
  0
ARC
  5
242
  8
0
  6
CONTINUOUS
 62
     7
 10
731.127137395
 20
497.4813436899
 30
0.0
 40
59.3254358454988
 50
271.5122897083
 51
285.374351178
  0
LINE
  5
243
  8
0
  6
CONTINUOUS
 62
     7
 10
678.5163522505
 20
391.3743191261
 30
0.0
 11
674.5677047216
 21
391.3743191261
 31
0.0
  0
LINE
  5
244
  8
0
  6
CONTINUOUS
 62
     7
 10
673.6928165697
 20
401.3743244905
 30
0.0
 11
677.6633129262
 21
401.3743244905
 31
0.0
  0
LINE
  5
245
  8
0
  6
CONTINUOUS
 62
     7
 10
786.8692816042
 20
391.3743191261
 30
0.0
 11
790.8179291331
 21
391.3743191261
 31
0.0
  0
LINE
  5
246
  8
0
  6
CONTINUOUS
 62
     7
 10
791.6928172849
 20
401.3743244905
 30
0.0
 11
787.7223209285
 21
401.3743244905
 31
0.0
  0
ARC
  5
247
  8
0
  6
CONTINUOUS
 62
     7
 10
713.8371035508
 20
423.1272383391
 30
0.0
 40
17.78207325481424
 50
74.6981425096
 51
101.7387500324
  0
ARC
  5
248
  8
0
  6
CONTINUOUS
 62
     7
 10
751.5485303038
 20
423.1272383391
 30
0.0
 40
17.78207325481424
 50
78.2612499676
 51
105.3018574904
  0
LINE
  5
249
  8
0
  6
CONTINUOUS
 62
     7
 10
732.6928169273
 20
453.3743255634
 30
0.0
 11
763.6928164207
 21
453.3743255634
 31
0.0
  0
LINE
  5
24A
  8
0
  6
CONTINUOUS
 62
     7
 10
701.692817434
 20
453.3743255634
 30
0.0
 11
732.6928169273
 21
453.3743255634
 31
0.0
  0
POLYLINE
  5
24B
  8
0
  6
CONTINUOUS
 62
     7
 66
     1
 10
0.0
 20
0.0
 30
0.0
  0
VERTEX
  5
7D2
  8
0
  6
CONTINUOUS
 62
     7
 10
764.1152382635
 20
437.2424476642
 30
0.0
  0
VERTEX
  5
7D3
  8
0
  6
CONTINUOUS
 62
     7
 10
764.1152457141
 20
437.2424476642
 30
0.0
  0
VERTEX
  5
7D4
  8
0
  6
CONTINUOUS
 62
     7
 10
764.0721813582
 20
437.2637414236
 30
0.0
  0
VERTEX
  5
7D5
  8
0
  6
CONTINUOUS
 62
     7
 10
763.94362159
 20
437.3266839285
 30
0.0
  0
VERTEX
  5
7D6
  8
0
  6
CONTINUOUS
 62
     7
 10
763.7304828309
 20
437.4298148651
 30
0.0
  0
VERTEX
  5
7D7
  8
0
  6
CONTINUOUS
 62
     7
 10
763.4227254235
 20
437.5764869947
 30
0.0
  0
VERTEX
  5
7D8
  8
0
  6
CONTINUOUS
 62
     7
 10
763.0273529135
 20
437.7606355447
 30
0.0
  0
VERTEX
  5
7D9
  8
0
  6
CONTINUOUS
 62
     7
 10
762.5469115369
 20
437.9781030912
 30
0.0
  0
VERTEX
  5
7DA
  8
0
  6
CONTINUOUS
 62
     7
 10
762.001666873
 20
438.2168941993
 30
0.0
  0
VERTEX
  5
7DB
  8
0
  6
CONTINUOUS
 62
     7
 10
761.3797762238
 20
438.4789162178
 30
0.0
  0
VERTEX
  5
7DC
  8
0
  6
CONTINUOUS
 62
     7
 10
760.6841397278
 20
438.7592666645
 30
0.0
  0
VERTEX
  5
7DD
  8
0
  6
CONTINUOUS
 62
     7
 10
759.8960471146
 20
439.061044981
 30
0.0
  0
VERTEX
  5
7DE
  8
0
  6
CONTINUOUS
 62
     7
 10
759.0337504439
 20
439.372389843
 30
0.0
  0
VERTEX
  5
7DF
  8
0
  6
CONTINUOUS
 62
     7
 10
758.1005391471
 20
439.6876686115
 30
0.0
  0
VERTEX
  5
7E0
  8
0
  6
CONTINUOUS
 62
     7
 10
757.4169185751
 20
439.9045997162
 30
0.0
  0
VERTEX
  5
7E1
  8
0
  6
CONTINUOUS
 62
     7
 10
756.7010463022
 20
440.119236042
 30
0.0
  0
VERTEX
  5
7E2
  8
0
  6
CONTINUOUS
 62
     7
 10
755.9497223042
 20
440.3308921356
 30
0.0
  0
VERTEX
  5
7E3
  8
0
  6
CONTINUOUS
 62
     7
 10
755.1672623299
 20
440.5366771717
 30
0.0
  0
SEQEND
  5
B64
  8
0
  6
CONTINUOUS
 62
     7
  0
POLYLINE
  5
24C
  8
0
  6
CONTINUOUS
 62
     7
 66
     1
 10
0.0
 20
0.0
 30
0.0
  0
VERTEX
  5
7E4
  8
0
  6
CONTINUOUS
 62
     7
 10
701.2703955911
 20
437.2424476642
 30
0.0
  0
VERTEX
  5
7E5
  8
0
  6
CONTINUOUS
 62
     7
 10
701.2703881406
 20
437.2424476642
 30
0.0
  0
VERTEX
  5
7E6
  8
0
  6
CONTINUOUS
 62
     7
 10
701.3134524964
 20
437.2637414236
 30
0.0
  0
VERTEX
  5
7E7
  8
0
  6
CONTINUOUS
 62
     7
 10
701.4420122646
 20
437.3266839285
 30
0.0
  0
VERTEX
  5
7E8
  8
0
  6
CONTINUOUS
 62
     7
 10
701.6551510238
 20
437.4298148651
 30
0.0
  0
VERTEX
  5
7E9
  8
0
  6
CONTINUOUS
 62
     7
 10
701.9629084312
 20
437.5764869947
 30
0.0
  0
VERTEX
  5
7EA
  8
0
  6
CONTINUOUS
 62
     7
 10
702.3582809411
 20
437.7606355447
 30
0.0
  0
VERTEX
  5
7EB
  8
0
  6
CONTINUOUS
 62
     7
 10
702.8387223177
 20
437.9781030912
 30
0.0
  0
VERTEX
  5
7EC
  8
0
  6
CONTINUOUS
 62
     7
 10
703.3839669817
 20
438.2168941993
 30
0.0
  0
VERTEX
  5
7ED
  8
0
  6
CONTINUOUS
 62
     7
 10
704.0058576309
 20
438.4789162178
 30
0.0
  0
VERTEX
  5
7EE
  8
0
  6
CONTINUOUS
 62
     7
 10
704.7014941268
 20
438.7592666645
 30
0.0
  0
VERTEX
  5
7EF
  8
0
  6
CONTINUOUS
 62
     7
 10
705.48958674
 20
439.061044981
 30
0.0
  0
VERTEX
  5
7F0
  8
0
  6
CONTINUOUS
 62
     7
 10
706.3518834107
 20
439.372389843
 30
0.0
  0
VERTEX
  5
7F1
  8
0
  6
CONTINUOUS
 62
     7
 10
707.2850947075
 20
439.6876686115
 30
0.0
  0
VERTEX
  5
7F2
  8
0
  6
CONTINUOUS
 62
     7
 10
707.9687152796
 20
439.9045997162
 30
0.0
  0
VERTEX
  5
7F3
  8
0
  6
CONTINUOUS
 62
     7
 10
708.6845875524
 20
440.119236042
 30
0.0
  0
VERTEX
  5
7F4
  8
0
  6
CONTINUOUS
 62
     7
 10
709.4359115504
 20
440.3308921356
 30
0.0
  0
VERTEX
  5
7F5
  8
0
  6
CONTINUOUS
 62
     7
 10
710.2183715247
 20
440.5366771717
 30
0.0
  0
SEQEND
  5
B63
  8
0
  6
CONTINUOUS
 62
     7
  0
LINE
  5
24D
  8
0
  6
CONTINUOUS
 62
     7
 10
723.18567492
 20
483.3743267555
 30
0.0
 11
714.5254217826
 21
483.3743267555
 31
0.0
  0
LINE
  5
24E
  8
0
  6
CONTINUOUS
 62
     7
 10
723.18567492
 20
483.3743267555
 30
0.0
 11
721.8733454861
 21
453.3743255634
 31
0.0
  0
LINE
  5
24F
  8
0
  6
CONTINUOUS
 62
     7
 10
714.5254217826
 20
483.3743267555
 30
0.0
 11
713.2130914174
 21
453.3743255634
 31
0.0
  0
LINE
  5
250
  8
0
  6
CONTINUOUS
 62
     7
 10
723.2729435705
 20
503.3743225832
 30
0.0
 11
723.18567492
 21
483.3743267555
 31
0.0
  0
LINE
  5
251
  8
0
  6
CONTINUOUS
 62
     7
 10
728.3771356374
 20
503.3743225832
 30
0.0
 11
723.2729435705
 21
503.3743225832
 31
0.0
  0
LINE
  5
252
  8
0
  6
CONTINUOUS
 62
     7
 10
728.3771356374
 20
503.3743225832
 30
0.0
 11
727.8277563669
 21
497.374325325
 31
0.0
  0
POLYLINE
  5
253
  8
0
  6
CONTINUOUS
 62
     7
 66
     1
 10
0.0
 20
0.0
 30
0.0
  0
VERTEX
  5
7F6
  8
0
  6
CONTINUOUS
 62
     7
 10
727.7784661197
 20
497.374325325
 30
0.0
  0
VERTEX
  5
7F7
  8
0
  6
CONTINUOUS
 62
     7
 10
727.6637658283
 20
497.3661296863
 30
0.0
  0
VERTEX
  5
7F8
  8
0
  6
CONTINUOUS
 62
     7
 10
727.3953744948
 20
497.2811334629
 30
0.0
  0
VERTEX
  5
7F9
  8
0
  6
CONTINUOUS
 62
     7
 10
727.1380873204
 20
497.1064769525
 30
0.0
  0
VERTEX
  5
7FA
  8
0
  6
CONTINUOUS
 62
     7
 10
726.9032585241
 20
496.8493574161
 30
0.0
  0
VERTEX
  5
7FB
  8
0
  6
CONTINUOUS
 62
     7
 10
726.6940066398
 20
496.5155267019
 30
0.0
  0
VERTEX
  5
7FC
  8
0
  6
CONTINUOUS
 62
     7
 10
726.5220002078
 20
496.1250417728
 30
0.0
  0
VERTEX
  5
7FD
  8
0
  6
CONTINUOUS
 62
     7
 10
726.3860774033
 20
495.6813596983
 30
0.0
  0
VERTEX
  5
7FE
  8
0
  6
CONTINUOUS
 62
     7
 10
726.293482519
 20
495.2110045452
 30
0.0
  0
VERTEX
  5
7FF
  8
0
  6
CONTINUOUS
 62
     7
 10
726.2422276467
 20
494.716047575
 30
0.0
  0
VERTEX
  5
800
  8
0
  6
CONTINUOUS
 62
     7
 10
726.2343160615
 20
494.5313327808
 30
0.0
  0
SEQEND
  5
B62
  8
0
  6
CONTINUOUS
 62
     7
  0
LINE
  5
254
  8
0
  6
CONTINUOUS
 62
     7
 10
726.2343160615
 20
494.5313327808
 30
0.0
 11
725.6693501763
 21
473.5008024473
 31
0.0
  0
LINE
  5
255
  8
0
  6
CONTINUOUS
 62
     7
 10
725.6693501763
 20
473.5008024473
 30
0.0
 11
723.8582183414
 21
453.3743255634
 31
0.0
  0
POLYLINE
  5
256
  8
0
  6
CONTINUOUS
 62
     7
 66
     1
 10
0.0
 20
0.0
 30
0.0
  0
VERTEX
  5
801
  8
0
  6
CONTINUOUS
 62
     7
 10
706.1134424799
 20
279.4459213365
 30
0.0
  0
VERTEX
  5
802
  8
0
  6
CONTINUOUS
 62
     7
 10
705.1311057799
 20
280.270199557
 30
0.0
  0
VERTEX
  5
803
  8
0
  6
CONTINUOUS
 62
     7
 10
703.7328813963
 20
281.4434480716
 30
0.0
  0
VERTEX
  5
804
  8
0
  6
CONTINUOUS
 62
     7
 10
702.24694319
 20
282.6902990092
 30
0.0
  0
VERTEX
  5
805
  8
0
  6
CONTINUOUS
 62
     7
 10
700.7349856936
 20
283.9589838732
 30
0.0
  0
VERTEX
  5
806
  8
0
  6
CONTINUOUS
 62
     7
 10
699.1992906474
 20
285.2475841392
 30
0.0
  0
VERTEX
  5
807
  8
0
  6
CONTINUOUS
 62
     7
 10
698.0064787709
 20
286.2484699909
 30
0.0
  0
VERTEX
  5
808
  8
0
  6
CONTINUOUS
 62
     7
 10
696.8000360571
 20
287.2607962091
 30
0.0
  0
VERTEX
  5
809
  8
0
  6
CONTINUOUS
 62
     7
 10
695.5827043198
 20
288.282259633
 30
0.0
  0
VERTEX
  5
80A
  8
0
  6
CONTINUOUS
 62
     7
 10
694.3572253727
 20
289.310559896
 30
0.0
  0
SEQEND
  5
B61
  8
0
  6
CONTINUOUS
 62
     7
  0
POLYLINE
  5
257
  8
0
  6
CONTINUOUS
 62
     7
 66
     1
 10
0.0
 20
0.0
 30
0.0
  0
VERTEX
  5
80B
  8
0
  6
CONTINUOUS
 62
     7
 10
759.2721913748
 20
279.4459213365
 30
0.0
  0
VERTEX
  5
80C
  8
0
  6
CONTINUOUS
 62
     7
 10
760.2545280747
 20
280.270199557
 30
0.0
  0
VERTEX
  5
80D
  8
0
  6
CONTINUOUS
 62
     7
 10
761.6527524583
 20
281.4434480716
 30
0.0
  0
VERTEX
  5
80E
  8
0
  6
CONTINUOUS
 62
     7
 10
763.1386906647
 20
282.6902990092
 30
0.0
  0
VERTEX
  5
80F
  8
0
  6
CONTINUOUS
 62
     7
 10
764.6506481611
 20
283.9589838732
 30
0.0
  0
VERTEX
  5
810
  8
0
  6
CONTINUOUS
 62
     7
 10
766.1863432072
 20
285.2475841392
 30
0.0
  0
VERTEX
  5
811
  8
0
  6
CONTINUOUS
 62
     7
 10
767.3791550838
 20
286.2484699909
 30
0.0
  0
VERTEX
  5
812
  8
0
  6
CONTINUOUS
 62
     7
 10
768.5855977975
 20
287.2607962091
 30
0.0
  0
VERTEX
  5
813
  8
0
  6
CONTINUOUS
 62
     7
 10
769.8029295348
 20
288.282259633
 30
0.0
  0
VERTEX
  5
814
  8
0
  6
CONTINUOUS
 62
     7
 10
771.028408482
 20
289.310559896
 30
0.0
  0
SEQEND
  5
B60
  8
0
  6
CONTINUOUS
 62
     7
  0
POLYLINE
  5
258
  8
0
  6
CONTINUOUS
 62
     7
 66
     1
 10
0.0
 20
0.0
 30
0.0
  0
VERTEX
  5
815
  8
0
  6
CONTINUOUS
 62
     7
 10
694.3571881198
 20
289.3105906297
 30
0.0
  0
VERTEX
  5
816
  8
0
  6
CONTINUOUS
 62
     7
 10
693.5487218939
 20
289.9889725123
 30
0.0
  0
VERTEX
  5
817
  8
0
  6
CONTINUOUS
 62
     7
 10
692.7380428456
 20
290.6692133147
 30
0.0
  0
VERTEX
  5
818
  8
0
  6
CONTINUOUS
 62
     7
 10
691.9224426888
 20
291.3535826702
 30
0.0
  0
VERTEX
  5
819
  8
0
  6
CONTINUOUS
 62
     7
 10
691.1062055074
 20
292.0384875361
 30
0.0
  0
SEQEND
  5
B5F
  8
0
  6
CONTINUOUS
 62
     7
  0
POLYLINE
  5
259
  8
0
  6
CONTINUOUS
 62
     7
 66
     1
 10
0.0
 20
0.0
 30
0.0
  0
VERTEX
  5
81A
  8
0
  6
CONTINUOUS
 62
     7
 10
771.0284457349
 20
289.3105906297
 30
0.0
  0
VERTEX
  5
81B
  8
0
  6
CONTINUOUS
 62
     7
 10
771.8369119607
 20
289.9889725123
 30
0.0
  0
VERTEX
  5
81C
  8
0
  6
CONTINUOUS
 62
     7
 10
772.647591009
 20
290.6692133147
 30
0.0
  0
VERTEX
  5
81D
  8
0
  6
CONTINUOUS
 62
     7
 10
773.4631911658
 20
291.3535826702
 30
0.0
  0
VERTEX
  5
81E
  8
0
  6
CONTINUOUS
 62
     7
 10
774.2794283472
 20
292.0384875361
 30
0.0
  0
SEQEND
  5
B5E
  8
0
  6
CONTINUOUS
 62
     7
  0
POLYLINE
  5
25A
  8
0
  6
CONTINUOUS
 62
     7
 66
     1
 10
0.0
 20
0.0
 30
0.0
  0
VERTEX
  5
81F
  8
0
  6
CONTINUOUS
 62
     7
 10
755.4000035666
 20
473.5008024473
 30
0.0
  0
VERTEX
  5
820
  8
0
  6
CONTINUOUS
 62
     7
 10
755.6510993086
 20
472.1097343464
 30
0.0
  0
VERTEX
  5
821
  8
0
  6
CONTINUOUS
 62
     7
 10
757.9502888762
 20
459.3426727552
 30
0.0
  0
VERTEX
  5
822
  8
0
  6
CONTINUOUS
 62
     7
 10
759.0222672366
 20
453.3743255634
 30
0.0
  0
SEQEND
  5
B5D
  8
0
  6
CONTINUOUS
 62
     7
  0
LINE
  5
25B
  8
0
  6
CONTINUOUS
 62
     7
 10
725.6693501763
 20
473.5008024473
 30
0.0
 11
755.4000035666
 21
473.5008024473
 31
0.0
  0
LINE
  5
25C
  8
0
  6
CONTINUOUS
 62
     7
 10
714.6126904332
 20
503.3743225832
 30
0.0
 11
714.5254217826
 21
483.3743267555
 31
0.0
  0
LINE
  5
25D
  8
0
  6
CONTINUOUS
 62
     7
 10
723.2729435705
 20
503.3743225832
 30
0.0
 11
714.6126904332
 21
503.3743225832
 31
0.0
  0
POLYLINE
  5
25E
  8
0
  6
CONTINUOUS
 62
     7
 66
     1
 10
0.0
 20
0.0
 30
0.0
  0
VERTEX
  5
823
  8
0
  6
CONTINUOUS
 62
     7
 10
754.2700727277
 20
494.5313327808
 30
0.0
  0
VERTEX
  5
824
  8
0
  6
CONTINUOUS
 62
     7
 10
755.1032339029
 20
479.0293269653
 30
0.0
  0
VERTEX
  5
825
  8
0
  6
CONTINUOUS
 62
     7
 10
755.4000035666
 20
473.5008024473
 30
0.0
  0
SEQEND
  5
B5C
  8
0
  6
CONTINUOUS
 62
     7
  0
ARC
  5
25F
  8
0
  6
CONTINUOUS
 62
     7
 10
751.2285871935
 20
494.3262960215
 30
0.0
 40
3.048388808421319
 50
3.8566657911
 51
90.8799523151
  0
LINE
  5
260
  8
0
  6
CONTINUOUS
 62
     7
 10
727.7784661197
 20
497.374325325
 30
0.0
 11
751.18177168
 21
497.374325325
 31
0.0
  0
LINE
  5
261
  8
0
  6
CONTINUOUS
 62
     7
 10
709.4416596733
 20
473.5008024473
 30
0.0
 11
714.0935116254
 21
473.5008024473
 31
0.0
  0
POLYLINE
  5
262
  8
0
  6
CONTINUOUS
 62
     7
 66
     1
 10
0.0
 20
0.0
 30
0.0
  0
VERTEX
  5
826
  8
0
  6
CONTINUOUS
 62
     7
 10
749.9844335758
 20
503.3743225832
 30
0.0
  0
VERTEX
  5
827
  8
0
  6
CONTINUOUS
 62
     7
 10
750.4171241813
 20
501.0147535104
 30
0.0
  0
VERTEX
  5
828
  8
0
  6
CONTINUOUS
 62
     7
 10
751.0831930481
 20
497.374325325
 30
0.0
  0
SEQEND
  5
B5B
  8
0
  6
CONTINUOUS
 62
     7
  0
LINE
  5
263
  8
0
  6
CONTINUOUS
 62
     7
 10
728.3771356374
 20
503.3743225832
 30
0.0
 11
749.9844335758
 21
503.3743225832
 31
0.0
  0
POLYLINE
  5
264
  8
0
  6
CONTINUOUS
 62
     7
 66
     1
 10
0.0
 20
0.0
 30
0.0
  0
VERTEX
  5
829
  8
0
  6
CONTINUOUS
 62
     7
 10
691.1062055074
 20
292.0384875361
 30
0.0
  0
VERTEX
  5
82A
  8
0
  6
CONTINUOUS
 62
     7
 10
690.6755395972
 20
292.3998593215
 30
0.0
  0
VERTEX
  5
82B
  8
0
  6
CONTINUOUS
 62
     7
 10
690.3522365533
 20
292.6711433429
 30
0.0
  0
VERTEX
  5
82C
  8
0
  6
CONTINUOUS
 62
     7
 10
690.1365571462
 20
292.8521207396
 30
0.0
  0
VERTEX
  5
82D
  8
0
  6
CONTINUOUS
 62
     7
 10
690.0286727392
 20
292.9426462252
 30
0.0
  0
VERTEX
  5
82E
  8
0
  6
CONTINUOUS
 62
     7
 10
690.015183463
 20
292.9539636571
 30
0.0
  0
SEQEND
  5
B5A
  8
0
  6
CONTINUOUS
 62
     7
  0
POLYLINE
  5
265
  8
0
  6
CONTINUOUS
 62
     7
 66
     1
 10
0.0
 20
0.0
 30
0.0
  0
VERTEX
  5
82F
  8
0
  6
CONTINUOUS
 62
     7
 10
774.2794283472
 20
292.0384875361
 30
0.0
  0
VERTEX
  5
830
  8
0
  6
CONTINUOUS
 62
     7
 10
774.7100942575
 20
292.3998593215
 30
0.0
  0
VERTEX
  5
831
  8
0
  6
CONTINUOUS
 62
     7
 10
775.0333973013
 20
292.6711433429
 30
0.0
  0
VERTEX
  5
832
  8
0
  6
CONTINUOUS
 62
     7
 10
775.2490767084
 20
292.8521207396
 30
0.0
  0
VERTEX
  5
833
  8
0
  6
CONTINUOUS
 62
     7
 10
775.3569611155
 20
292.9426462252
 30
0.0
  0
VERTEX
  5
834
  8
0
  6
CONTINUOUS
 62
     7
 10
775.3704503917
 20
292.9539636571
 30
0.0
  0
SEQEND
  5
B59
  8
0
  6
CONTINUOUS
 62
     7
  0
LINE
  5
266
  8
0
  6
CONTINUOUS
 62
     7
 10
779.7049523138
 20
364.7586100597
 30
0.0
 11
779.7049523138
 21
362.4728948672
 31
0.0
  0
LINE
  5
267
  8
0
  6
CONTINUOUS
 62
     7
 10
779.8705787205
 20
362.4728948672
 30
0.0
 11
779.7049523138
 21
356.615751316
 31
0.0
  0
LINE
  5
268
  8
0
  6
CONTINUOUS
 62
     7
 10
779.7049523138
 20
368.0443235535
 30
0.0
 11
779.7049523138
 21
365.6728931565
 31
0.0
  0
LINE
  5
269
  8
0
  6
CONTINUOUS
 62
     7
 10
780.1119998835
 20
365.6728931565
 30
0.0
 11
780.1196702563
 21
364.7586100597
 31
0.0
  0
LINE
  5
26A
  8
0
  6
CONTINUOUS
 62
     7
 10
713.5397099696
 20
497.374325325
 30
0.0
 11
714.5865090929
 21
497.374325325
 31
0.0
  0
LINE
  5
26B
  8
0
  6
CONTINUOUS
 62
     7
 10
781.3673035048
 20
362.4728948672
 30
0.0
 11
781.1999895417
 21
356.615751316
 31
0.0
  0
LINE
  5
26C
  8
0
  6
CONTINUOUS
 62
     7
 10
779.7049523138
 20
356.615751316
 30
0.0
 11
781.1999895417
 21
356.615751316
 31
0.0
  0
LINE
  5
26D
  8
0
  6
CONTINUOUS
 62
     7
 10
781.1999895417
 20
362.4728948672
 30
0.0
 11
781.3673035048
 21
362.4728948672
 31
0.0
  0
LINE
  5
26E
  8
0
  6
CONTINUOUS
 62
     7
 10
781.1999895417
 20
364.7586100597
 30
0.0
 11
781.1999895417
 21
362.4728948672
 31
0.0
  0
LINE
  5
26F
  8
0
  6
CONTINUOUS
 62
     7
 10
781.1999895417
 20
364.7586100597
 30
0.0
 11
781.589323356
 21
364.7586100597
 31
0.0
  0
LINE
  5
270
  8
0
  6
CONTINUOUS
 62
     7
 10
781.6765063249
 20
356.615751316
 30
0.0
 11
781.589323356
 21
364.7586100597
 31
0.0
  0
LINE
  5
271
  8
0
  6
CONTINUOUS
 62
     7
 10
781.6157915436
 20
356.615751316
 30
0.0
 11
781.6765063249
 21
356.615751316
 31
0.0
  0
LINE
  5
272
  8
0
  6
CONTINUOUS
 62
     7
 10
781.5982715033
 20
357.8728952307
 30
0.0
 11
781.6157915436
 21
356.615751316
 31
0.0
  0
LINE
  5
273
  8
0
  6
CONTINUOUS
 62
     7
 10
781.4169318222
 20
357.8728952307
 30
0.0
 11
781.5982715033
 21
357.8728952307
 31
0.0
  0
LINE
  5
274
  8
0
  6
CONTINUOUS
 62
     7
 10
781.3864850246
 20
356.615751316
 30
0.0
 11
781.4169318222
 21
357.8728952307
 31
0.0
  0
LINE
  5
275
  8
0
  6
CONTINUOUS
 62
     7
 10
781.4519197487
 20
360.0443222422
 30
0.0
 11
781.563786491
 21
360.0443222422
 31
0.0
  0
LINE
  5
276
  8
0
  6
CONTINUOUS
 62
     7
 10
781.563786491
 20
360.0443222422
 30
0.0
 11
781.5105297409
 21
362.8883988459
 31
0.0
  0
LINE
  5
277
  8
0
  6
CONTINUOUS
 62
     7
 10
781.5105297409
 20
362.8883988459
 30
0.0
 11
781.4519197487
 21
360.0443222422
 31
0.0
  0
LINE
  5
278
  8
0
  6
CONTINUOUS
 62
     7
 10
781.1999895417
 20
356.615751316
 30
0.0
 11
781.3864850246
 21
356.615751316
 31
0.0
  0
LINE
  5
279
  8
0
  6
CONTINUOUS
 62
     7
 10
781.6928156458
 20
360.0443222422
 30
0.0
 11
781.6564903401
 21
368.0443235535
 31
0.0
  0
LINE
  5
27A
  8
0
  6
CONTINUOUS
 62
     7
 10
781.6879243397
 20
356.615751316
 30
0.0
 11
781.6928156458
 21
356.615751316
 31
0.0
  0
LINE
  5
27B
  8
0
  6
CONTINUOUS
 62
     7
 10
781.6111796342
 20
365.6728931565
 30
0.0
 11
781.6879243397
 21
356.615751316
 31
0.0
  0
LINE
  5
27C
  8
0
  6
CONTINUOUS
 62
     7
 10
781.1999895417
 20
365.6728931565
 30
0.0
 11
781.6111796342
 21
365.6728931565
 31
0.0
  0
LINE
  5
27D
  8
0
  6
CONTINUOUS
 62
     7
 10
781.1999895417
 20
368.0443235535
 30
0.0
 11
781.1999895417
 21
365.6728931565
 31
0.0
  0
LINE
  5
27E
  8
0
  6
CONTINUOUS
 62
     7
 10
781.1999895417
 20
368.0443235535
 30
0.0
 11
781.6564903401
 21
368.0443235535
 31
0.0
  0
LINE
  5
27F
  8
0
  6
CONTINUOUS
 62
     7
 10
779.7049523138
 20
364.7586100597
 30
0.0
 11
781.1999895417
 21
364.7586100597
 31
0.0
  0
LINE
  5
280
  8
0
  6
CONTINUOUS
 62
     7
 10
779.7049523138
 20
362.4728948672
 30
0.0
 11
781.1999895417
 21
362.4728948672
 31
0.0
  0
LINE
  5
281
  8
0
  6
CONTINUOUS
 62
     7
 10
779.7049523138
 20
365.6728931565
 30
0.0
 11
781.1999895417
 21
365.6728931565
 31
0.0
  0
LINE
  5
282
  8
0
  6
CONTINUOUS
 62
     7
 10
779.7049523138
 20
368.0443235535
 30
0.0
 11
781.1999895417
 21
368.0443235535
 31
0.0
  0
POLYLINE
  5
283
  8
0
  6
CONTINUOUS
 62
     7
 66
     1
 10
0.0
 20
0.0
 30
0.0
  0
VERTEX
  5
835
  8
0
  6
CONTINUOUS
 62
     7
 10
725.0560635507
 20
527.0902805824
 30
0.0
  0
VERTEX
  5
836
  8
0
  6
CONTINUOUS
 62
     7
 10
724.8397112631
 20
522.1350037355
 30
0.0
  0
VERTEX
  5
837
  8
0
  6
CONTINUOUS
 62
     7
 10
724.6298488967
 20
517.3283510704
 30
0.0
  0
VERTEX
  5
838
  8
0
  6
CONTINUOUS
 62
     7
 10
724.4266492121
 20
512.6743160982
 30
0.0
  0
SEQEND
  5
B58
  8
0
  6
CONTINUOUS
 62
     7
  0
POLYLINE
  5
284
  8
0
  6
CONTINUOUS
 62
     7
 66
     1
 10
0.0
 20
0.0
 30
0.0
  0
VERTEX
  5
839
  8
0
  6
CONTINUOUS
 62
     7
 10
725.7422429316
 20
512.6743160982
 30
0.0
  0
VERTEX
  5
83A
  8
0
  6
CONTINUOUS
 62
     7
 10
725.5075161152
 20
517.3283510704
 30
0.0
  0
VERTEX
  5
83B
  8
0
  6
CONTINUOUS
 62
     7
 10
725.2787264802
 20
522.1350037355
 30
0.0
  0
VERTEX
  5
83C
  8
0
  6
CONTINUOUS
 62
     7
 10
725.0560635507
 20
527.0902805824
 30
0.0
  0
SEQEND
  5
B57
  8
0
  6
CONTINUOUS
 62
     7
  0
ARC
  5
285
  8
0
  6
CONTINUOUS
 62
     7
 10
732.6928169273
 20
520.9405084461
 30
0.0
 40
10.8000192038048
 50
229.9414174652
 51
310.0585825348
  0
POLYLINE
  5
286
  8
0
  6
CONTINUOUS
 62
     7
 66
     1
 10
0.0
 20
0.0
 30
0.0
  0
VERTEX
  5
83D
  8
0
  6
CONTINUOUS
 62
     7
 10
740.3295703039
 20
527.0902805824
 30
0.0
  0
VERTEX
  5
83E
  8
0
  6
CONTINUOUS
 62
     7
 10
740.1069073744
 20
522.1350037355
 30
0.0
  0
VERTEX
  5
83F
  8
0
  6
CONTINUOUS
 62
     7
 10
739.8781177394
 20
517.3283510704
 30
0.0
  0
VERTEX
  5
840
  8
0
  6
CONTINUOUS
 62
     7
 10
739.643390923
 20
512.6743160982
 30
0.0
  0
SEQEND
  5
B56
  8
0
  6
CONTINUOUS
 62
     7
  0
POLYLINE
  5
287
  8
0
  6
CONTINUOUS
 62
     7
 66
     1
 10
0.0
 20
0.0
 30
0.0
  0
VERTEX
  5
841
  8
0
  6
CONTINUOUS
 62
     7
 10
740.9589846425
 20
512.6743160982
 30
0.0
  0
VERTEX
  5
842
  8
0
  6
CONTINUOUS
 62
     7
 10
740.7557849579
 20
517.3283510704
 30
0.0
  0
VERTEX
  5
843
  8
0
  6
CONTINUOUS
 62
     7
 10
740.5459225916
 20
522.1350037355
 30
0.0
  0
VERTEX
  5
844
  8
0
  6
CONTINUOUS
 62
     7
 10
740.3295703039
 20
527.0902805824
 30
0.0
  0
SEQEND
  5
B55
  8
0
  6
CONTINUOUS
 62
     7
  0
POLYLINE
  5
288
  8
0
  6
CONTINUOUS
 62
     7
 66
     1
 10
0.0
 20
0.0
 30
0.0
  0
VERTEX
  5
845
  8
0
  6
CONTINUOUS
 62
     7
 10
740.9589846425
 20
512.6743160982
 30
0.0
  0
VERTEX
  5
846
  8
0
  6
CONTINUOUS
 62
     7
 10
741.2639881291
 20
512.3693191309
 30
0.0
  0
VERTEX
  5
847
  8
0
  6
CONTINUOUS
 62
     7
 10
741.5515563257
 20
512.0817565221
 30
0.0
  0
VERTEX
  5
848
  8
0
  6
CONTINUOUS
 62
     7
 10
741.8211034306
 20
511.8122094173
 30
0.0
  0
VERTEX
  5
849
  8
0
  6
CONTINUOUS
 62
     7
 10
742.0720799633
 20
511.5612291593
 30
0.0
  0
VERTEX
  5
84A
  8
0
  6
CONTINUOUS
 62
     7
 10
742.3039774217
 20
511.3293223877
 30
0.0
  0
VERTEX
  5
84B
  8
0
  6
CONTINUOUS
 62
     7
 10
742.516322694
 20
511.1169808407
 30
0.0
  0
VERTEX
  5
84C
  8
0
  6
CONTINUOUS
 62
     7
 10
742.7086845778
 20
510.9246217508
 30
0.0
  0
VERTEX
  5
84D
  8
0
  6
CONTINUOUS
 62
     7
 10
742.8806709864
 20
510.7526325483
 30
0.0
  0
VERTEX
  5
84E
  8
0
  6
CONTINUOUS
 62
     7
 10
743.0319326736
 20
510.601370861
 30
0.0
  0
VERTEX
  5
84F
  8
0
  6
CONTINUOUS
 62
     7
 10
743.1621623032
 20
510.4711496133
 30
0.0
  0
VERTEX
  5
850
  8
0
  6
CONTINUOUS
 62
     7
 10
743.2710935168
 20
510.3622072239
 30
0.0
  0
VERTEX
  5
851
  8
0
  6
CONTINUOUS
 62
     7
 10
743.358505591
 20
510.2747970123
 30
0.0
  0
VERTEX
  5
852
  8
0
  6
CONTINUOUS
 62
     7
 10
743.4242206432
 20
510.2090828914
 30
0.0
  0
VERTEX
  5
853
  8
0
  6
CONTINUOUS
 62
     7
 10
743.4681054943
 20
510.1651989717
 30
0.0
  0
VERTEX
  5
854
  8
0
  6
CONTINUOUS
 62
     7
 10
743.4900707372
 20
510.1432346601
 30
0.0
  0
VERTEX
  5
855
  8
0
  6
CONTINUOUS
 62
     7
 10
743.4928172075
 20
510.1404928465
 30
0.0
  0
SEQEND
  5
B54
  8
0
  6
CONTINUOUS
 62
     7
  0
POLYLINE
  5
289
  8
0
  6
CONTINUOUS
 62
     7
 66
     1
 10
0.0
 20
0.0
 30
0.0
  0
VERTEX
  5
856
  8
0
  6
CONTINUOUS
 62
     7
 10
721.8928166472
 20
510.1404928465
 30
0.0
  0
VERTEX
  5
857
  8
0
  6
CONTINUOUS
 62
     7
 10
721.8955631175
 20
510.1432346601
 30
0.0
  0
VERTEX
  5
858
  8
0
  6
CONTINUOUS
 62
     7
 10
721.9175283604
 20
510.1651989717
 30
0.0
  0
VERTEX
  5
859
  8
0
  6
CONTINUOUS
 62
     7
 10
721.9614132114
 20
510.2090828914
 30
0.0
  0
VERTEX
  5
85A
  8
0
  6
CONTINUOUS
 62
     7
 10
722.0271282636
 20
510.2747970123
 30
0.0
  0
VERTEX
  5
85B
  8
0
  6
CONTINUOUS
 62
     7
 10
722.1145403378
 20
510.3622072239
 30
0.0
  0
VERTEX
  5
85C
  8
0
  6
CONTINUOUS
 62
     7
 10
722.2234715514
 20
510.4711496133
 30
0.0
  0
VERTEX
  5
85D
  8
0
  6
CONTINUOUS
 62
     7
 10
722.353701181
 20
510.601370861
 30
0.0
  0
VERTEX
  5
85E
  8
0
  6
CONTINUOUS
 62
     7
 10
722.5049628683
 20
510.7526325483
 30
0.0
  0
VERTEX
  5
85F
  8
0
  6
CONTINUOUS
 62
     7
 10
722.6769492768
 20
510.9246217508
 30
0.0
  0
VERTEX
  5
860
  8
0
  6
CONTINUOUS
 62
     7
 10
722.8693111606
 20
511.1169808407
 30
0.0
  0
VERTEX
  5
861
  8
0
  6
CONTINUOUS
 62
     7
 10
723.0816564329
 20
511.3293223877
 30
0.0
  0
VERTEX
  5
862
  8
0
  6
CONTINUOUS
 62
     7
 10
723.3135538914
 20
511.5612291593
 30
0.0
  0
VERTEX
  5
863
  8
0
  6
CONTINUOUS
 62
     7
 10
723.5645304241
 20
511.8122094173
 30
0.0
  0
VERTEX
  5
864
  8
0
  6
CONTINUOUS
 62
     7
 10
723.8340775289
 20
512.0817565221
 30
0.0
  0
VERTEX
  5
865
  8
0
  6
CONTINUOUS
 62
     7
 10
724.1216457256
 20
512.3693191309
 30
0.0
  0
VERTEX
  5
866
  8
0
  6
CONTINUOUS
 62
     7
 10
724.4266492121
 20
512.6743160982
 30
0.0
  0
SEQEND
  5
B53
  8
0
  6
CONTINUOUS
 62
     7
  0
LINE
  5
28A
  8
0
  6
CONTINUOUS
 62
     7
 10
725.7422429316
 20
512.6743160982
 30
0.0
 11
739.643390923
 21
512.6743160982
 31
0.0
  0
LINE
  5
28B
  8
0
  6
CONTINUOUS
 62
     7
 10
725.0560635507
 20
527.0902805824
 30
0.0
 11
725.6928167113
 21
541.6743152637
 31
0.0
  0
LINE
  5
28C
  8
0
  6
CONTINUOUS
 62
     7
 10
725.6928167113
 20
541.6743152637
 30
0.0
 11
739.6928171434
 21
541.6743152637
 31
0.0
  0
LINE
  5
28D
  8
0
  6
CONTINUOUS
 62
     7
 10
740.3295703039
 20
527.0902805824
 30
0.0
 11
739.6928171434
 21
541.6743152637
 31
0.0
  0
LINE
  5
28E
  8
0
  6
CONTINUOUS
 62
     7
 10
781.4171404384
 20
356.615751316
 30
0.0
 11
781.6157915436
 21
356.615751316
 31
0.0
  0
LINE
  5
28F
  8
0
  6
CONTINUOUS
 62
     7
 10
760.1928167783
 20
503.3743225832
 30
0.0
 11
760.3673540794
 21
483.3743267555
 31
0.0
  0
LINE
  5
290
  8
0
  6
CONTINUOUS
 62
     7
 10
760.3673540794
 20
483.3743267555
 30
0.0
 11
762.9920148097
 21
453.3743255634
 31
0.0
  0
LINE
  5
291
  8
0
  6
CONTINUOUS
 62
     7
 10
749.9844335758
 20
503.3743225832
 30
0.0
 11
760.1928167783
 21
503.3743225832
 31
0.0
  0
LINE
  5
292
  8
0
  6
CONTINUOUS
 62
     8
 10
686.4385434233
 20
405.3743251462
 30
0.0
 11
686.4780911051
 21
407.0920639534
 31
0.0
  0
LINE
  5
293
  8
0
  6
CONTINUOUS
 62
     8
 10
686.4780911051
 20
407.0920639534
 30
0.0
 11
778.9075427495
 21
407.0920639534
 31
0.0
  0
LINE
  5
294
  8
0
  6
CONTINUOUS
 62
     8
 10
778.9470904313
 20
405.3743251462
 30
0.0
 11
778.9075427495
 21
407.0920639534
 31
0.0
  0
LINE
  5
295
  8
0
  6
CONTINUOUS
 62
     8
 10
778.7300810956
 20
391.3743191261
 30
0.0
 11
778.9430484914
 21
401.3743244905
 31
0.0
  0
LINE
  5
296
  8
0
  6
CONTINUOUS
 62
     8
 10
686.6555527591
 20
391.3743191261
 30
0.0
 11
686.4425853633
 21
401.3743244905
 31
0.0
  0
ARC
  5
297
  8
0
  6
CONTINUOUS
 62
     8
 10
756.2073283869
 20
406.9866978672
 30
0.0
 40
22.7004775229561
 50
0.2659439086
 51
6.1173415412
  0
ARC
  5
298
  8
0
  6
CONTINUOUS
 62
     8
 10
709.1783054677
 20
406.9866978672
 30
0.0
 40
22.7004775229561
 50
173.8826584588
 51
179.7340560914
  0
LINE
  5
299
  8
0
  6
CONTINUOUS
 62
     8
 10
768.0488579713
 20
412.1311523814
 30
0.0
 11
697.3367758833
 21
412.1311523814
 31
0.0
  0
LINE
  5
29A
  8
0
  6
CONTINUOUS
 62
     8
 10
686.797519847
 20
391.2180506487
 30
0.0
 11
686.6555527591
 21
391.3743191261
 31
0.0
  0
LINE
  5
29B
  8
0
  6
CONTINUOUS
 62
     8
 10
778.5881140076
 20
391.2180506487
 30
0.0
 11
778.7300810956
 21
391.3743191261
 31
0.0
  0
POLYLINE
  5
29C
  8
0
  6
CONTINUOUS
 62
     8
 66
     1
 10
0.0
 20
0.0
 30
0.0
  0
VERTEX
  5
867
  8
0
  6
CONTINUOUS
 62
     8
 10
719.4223913171
 20
331.6338037003
 30
0.0
  0
VERTEX
  5
868
  8
0
  6
CONTINUOUS
 62
     8
 10
719.49554298
 20
331.7024850149
 30
0.0
  0
VERTEX
  5
869
  8
0
  6
CONTINUOUS
 62
     8
 10
719.5422748842
 20
331.8398867596
 30
0.0
  0
VERTEX
  5
86A
  8
0
  6
CONTINUOUS
 62
     8
 10
719.5584612705
 20
332.0518464644
 30
0.0
  0
VERTEX
  5
86B
  8
0
  6
CONTINUOUS
 62
     8
 10
719.5405230664
 20
332.342217942
 30
0.0
  0
VERTEX
  5
86C
  8
0
  6
CONTINUOUS
 62
     8
 10
719.4857631617
 20
332.7122361262
 30
0.0
  0
VERTEX
  5
86D
  8
0
  6
CONTINUOUS
 62
     8
 10
719.3926830583
 20
333.1600644488
 30
0.0
  0
VERTEX
  5
86E
  8
0
  6
CONTINUOUS
 62
     8
 10
719.2612278082
 20
333.6805247564
 30
0.0
  0
VERTEX
  5
86F
  8
0
  6
CONTINUOUS
 62
     8
 10
719.0929117419
 20
334.2651829917
 30
0.0
  0
VERTEX
  5
870
  8
0
  6
CONTINUOUS
 62
     8
 10
718.8907951855
 20
334.9027515251
 30
0.0
  0
VERTEX
  5
871
  8
0
  6
CONTINUOUS
 62
     8
 10
718.659307509
 20
335.5798081357
 30
0.0
  0
VERTEX
  5
872
  8
0
  6
CONTINUOUS
 62
     8
 10
718.4039286144
 20
336.2817087073
 30
0.0
  0
VERTEX
  5
873
  8
0
  6
CONTINUOUS
 62
     8
 10
718.1307800852
 20
336.9936042328
 30
0.0
  0
VERTEX
  5
874
  8
0
  6
CONTINUOUS
 62
     8
 10
717.8461958461
 20
337.7013944883
 30
0.0
  0
VERTEX
  5
875
  8
0
  6
CONTINUOUS
 62
     8
 10
717.5563086562
 20
338.3924991686
 30
0.0
  0
VERTEX
  5
876
  8
0
  6
CONTINUOUS
 62
     8
 10
717.2667204209
 20
339.0563906033
 30
0.0
  0
VERTEX
  5
877
  8
0
  6
CONTINUOUS
 62
     8
 10
716.9822693609
 20
339.6848843295
 30
0.0
  0
SEQEND
  5
B52
  8
0
  6
CONTINUOUS
 62
     8
  0
ARC
  5
29D
  8
0
  6
CONTINUOUS
 62
     8
 10
729.4373042906
 20
308.9768900676
 30
0.0
 40
33.13772552680909
 50
91.3935710822
 51
112.0772731993
  0
ARC
  5
29E
  8
0
  6
CONTINUOUS
 62
     8
 10
735.9483295641
 20
308.9768900676
 30
0.0
 40
33.13772552680909
 50
67.9227268007
 51
88.6064289178
  0
POLYLINE
  5
29F
  8
0
  6
CONTINUOUS
 62
     8
 66
     1
 10
0.0
 20
0.0
 30
0.0
  0
VERTEX
  5
878
  8
0
  6
CONTINUOUS
 62
     8
 10
745.9632490568
 20
331.6338018377
 30
0.0
  0
VERTEX
  5
879
  8
0
  6
CONTINUOUS
 62
     8
 10
745.8900964626
 20
331.7024850149
 30
0.0
  0
VERTEX
  5
87A
  8
0
  6
CONTINUOUS
 62
     8
 10
745.8433645584
 20
331.8398867596
 30
0.0
  0
VERTEX
  5
87B
  8
0
  6
CONTINUOUS
 62
     8
 10
745.8271781721
 20
332.0518464644
 30
0.0
  0
VERTEX
  5
87C
  8
0
  6
CONTINUOUS
 62
     8
 10
745.8451163762
 20
332.342217942
 30
0.0
  0
VERTEX
  5
87D
  8
0
  6
CONTINUOUS
 62
     8
 10
745.8998762809
 20
332.7122361262
 30
0.0
  0
VERTEX
  5
87E
  8
0
  6
CONTINUOUS
 62
     8
 10
745.9929563843
 20
333.1600644488
 30
0.0
  0
VERTEX
  5
87F
  8
0
  6
CONTINUOUS
 62
     8
 10
746.1244116344
 20
333.6805247564
 30
0.0
  0
VERTEX
  5
880
  8
0
  6
CONTINUOUS
 62
     8
 10
746.2927295633
 20
334.2651829917
 30
0.0
  0
VERTEX
  5
881
  8
0
  6
CONTINUOUS
 62
     8
 10
746.4948461198
 20
334.9027515251
 30
0.0
  0
VERTEX
  5
882
  8
0
  6
CONTINUOUS
 62
     8
 10
746.7263347276
 20
335.5798081357
 30
0.0
  0
VERTEX
  5
883
  8
0
  6
CONTINUOUS
 62
     8
 10
746.9817154847
 20
336.281704982
 30
0.0
  0
VERTEX
  5
884
  8
0
  6
CONTINUOUS
 62
     8
 10
747.2548649453
 20
336.9936042328
 30
0.0
  0
VERTEX
  5
885
  8
0
  6
CONTINUOUS
 62
     8
 10
747.5394501157
 20
337.7013944883
 30
0.0
  0
VERTEX
  5
886
  8
0
  6
CONTINUOUS
 62
     8
 10
747.8293391683
 20
338.3924954433
 30
0.0
  0
VERTEX
  5
887
  8
0
  6
CONTINUOUS
 62
     8
 10
748.1189283349
 20
339.0563906033
 30
0.0
  0
VERTEX
  5
888
  8
0
  6
CONTINUOUS
 62
     8
 10
748.4033812575
 20
339.6848806042
 30
0.0
  0
SEQEND
  5
B51
  8
0
  6
CONTINUOUS
 62
     8
  0
ARC
  5
2A0
  8
0
  6
CONTINUOUS
 62
     8
 10
686.5973534415
 20
440.8469977059
 30
0.0
 40
33.75514450545105
 50
263.7881840141
 51
269.7975327888
  0
LINE
  5
2A1
  8
0
  6
CONTINUOUS
 62
     8
 10
677.7012922608
 20
407.0920639534
 30
0.0
 11
677.6640691601
 21
405.3743698497
 31
0.0
  0
LINE
  5
2A2
  8
0
  6
CONTINUOUS
 62
     8
 10
787.6843415939
 20
407.0920639534
 30
0.0
 11
787.7215646945
 21
405.3743698497
 31
0.0
  0
ARC
  5
2A3
  8
0
  6
CONTINUOUS
 62
     8
 10
778.7882804131
 20
440.8469977059
 30
0.0
 40
33.75514450545104
 50
270.2024672112
 51
276.2118159859
  0
LINE
  5
2A4
  8
0
  6
CONTINUOUS
 62
     8
 10
774.6928163611
 20
376.8513866563
 30
0.0
 11
774.6928163611
 21
391.1664777298
 31
0.0
  0
LINE
  5
2A5
  8
0
  6
CONTINUOUS
 62
     8
 10
690.6928174936
 20
376.8513866563
 30
0.0
 11
774.6928163611
 21
376.8513866563
 31
0.0
  0
LINE
  5
2A6
  8
0
  6
CONTINUOUS
 62
     8
 10
690.6928174936
 20
376.8513866563
 30
0.0
 11
690.6928174936
 21
391.1664777298
 31
0.0
  0
POLYLINE
  5
2A7
  8
0
  6
CONTINUOUS
 62
     8
 66
     1
 10
0.0
 20
0.0
 30
0.0
  0
VERTEX
  5
889
  8
0
  6
CONTINUOUS
 62
     8
 10
701.6611710929
 20
313.4952171568
 30
0.0
  0
VERTEX
  5
88A
  8
0
  6
CONTINUOUS
 62
     8
 10
701.6740028553
 20
313.6073185925
 30
0.0
  0
VERTEX
  5
88B
  8
0
  6
CONTINUOUS
 62
     8
 10
701.6271163516
 20
313.747101729
 30
0.0
  0
VERTEX
  5
88C
  8
0
  6
CONTINUOUS
 62
     8
 10
701.5141562365
 20
313.9141316388
 30
0.0
  0
VERTEX
  5
88D
  8
0
  6
CONTINUOUS
 62
     8
 10
701.3838493072
 20
314.0560847569
 30
0.0
  0
VERTEX
  5
88E
  8
0
  6
CONTINUOUS
 62
     8
 10
701.2142293893
 20
314.2106796477
 30
0.0
  0
VERTEX
  5
88F
  8
0
  6
CONTINUOUS
 62
     8
 10
701.0064960264
 20
314.3758478437
 30
0.0
  0
VERTEX
  5
890
  8
0
  6
CONTINUOUS
 62
     8
 10
700.7631824158
 20
314.5490757052
 30
0.0
  0
VERTEX
  5
891
  8
0
  6
CONTINUOUS
 62
     8
 10
700.4880771779
 20
314.7275208358
 30
0.0
  0
VERTEX
  5
892
  8
0
  6
CONTINUOUS
 62
     8
 10
700.1860343658
 20
314.9081657503
 30
0.0
  0
VERTEX
  5
893
  8
0
  6
CONTINUOUS
 62
     8
 10
699.8626717173
 20
315.0879892383
 30
0.0
  0
VERTEX
  5
894
  8
0
  6
CONTINUOUS
 62
     8
 10
699.5240689062
 20
315.2641246889
 30
0.0
  0
VERTEX
  5
895
  8
0
  6
CONTINUOUS
 62
     8
 10
699.059525206
 20
315.4888500322
 30
0.0
  0
VERTEX
  5
896
  8
0
  6
CONTINUOUS
 62
     8
 10
698.5927016281
 20
315.697547314
 30
0.0
  0
VERTEX
  5
897
  8
0
  6
CONTINUOUS
 62
     8
 10
698.1357090913
 20
315.8867473576
 30
0.0
  0
SEQEND
  5
B50
  8
0
  6
CONTINUOUS
 62
     8
  0
POLYLINE
  5
2A8
  8
0
  6
CONTINUOUS
 62
     8
 66
     1
 10
0.0
 20
0.0
 30
0.0
  0
VERTEX
  5
898
  8
0
  6
CONTINUOUS
 62
     8
 10
698.1356234096
 20
315.8878472496
 30
0.0
  0
VERTEX
  5
899
  8
0
  6
CONTINUOUS
 62
     8
 10
698.9450060569
 20
317.9377012748
 30
0.0
  0
VERTEX
  5
89A
  8
0
  6
CONTINUOUS
 62
     8
 10
699.8127602779
 20
319.9198164839
 30
0.0
  0
VERTEX
  5
89B
  8
0
  6
CONTINUOUS
 62
     8
 10
700.7388786219
 20
321.8341910143
 30
0.0
  0
VERTEX
  5
89C
  8
0
  6
CONTINUOUS
 62
     8
 10
701.7233685397
 20
323.6808230031
 30
0.0
  0
VERTEX
  5
89D
  8
0
  6
CONTINUOUS
 62
     8
 10
702.6379999511
 20
325.2498258699
 30
0.0
  0
VERTEX
  5
89E
  8
0
  6
CONTINUOUS
 62
     8
 10
703.5978303098
 20
326.7663710613
 30
0.0
  0
VERTEX
  5
89F
  8
0
  6
CONTINUOUS
 62
     8
 10
703.8566839688
 20
327.1548927624
 30
0.0
  0
VERTEX
  5
8A0
  8
0
  6
CONTINUOUS
 62
     8
 10
704.118638932
 20
327.5398158331
 30
0.0
  0
VERTEX
  5
8A1
  8
0
  6
CONTINUOUS
 62
     8
 10
704.3836933367
 20
327.9211402733
 30
0.0
  0
VERTEX
  5
8A2
  8
0
  6
CONTINUOUS
 62
     8
 10
704.6518490456
 20
328.2988679458
 30
0.0
  0
VERTEX
  5
8A3
  8
0
  6
CONTINUOUS
 62
     8
 10
704.9231041961
 20
328.6729951251
 30
0.0
  0
VERTEX
  5
8A4
  8
0
  6
CONTINUOUS
 62
     8
 10
705.1974606507
 20
329.0435255367
 30
0.0
  0
VERTEX
  5
8A5
  8
0
  6
CONTINUOUS
 62
     8
 10
705.8955651515
 20
329.9521555055
 30
0.0
  0
VERTEX
  5
8A6
  8
0
  6
CONTINUOUS
 62
     8
 10
706.6111785166
 20
330.8355037917
 30
0.0
  0
VERTEX
  5
8A7
  8
0
  6
CONTINUOUS
 62
     8
 10
707.3443026089
 20
331.6935703952
 30
0.0
  0
VERTEX
  5
8A8
  8
0
  6
CONTINUOUS
 62
     8
 10
708.0949355655
 20
332.5263553161
 30
0.0
  0
VERTEX
  5
8A9
  8
0
  6
CONTINUOUS
 62
     8
 10
708.8630773865
 20
333.3338529665
 30
0.0
  0
VERTEX
  5
8AA
  8
0
  6
CONTINUOUS
 62
     8
 10
709.6487280719
 20
334.1160745222
 30
0.0
  0
VERTEX
  5
8AB
  8
0
  6
CONTINUOUS
 62
     8
 10
710.4518876218
 20
334.8730088074
 30
0.0
  0
VERTEX
  5
8AC
  8
0
  6
CONTINUOUS
 62
     8
 10
712.0084405683
 20
336.2265110809
 30
0.0
  0
VERTEX
  5
8AD
  8
0
  6
CONTINUOUS
 62
     8
 10
713.6156891279
 20
337.4796577592
 30
0.0
  0
VERTEX
  5
8AE
  8
0
  6
CONTINUOUS
 62
     8
 10
715.2736314379
 20
338.632448842
 30
0.0
  0
VERTEX
  5
8AF
  8
0
  6
CONTINUOUS
 62
     8
 10
716.9822693609
 20
339.6848843295
 30
0.0
  0
SEQEND
  5
B4F
  8
0
  6
CONTINUOUS
 62
     8
  0
POLYLINE
  5
2A9
  8
0
  6
CONTINUOUS
 62
     8
 66
     1
 10
0.0
 20
0.0
 30
0.0
  0
VERTEX
  5
8B0
  8
0
  6
CONTINUOUS
 62
     8
 10
767.250010445
 20
315.8878472496
 30
0.0
  0
VERTEX
  5
8B1
  8
0
  6
CONTINUOUS
 62
     8
 10
766.4406277977
 20
317.9377012748
 30
0.0
  0
VERTEX
  5
8B2
  8
0
  6
CONTINUOUS
 62
     8
 10
765.5728735768
 20
319.9198164839
 30
0.0
  0
VERTEX
  5
8B3
  8
0
  6
CONTINUOUS
 62
     8
 10
764.6467552327
 20
321.8341910143
 30
0.0
  0
VERTEX
  5
8B4
  8
0
  6
CONTINUOUS
 62
     8
 10
763.6622653149
 20
323.6808230031
 30
0.0
  0
VERTEX
  5
8B5
  8
0
  6
CONTINUOUS
 62
     8
 10
762.7476339035
 20
325.2498258699
 30
0.0
  0
VERTEX
  5
8B6
  8
0
  6
CONTINUOUS
 62
     8
 10
761.7878035449
 20
326.7663710613
 30
0.0
  0
VERTEX
  5
8B7
  8
0
  6
CONTINUOUS
 62
     8
 10
761.5289498859
 20
327.1548927624
 30
0.0
  0
VERTEX
  5
8B8
  8
0
  6
CONTINUOUS
 62
     8
 10
761.2669949226
 20
327.5398158331
 30
0.0
  0
VERTEX
  5
8B9
  8
0
  6
CONTINUOUS
 62
     8
 10
761.0019405179
 20
327.9211402733
 30
0.0
  0
VERTEX
  5
8BA
  8
0
  6
CONTINUOUS
 62
     8
 10
760.733784809
 20
328.2988679458
 30
0.0
  0
VERTEX
  5
8BB
  8
0
  6
CONTINUOUS
 62
     8
 10
760.4625296586
 20
328.6729951251
 30
0.0
  0
VERTEX
  5
8BC
  8
0
  6
CONTINUOUS
 62
     8
 10
760.188173204
 20
329.0435255367
 30
0.0
  0
VERTEX
  5
8BD
  8
0
  6
CONTINUOUS
 62
     8
 10
759.4900687032
 20
329.9521555055
 30
0.0
  0
VERTEX
  5
8BE
  8
0
  6
CONTINUOUS
 62
     8
 10
758.774455338
 20
330.8355037917
 30
0.0
  0
VERTEX
  5
8BF
  8
0
  6
CONTINUOUS
 62
     8
 10
758.0413312458
 20
331.6935703952
 30
0.0
  0
VERTEX
  5
8C0
  8
0
  6
CONTINUOUS
 62
     8
 10
757.2906982892
 20
332.5263553161
 30
0.0
  0
VERTEX
  5
8C1
  8
0
  6
CONTINUOUS
 62
     8
 10
756.5225564681
 20
333.3338529665
 30
0.0
  0
VERTEX
  5
8C2
  8
0
  6
CONTINUOUS
 62
     8
 10
755.7369057827
 20
334.1160745222
 30
0.0
  0
VERTEX
  5
8C3
  8
0
  6
CONTINUOUS
 62
     8
 10
754.9337462329
 20
334.8730088074
 30
0.0
  0
VERTEX
  5
8C4
  8
0
  6
CONTINUOUS
 62
     8
 10
753.3771932863
 20
336.2265110809
 30
0.0
  0
VERTEX
  5
8C5
  8
0
  6
CONTINUOUS
 62
     8
 10
751.7699447267
 20
337.4796577592
 30
0.0
  0
VERTEX
  5
8C6
  8
0
  6
CONTINUOUS
 62
     8
 10
750.1120024167
 20
338.632448842
 30
0.0
  0
VERTEX
  5
8C7
  8
0
  6
CONTINUOUS
 62
     8
 10
748.4033644937
 20
339.6848843295
 30
0.0
  0
SEQEND
  5
B4E
  8
0
  6
CONTINUOUS
 62
     8
  0
POLYLINE
  5
2AA
  8
0
  6
CONTINUOUS
 62
     8
 66
     1
 10
0.0
 20
0.0
 30
0.0
  0
VERTEX
  5
8C8
  8
0
  6
CONTINUOUS
 62
     8
 10
763.7244627618
 20
313.4951826979
 30
0.0
  0
VERTEX
  5
8C9
  8
0
  6
CONTINUOUS
 62
     8
 10
763.7116347246
 20
313.6072794769
 30
0.0
  0
VERTEX
  5
8CA
  8
0
  6
CONTINUOUS
 62
     8
 10
763.7585137777
 20
313.7470737893
 30
0.0
  0
VERTEX
  5
8CB
  8
0
  6
CONTINUOUS
 62
     8
 10
763.871457129
 20
313.9141307075
 30
0.0
  0
VERTEX
  5
8CC
  8
0
  6
CONTINUOUS
 62
     8
 10
764.001739844
 20
314.0561164219
 30
0.0
  0
VERTEX
  5
8CD
  8
0
  6
CONTINUOUS
 62
     8
 10
764.1713336848
 20
314.2107541535
 30
0.0
  0
VERTEX
  5
8CE
  8
0
  6
CONTINUOUS
 62
     8
 10
764.3790297948
 20
314.3759772975
 30
0.0
  0
VERTEX
  5
8CF
  8
0
  6
CONTINUOUS
 62
     8
 10
764.6223061525
 20
314.5492712829
 30
0.0
  0
VERTEX
  5
8D0
  8
0
  6
CONTINUOUS
 62
     8
 10
764.8973666869
 20
314.7277937133
 30
0.0
  0
VERTEX
  5
8D1
  8
0
  6
CONTINUOUS
 62
     8
 10
765.1993647956
 20
314.9085280348
 30
0.0
  0
VERTEX
  5
8D2
  8
0
  6
CONTINUOUS
 62
     8
 10
765.5226827406
 20
315.0884493116
 30
0.0
  0
VERTEX
  5
8D3
  8
0
  6
CONTINUOUS
 62
     8
 10
765.8612482988
 20
315.2646918643
 30
0.0
  0
VERTEX
  5
8D4
  8
0
  6
CONTINUOUS
 62
     8
 10
766.3257510208
 20
315.4895718072
 30
0.0
  0
VERTEX
  5
8D5
  8
0
  6
CONTINUOUS
 62
     8
 10
766.7925485216
 20
315.6984320704
 30
0.0
  0
VERTEX
  5
8D6
  8
0
  6
CONTINUOUS
 62
     8
 10
767.2495298826
 20
315.8877997521
 30
0.0
  0
SEQEND
  5
B4D
  8
0
  6
CONTINUOUS
 62
     8
  0
LINE
  5
2AB
  8
0
  6
CONTINUOUS
 62
     8
 10
678.5163522505
 20
391.3743191261
 30
0.0
 11
677.6633129262
 21
401.3743244905
 31
0.0
  0
LINE
  5
2AC
  8
0
  6
CONTINUOUS
 62
     8
 10
786.8692816042
 20
391.3743191261
 30
0.0
 11
787.7223209285
 21
401.3743244905
 31
0.0
  0
LINE
  5
2AD
  8
0
  6
CONTINUOUS
 62
     8
 10
681.3382969045
 20
376.8513866563
 30
0.0
 11
690.6928174936
 21
376.8513866563
 31
0.0
  0
LINE
  5
2AE
  8
0
  6
CONTINUOUS
 62
     8
 10
784.0473369502
 20
376.8513866563
 30
0.0
 11
774.6928163611
 21
376.8513866563
 31
0.0
  0
LINE
  5
2AF
  8
0
  6
CONTINUOUS
 62
     8
 10
680.2503519498
 20
390.8977948923
 30
0.0
 11
678.5163522505
 21
391.3743191261
 31
0.0
  0
LINE
  5
2B0
  8
0
  6
CONTINUOUS
 62
     8
 10
785.1352819048
 20
390.8977948923
 30
0.0
 11
786.8692816042
 21
391.3743191261
 31
0.0
  0
LINE
  5
2B1
  8
0
  6
CONTINUOUS
 62
     8
 10
690.6928174936
 20
371.3743232984
 30
0.0
 11
690.6928174936
 21
376.8513866563
 31
0.0
  0
LINE
  5
2B2
  8
0
  6
CONTINUOUS
 62
     8
 10
774.6928163611
 20
371.3743232984
 30
0.0
 11
774.6928163611
 21
376.8513866563
 31
0.0
  0
LINE
  5
2B3
  8
0
  6
CONTINUOUS
 62
     8
 10
677.7012922608
 20
407.0920639534
 30
0.0
 11
673.73779945
 21
407.0920639534
 31
0.0
  0
LINE
  5
2B4
  8
0
  6
CONTINUOUS
 62
     8
 10
676.7357417189
 20
412.1311523814
 30
0.0
 11
678.1967186176
 21
412.1311523814
 31
0.0
  0
LINE
  5
2B5
  8
0
  6
CONTINUOUS
 62
     8
 10
787.6843415939
 20
407.0920639534
 30
0.0
 11
791.6478344046
 21
407.0920639534
 31
0.0
  0
LINE
  5
2B6
  8
0
  6
CONTINUOUS
 62
     8
 10
788.6498921357
 20
412.1311523814
 30
0.0
 11
787.1889152371
 21
412.1311523814
 31
0.0
  0
ARC
  5
2B7
  8
0
  6
CONTINUOUS
 62
     8
 10
772.2546912124
 20
369.1061955889
 30
0.0
 40
73.88524029873719
 50
204.4614352898
 51
206.4103651701
  0
ARC
  5
2B8
  8
0
  6
CONTINUOUS
 62
     8
 10
723.1601594325
 20
298.588092133
 30
0.0
 40
43.85931509890948
 50
82.8339634227
 51
114.4578309537
  0
ARC
  5
2B9
  8
0
  6
CONTINUOUS
 62
     8
 10
724.1148489565
 20
298.1169838192
 30
0.0
 40
42.17539745875394
 50
99.7364978216
 51
115.3151842839
  0
ARC
  5
2BA
  8
0
  6
CONTINUOUS
 62
     8
 10
742.2254744222
 20
298.588092133
 30
0.0
 40
43.8593150989095
 50
65.5421690463
 51
97.1660365773
  0
ARC
  5
2BB
  8
0
  6
CONTINUOUS
 62
     8
 10
693.1309426422
 20
369.1061955889
 30
0.0
 40
73.8852402987371
 50
333.5896348299
 51
335.5385647102
  0
ARC
  5
2BC
  8
0
  6
CONTINUOUS
 62
     8
 10
741.2707848981
 20
298.1169838192
 30
0.0
 40
42.17539745875394
 50
64.6848157161
 51
80.2635021784
  0
LINE
  5
2BD
  8
0
  6
CONTINUOUS
 62
     8
 10
705.0013762705
 20
338.5117457111
 30
0.0
 11
705.0013762705
 21
371.3743232984
 31
0.0
  0
LINE
  5
2BE
  8
0
  6
CONTINUOUS
 62
     8
 10
760.3842575841
 20
338.5117457111
 30
0.0
 11
760.3842575841
 21
371.3743232984
 31
0.0
  0
POLYLINE
  5
2BF
  8
0
  6
CONTINUOUS
 62
     8
 66
     1
 10
0.0
 20
0.0
 30
0.0
  0
VERTEX
  5
8D7
  8
0
  6
CONTINUOUS
 62
     8
 10
706.0807567828
 20
336.2422467072
 30
0.0
  0
VERTEX
  5
8D8
  8
0
  6
CONTINUOUS
 62
     8
 10
705.7649937265
 20
336.0755138893
 30
0.0
  0
VERTEX
  5
8D9
  8
0
  6
CONTINUOUS
 62
     8
 10
705.4507822536
 20
335.8704739113
 30
0.0
  0
VERTEX
  5
8DA
  8
0
  6
CONTINUOUS
 62
     8
 10
705.1383458816
 20
335.6272720594
 30
0.0
  0
VERTEX
  5
8DB
  8
0
  6
CONTINUOUS
 62
     8
 10
704.8279081278
 20
335.3460871477
 30
0.0
  0
VERTEX
  5
8DC
  8
0
  6
CONTINUOUS
 62
     8
 10
704.5196887844
 20
335.0271091659
 30
0.0
  0
VERTEX
  5
8DD
  8
0
  6
CONTINUOUS
 62
     8
 10
704.2139095061
 20
334.6705765326
 30
0.0
  0
VERTEX
  5
8DE
  8
0
  6
CONTINUOUS
 62
     8
 10
703.9107863598
 20
334.2767351169
 30
0.0
  0
VERTEX
  5
8DF
  8
0
  6
CONTINUOUS
 62
     8
 10
703.610537275
 20
333.8458717663
 30
0.0
  0
VERTEX
  5
8E0
  8
0
  6
CONTINUOUS
 62
     8
 10
703.3133745931
 20
333.3782882292
 30
0.0
  0
VERTEX
  5
8E1
  8
0
  6
CONTINUOUS
 62
     8
 10
703.0195087932
 20
332.8743197817
 30
0.0
  0
VERTEX
  5
8E2
  8
0
  6
CONTINUOUS
 62
     8
 10
702.7291522168
 20
332.3343240518
 30
0.0
  0
VERTEX
  5
8E3
  8
0
  6
CONTINUOUS
 62
     8
 10
702.4425116174
 20
331.7586884696
 30
0.0
  0
VERTEX
  5
8E4
  8
0
  6
CONTINUOUS
 62
     8
 10
702.1597881608
 20
331.1478228171
 30
0.0
  0
VERTEX
  5
8E5
  8
0
  6
CONTINUOUS
 62
     8
 10
701.8811867379
 20
330.5021610905
 30
0.0
  0
VERTEX
  5
8E6
  8
0
  6
CONTINUOUS
 62
     8
 10
701.6069029265
 20
329.8221652258
 30
0.0
  0
VERTEX
  5
8E7
  8
0
  6
CONTINUOUS
 62
     8
 10
701.3371341668
 20
329.1083176483
 30
0.0
  0
VERTEX
  5
8E8
  8
0
  6
CONTINUOUS
 62
     8
 10
701.0720723115
 20
328.3611268599
 30
0.0
  0
VERTEX
  5
8E9
  8
0
  6
CONTINUOUS
 62
     8
 10
700.811909213
 20
327.5811274398
 30
0.0
  0
VERTEX
  5
8EA
  8
0
  6
CONTINUOUS
 62
     8
 10
700.5568236851
 20
326.7688744564
 30
0.0
  0
VERTEX
  5
8EB
  8
0
  6
CONTINUOUS
 62
     8
 10
700.3070019924
 20
325.9249453295
 30
0.0
  0
VERTEX
  5
8EC
  8
0
  6
CONTINUOUS
 62
     8
 10
700.0626192235
 20
325.0499435563
 30
0.0
  0
VERTEX
  5
8ED
  8
0
  6
CONTINUOUS
 62
     8
 10
699.8238541924
 20
324.1444893975
 30
0.0
  0
VERTEX
  5
8EE
  8
0
  6
CONTINUOUS
 62
     8
 10
699.5908745371
 20
323.2092329163
 30
0.0
  0
VERTEX
  5
8EF
  8
0
  6
CONTINUOUS
 62
     8
 10
699.3638441705
 20
322.2448372144
 30
0.0
  0
VERTEX
  5
8F0
  8
0
  6
CONTINUOUS
 62
     8
 10
699.1429270052
 20
321.2519896079
 30
0.0
  0
VERTEX
  5
8F1
  8
0
  6
CONTINUOUS
 62
     8
 10
698.9282832288
 20
320.2313979019
 30
0.0
  0
VERTEX
  5
8F2
  8
0
  6
CONTINUOUS
 62
     8
 10
698.7200618528
 20
319.1837903906
 30
0.0
  0
VERTEX
  5
8F3
  8
0
  6
CONTINUOUS
 62
     8
 10
698.5184081637
 20
318.1099121321
 30
0.0
  0
VERTEX
  5
8F4
  8
0
  6
CONTINUOUS
 62
     8
 10
698.3234748982
 20
317.0105305363
 30
0.0
  0
VERTEX
  5
8F5
  8
0
  6
CONTINUOUS
 62
     8
 10
698.1353924416
 20
315.8864260513
 30
0.0
  0
SEQEND
  5
B4C
  8
0
  6
CONTINUOUS
 62
     8
  0
POLYLINE
  5
2C0
  8
0
  6
CONTINUOUS
 62
     8
 66
     1
 10
0.0
 20
0.0
 30
0.0
  0
VERTEX
  5
8F6
  8
0
  6
CONTINUOUS
 62
     8
 10
759.3048770719
 20
336.2422467072
 30
0.0
  0
VERTEX
  5
8F7
  8
0
  6
CONTINUOUS
 62
     8
 10
759.6206401281
 20
336.0755138893
 30
0.0
  0
VERTEX
  5
8F8
  8
0
  6
CONTINUOUS
 62
     8
 10
759.934851601
 20
335.8704739113
 30
0.0
  0
VERTEX
  5
8F9
  8
0
  6
CONTINUOUS
 62
     8
 10
760.2472879731
 20
335.6272720594
 30
0.0
  0
VERTEX
  5
8FA
  8
0
  6
CONTINUOUS
 62
     8
 10
760.5577257268
 20
335.3460871477
 30
0.0
  0
VERTEX
  5
8FB
  8
0
  6
CONTINUOUS
 62
     8
 10
760.8659450703
 20
335.0271091659
 30
0.0
  0
VERTEX
  5
8FC
  8
0
  6
CONTINUOUS
 62
     8
 10
761.1717243486
 20
334.6705765326
 30
0.0
  0
VERTEX
  5
8FD
  8
0
  6
CONTINUOUS
 62
     8
 10
761.4748474948
 20
334.2767351169
 30
0.0
  0
VERTEX
  5
8FE
  8
0
  6
CONTINUOUS
 62
     8
 10
761.7750965797
 20
333.8458717663
 30
0.0
  0
VERTEX
  5
8FF
  8
0
  6
CONTINUOUS
 62
     8
 10
762.0722592615
 20
333.3782882292
 30
0.0
  0
VERTEX
  5
900
  8
0
  6
CONTINUOUS
 62
     8
 10
762.3661250614
 20
332.8743197817
 30
0.0
  0
VERTEX
  5
901
  8
0
  6
CONTINUOUS
 62
     8
 10
762.6564816378
 20
332.3343240518
 30
0.0
  0
VERTEX
  5
902
  8
0
  6
CONTINUOUS
 62
     8
 10
762.9431222372
 20
331.7586884696
 30
0.0
  0
VERTEX
  5
903
  8
0
  6
CONTINUOUS
 62
     8
 10
763.2258456938
 20
331.1478228171
 30
0.0
  0
VERTEX
  5
904
  8
0
  6
CONTINUOUS
 62
     8
 10
763.5044471167
 20
330.5021610905
 30
0.0
  0
VERTEX
  5
905
  8
0
  6
CONTINUOUS
 62
     8
 10
763.7787309282
 20
329.8221652258
 30
0.0
  0
VERTEX
  5
906
  8
0
  6
CONTINUOUS
 62
     8
 10
764.0484996878
 20
329.1083176483
 30
0.0
  0
VERTEX
  5
907
  8
0
  6
CONTINUOUS
 62
     8
 10
764.3135615431
 20
328.3611268599
 30
0.0
  0
VERTEX
  5
908
  8
0
  6
CONTINUOUS
 62
     8
 10
764.5737246417
 20
327.5811274398
 30
0.0
  0
VERTEX
  5
909
  8
0
  6
CONTINUOUS
 62
     8
 10
764.8288101696
 20
326.7688744564
 30
0.0
  0
VERTEX
  5
90A
  8
0
  6
CONTINUOUS
 62
     8
 10
765.0786318623
 20
325.9249453295
 30
0.0
  0
VERTEX
  5
90B
  8
0
  6
CONTINUOUS
 62
     8
 10
765.3230146312
 20
325.0499435563
 30
0.0
  0
VERTEX
  5
90C
  8
0
  6
CONTINUOUS
 62
     8
 10
765.5617796623
 20
324.1444893975
 30
0.0
  0
VERTEX
  5
90D
  8
0
  6
CONTINUOUS
 62
     8
 10
765.7947593175
 20
323.2092329163
 30
0.0
  0
VERTEX
  5
90E
  8
0
  6
CONTINUOUS
 62
     8
 10
766.0217896842
 20
322.2448372144
 30
0.0
  0
VERTEX
  5
90F
  8
0
  6
CONTINUOUS
 62
     8
 10
766.2427068495
 20
321.2519896079
 30
0.0
  0
VERTEX
  5
910
  8
0
  6
CONTINUOUS
 62
     8
 10
766.4573506259
 20
320.2313979019
 30
0.0
  0
VERTEX
  5
911
  8
0
  6
CONTINUOUS
 62
     8
 10
766.6655720018
 20
319.1837903906
 30
0.0
  0
VERTEX
  5
912
  8
0
  6
CONTINUOUS
 62
     8
 10
766.867225691
 20
318.1099121321
 30
0.0
  0
VERTEX
  5
913
  8
0
  6
CONTINUOUS
 62
     8
 10
767.0621589564
 20
317.0105305363
 30
0.0
  0
VERTEX
  5
914
  8
0
  6
CONTINUOUS
 62
     8
 10
767.250241413
 20
315.8864260513
 30
0.0
  0
SEQEND
  5
B4B
  8
0
  6
CONTINUOUS
 62
     8
  0
ARC
  5
2C1
  8
0
  6
CONTINUOUS
 62
     8
 10
746.1893269779
 20
300.4278046343
 30
0.0
 40
50.47940503376557
 50
162.1658196909
 51
181.2613140728
  0
POLYLINE
  5
2C2
  8
0
  6
CONTINUOUS
 62
     8
 66
     1
 10
0.0
 20
0.0
 30
0.0
  0
VERTEX
  5
915
  8
0
  6
CONTINUOUS
 62
     8
 10
686.7737338685
 20
301.537446303
 30
0.0
  0
VERTEX
  5
916
  8
0
  6
CONTINUOUS
 62
     8
 10
686.9344279908
 20
301.4075635911
 30
0.0
  0
VERTEX
  5
917
  8
0
  6
CONTINUOUS
 62
     8
 10
687.1247679733
 20
301.2780668542
 30
0.0
  0
VERTEX
  5
918
  8
0
  6
CONTINUOUS
 62
     8
 10
687.3441838466
 20
301.1493410777
 30
0.0
  0
VERTEX
  5
919
  8
0
  6
CONTINUOUS
 62
     8
 10
687.5920311354
 20
301.0217688316
 30
0.0
  0
VERTEX
  5
91A
  8
0
  6
CONTINUOUS
 62
     8
 10
687.8675685071
 20
300.8957292496
 30
0.0
  0
VERTEX
  5
91B
  8
0
  6
CONTINUOUS
 62
     8
 10
688.1699801229
 20
300.7715969616
 30
0.0
  0
VERTEX
  5
91C
  8
0
  6
CONTINUOUS
 62
     8
 10
688.4983644627
 20
300.6497409115
 30
0.0
  0
VERTEX
  5
91D
  8
0
  6
CONTINUOUS
 62
     8
 10
688.8517455005
 20
300.5305232692
 30
0.0
  0
VERTEX
  5
91E
  8
0
  6
CONTINUOUS
 62
     8
 10
689.2290727042
 20
300.4142983737
 30
0.0
  0
VERTEX
  5
91F
  8
0
  6
CONTINUOUS
 62
     8
 10
689.6292284869
 20
300.3014116294
 30
0.0
  0
VERTEX
  5
920
  8
0
  6
CONTINUOUS
 62
     8
 10
690.0510207557
 20
300.1921986325
 30
0.0
  0
VERTEX
  5
921
  8
0
  6
CONTINUOUS
 62
     8
 10
690.4931940876
 20
300.0869839198
 30
0.0
  0
VERTEX
  5
922
  8
0
  6
CONTINUOUS
 62
     8
 10
690.9544334554
 20
299.9860802411
 30
0.0
  0
VERTEX
  5
923
  8
0
  6
CONTINUOUS
 62
     8
 10
691.4333754026
 20
299.8897874823
 30
0.0
  0
VERTEX
  5
924
  8
0
  6
CONTINUOUS
 62
     8
 10
691.9285856925
 20
299.7983919086
 30
0.0
  0
VERTEX
  5
925
  8
0
  6
CONTINUOUS
 62
     8
 10
692.4386040114
 20
299.7121649424
 30
0.0
  0
VERTEX
  5
926
  8
0
  6
CONTINUOUS
 62
     8
 10
692.9619067155
 20
299.631363163
 30
0.0
  0
VERTEX
  5
927
  8
0
  6
CONTINUOUS
 62
     8
 10
693.4969366335
 20
299.5562265024
 30
0.0
  0
VERTEX
  5
928
  8
0
  6
CONTINUOUS
 62
     8
 10
694.0421105169
 20
299.486978478
 30
0.0
  0
VERTEX
  5
929
  8
0
  6
CONTINUOUS
 62
     8
 10
694.5958078646
 20
299.4238246793
 30
0.0
  0
VERTEX
  5
92A
  8
0
  6
CONTINUOUS
 62
     8
 10
695.1563746475
 20
299.3669530006
 30
0.0
  0
VERTEX
  5
92B
  8
0
  6
CONTINUOUS
 62
     8
 10
695.7221531116
 20
299.3165323606
 30
0.0
  0
SEQEND
  5
B4A
  8
0
  6
CONTINUOUS
 62
     8
  0
POLYLINE
  5
2C3
  8
0
  6
CONTINUOUS
 62
     8
 66
     1
 10
0.0
 20
0.0
 30
0.0
  0
VERTEX
  5
92C
  8
0
  6
CONTINUOUS
 62
     8
 10
686.7737338685
 20
301.537446303
 30
0.0
  0
VERTEX
  5
92D
  8
0
  6
CONTINUOUS
 62
     8
 10
686.9388275586
 20
302.9089947559
 30
0.0
  0
VERTEX
  5
92E
  8
0
  6
CONTINUOUS
 62
     8
 10
687.1193514012
 20
304.26742489
 30
0.0
  0
VERTEX
  5
92F
  8
0
  6
CONTINUOUS
 62
     8
 10
687.3151824616
 20
305.6117643464
 30
0.0
  0
VERTEX
  5
930
  8
0
  6
CONTINUOUS
 62
     8
 10
687.5261717283
 20
306.9410508361
 30
0.0
  0
VERTEX
  5
931
  8
0
  6
CONTINUOUS
 62
     8
 10
687.7521739148
 20
308.2543320816
 30
0.0
  0
VERTEX
  5
932
  8
0
  6
CONTINUOUS
 62
     8
 10
687.9930251085
 20
309.5506674472
 30
0.0
  0
VERTEX
  5
933
  8
0
  6
CONTINUOUS
 62
     8
 10
688.2485576712
 20
310.829130267
 30
0.0
  0
VERTEX
  5
934
  8
0
  6
CONTINUOUS
 62
     8
 10
688.5185816132
 20
312.0888027225
 30
0.0
  0
VERTEX
  5
935
  8
0
  6
CONTINUOUS
 62
     8
 10
688.8029069446
 20
313.3287851561
 30
0.0
  0
VERTEX
  5
936
  8
0
  6
CONTINUOUS
 62
     8
 10
689.1013287746
 20
314.5481890861
 30
0.0
  0
VERTEX
  5
937
  8
0
  6
CONTINUOUS
 62
     8
 10
689.4136347615
 20
315.7461409319
 30
0.0
  0
VERTEX
  5
938
  8
0
  6
CONTINUOUS
 62
     8
 10
689.7396013879
 20
316.9217829455
 30
0.0
  0
VERTEX
  5
939
  8
0
  6
CONTINUOUS
 62
     8
 10
690.0789939605
 20
318.0742741425
 30
0.0
  0
VERTEX
  5
93A
  8
0
  6
CONTINUOUS
 62
     8
 10
690.4315703355
 20
319.2027875085
 30
0.0
  0
VERTEX
  5
93B
  8
0
  6
CONTINUOUS
 62
     8
 10
690.7970809184
 20
320.3065183807
 30
0.0
  0
VERTEX
  5
93C
  8
0
  6
CONTINUOUS
 62
     8
 10
691.1752574884
 20
321.3846732725
 30
0.0
  0
VERTEX
  5
93D
  8
0
  6
CONTINUOUS
 62
     8
 10
691.5658355497
 20
322.4364810486
 30
0.0
  0
VERTEX
  5
93E
  8
0
  6
CONTINUOUS
 62
     8
 10
691.9685282551
 20
323.4611892004
 30
0.0
  0
VERTEX
  5
93F
  8
0
  6
CONTINUOUS
 62
     8
 10
692.3830562078
 20
324.4580638457
 30
0.0
  0
VERTEX
  5
940
  8
0
  6
CONTINUOUS
 62
     8
 10
692.8091176592
 20
325.4263897289
 30
0.0
  0
VERTEX
  5
941
  8
0
  6
CONTINUOUS
 62
     8
 10
693.2464071356
 20
326.3654776711
 30
0.0
  0
VERTEX
  5
942
  8
0
  6
CONTINUOUS
 62
     8
 10
693.6946117126
 20
327.2746496696
 30
0.0
  0
VERTEX
  5
943
  8
0
  6
CONTINUOUS
 62
     8
 10
694.1534147404
 20
328.1532593865
 30
0.0
  0
VERTEX
  5
944
  8
0
  6
CONTINUOUS
 62
     8
 10
694.6224809431
 20
329.0006753851
 30
0.0
  0
VERTEX
  5
945
  8
0
  6
CONTINUOUS
 62
     8
 10
695.1014787697
 20
329.8162923057
 30
0.0
  0
VERTEX
  5
946
  8
0
  6
CONTINUOUS
 62
     8
 10
695.5900617682
 20
330.5995234151
 30
0.0
  0
VERTEX
  5
947
  8
0
  6
CONTINUOUS
 62
     8
 10
696.0878872119
 20
331.3498117823
 30
0.0
  0
VERTEX
  5
948
  8
0
  6
CONTINUOUS
 62
     8
 10
696.5945900225
 20
332.0666172404
 30
0.0
  0
VERTEX
  5
949
  8
0
  6
CONTINUOUS
 62
     8
 10
697.1098125719
 20
332.7494294245
 30
0.0
  0
VERTEX
  5
94A
  8
0
  6
CONTINUOUS
 62
     8
 10
697.6331860565
 20
333.397752871
 30
0.0
  0
VERTEX
  5
94B
  8
0
  6
CONTINUOUS
 62
     8
 10
698.164334222
 20
334.0111330945
 30
0.0
  0
VERTEX
  5
94C
  8
0
  6
CONTINUOUS
 62
     8
 10
698.7028733634
 20
334.5891230602
 30
0.0
  0
VERTEX
  5
94D
  8
0
  6
CONTINUOUS
 62
     8
 10
699.2484272264
 20
335.1313129861
 30
0.0
  0
VERTEX
  5
94E
  8
0
  6
CONTINUOUS
 62
     8
 10
699.800597205
 20
335.6373117168
 30
0.0
  0
VERTEX
  5
94F
  8
0
  6
CONTINUOUS
 62
     8
 10
700.3589884185
 20
336.1067616243
 30
0.0
  0
VERTEX
  5
950
  8
0
  6
CONTINUOUS
 62
     8
 10
700.9232022606
 20
336.5393237073
 30
0.0
  0
VERTEX
  5
951
  8
0
  6
CONTINUOUS
 62
     8
 10
701.4928382628
 20
336.9346850414
 30
0.0
  0
VERTEX
  5
952
  8
0
  6
CONTINUOUS
 62
     8
 10
702.0674847804
 20
337.2925662298
 30
0.0
  0
VERTEX
  5
953
  8
0
  6
CONTINUOUS
 62
     8
 10
702.6467301689
 20
337.6127102275
 30
0.0
  0
VERTEX
  5
954
  8
0
  6
CONTINUOUS
 62
     8
 10
703.2301627837
 20
337.8948897917
 30
0.0
  0
VERTEX
  5
955
  8
0
  6
CONTINUOUS
 62
     8
 10
703.817361667
 20
338.1389000315
 30
0.0
  0
VERTEX
  5
956
  8
0
  6
CONTINUOUS
 62
     8
 10
704.4079077237
 20
338.3445695836
 30
0.0
  0
VERTEX
  5
957
  8
0
  6
CONTINUOUS
 62
     8
 10
705.0013762705
 20
338.5117457111
 30
0.0
  0
SEQEND
  5
B49
  8
0
  6
CONTINUOUS
 62
     8
  0
POLYLINE
  5
2C4
  8
0
  6
CONTINUOUS
 62
     8
 66
     1
 10
0.0
 20
0.0
 30
0.0
  0
VERTEX
  5
958
  8
0
  6
CONTINUOUS
 62
     8
 10
778.6118999862
 20
301.537446303
 30
0.0
  0
VERTEX
  5
959
  8
0
  6
CONTINUOUS
 62
     8
 10
778.4512058638
 20
301.4075635911
 30
0.0
  0
VERTEX
  5
95A
  8
0
  6
CONTINUOUS
 62
     8
 10
778.2608658813
 20
301.2780668542
 30
0.0
  0
VERTEX
  5
95B
  8
0
  6
CONTINUOUS
 62
     8
 10
778.041450008
 20
301.1493410777
 30
0.0
  0
VERTEX
  5
95C
  8
0
  6
CONTINUOUS
 62
     8
 10
777.7936027192
 20
301.0217688316
 30
0.0
  0
VERTEX
  5
95D
  8
0
  6
CONTINUOUS
 62
     8
 10
777.5180653476
 20
300.8957292496
 30
0.0
  0
VERTEX
  5
95E
  8
0
  6
CONTINUOUS
 62
     8
 10
777.2156537317
 20
300.7715969616
 30
0.0
  0
VERTEX
  5
95F
  8
0
  6
CONTINUOUS
 62
     8
 10
776.8872693919
 20
300.6497409115
 30
0.0
  0
VERTEX
  5
960
  8
0
  6
CONTINUOUS
 62
     8
 10
776.5338883542
 20
300.5305232692
 30
0.0
  0
VERTEX
  5
961
  8
0
  6
CONTINUOUS
 62
     8
 10
776.1565611504
 20
300.4142983737
 30
0.0
  0
VERTEX
  5
962
  8
0
  6
CONTINUOUS
 62
     8
 10
775.7564053677
 20
300.3014116294
 30
0.0
  0
VERTEX
  5
963
  8
0
  6
CONTINUOUS
 62
     8
 10
775.334613099
 20
300.1921986325
 30
0.0
  0
VERTEX
  5
964
  8
0
  6
CONTINUOUS
 62
     8
 10
774.892439767
 20
300.0869839198
 30
0.0
  0
VERTEX
  5
965
  8
0
  6
CONTINUOUS
 62
     8
 10
774.4312003993
 20
299.9860802411
 30
0.0
  0
VERTEX
  5
966
  8
0
  6
CONTINUOUS
 62
     8
 10
773.9522584521
 20
299.8897874823
 30
0.0
  0
VERTEX
  5
967
  8
0
  6
CONTINUOUS
 62
     8
 10
773.4570481621
 20
299.7983919086
 30
0.0
  0
VERTEX
  5
968
  8
0
  6
CONTINUOUS
 62
     8
 10
772.9470298432
 20
299.7121649424
 30
0.0
  0
VERTEX
  5
969
  8
0
  6
CONTINUOUS
 62
     8
 10
772.4237271391
 20
299.631363163
 30
0.0
  0
VERTEX
  5
96A
  8
0
  6
CONTINUOUS
 62
     8
 10
771.8886972212
 20
299.5562265024
 30
0.0
  0
VERTEX
  5
96B
  8
0
  6
CONTINUOUS
 62
     8
 10
771.3435233377
 20
299.486978478
 30
0.0
  0
VERTEX
  5
96C
  8
0
  6
CONTINUOUS
 62
     8
 10
770.7898259901
 20
299.4238246793
 30
0.0
  0
VERTEX
  5
96D
  8
0
  6
CONTINUOUS
 62
     8
 10
770.2292592071
 20
299.3669530006
 30
0.0
  0
VERTEX
  5
96E
  8
0
  6
CONTINUOUS
 62
     8
 10
769.6634807431
 20
299.3165323606
 30
0.0
  0
SEQEND
  5
B48
  8
0
  6
CONTINUOUS
 62
     8
  0
ARC
  5
2C5
  8
0
  6
CONTINUOUS
 62
     8
 10
719.1963068767
 20
300.4278046343
 30
0.0
 40
50.47940503376557
 50
358.7386859272
 51
17.8341803091
  0
POLYLINE
  5
2C6
  8
0
  6
CONTINUOUS
 62
     8
 66
     1
 10
0.0
 20
0.0
 30
0.0
  0
VERTEX
  5
96F
  8
0
  6
CONTINUOUS
 62
     8
 10
778.6118999862
 20
301.537446303
 30
0.0
  0
VERTEX
  5
970
  8
0
  6
CONTINUOUS
 62
     8
 10
778.446806296
 20
302.9089947559
 30
0.0
  0
VERTEX
  5
971
  8
0
  6
CONTINUOUS
 62
     8
 10
778.2662824534
 20
304.26742489
 30
0.0
  0
VERTEX
  5
972
  8
0
  6
CONTINUOUS
 62
     8
 10
778.070451393
 20
305.6117643464
 30
0.0
  0
VERTEX
  5
973
  8
0
  6
CONTINUOUS
 62
     8
 10
777.8594621264
 20
306.9410508361
 30
0.0
  0
VERTEX
  5
974
  8
0
  6
CONTINUOUS
 62
     8
 10
777.6334599398
 20
308.2543320816
 30
0.0
  0
VERTEX
  5
975
  8
0
  6
CONTINUOUS
 62
     8
 10
777.3926087462
 20
309.5506674472
 30
0.0
  0
VERTEX
  5
976
  8
0
  6
CONTINUOUS
 62
     8
 10
777.1370761834
 20
310.829130267
 30
0.0
  0
VERTEX
  5
977
  8
0
  6
CONTINUOUS
 62
     8
 10
776.8670522415
 20
312.0888027225
 30
0.0
  0
VERTEX
  5
978
  8
0
  6
CONTINUOUS
 62
     8
 10
776.58272691
 20
313.3287851561
 30
0.0
  0
VERTEX
  5
979
  8
0
  6
CONTINUOUS
 62
     8
 10
776.2843050801
 20
314.5481890861
 30
0.0
  0
VERTEX
  5
97A
  8
0
  6
CONTINUOUS
 62
     8
 10
775.9719990932
 20
315.7461409319
 30
0.0
  0
VERTEX
  5
97B
  8
0
  6
CONTINUOUS
 62
     8
 10
775.6460324668
 20
316.9217829455
 30
0.0
  0
VERTEX
  5
97C
  8
0
  6
CONTINUOUS
 62
     8
 10
775.3066398941
 20
318.0742741425
 30
0.0
  0
VERTEX
  5
97D
  8
0
  6
CONTINUOUS
 62
     8
 10
774.9540635191
 20
319.2027875085
 30
0.0
  0
VERTEX
  5
97E
  8
0
  6
CONTINUOUS
 62
     8
 10
774.5885529362
 20
320.3065183807
 30
0.0
  0
VERTEX
  5
97F
  8
0
  6
CONTINUOUS
 62
     8
 10
774.2103763663
 20
321.3846732725
 30
0.0
  0
VERTEX
  5
980
  8
0
  6
CONTINUOUS
 62
     8
 10
773.8197983049
 20
322.4364810486
 30
0.0
  0
VERTEX
  5
981
  8
0
  6
CONTINUOUS
 62
     8
 10
773.4171055995
 20
323.4611892004
 30
0.0
  0
VERTEX
  5
982
  8
0
  6
CONTINUOUS
 62
     8
 10
773.0025776469
 20
324.4580638457
 30
0.0
  0
VERTEX
  5
983
  8
0
  6
CONTINUOUS
 62
     8
 10
772.5765161954
 20
325.4263897289
 30
0.0
  0
VERTEX
  5
984
  8
0
  6
CONTINUOUS
 62
     8
 10
772.139226719
 20
326.3654776711
 30
0.0
  0
VERTEX
  5
985
  8
0
  6
CONTINUOUS
 62
     8
 10
771.6910221421
 20
327.2746496696
 30
0.0
  0
VERTEX
  5
986
  8
0
  6
CONTINUOUS
 62
     8
 10
771.2322191142
 20
328.1532593865
 30
0.0
  0
VERTEX
  5
987
  8
0
  6
CONTINUOUS
 62
     8
 10
770.7631529115
 20
329.0006753851
 30
0.0
  0
VERTEX
  5
988
  8
0
  6
CONTINUOUS
 62
     8
 10
770.284155085
 20
329.8162923057
 30
0.0
  0
VERTEX
  5
989
  8
0
  6
CONTINUOUS
 62
     8
 10
769.7955720865
 20
330.5995234151
 30
0.0
  0
VERTEX
  5
98A
  8
0
  6
CONTINUOUS
 62
     8
 10
769.2977466427
 20
331.3498117823
 30
0.0
  0
VERTEX
  5
98B
  8
0
  6
CONTINUOUS
 62
     8
 10
768.7910438322
 20
332.0666172404
 30
0.0
  0
VERTEX
  5
98C
  8
0
  6
CONTINUOUS
 62
     8
 10
768.2758212828
 20
332.7494294245
 30
0.0
  0
VERTEX
  5
98D
  8
0
  6
CONTINUOUS
 62
     8
 10
767.7524477981
 20
333.397752871
 30
0.0
  0
VERTEX
  5
98E
  8
0
  6
CONTINUOUS
 62
     8
 10
767.2212996327
 20
334.0111330945
 30
0.0
  0
VERTEX
  5
98F
  8
0
  6
CONTINUOUS
 62
     8
 10
766.6827604913
 20
334.5891230602
 30
0.0
  0
VERTEX
  5
990
  8
0
  6
CONTINUOUS
 62
     8
 10
766.1372066282
 20
335.1313129861
 30
0.0
  0
VERTEX
  5
991
  8
0
  6
CONTINUOUS
 62
     8
 10
765.5850366496
 20
335.6373117168
 30
0.0
  0
VERTEX
  5
992
  8
0
  6
CONTINUOUS
 62
     8
 10
765.0266454362
 20
336.1067616243
 30
0.0
  0
VERTEX
  5
993
  8
0
  6
CONTINUOUS
 62
     8
 10
764.462431594
 20
336.5393237073
 30
0.0
  0
VERTEX
  5
994
  8
0
  6
CONTINUOUS
 62
     8
 10
763.8927955918
 20
336.9346850414
 30
0.0
  0
VERTEX
  5
995
  8
0
  6
CONTINUOUS
 62
     8
 10
763.3181490742
 20
337.2925662298
 30
0.0
  0
VERTEX
  5
996
  8
0
  6
CONTINUOUS
 62
     8
 10
762.7389036857
 20
337.6127102275
 30
0.0
  0
VERTEX
  5
997
  8
0
  6
CONTINUOUS
 62
     8
 10
762.1554710709
 20
337.8948897917
 30
0.0
  0
VERTEX
  5
998
  8
0
  6
CONTINUOUS
 62
     8
 10
761.5682721876
 20
338.1389000315
 30
0.0
  0
VERTEX
  5
999
  8
0
  6
CONTINUOUS
 62
     8
 10
760.977726131
 20
338.3445695836
 30
0.0
  0
VERTEX
  5
99A
  8
0
  6
CONTINUOUS
 62
     8
 10
760.3842575841
 20
338.5117457111
 30
0.0
  0
SEQEND
  5
B47
  8
0
  6
CONTINUOUS
 62
     8
  0
ARC
  5
2C7
  8
0
  6
CONTINUOUS
 62
     8
 10
689.1658886971
 20
303.7213796202
 30
0.0
 40
3.239130972664714
 50
200.6933189691
 51
222.3947201078
  0
LINE
  5
2C8
  8
0
  6
CONTINUOUS
 62
     8
 10
686.1357294761
 20
302.5767816326
 30
0.0
 11
686.1357294761
 21
371.4914464254
 31
0.0
  0
ARC
  5
2C9
  8
0
  6
CONTINUOUS
 62
     8
 10
776.2197451575
 20
303.7213796202
 30
0.0
 40
3.239130972664614
 50
317.6052798922
 51
339.3066810309
  0
LINE
  5
2CA
  8
0
  6
CONTINUOUS
 62
     8
 10
779.2499043785
 20
302.5767816326
 30
0.0
 11
779.2499043785
 21
371.4914464254
 31
0.0
  0
ARC
  5
2CB
  8
0
  6
CONTINUOUS
 62
     8
 10
717.9817700751
 20
411.5123563592
 30
0.0
 40
17.7022803221352
 50
90.0632793994
 51
145.2547844979
  0
LINE
  5
2CC
  8
0
  6
CONTINUOUS
 62
     8
 10
717.9622190811
 20
429.214625885
 30
0.0
 11
732.6928169273
 21
429.214625885
 31
0.0
  0
LINE
  5
2CD
  8
0
  6
CONTINUOUS
 62
     8
 10
747.4234147735
 20
429.214625885
 30
0.0
 11
732.6928169273
 21
429.214625885
 31
0.0
  0
ARC
  5
2CE
  8
0
  6
CONTINUOUS
 62
     8
 10
747.4038637796
 20
411.5123563592
 30
0.0
 40
17.7022803221352
 50
34.7452155021
 51
89.9367206006
  0
LINE
  5
2CF
  8
0
  6
CONTINUOUS
 62
     8
 10
732.6928169273
 20
429.214625885
 30
0.0
 11
732.6928169273
 21
438.1765716571
 31
0.0
  0
ARC
  5
2D0
  8
0
  6
CONTINUOUS
 62
     8
 10
807.642763407
 20
430.160297171
 30
0.0
 40
89.6855301861706
 50
173.5219063704
 51
180.6041551794
  0
ARC
  5
2D1
  8
0
  6
CONTINUOUS
 62
     8
 10
657.7428704476
 20
430.160297171
 30
0.0
 40
89.6855301861706
 50
359.3958448206
 51
6.4780936296
  0
ARC
  5
2D2
  8
0
  6
CONTINUOUS
 62
     8
 10
698.2719322215
 20
291.4915099028
 30
0.0
 40
3.26472645866107
 50
61.4231190804
 51
106.5255759687
  0
POLYLINE
  5
2D3
  8
0
  6
CONTINUOUS
 62
     8
 66
     1
 10
0.0
 20
0.0
 30
0.0
  0
VERTEX
  5
99B
  8
0
  6
CONTINUOUS
 62
     8
 10
696.0806340717
 20
297.7832239449
 30
0.0
  0
VERTEX
  5
99C
  8
0
  6
CONTINUOUS
 62
     8
 10
696.6962494694
 20
296.1989778888
 30
0.0
  0
VERTEX
  5
99D
  8
0
  6
CONTINUOUS
 62
     8
 10
697.3427810513
 20
294.6213039432
 30
0.0
  0
SEQEND
  5
B46
  8
0
  6
CONTINUOUS
 62
     8
  0
ARC
  5
2D4
  8
0
  6
CONTINUOUS
 62
     8
 10
702.8066776104
 20
300.1612777827
 30
0.0
 40
7.134059275037081
 50
186.8029294833
 51
199.47151094
  0
POLYLINE
  5
2D5
  8
0
  6
CONTINUOUS
 62
     8
 66
     1
 10
0.0
 20
0.0
 30
0.0
  0
VERTEX
  5
99E
  8
0
  6
CONTINUOUS
 62
     8
 10
769.3049997829
 20
297.7832239449
 30
0.0
  0
VERTEX
  5
99F
  8
0
  6
CONTINUOUS
 62
     8
 10
768.6893843852
 20
296.1989778888
 30
0.0
  0
VERTEX
  5
9A0
  8
0
  6
CONTINUOUS
 62
     8
 10
768.0428528034
 20
294.6213039432
 30
0.0
  0
SEQEND
  5
B45
  8
0
  6
CONTINUOUS
 62
     8
  0
ARC
  5
2D6
  8
0
  6
CONTINUOUS
 62
     8
 10
767.1142741788
 20
291.4948456043
 30
0.0
 40
3.261373132287203
 50
73.4647743888
 51
118.6020187391
  0
ARC
  5
2D7
  8
0
  6
CONTINUOUS
 62
     8
 10
762.5789562442
 20
300.1612777827
 30
0.0
 40
7.134059275037081
 50
340.52848906
 51
353.1970705167
  0
ARC
  5
2D8
  8
0
  6
CONTINUOUS
 62
     8
 10
718.9523252119
 20
412.1721809276
 30
0.0
 40
29.67873102267137
 50
107.1134459652
 51
139.6844547033
  0
ARC
  5
2D9
  8
0
  6
CONTINUOUS
 62
     8
 10
746.4333086427
 20
412.1721809276
 30
0.0
 40
29.67873102267137
 50
40.3155452967
 51
72.8865540348
  0
ARC
  5
2DA
  8
0
  6
CONTINUOUS
 62
     8
 10
747.6466145979
 20
315.3619547496
 30
0.0
 40
54.41098355463585
 50
202.4069715924
 51
220.0185483878
  0
ARC
  5
2DB
  8
0
  6
CONTINUOUS
 62
     8
 10
717.7390192567
 20
315.3619547496
 30
0.0
 40
54.41098355463585
 50
319.9814516122
 51
337.5930284076
  0
POLYLINE
  5
2DC
  8
0
  6
CONTINUOUS
 62
     8
 66
     1
 10
0.0
 20
0.0
 30
0.0
  0
VERTEX
  5
9A1
  8
0
  6
CONTINUOUS
 62
     8
 10
697.3436788462
 20
294.6214198928
 30
0.0
  0
VERTEX
  5
9A2
  8
0
  6
CONTINUOUS
 62
     8
 10
696.8274020397
 20
293.9202806775
 30
0.0
  0
VERTEX
  5
9A3
  8
0
  6
CONTINUOUS
 62
     8
 10
696.3488177203
 20
293.2493852314
 30
0.0
  0
VERTEX
  5
9A4
  8
0
  6
CONTINUOUS
 62
     8
 10
695.9121354662
 20
292.6146437276
 30
0.0
  0
VERTEX
  5
9A5
  8
0
  6
CONTINUOUS
 62
     8
 10
695.5212072276
 20
292.02164643
 30
0.0
  0
VERTEX
  5
9A6
  8
0
  6
CONTINUOUS
 62
     8
 10
695.1794714474
 20
291.4756157298
 30
0.0
  0
VERTEX
  5
9A7
  8
0
  6
CONTINUOUS
 62
     8
 10
694.8899456106
 20
290.9813619081
 30
0.0
  0
VERTEX
  5
9A8
  8
0
  6
CONTINUOUS
 62
     8
 10
694.6551703655
 20
290.5432379667
 30
0.0
  0
VERTEX
  5
9A9
  8
0
  6
CONTINUOUS
 62
     8
 10
694.4772169732
 20
290.1651033063
 30
0.0
  0
VERTEX
  5
9AA
  8
0
  6
CONTINUOUS
 62
     8
 10
694.3576575064
 20
289.8502883364
 30
0.0
  0
VERTEX
  5
9AB
  8
0
  6
CONTINUOUS
 62
     8
 10
694.2975387715
 20
289.6015665356
 30
0.0
  0
VERTEX
  5
9AC
  8
0
  6
CONTINUOUS
 62
     8
 10
694.2973934852
 20
289.4211265121
 30
0.0
  0
VERTEX
  5
9AD
  8
0
  6
CONTINUOUS
 62
     8
 10
694.3572253727
 20
289.310559896
 30
0.0
  0
SEQEND
  5
B44
  8
0
  6
CONTINUOUS
 62
     8
  0
POLYLINE
  5
2DD
  8
0
  6
CONTINUOUS
 62
     8
 66
     1
 10
0.0
 20
0.0
 30
0.0
  0
VERTEX
  5
9AE
  8
0
  6
CONTINUOUS
 62
     8
 10
768.0425808572
 20
294.6206631933
 30
0.0
  0
VERTEX
  5
9AF
  8
0
  6
CONTINUOUS
 62
     8
 10
768.5587682568
 20
293.9196380649
 30
0.0
  0
VERTEX
  5
9B0
  8
0
  6
CONTINUOUS
 62
     8
 10
769.0372668945
 20
293.2488511179
 30
0.0
  0
VERTEX
  5
9B1
  8
0
  6
CONTINUOUS
 62
     8
 10
769.4738671922
 20
292.6142106626
 30
0.0
  0
VERTEX
  5
9B2
  8
0
  6
CONTINUOUS
 62
     8
 10
769.864720925
 20
292.0213046346
 30
0.0
  0
VERTEX
  5
9B3
  8
0
  6
CONTINUOUS
 62
     8
 10
770.20638965
 20
291.4753568221
 30
0.0
  0
VERTEX
  5
9B4
  8
0
  6
CONTINUOUS
 62
     8
 10
770.4958596073
 20
290.9811756436
 30
0.0
  0
VERTEX
  5
9B5
  8
0
  6
CONTINUOUS
 62
     8
 10
770.7305864238
 20
290.5431141008
 30
0.0
  0
VERTEX
  5
9B6
  8
0
  6
CONTINUOUS
 62
     8
 10
770.9084988378
 20
290.1650306631
 30
0.0
  0
VERTEX
  5
9B7
  8
0
  6
CONTINUOUS
 62
     8
 10
771.0280322276
 20
289.8502566714
 30
0.0
  0
VERTEX
  5
9B8
  8
0
  6
CONTINUOUS
 62
     8
 10
771.088132336
 20
289.601564673
 30
0.0
  0
VERTEX
  5
9B9
  8
0
  6
CONTINUOUS
 62
     8
 10
771.0882701718
 20
289.4211460699
 30
0.0
  0
VERTEX
  5
9BA
  8
0
  6
CONTINUOUS
 62
     8
 10
771.0284457349
 20
289.3105906297
 30
0.0
  0
SEQEND
  5
B43
  8
0
  6
CONTINUOUS
 62
     8
  0
ARC
  5
2DE
  8
0
  6
CONTINUOUS
 62
     8
 10
590.0304610622
 20
384.587126928
 30
0.0
 40
137.0458199597855
 50
317.5216433725
 51
320.6990804943
  0
ARC
  5
2DF
  8
0
  6
CONTINUOUS
 62
     8
 10
699.5812531731
 20
302.1489368022
 30
0.0
 40
13.19271076378645
 50
195.8154522245
 51
230.028699971
  0
POLYLINE
  5
2E0
  8
0
  6
CONTINUOUS
 62
     8
 66
     1
 10
0.0
 20
0.0
 30
0.0
  0
VERTEX
  5
9BB
  8
0
  6
CONTINUOUS
 62
     8
 10
695.7231291376
 20
299.3167458663
 30
0.0
  0
VERTEX
  5
9BC
  8
0
  6
CONTINUOUS
 62
     8
 10
694.9476876103
 20
299.1294513086
 30
0.0
  0
VERTEX
  5
9BD
  8
0
  6
CONTINUOUS
 62
     8
 10
694.2427173995
 20
298.9693942109
 30
0.0
  0
VERTEX
  5
9BE
  8
0
  6
CONTINUOUS
 62
     8
 10
693.6087959253
 20
298.8348051768
 30
0.0
  0
VERTEX
  5
9BF
  8
0
  6
CONTINUOUS
 62
     8
 10
693.0451632284
 20
298.7230776671
 30
0.0
  0
VERTEX
  5
9C0
  8
0
  6
CONTINUOUS
 62
     8
 10
692.5500907742
 20
298.6310427405
 30
0.0
  0
VERTEX
  5
9C1
  8
0
  6
CONTINUOUS
 62
     8
 10
692.2737710916
 20
298.5820602954
 30
0.0
  0
VERTEX
  5
9C2
  8
0
  6
CONTINUOUS
 62
     8
 10
692.0083143555
 20
298.5368150149
 30
0.0
  0
VERTEX
  5
9C3
  8
0
  6
CONTINUOUS
 62
     8
 10
691.7536348842
 20
298.495213534
 30
0.0
  0
VERTEX
  5
9C4
  8
0
  6
CONTINUOUS
 62
     8
 10
691.5096171938
 20
298.4571454909
 30
0.0
  0
VERTEX
  5
9C5
  8
0
  6
CONTINUOUS
 62
     8
 10
691.2761159979
 20
298.4224842258
 30
0.0
  0
VERTEX
  5
9C6
  8
0
  6
CONTINUOUS
 62
     8
 10
691.052971109
 20
298.3910872463
 30
0.0
  0
VERTEX
  5
9C7
  8
0
  6
CONTINUOUS
 62
     8
 10
690.839999988
 20
298.3627990216
 30
0.0
  0
VERTEX
  5
9C8
  8
0
  6
CONTINUOUS
 62
     8
 10
690.3050967299
 20
298.2996185638
 30
0.0
  0
VERTEX
  5
9C9
  8
0
  6
CONTINUOUS
 62
     8
 10
689.8409106575
 20
298.2547080938
 30
0.0
  0
VERTEX
  5
9CA
  8
0
  6
CONTINUOUS
 62
     8
 10
689.6178067468
 20
298.2365552198
 30
0.0
  0
VERTEX
  5
9CB
  8
0
  6
CONTINUOUS
 62
     8
 10
689.4078531109
 20
298.2217707068
 30
0.0
  0
VERTEX
  5
9CC
  8
0
  6
CONTINUOUS
 62
     8
 10
689.2106213414
 20
298.2102528077
 30
0.0
  0
VERTEX
  5
9CD
  8
0
  6
CONTINUOUS
 62
     8
 10
689.0256681286
 20
298.2018709045
 30
0.0
  0
VERTEX
  5
9CE
  8
0
  6
CONTINUOUS
 62
     8
 10
688.8525427126
 20
298.1964662068
 30
0.0
  0
VERTEX
  5
9CF
  8
0
  6
CONTINUOUS
 62
     8
 10
688.6907794319
 20
298.1938529156
 30
0.0
  0
VERTEX
  5
9D0
  8
0
  6
CONTINUOUS
 62
     8
 10
688.5399089001
 20
298.1938175254
 30
0.0
  0
VERTEX
  5
9D1
  8
0
  6
CONTINUOUS
 62
     8
 10
688.1773673736
 20
298.204977331
 30
0.0
  0
VERTEX
  5
9D2
  8
0
  6
CONTINUOUS
 62
     8
 10
687.8840342902
 20
298.2278496821
 30
0.0
  0
VERTEX
  5
9D3
  8
0
  6
CONTINUOUS
 62
     8
 10
687.6622156047
 20
298.2555029776
 30
0.0
  0
VERTEX
  5
9D4
  8
0
  6
CONTINUOUS
 62
     8
 10
687.4765508615
 20
298.2892021865
 30
0.0
  0
VERTEX
  5
9D5
  8
0
  6
CONTINUOUS
 62
     8
 10
687.3228081309
 20
298.3275801271
 30
0.0
  0
VERTEX
  5
9D6
  8
0
  6
CONTINUOUS
 62
     8
 10
687.1816606067
 20
298.3743448604
 30
0.0
  0
VERTEX
  5
9D7
  8
0
  6
CONTINUOUS
 62
     8
 10
687.0564014458
 20
298.4304726452
 30
0.0
  0
VERTEX
  5
9D8
  8
0
  6
CONTINUOUS
 62
     8
 10
686.9599574052
 20
298.4905117519
 30
0.0
  0
VERTEX
  5
9D9
  8
0
  6
CONTINUOUS
 62
     8
 10
686.8879587196
 20
298.5533988431
 30
0.0
  0
SEQEND
  5
B42
  8
0
  6
CONTINUOUS
 62
     8
  0
ARC
  5
2E1
  8
0
  6
CONTINUOUS
 62
     8
 10
765.8043806816
 20
302.1489368022
 30
0.0
 40
13.19271076378645
 50
309.971300029
 51
344.1845477755
  0
ARC
  5
2E2
  8
0
  6
CONTINUOUS
 62
     8
 10
875.3551727924
 20
384.587126928
 30
0.0
 40
137.0458199597855
 50
219.3009195057
 51
222.4783566275
  0
POLYLINE
  5
2E3
  8
0
  6
CONTINUOUS
 62
     8
 66
     1
 10
0.0
 20
0.0
 30
0.0
  0
VERTEX
  5
9DA
  8
0
  6
CONTINUOUS
 62
     8
 10
769.662504717
 20
299.3167458663
 30
0.0
  0
VERTEX
  5
9DB
  8
0
  6
CONTINUOUS
 62
     8
 10
770.4379462444
 20
299.1294513086
 30
0.0
  0
VERTEX
  5
9DC
  8
0
  6
CONTINUOUS
 62
     8
 10
771.1429164552
 20
298.9693942109
 30
0.0
  0
VERTEX
  5
9DD
  8
0
  6
CONTINUOUS
 62
     8
 10
771.7768379294
 20
298.8348051768
 30
0.0
  0
VERTEX
  5
9DE
  8
0
  6
CONTINUOUS
 62
     8
 10
772.3404706262
 20
298.7230776671
 30
0.0
  0
VERTEX
  5
9DF
  8
0
  6
CONTINUOUS
 62
     8
 10
772.8355430805
 20
298.6310427405
 30
0.0
  0
VERTEX
  5
9E0
  8
0
  6
CONTINUOUS
 62
     8
 10
773.1118627631
 20
298.5820602954
 30
0.0
  0
VERTEX
  5
9E1
  8
0
  6
CONTINUOUS
 62
     8
 10
773.3773194991
 20
298.5368150149
 30
0.0
  0
VERTEX
  5
9E2
  8
0
  6
CONTINUOUS
 62
     8
 10
773.6319989704
 20
298.495213534
 30
0.0
  0
VERTEX
  5
9E3
  8
0
  6
CONTINUOUS
 62
     8
 10
773.8760166608
 20
298.4571454909
 30
0.0
  0
VERTEX
  5
9E4
  8
0
  6
CONTINUOUS
 62
     8
 10
774.1095178567
 20
298.4224842258
 30
0.0
  0
VERTEX
  5
9E5
  8
0
  6
CONTINUOUS
 62
     8
 10
774.3326627456
 20
298.3910872463
 30
0.0
  0
VERTEX
  5
9E6
  8
0
  6
CONTINUOUS
 62
     8
 10
774.5456338667
 20
298.3627990216
 30
0.0
  0
VERTEX
  5
9E7
  8
0
  6
CONTINUOUS
 62
     8
 10
775.0805371248
 20
298.2996185638
 30
0.0
  0
VERTEX
  5
9E8
  8
0
  6
CONTINUOUS
 62
     8
 10
775.5447231971
 20
298.2547080938
 30
0.0
  0
VERTEX
  5
9E9
  8
0
  6
CONTINUOUS
 62
     8
 10
775.7678271078
 20
298.2365552198
 30
0.0
  0
VERTEX
  5
9EA
  8
0
  6
CONTINUOUS
 62
     8
 10
775.9777807437
 20
298.2217707068
 30
0.0
  0
VERTEX
  5
9EB
  8
0
  6
CONTINUOUS
 62
     8
 10
776.1750125133
 20
298.2102528077
 30
0.0
  0
VERTEX
  5
9EC
  8
0
  6
CONTINUOUS
 62
     8
 10
776.359965726
 20
298.2018709045
 30
0.0
  0
VERTEX
  5
9ED
  8
0
  6
CONTINUOUS
 62
     8
 10
776.5330911421
 20
298.1964662068
 30
0.0
  0
VERTEX
  5
9EE
  8
0
  6
CONTINUOUS
 62
     8
 10
776.6948544227
 20
298.1938529156
 30
0.0
  0
VERTEX
  5
9EF
  8
0
  6
CONTINUOUS
 62
     8
 10
776.8457249545
 20
298.1938175254
 30
0.0
  0
VERTEX
  5
9F0
  8
0
  6
CONTINUOUS
 62
     8
 10
777.208266481
 20
298.204977331
 30
0.0
  0
VERTEX
  5
9F1
  8
0
  6
CONTINUOUS
 62
     8
 10
777.5015995644
 20
298.2278496821
 30
0.0
  0
VERTEX
  5
9F2
  8
0
  6
CONTINUOUS
 62
     8
 10
777.72341825
 20
298.2555029776
 30
0.0
  0
VERTEX
  5
9F3
  8
0
  6
CONTINUOUS
 62
     8
 10
777.9090829932
 20
298.2892021865
 30
0.0
  0
VERTEX
  5
9F4
  8
0
  6
CONTINUOUS
 62
     8
 10
778.0628257238
 20
298.3275801271
 30
0.0
  0
VERTEX
  5
9F5
  8
0
  6
CONTINUOUS
 62
     8
 10
778.2039732479
 20
298.3743448604
 30
0.0
  0
VERTEX
  5
9F6
  8
0
  6
CONTINUOUS
 62
     8
 10
778.3292324089
 20
298.4304726452
 30
0.0
  0
VERTEX
  5
9F7
  8
0
  6
CONTINUOUS
 62
     8
 10
778.4256764494
 20
298.4905117519
 30
0.0
  0
VERTEX
  5
9F8
  8
0
  6
CONTINUOUS
 62
     8
 10
778.497675135
 20
298.5533988431
 30
0.0
  0
SEQEND
  5
B41
  8
0
  6
CONTINUOUS
 62
     8
  0
ARC
  5
2E4
  8
0
  6
CONTINUOUS
 62
     8
 10
694.6131715759
 20
300.3425831428
 30
0.0
 40
7.929973615367638
 50
171.3338490485
 51
193.0303523686
  0
ARC
  5
2E5
  8
0
  6
CONTINUOUS
 62
     8
 10
770.7724622787
 20
300.3425831428
 30
0.0
 40
7.929973615367638
 50
346.9696476314
 51
8.6661509515
  0
LINE
  5
2E6
  8
0
  6
CONTINUOUS
 62
     8
 10
726.2343160615
 20
494.5313327808
 30
0.0
 11
754.2700727277
 21
494.5313327808
 31
0.0
  0
ARC
  5
2E7
  8
0
  6
CONTINUOUS
 62
     8
 10
701.0420174255
 20
303.2808392798
 30
0.0
 40
14.92290580281908
 50
182.7041993495
 51
198.4676890407
  0
ARC
  5
2E8
  8
0
  6
CONTINUOUS
 62
     8
 10
764.3436164292
 20
303.2808392798
 30
0.0
 40
14.92290580281908
 50
341.5323109593
 51
357.2958006505
  0
POLYLINE
  5
2E9
  8
0
  6
CONTINUOUS
 62
     8
 66
     1
 10
0.0
 20
0.0
 30
0.0
  0
VERTEX
  5
9F9
  8
0
  6
CONTINUOUS
 62
     8
 10
685.1928175234
 20
303.2955637064
 30
0.0
  0
VERTEX
  5
9FA
  8
0
  6
CONTINUOUS
 62
     8
 10
685.2518074952
 20
303.2505947959
 30
0.0
  0
VERTEX
  5
9FB
  8
0
  6
CONTINUOUS
 62
     8
 10
685.4287327074
 20
303.1157243859
 30
0.0
  0
VERTEX
  5
9FC
  8
0
  6
CONTINUOUS
 62
     8
 10
685.7234515988
 20
302.8910600443
 30
0.0
  0
VERTEX
  5
9FD
  8
0
  6
CONTINUOUS
 62
     8
 10
686.1357294761
 20
302.5767816326
 30
0.0
  0
SEQEND
  5
B40
  8
0
  6
CONTINUOUS
 62
     8
  0
POLYLINE
  5
2EA
  8
0
  6
CONTINUOUS
 62
     8
 66
     1
 10
0.0
 20
0.0
 30
0.0
  0
VERTEX
  5
9FE
  8
0
  6
CONTINUOUS
 62
     8
 10
780.1928163313
 20
303.2955637064
 30
0.0
  0
VERTEX
  5
9FF
  8
0
  6
CONTINUOUS
 62
     8
 10
780.1338263594
 20
303.2505947959
 30
0.0
  0
VERTEX
  5
A00
  8
0
  6
CONTINUOUS
 62
     8
 10
779.9569011473
 20
303.1157243859
 30
0.0
  0
VERTEX
  5
A01
  8
0
  6
CONTINUOUS
 62
     8
 10
779.6621822559
 20
302.8910600443
 30
0.0
  0
VERTEX
  5
A02
  8
0
  6
CONTINUOUS
 62
     8
 10
779.2499043785
 20
302.5767816326
 30
0.0
  0
SEQEND
  5
B3F
  8
0
  6
CONTINUOUS
 62
     8
  0
LINE
  5
2EB
  8
0
  6
CONTINUOUS
 62
     8
 10
710.5438221984
 20
494.5313327808
 30
0.0
 11
714.5741038762
 21
494.5313327808
 31
0.0
  0
INSERT
  5
2F7
  8
FORMAT
  2
SW_CENTERMARKSYMBOL_0
 10
732.6928169273
 20
300.8743219871
 30
0.0
  0
LINE
  5
2F8
  8
0
  6
CONTINUOUS
 62
     7
 10
278.5876676878
 20
145.9305973386
 30
0.0
 11
261.2841710886
 21
145.9305973386
 31
0.0
  0
LINE
  5
2F9
  8
0
  6
CONTINUOUS
 62
     7
 10
389.9379507145
 20
145.9305973386
 30
0.0
 11
372.6344541153
 21
145.9305973386
 31
0.0
  0
LINE
  5
2FA
  8
0
  6
CONTINUOUS
 62
     7
 10
372.6344541153
 20
78.9305956697
 30
0.0
 11
389.9379507145
 21
78.9305956697
 31
0.0
  0
LINE
  5
2FB
  8
0
  6
CONTINUOUS
 62
     7
 10
261.2841710886
 20
78.9305956697
 30
0.0
 11
278.5876676878
 21
78.9305956697
 31
0.0
  0
LINE
  5
2FC
  8
0
  6
CONTINUOUS
 62
     7
 10
261.2841710886
 20
145.9305973386
 30
0.0
 11
242.285376831
 21
142.5805965101
 31
0.0
  0
LINE
  5
2FD
  8
0
  6
CONTINUOUS
 62
     7
 10
242.285376831
 20
82.2805964982
 30
0.0
 11
261.2841710886
 21
78.9305956697
 31
0.0
  0
LINE
  5
2FE
  8
0
  6
CONTINUOUS
 62
     7
 10
389.9379507145
 20
78.9305956697
 30
0.0
 11
408.9367449722
 21
82.2805964982
 31
0.0
  0
LINE
  5
2FF
  8
0
  6
CONTINUOUS
 62
     7
 10
408.9367449722
 20
142.5805965101
 30
0.0
 11
389.9379507145
 21
145.9305973386
 31
0.0
  0
LINE
  5
300
  8
0
  6
CONTINUOUS
 62
     7
 10
609.8027587375
 20
142.5805965101
 30
0.0
 11
408.9367449722
 21
142.5805965101
 31
0.0
  0
LINE
  5
301
  8
0
  6
CONTINUOUS
 62
     7
 10
408.9367449722
 20
82.2805964982
 30
0.0
 11
609.8027587375
 21
82.2805964982
 31
0.0
  0
LINE
  5
302
  8
0
  6
CONTINUOUS
 62
     7
 10
242.285376831
 20
142.5805965101
 30
0.0
 11
41.4193630656
 21
142.5805965101
 31
0.0
  0
LINE
  5
303
  8
0
  6
CONTINUOUS
 62
     7
 10
41.4193630656
 20
82.2805964982
 30
0.0
 11
242.285376831
 21
82.2805964982
 31
0.0
  0
LINE
  5
304
  8
0
  6
CONTINUOUS
 62
     7
 10
609.8027587375
 20
82.2805964982
 30
0.0
 11
610.6110573253
 21
83.6805959826
 31
0.0
  0
LINE
  5
305
  8
0
  6
CONTINUOUS
 62
     7
 10
610.6110573253
 20
141.1805970257
 30
0.0
 11
609.8027587375
 21
142.5805965101
 31
0.0
  0
LINE
  5
306
  8
0
  6
CONTINUOUS
 62
     7
 10
41.4193630656
 20
142.5805965101
 30
0.0
 11
40.6110644778
 21
141.1805970257
 31
0.0
  0
LINE
  5
307
  8
0
  6
CONTINUOUS
 62
     7
 10
40.6110644778
 20
83.6805959826
 30
0.0
 11
41.4193630656
 21
82.2805964982
 31
0.0
  0
ARC
  5
308
  8
0
  6
CONTINUOUS
 62
     7
 10
325.6109671835
 20
112.4304969525
 30
0.0
 40
10.80013685992908
 50
45.0000218834
 51
49.9412927161
  0
LINE
  5
309
  8
0
  6
CONTINUOUS
 62
     7
 10
333.2478142781
 20
120.0673498807
 30
0.0
 11
332.6110611176
 21
119.4305967202
 31
0.0
  0
LINE
  5
30A
  8
0
  6
CONTINUOUS
 62
     7
 10
332.6110611176
 20
119.4305967202
 30
0.0
 11
318.6110606855
 21
119.4305967202
 31
0.0
  0
LINE
  5
30B
  8
0
  6
CONTINUOUS
 62
     7
 10
317.974307525
 20
120.0673498807
 30
0.0
 11
318.6110606855
 21
119.4305967202
 31
0.0
  0
ARC
  5
30C
  8
0
  6
CONTINUOUS
 62
     7
 10
325.6111546196
 20
112.4304969525
 30
0.0
 40
10.80013685992912
 50
130.0587072839
 51
134.9999781166
  0
LINE
  5
30D
  8
0
  6
CONTINUOUS
 62
     7
 10
332.5616348973
 20
120.6967642193
 30
0.0
 11
318.6604869059
 21
120.6967642193
 31
0.0
  0
ARC
  5
30E
  8
0
  6
CONTINUOUS
 62
     7
 10
325.6109613499
 20
112.4306902222
 30
0.0
 40
10.8001368599291
 50
315.0000218834
 51
319.9412927161
  0
LINE
  5
30F
  8
0
  6
CONTINUOUS
 62
     7
 10
333.2478142781
 20
104.7938431276
 30
0.0
 11
332.6110611176
 21
105.4305962881
 31
0.0
  0
LINE
  5
310
  8
0
  6
CONTINUOUS
 62
     7
 10
332.6110611176
 20
105.4305962881
 30
0.0
 11
332.6110611176
 21
119.4305967202
 31
0.0
  0
ARC
  5
311
  8
0
  6
CONTINUOUS
 62
     7
 10
325.6109613499
 20
112.4305027861
 30
0.0
 40
10.80013685992909
 50
40.0587072839
 51
44.9999781166
  0
LINE
  5
312
  8
0
  6
CONTINUOUS
 62
     7
 10
333.8772286168
 20
105.4800225084
 30
0.0
 11
333.8772286168
 21
119.3811704998
 31
0.0
  0
ARC
  5
313
  8
0
  6
CONTINUOUS
 62
     7
 10
325.6111604532
 20
112.4305027861
 30
0.0
 40
10.80013685992909
 50
135.0000218834
 51
139.9412927161
  0
LINE
  5
314
  8
0
  6
CONTINUOUS
 62
     7
 10
318.6110606855
 20
119.4305967202
 30
0.0
 11
318.6110606855
 21
105.4305962881
 31
0.0
  0
LINE
  5
315
  8
0
  6
CONTINUOUS
 62
     7
 10
317.974307525
 20
104.7938431276
 30
0.0
 11
318.6110606855
 21
105.4305962881
 31
0.0
  0
ARC
  5
316
  8
0
  6
CONTINUOUS
 62
     7
 10
325.6111604532
 20
112.4306902222
 30
0.0
 40
10.8001368599291
 50
220.0587072839
 51
224.9999781166
  0
LINE
  5
317
  8
0
  6
CONTINUOUS
 62
     7
 10
317.3448931864
 20
119.3811704998
 30
0.0
 11
317.3448931864
 21
105.4800225084
 31
0.0
  0
LINE
  5
318
  8
0
  6
CONTINUOUS
 62
     7
 10
318.6110606855
 20
105.4305962881
 30
0.0
 11
332.6110611176
 21
105.4305962881
 31
0.0
  0
ARC
  5
319
  8
0
  6
CONTINUOUS
 62
     7
 10
325.6111546196
 20
112.4306960558
 30
0.0
 40
10.80013685992912
 50
225.0000218834
 51
229.9412927161
  0
ARC
  5
31A
  8
0
  6
CONTINUOUS
 62
     7
 10
325.6109671835
 20
112.4306960558
 30
0.0
 40
10.80013685992908
 50
310.0587072839
 51
314.9999781166
  0
LINE
  5
31B
  8
0
  6
CONTINUOUS
 62
     7
 10
318.6604869059
 20
104.1644287889
 30
0.0
 11
332.5616348973
 21
104.1644287889
 31
0.0
  0
ARC
  5
31C
  8
0
  6
CONTINUOUS
 62
     7
 10
325.6110633129
 20
112.4305965041
 30
0.0
 40
10.80000219587558
 50
139.9413415959
 51
220.0586584041
  0
ARC
  5
31D
  8
0
  6
CONTINUOUS
 62
     7
 10
325.6110609016
 20
112.4305940928
 30
0.0
 40
10.80000219587555
 50
49.9413415959
 51
130.0586584041
  0
ARC
  5
31E
  8
0
  6
CONTINUOUS
 62
     7
 10
325.6110584902
 20
112.4305965041
 30
0.0
 40
10.80000219587558
 50
319.9413415959
 51
40.0586584041
  0
ARC
  5
31F
  8
0
  6
CONTINUOUS
 62
     7
 10
325.6110609016
 20
112.4305989155
 30
0.0
 40
10.80000219587555
 50
229.9413415959
 51
310.0586584041
  0
LINE
  5
320
  8
0
  6
CONTINUOUS
 62
     7
 10
330.6110607898
 20
95.1389798557
 30
0.0
 11
330.6110607898
 21
84.9305966532
 31
0.0
  0
LINE
  5
321
  8
0
  6
CONTINUOUS
 62
     7
 10
330.6110607898
 20
84.9305966532
 30
0.0
 11
320.6110610133
 21
84.9305966532
 31
0.0
  0
LINE
  5
322
  8
0
  6
CONTINUOUS
 62
     7
 10
320.6110610133
 20
95.1389798557
 30
0.0
 11
320.6110610133
 21
84.9305966532
 31
0.0
  0
ARC
  5
323
  8
0
  6
CONTINUOUS
 62
     7
 10
325.6110609016
 20
112.4305965041
 30
0.0
 40
18.0
 50
166.1276202132
 51
253.8723797868
  0
LINE
  5
324
  8
0
  6
CONTINUOUS
 62
     7
 10
308.1360817393
 20
116.746277794
 30
0.0
 11
299.2953625014
 21
121.850469861
 31
0.0
  0
LINE
  5
325
  8
0
  6
CONTINUOUS
 62
     7
 10
299.2953625014
 20
121.850469861
 30
0.0
 11
304.2953614583
 21
130.5107229983
 31
0.0
  0
LINE
  5
326
  8
0
  6
CONTINUOUS
 62
     7
 10
313.1360816276
 20
125.406531397
 30
0.0
 11
304.2953614583
 21
130.5107229983
 31
0.0
  0
ARC
  5
327
  8
0
  6
CONTINUOUS
 62
     7
 10
325.6110609016
 20
112.4305965041
 30
0.0
 40
18.00000000000002
 50
46.1276202132
 51
133.8723797868
  0
LINE
  5
328
  8
0
  6
CONTINUOUS
 62
     7
 10
338.0860401755
 20
125.406531397
 30
0.0
 11
346.9267603448
 21
130.5107229983
 31
0.0
  0
LINE
  5
329
  8
0
  6
CONTINUOUS
 62
     7
 10
346.9267603448
 20
130.5107229983
 30
0.0
 11
351.9267593017
 21
121.850469861
 31
0.0
  0
LINE
  5
32A
  8
0
  6
CONTINUOUS
 62
     7
 10
343.0860400638
 20
116.746277794
 30
0.0
 11
351.9267593017
 21
121.850469861
 31
0.0
  0
ARC
  5
32B
  8
0
  6
CONTINUOUS
 62
     7
 10
325.6110609016
 20
112.4305965041
 30
0.0
 40
18.00000000000001
 50
286.1276202132
 51
13.8723797868
  0
ARC
  5
32C
  8
0
  6
CONTINUOUS
 62
     7
 10
325.6110609016
 20
112.4305965041
 30
0.0
 40
19.05796188425082
 50
285.2099963389
 51
14.7900036611
  0
LINE
  5
32D
  8
0
  6
CONTINUOUS
 62
     7
 10
346.9267603448
 20
130.5107229983
 30
0.0
 11
347.0779139986
 21
130.5979916488
 31
0.0
  0
LINE
  5
32E
  8
0
  6
CONTINUOUS
 62
     7
 10
347.0779139986
 20
130.5979916488
 30
0.0
 11
352.0779129556
 21
121.9377385115
 31
0.0
  0
LINE
  5
32F
  8
0
  6
CONTINUOUS
 62
     7
 10
351.9267593017
 20
121.850469861
 30
0.0
 11
352.0779129556
 21
121.9377385115
 31
0.0
  0
LINE
  5
330
  8
0
  6
CONTINUOUS
 62
     7
 10
304.2953614583
 20
130.5107229983
 30
0.0
 11
304.1442078045
 21
130.5979916488
 31
0.0
  0
LINE
  5
331
  8
0
  6
CONTINUOUS
 62
     7
 10
299.2953625014
 20
121.850469861
 30
0.0
 11
299.1442088476
 21
121.9377385115
 31
0.0
  0
LINE
  5
332
  8
0
  6
CONTINUOUS
 62
     7
 10
299.1442088476
 20
121.9377385115
 30
0.0
 11
304.1442078045
 21
130.5979916488
 31
0.0
  0
ARC
  5
333
  8
0
  6
CONTINUOUS
 62
     7
 10
325.6110609016
 20
112.4305965041
 30
0.0
 40
19.05796188425078
 50
45.2099963389
 51
134.7900036611
  0
ARC
  5
334
  8
0
  6
CONTINUOUS
 62
     7
 10
325.6110609016
 20
112.4305965041
 30
0.0
 40
19.0579618842508
 50
165.2099963389
 51
254.7900036611
  0
LINE
  5
335
  8
0
  6
CONTINUOUS
 62
     7
 10
330.6110607898
 20
84.7560593521
 30
0.0
 11
320.6110610133
 21
84.7560593521
 31
0.0
  0
LINE
  5
336
  8
0
  6
CONTINUOUS
 62
     7
 10
330.6110607898
 20
84.9305966532
 30
0.0
 11
330.6110607898
 21
84.7560593521
 31
0.0
  0
LINE
  5
337
  8
0
  6
CONTINUOUS
 62
     7
 10
320.6110610133
 20
84.9305966532
 30
0.0
 11
320.6110610133
 21
84.7560593521
 31
0.0
  0
ARC
  5
338
  8
0
  6
CONTINUOUS
 62
     7
 10
325.6110609016
 20
112.4305965041
 30
0.0
 40
23.2511580051275
 50
42.4180531331
 51
137.5819468669
  0
ARC
  5
339
  8
0
  6
CONTINUOUS
 62
     7
 10
325.6110609016
 20
112.4305965041
 30
0.0
 40
23.25115800512754
 50
282.4180531331
 51
17.5819468669
  0
ARC
  5
33A
  8
0
  6
CONTINUOUS
 62
     7
 10
325.6110609016
 20
112.4305965041
 30
0.0
 40
23.25115800512753
 50
162.4180531331
 51
257.5819468669
  0
LINE
  5
33B
  8
0
  6
CONTINUOUS
 62
     7
 10
301.8711865386
 20
131.910322014
 30
0.0
 11
296.8711857191
 21
123.2500679453
 31
0.0
  0
LINE
  5
33C
  8
0
  6
CONTINUOUS
 62
     7
 10
299.1442088476
 20
121.9377385115
 30
0.0
 11
296.8711857191
 21
123.2500679453
 31
0.0
  0
LINE
  5
33D
  8
0
  6
CONTINUOUS
 62
     7
 10
304.1442078045
 20
130.5979916488
 30
0.0
 11
301.8711865386
 21
131.910322014
 31
0.0
  0
LINE
  5
33E
  8
0
  6
CONTINUOUS
 62
     7
 10
354.3509360841
 20
123.2500679453
 30
0.0
 11
349.3509352645
 21
131.910322014
 31
0.0
  0
LINE
  5
33F
  8
0
  6
CONTINUOUS
 62
     7
 10
347.0779139986
 20
130.5979916488
 30
0.0
 11
349.3509352645
 21
131.910322014
 31
0.0
  0
LINE
  5
340
  8
0
  6
CONTINUOUS
 62
     7
 10
352.0779129556
 20
121.9377385115
 30
0.0
 11
354.3509360841
 21
123.2500679453
 31
0.0
  0
LINE
  5
341
  8
0
  6
CONTINUOUS
 62
     7
 10
320.6110610133
 20
82.1313986217
 30
0.0
 11
330.6110607898
 21
82.1313986217
 31
0.0
  0
LINE
  5
342
  8
0
  6
CONTINUOUS
 62
     7
 10
330.6110607898
 20
84.7560593521
 30
0.0
 11
330.6110607898
 21
82.1313986217
 31
0.0
  0
LINE
  5
343
  8
0
  6
CONTINUOUS
 62
     7
 10
320.6110610133
 20
84.7560593521
 30
0.0
 11
320.6110610133
 21
82.1313986217
 31
0.0
  0
ARC
  5
344
  8
0
  6
CONTINUOUS
 62
     7
 10
325.6110609016
 20
112.4305965041
 30
0.0
 40
26.80000000000003
 50
40.7525152134
 51
139.2474847866
  0
ARC
  5
345
  8
0
  6
CONTINUOUS
 62
     7
 10
325.6110609016
 20
112.4305965041
 30
0.0
 40
26.80000000000001
 50
160.7525152134
 51
259.2474847866
  0
ARC
  5
346
  8
0
  6
CONTINUOUS
 62
     7
 10
325.6110609016
 20
112.4305965041
 30
0.0
 40
26.80000000000003
 50
280.7525152134
 51
19.2474847866
  0
CIRCLE
  5
347
  8
0
  6
CONTINUOUS
 62
     7
 10
325.6110609016
 20
112.4305965041
 30
0.0
 40
30.99999999999994
  0
ARC
  5
348
  8
0
  6
CONTINUOUS
 62
     7
 10
324.8245343944
 20
111.8256196486
 30
0.0
 40
32.31845888643115
 50
27.1904799678
 51
45.5690661427
  0
ARC
  5
349
  8
0
  6
CONTINUOUS
 62
     7
 10
326.0187781246
 20
112.4076111965
 30
0.0
 40
30.99025983166124
 50
0.0424959728
 51
27.2423079672
  0
ARC
  5
34A
  8
0
  6
CONTINUOUS
 62
     7
 10
326.0187781246
 20
112.4535818118
 30
0.0
 40
30.9902598316613
 50
332.7576920328
 51
359.9575040272
  0
ARC
  5
34B
  8
0
  6
CONTINUOUS
 62
     7
 10
324.8245343944
 20
113.0355733597
 30
0.0
 40
32.31845888643115
 50
314.4309338573
 51
332.8095200322
  0
ARC
  5
34C
  8
0
  6
CONTINUOUS
 62
     7
 10
325.6110609016
 20
112.1500646255
 30
0.0
 40
31.13558025700697
 50
225.4644282936
 51
314.5355717064
  0
ARC
  5
34D
  8
0
  6
CONTINUOUS
 62
     7
 10
326.3975874087
 20
113.0355733597
 30
0.0
 40
32.31845888643115
 50
207.1904799678
 51
225.5690661427
  0
ARC
  5
34E
  8
0
  6
CONTINUOUS
 62
     7
 10
325.2033436785
 20
112.4535818118
 30
0.0
 40
30.99025983166124
 50
180.0424959728
 51
207.2423079672
  0
ARC
  5
34F
  8
0
  6
CONTINUOUS
 62
     7
 10
325.2033436785
 20
112.4076111965
 30
0.0
 40
30.99025983166124
 50
152.7576920328
 51
179.9575040272
  0
ARC
  5
350
  8
0
  6
CONTINUOUS
 62
     7
 10
326.3975874087
 20
111.8256196486
 30
0.0
 40
32.31845888643115
 50
134.4309338573
 51
152.8095200322
  0
ARC
  5
351
  8
0
  6
CONTINUOUS
 62
     7
 10
325.6110609016
 20
112.7111283828
 30
0.0
 40
31.13558025700696
 50
45.4644282936
 51
134.5355717064
  0
POLYLINE
  5
352
  8
0
  6
CONTINUOUS
 62
     7
 66
     1
 10
0.0
 20
0.0
 30
0.0
  0
VERTEX
  5
A03
  8
0
  6
CONTINUOUS
 62
     7
 10
304.2524014106
 20
148.8008180296
 30
0.0
  0
VERTEX
  5
A04
  8
0
  6
CONTINUOUS
 62
     7
 10
304.2627260527
 20
148.8024348056
 30
0.0
  0
VERTEX
  5
A05
  8
0
  6
CONTINUOUS
 62
     7
 10
304.2730506947
 20
148.8040478563
 30
0.0
  0
VERTEX
  5
A06
  8
0
  6
CONTINUOUS
 62
     7
 10
304.2833753368
 20
148.8056646322
 30
0.0
  0
VERTEX
  5
A07
  8
0
  6
CONTINUOUS
 62
     7
 10
304.2936999789
 20
148.8072776829
 30
0.0
  0
VERTEX
  5
A08
  8
0
  6
CONTINUOUS
 62
     7
 10
304.3040246209
 20
148.8088944589
 30
0.0
  0
VERTEX
  5
A09
  8
0
  6
CONTINUOUS
 62
     7
 10
304.3143511256
 20
148.8105037843
 30
0.0
  0
VERTEX
  5
A0A
  8
0
  6
CONTINUOUS
 62
     7
 10
304.3246757677
 20
148.812116835
 30
0.0
  0
VERTEX
  5
A0B
  8
0
  6
CONTINUOUS
 62
     7
 10
304.3350022724
 20
148.8137298857
 30
0.0
  0
SEQEND
  5
B3E
  8
0
  6
CONTINUOUS
 62
     7
  0
ARC
  5
353
  8
0
  6
CONTINUOUS
 62
     7
 10
325.6110609016
 20
12.4305965041
 30
0.0
 40
144.0436224425162
 50
82.0124236243
 51
97.9875763757
  0
POLYLINE
  5
354
  8
0
  6
CONTINUOUS
 62
     7
 66
     1
 10
0.0
 20
0.0
 30
0.0
  0
VERTEX
  5
A0C
  8
0
  6
CONTINUOUS
 62
     7
 10
346.9697203925
 20
148.8008180296
 30
0.0
  0
VERTEX
  5
A0D
  8
0
  6
CONTINUOUS
 62
     7
 10
346.9593957504
 20
148.8024348056
 30
0.0
  0
VERTEX
  5
A0E
  8
0
  6
CONTINUOUS
 62
     7
 10
346.9490711084
 20
148.8040478563
 30
0.0
  0
VERTEX
  5
A0F
  8
0
  6
CONTINUOUS
 62
     7
 10
346.9387464663
 20
148.8056646322
 30
0.0
  0
VERTEX
  5
A10
  8
0
  6
CONTINUOUS
 62
     7
 10
346.9284218243
 20
148.8072776829
 30
0.0
  0
VERTEX
  5
A11
  8
0
  6
CONTINUOUS
 62
     7
 10
346.9180971822
 20
148.8088944589
 30
0.0
  0
VERTEX
  5
A12
  8
0
  6
CONTINUOUS
 62
     7
 10
346.9077706775
 20
148.8105037843
 30
0.0
  0
VERTEX
  5
A13
  8
0
  6
CONTINUOUS
 62
     7
 10
346.8974460354
 20
148.812116835
 30
0.0
  0
VERTEX
  5
A14
  8
0
  6
CONTINUOUS
 62
     7
 10
346.8871195307
 20
148.8137298857
 30
0.0
  0
SEQEND
  5
B3D
  8
0
  6
CONTINUOUS
 62
     7
  0
POLYLINE
  5
355
  8
0
  6
CONTINUOUS
 62
     7
 66
     1
 10
0.0
 20
0.0
 30
0.0
  0
VERTEX
  5
A15
  8
0
  6
CONTINUOUS
 62
     7
 10
346.9697203925
 20
76.0603749787
 30
0.0
  0
VERTEX
  5
A16
  8
0
  6
CONTINUOUS
 62
     7
 10
346.9593957504
 20
76.0587582027
 30
0.0
  0
VERTEX
  5
A17
  8
0
  6
CONTINUOUS
 62
     7
 10
346.9490711084
 20
76.057145152
 30
0.0
  0
VERTEX
  5
A18
  8
0
  6
CONTINUOUS
 62
     7
 10
346.9387464663
 20
76.055528376
 30
0.0
  0
VERTEX
  5
A19
  8
0
  6
CONTINUOUS
 62
     7
 10
346.9284218243
 20
76.0539153253
 30
0.0
  0
VERTEX
  5
A1A
  8
0
  6
CONTINUOUS
 62
     7
 10
346.9180971822
 20
76.0522985493
 30
0.0
  0
VERTEX
  5
A1B
  8
0
  6
CONTINUOUS
 62
     7
 10
346.9077706775
 20
76.0506892239
 30
0.0
  0
VERTEX
  5
A1C
  8
0
  6
CONTINUOUS
 62
     7
 10
346.8974460354
 20
76.0490761732
 30
0.0
  0
VERTEX
  5
A1D
  8
0
  6
CONTINUOUS
 62
     7
 10
346.8871195307
 20
76.0474631225
 30
0.0
  0
SEQEND
  5
B3C
  8
0
  6
CONTINUOUS
 62
     7
  0
ARC
  5
356
  8
0
  6
CONTINUOUS
 62
     7
 10
325.6110609016
 20
212.4305965041
 30
0.0
 40
144.0436224425162
 50
262.0124236243
 51
277.9875763757
  0
POLYLINE
  5
357
  8
0
  6
CONTINUOUS
 62
     7
 66
     1
 10
0.0
 20
0.0
 30
0.0
  0
VERTEX
  5
A1E
  8
0
  6
CONTINUOUS
 62
     7
 10
304.2524014106
 20
76.0603749787
 30
0.0
  0
VERTEX
  5
A1F
  8
0
  6
CONTINUOUS
 62
     7
 10
304.2627260527
 20
76.0587582027
 30
0.0
  0
VERTEX
  5
A20
  8
0
  6
CONTINUOUS
 62
     7
 10
304.2730506947
 20
76.057145152
 30
0.0
  0
VERTEX
  5
A21
  8
0
  6
CONTINUOUS
 62
     7
 10
304.2833753368
 20
76.055528376
 30
0.0
  0
VERTEX
  5
A22
  8
0
  6
CONTINUOUS
 62
     7
 10
304.2936999789
 20
76.0539153253
 30
0.0
  0
VERTEX
  5
A23
  8
0
  6
CONTINUOUS
 62
     7
 10
304.3040246209
 20
76.0522985493
 30
0.0
  0
VERTEX
  5
A24
  8
0
  6
CONTINUOUS
 62
     7
 10
304.3143511256
 20
76.0506892239
 30
0.0
  0
VERTEX
  5
A25
  8
0
  6
CONTINUOUS
 62
     7
 10
304.3246757677
 20
76.0490761732
 30
0.0
  0
VERTEX
  5
A26
  8
0
  6
CONTINUOUS
 62
     7
 10
304.3350022724
 20
76.0474631225
 30
0.0
  0
SEQEND
  5
B3B
  8
0
  6
CONTINUOUS
 62
     7
  0
ARC
  5
358
  8
0
  6
CONTINUOUS
 62
     7
 10
306.8107412347
 20
135.6750799224
 30
0.0
 40
13.37231008813571
 50
101.0141750693
 51
153.594714531
  0
ARC
  5
359
  8
0
  6
CONTINUOUS
 62
     7
 10
344.4113805684
 20
135.6750799224
 30
0.0
 40
13.37231008813571
 50
26.405285469
 51
78.9858249307
  0
ARC
  5
35A
  8
0
  6
CONTINUOUS
 62
     7
 10
306.8107412347
 20
89.1861130859
 30
0.0
 40
13.37231008813573
 50
206.405285469
 51
258.9858249307
  0
ARC
  5
35B
  8
0
  6
CONTINUOUS
 62
     7
 10
344.4113805684
 20
89.1861130859
 30
0.0
 40
13.37231008813573
 50
281.0141750693
 51
333.594714531
  0
ARC
  5
35C
  8
0
  6
CONTINUOUS
 62
     7
 10
306.8004777981
 20
151.8752655656
 30
0.0
 40
26.0331370194229
 50
156.685720905
 51
158.1997593755
  0
LINE
  5
35D
  8
0
  6
CONTINUOUS
 62
     7
 10
281.3271977445
 20
158.6848700082
 30
0.0
 11
281.3636497101
 21
158.6453223264
 31
0.0
  0
ARC
  5
35E
  8
0
  6
CONTINUOUS
 62
     7
 10
304.6086315736
 20
152.8206492819
 30
0.0
 40
24.00862857108403
 50
160.1892114483
 51
165.8622060167
  0
ARC
  5
35F
  8
0
  6
CONTINUOUS
 62
     7
 10
292.8588687636
 20
155.8682899909
 30
0.0
 40
11.97338081227185
 50
113.9707580804
 51
154.8463831543
  0
ARC
  5
360
  8
0
  6
CONTINUOUS
 62
     7
 10
295.5821722654
 20
144.3461679473
 30
0.0
 40
23.70975736021926
 50
102.8802313842
 51
108.6644826149
  0
ARC
  5
361
  8
0
  6
CONTINUOUS
 62
     7
 10
293.2300996347
 20
155.7821489566
 30
0.0
 40
11.99434856678386
 50
103.962367899
 51
136.8923243167
  0
LINE
  5
362
  8
0
  6
CONTINUOUS
 62
     7
 10
283.8974170825
 20
163.3503565227
 30
0.0
 11
284.4733804902
 21
163.9787459409
 31
0.0
  0
ARC
  5
363
  8
0
  6
CONTINUOUS
 62
     7
 10
293.9844160417
 20
152.9475076286
 30
0.0
 40
14.49023164474352
 50
93.07306723
 51
134.1168584966
  0
POLYLINE
  5
364
  8
0
  6
CONTINUOUS
 62
     7
 66
     1
 10
0.0
 20
0.0
 30
0.0
  0
VERTEX
  5
A27
  8
0
  6
CONTINUOUS
 62
     7
 10
280.0962910494
 20
150.9119959211
 30
0.0
  0
VERTEX
  5
A28
  8
0
  6
CONTINUOUS
 62
     7
 10
280.3525910219
 20
151.9433648919
 30
0.0
  0
VERTEX
  5
A29
  8
0
  6
CONTINUOUS
 62
     7
 10
280.5863269111
 20
152.8839448129
 30
0.0
  0
VERTEX
  5
A2A
  8
0
  6
CONTINUOUS
 62
     7
 10
280.7975024423
 20
153.7337394094
 30
0.0
  0
VERTEX
  5
A2B
  8
0
  6
CONTINUOUS
 62
     7
 10
280.9861176154
 20
154.4927449559
 30
0.0
  0
VERTEX
  5
A2C
  8
0
  6
CONTINUOUS
 62
     7
 10
281.1521724304
 20
155.1609614527
 30
0.0
  0
VERTEX
  5
A2D
  8
0
  6
CONTINUOUS
 62
     7
 10
281.2956631622
 20
155.7383926248
 30
0.0
  0
VERTEX
  5
A2E
  8
0
  6
CONTINUOUS
 62
     7
 10
281.3925803146
 20
156.1283969914
 30
0.0
  0
VERTEX
  5
A2F
  8
0
  6
CONTINUOUS
 62
     7
 10
281.4755686065
 20
156.4623506402
 30
0.0
  0
VERTEX
  5
A30
  8
0
  6
CONTINUOUS
 62
     7
 10
281.628026112
 20
157.0758426224
 30
0.0
  0
VERTEX
  5
A31
  8
0
  6
CONTINUOUS
 62
     7
 10
281.7660257658
 20
157.6311790978
 30
0.0
  0
VERTEX
  5
A32
  8
0
  6
CONTINUOUS
 62
     7
 10
281.9052696666
 20
158.182149533
 30
0.0
  0
VERTEX
  5
A33
  8
0
  6
CONTINUOUS
 62
     7
 10
282.0710003814
 20
158.7644757365
 30
0.0
  0
VERTEX
  5
A34
  8
0
  6
CONTINUOUS
 62
     7
 10
282.4443154475
 20
159.7990521824
 30
0.0
  0
VERTEX
  5
A35
  8
0
  6
CONTINUOUS
 62
     7
 10
282.934772267
 20
160.8360202646
 30
0.0
  0
VERTEX
  5
A36
  8
0
  6
CONTINUOUS
 62
     7
 10
283.5240945658
 20
161.8237064814
 30
0.0
  0
VERTEX
  5
A37
  8
0
  6
CONTINUOUS
 62
     7
 10
284.0853207251
 20
162.6009212469
 30
0.0
  0
VERTEX
  5
A38
  8
0
  6
CONTINUOUS
 62
     7
 10
284.7051047227
 20
163.3285561239
 30
0.0
  0
VERTEX
  5
A39
  8
0
  6
CONTINUOUS
 62
     7
 10
285.3834502837
 20
164.0066111123
 30
0.0
  0
VERTEX
  5
A3A
  8
0
  6
CONTINUOUS
 62
     7
 10
286.1156374654
 20
164.6303439175
 30
0.0
  0
VERTEX
  5
A3B
  8
0
  6
CONTINUOUS
 62
     7
 10
286.8932694635
 20
165.1916296815
 30
0.0
  0
VERTEX
  5
A3C
  8
0
  6
CONTINUOUS
 62
     7
 10
287.7163500032
 20
165.6904609536
 30
0.0
  0
VERTEX
  5
A3D
  8
0
  6
CONTINUOUS
 62
     7
 10
288.3589216015
 20
166.0210096871
 30
0.0
  0
VERTEX
  5
A3E
  8
0
  6
CONTINUOUS
 62
     7
 10
289.0179850599
 20
166.3112880325
 30
0.0
  0
VERTEX
  5
A3F
  8
0
  6
CONTINUOUS
 62
     7
 10
289.6935441038
 20
166.5612959897
 30
0.0
  0
VERTEX
  5
A40
  8
0
  6
CONTINUOUS
 62
     7
 10
290.0375113329
 20
166.6711957788
 30
0.0
  0
VERTEX
  5
A41
  8
0
  6
CONTINUOUS
 62
     7
 10
290.2110390803
 20
166.7223700916
 30
0.0
  0
VERTEX
  5
A42
  8
0
  6
CONTINUOUS
 62
     7
 10
290.2981885215
 20
166.7470128869
 30
0.0
  0
VERTEX
  5
A43
  8
0
  6
CONTINUOUS
 62
     7
 10
290.3418600997
 20
166.7590977287
 30
0.0
  0
VERTEX
  5
A44
  8
0
  6
CONTINUOUS
 62
     7
 10
290.3637238285
 20
166.7650842702
 30
0.0
  0
VERTEX
  5
A45
  8
0
  6
CONTINUOUS
 62
     7
 10
290.3746575555
 20
166.7680607771
 30
0.0
  0
VERTEX
  5
A46
  8
0
  6
CONTINUOUS
 62
     7
 10
290.3801262817
 20
166.7695434427
 30
0.0
  0
VERTEX
  5
A47
  8
0
  6
CONTINUOUS
 62
     7
 10
290.38286437
 20
166.7702847754
 30
0.0
  0
VERTEX
  5
A48
  8
0
  6
CONTINUOUS
 62
     7
 10
290.3842315516
 20
166.7706573045
 30
0.0
  0
VERTEX
  5
A49
  8
0
  6
CONTINUOUS
 62
     7
 10
290.3849132797
 20
166.770843569
 30
0.0
  0
VERTEX
  5
A4A
  8
0
  6
CONTINUOUS
 62
     7
 10
290.3852560064
 20
166.7709329759
 30
0.0
  0
VERTEX
  5
A4B
  8
0
  6
CONTINUOUS
 62
     7
 10
290.3854273698
 20
166.7709814047
 30
0.0
  0
VERTEX
  5
A4C
  8
0
  6
CONTINUOUS
 62
     7
 10
290.3855130514
 20
166.7710037565
 30
0.0
  0
VERTEX
  5
A4D
  8
0
  6
CONTINUOUS
 62
     7
 10
290.3855540296
 20
166.7710149323
 30
0.0
  0
VERTEX
  5
A4E
  8
0
  6
CONTINUOUS
 62
     7
 10
290.3855763814
 20
166.7710223829
 30
0.0
  0
VERTEX
  5
A4F
  8
0
  6
CONTINUOUS
 62
     7
 10
290.3855875572
 20
166.7710261082
 30
0.0
  0
VERTEX
  5
A50
  8
0
  6
CONTINUOUS
 62
     7
 10
290.3855987331
 20
166.7710261082
 30
0.0
  0
VERTEX
  5
A51
  8
0
  6
CONTINUOUS
 62
     7
 10
290.4844902894
 20
166.7959557509
 30
0.0
  0
VERTEX
  5
A52
  8
0
  6
CONTINUOUS
 62
     7
 10
290.655916973
 20
166.836829636
 30
0.0
  0
VERTEX
  5
A53
  8
0
  6
CONTINUOUS
 62
     7
 10
290.8998713335
 20
166.8936440384
 30
0.0
  0
VERTEX
  5
A54
  8
0
  6
CONTINUOUS
 62
     7
 10
291.2163533708
 20
166.9664064085
 30
0.0
  0
VERTEX
  5
A55
  8
0
  6
CONTINUOUS
 62
     7
 10
291.6053705355
 20
167.0551130211
 30
0.0
  0
VERTEX
  5
A56
  8
0
  6
CONTINUOUS
 62
     7
 10
292.0669153771
 20
167.1597638761
 30
0.0
  0
VERTEX
  5
A57
  8
0
  6
CONTINUOUS
 62
     7
 10
292.600995346
 20
167.280362699
 30
0.0
  0
VERTEX
  5
A58
  8
0
  6
CONTINUOUS
 62
     7
 10
293.2076029917
 20
167.416902039
 30
0.0
  0
SEQEND
  5
B3A
  8
0
  6
CONTINUOUS
 62
     7
  0
ARC
  5
365
  8
0
  6
CONTINUOUS
 62
     7
 10
305.7743406649
 20
151.3876310735
 30
0.0
 40
25.68245433857675
 50
178.2893809829
 51
181.0611697983
  0
ARC
  5
366
  8
0
  6
CONTINUOUS
 62
     7
 10
341.5202099788
 20
140.6663084613
 30
0.0
 40
62.48205068811222
 50
160.4805514512
 51
169.4052944802
  0
ARC
  5
367
  8
0
  6
CONTINUOUS
 62
     7
 10
345.4477811382
 20
151.3876310735
 30
0.0
 40
25.68245433857675
 50
358.9388302017
 51
1.7106190171
  0
POLYLINE
  5
368
  8
0
  6
CONTINUOUS
 62
     7
 66
     1
 10
0.0
 20
0.0
 30
0.0
  0
VERTEX
  5
A59
  8
0
  6
CONTINUOUS
 62
     7
 10
371.1258307537
 20
150.9119959211
 30
0.0
  0
VERTEX
  5
A5A
  8
0
  6
CONTINUOUS
 62
     7
 10
370.8695307812
 20
151.9433648919
 30
0.0
  0
VERTEX
  5
A5B
  8
0
  6
CONTINUOUS
 62
     7
 10
370.635794892
 20
152.8839448129
 30
0.0
  0
VERTEX
  5
A5C
  8
0
  6
CONTINUOUS
 62
     7
 10
370.4246193608
 20
153.7337394094
 30
0.0
  0
VERTEX
  5
A5D
  8
0
  6
CONTINUOUS
 62
     7
 10
370.2360041877
 20
154.4927449559
 30
0.0
  0
VERTEX
  5
A5E
  8
0
  6
CONTINUOUS
 62
     7
 10
370.0699493727
 20
155.1609614527
 30
0.0
  0
VERTEX
  5
A5F
  8
0
  6
CONTINUOUS
 62
     7
 10
369.926458641
 20
155.7383926248
 30
0.0
  0
VERTEX
  5
A60
  8
0
  6
CONTINUOUS
 62
     7
 10
369.8295414886
 20
156.1283969914
 30
0.0
  0
VERTEX
  5
A61
  8
0
  6
CONTINUOUS
 62
     7
 10
369.7465531966
 20
156.4623506402
 30
0.0
  0
VERTEX
  5
A62
  8
0
  6
CONTINUOUS
 62
     7
 10
369.5940956911
 20
157.0758426224
 30
0.0
  0
VERTEX
  5
A63
  8
0
  6
CONTINUOUS
 62
     7
 10
369.4560960373
 20
157.6311790978
 30
0.0
  0
VERTEX
  5
A64
  8
0
  6
CONTINUOUS
 62
     7
 10
369.3168521365
 20
158.182149533
 30
0.0
  0
VERTEX
  5
A65
  8
0
  6
CONTINUOUS
 62
     7
 10
369.1511214217
 20
158.7644757365
 30
0.0
  0
VERTEX
  5
A66
  8
0
  6
CONTINUOUS
 62
     7
 10
368.7778063556
 20
159.7990521824
 30
0.0
  0
VERTEX
  5
A67
  8
0
  6
CONTINUOUS
 62
     7
 10
368.2873495361
 20
160.8360202646
 30
0.0
  0
VERTEX
  5
A68
  8
0
  6
CONTINUOUS
 62
     7
 10
367.6980272373
 20
161.8237064814
 30
0.0
  0
VERTEX
  5
A69
  8
0
  6
CONTINUOUS
 62
     7
 10
367.136801078
 20
162.6009212469
 30
0.0
  0
VERTEX
  5
A6A
  8
0
  6
CONTINUOUS
 62
     7
 10
366.5170170805
 20
163.3285561239
 30
0.0
  0
VERTEX
  5
A6B
  8
0
  6
CONTINUOUS
 62
     7
 10
365.8386715194
 20
164.0066111123
 30
0.0
  0
VERTEX
  5
A6C
  8
0
  6
CONTINUOUS
 62
     7
 10
365.1064843377
 20
164.6303439175
 30
0.0
  0
VERTEX
  5
A6D
  8
0
  6
CONTINUOUS
 62
     7
 10
364.3288523397
 20
165.1916296815
 30
0.0
  0
VERTEX
  5
A6E
  8
0
  6
CONTINUOUS
 62
     7
 10
363.5057718
 20
165.6904609536
 30
0.0
  0
VERTEX
  5
A6F
  8
0
  6
CONTINUOUS
 62
     7
 10
362.8632002017
 20
166.0210096871
 30
0.0
  0
VERTEX
  5
A70
  8
0
  6
CONTINUOUS
 62
     7
 10
362.2041367432
 20
166.3112880325
 30
0.0
  0
VERTEX
  5
A71
  8
0
  6
CONTINUOUS
 62
     7
 10
361.5285776993
 20
166.5612959897
 30
0.0
  0
VERTEX
  5
A72
  8
0
  6
CONTINUOUS
 62
     7
 10
361.1846104702
 20
166.6711957788
 30
0.0
  0
VERTEX
  5
A73
  8
0
  6
CONTINUOUS
 62
     7
 10
361.0110827228
 20
166.7223700916
 30
0.0
  0
VERTEX
  5
A74
  8
0
  6
CONTINUOUS
 62
     7
 10
360.9239332816
 20
166.7470128869
 30
0.0
  0
VERTEX
  5
A75
  8
0
  6
CONTINUOUS
 62
     7
 10
360.8802617034
 20
166.7590977287
 30
0.0
  0
VERTEX
  5
A76
  8
0
  6
CONTINUOUS
 62
     7
 10
360.8583979747
 20
166.7650842702
 30
0.0
  0
VERTEX
  5
A77
  8
0
  6
CONTINUOUS
 62
     7
 10
360.8474642476
 20
166.7680607771
 30
0.0
  0
VERTEX
  5
A78
  8
0
  6
CONTINUOUS
 62
     7
 10
360.8419955215
 20
166.7695434427
 30
0.0
  0
VERTEX
  5
A79
  8
0
  6
CONTINUOUS
 62
     7
 10
360.8392574331
 20
166.7702847754
 30
0.0
  0
VERTEX
  5
A7A
  8
0
  6
CONTINUOUS
 62
     7
 10
360.8378902516
 20
166.7706573045
 30
0.0
  0
VERTEX
  5
A7B
  8
0
  6
CONTINUOUS
 62
     7
 10
360.8372085234
 20
166.770843569
 30
0.0
  0
VERTEX
  5
A7C
  8
0
  6
CONTINUOUS
 62
     7
 10
360.8368657967
 20
166.7709329759
 30
0.0
  0
VERTEX
  5
A7D
  8
0
  6
CONTINUOUS
 62
     7
 10
360.8366944334
 20
166.7709814047
 30
0.0
  0
VERTEX
  5
A7E
  8
0
  6
CONTINUOUS
 62
     7
 10
360.8366087517
 20
166.7710037565
 30
0.0
  0
VERTEX
  5
A7F
  8
0
  6
CONTINUOUS
 62
     7
 10
360.8365677735
 20
166.7710149323
 30
0.0
  0
VERTEX
  5
A80
  8
0
  6
CONTINUOUS
 62
     7
 10
360.8365454218
 20
166.7710223829
 30
0.0
  0
VERTEX
  5
A81
  8
0
  6
CONTINUOUS
 62
     7
 10
360.8365342459
 20
166.7710261082
 30
0.0
  0
VERTEX
  5
A82
  8
0
  6
CONTINUOUS
 62
     7
 10
360.83652307
 20
166.7710261082
 30
0.0
  0
VERTEX
  5
A83
  8
0
  6
CONTINUOUS
 62
     7
 10
360.7376315138
 20
166.7959557509
 30
0.0
  0
VERTEX
  5
A84
  8
0
  6
CONTINUOUS
 62
     7
 10
360.5662048301
 20
166.836829636
 30
0.0
  0
VERTEX
  5
A85
  8
0
  6
CONTINUOUS
 62
     7
 10
360.3222504696
 20
166.8936440384
 30
0.0
  0
VERTEX
  5
A86
  8
0
  6
CONTINUOUS
 62
     7
 10
360.0057684323
 20
166.9664064085
 30
0.0
  0
VERTEX
  5
A87
  8
0
  6
CONTINUOUS
 62
     7
 10
359.6167512676
 20
167.0551130211
 30
0.0
  0
VERTEX
  5
A88
  8
0
  6
CONTINUOUS
 62
     7
 10
359.1552064261
 20
167.1597638761
 30
0.0
  0
VERTEX
  5
A89
  8
0
  6
CONTINUOUS
 62
     7
 10
358.6211264571
 20
167.280362699
 30
0.0
  0
VERTEX
  5
A8A
  8
0
  6
CONTINUOUS
 62
     7
 10
358.0145188114
 20
167.416902039
 30
0.0
  0
SEQEND
  5
B39
  8
0
  6
CONTINUOUS
 62
     7
  0
ARC
  5
369
  8
0
  6
CONTINUOUS
 62
     7
 10
357.2377057614
 20
152.9475076286
 30
0.0
 40
14.49023164474348
 50
45.8831415034
 51
86.92693277
  0
LINE
  5
36A
  8
0
  6
CONTINUOUS
 62
     7
 10
367.3247047207
 20
163.3503565227
 30
0.0
 11
366.7487413129
 21
163.9787459409
 31
0.0
  0
ARC
  5
36B
  8
0
  6
CONTINUOUS
 62
     7
 10
357.9920221684
 20
155.7821489566
 30
0.0
 40
11.99434856678387
 50
43.1076756833
 51
76.037632101
  0
ARC
  5
36C
  8
0
  6
CONTINUOUS
 62
     7
 10
355.6399495377
 20
144.3461679473
 30
0.0
 40
23.70975736021926
 50
71.3355173851
 51
77.1197686158
  0
ARC
  5
36D
  8
0
  6
CONTINUOUS
 62
     7
 10
358.3632530396
 20
155.8682899909
 30
0.0
 40
11.9733808122718
 50
25.1536168457
 51
66.0292419196
  0
ARC
  5
36E
  8
0
  6
CONTINUOUS
 62
     7
 10
346.6134902295
 20
152.8206492819
 30
0.0
 40
24.00862857108403
 50
14.1377939833
 51
19.8107885517
  0
LINE
  5
36F
  8
0
  6
CONTINUOUS
 62
     7
 10
369.8949240586
 20
158.6848700082
 30
0.0
 11
369.858472093
 21
158.6453223264
 31
0.0
  0
ARC
  5
370
  8
0
  6
CONTINUOUS
 62
     7
 10
344.421644005
 20
151.8752655656
 30
0.0
 40
26.0331370194229
 50
21.8002406245
 51
23.314279095
  0
ARC
  5
371
  8
0
  6
CONTINUOUS
 62
     7
 10
309.7019118244
 20
140.6663084613
 30
0.0
 40
62.48205068811222
 50
10.5947055198
 51
19.5194485488
  0
ARC
  5
372
  8
0
  6
CONTINUOUS
 62
     7
 10
344.421644005
 20
72.9859274427
 30
0.0
 40
26.0331370194229
 50
336.685720905
 51
338.1997593755
  0
ARC
  5
373
  8
0
  6
CONTINUOUS
 62
     7
 10
346.6134902295
 20
72.0405437264
 30
0.0
 40
24.00862857108402
 50
340.1892114483
 51
345.8622060167
  0
ARC
  5
374
  8
0
  6
CONTINUOUS
 62
     7
 10
358.3632530396
 20
68.9929030173
 30
0.0
 40
11.97338081227178
 50
293.9707580804
 51
334.8463831543
  0
ARC
  5
375
  8
0
  6
CONTINUOUS
 62
     7
 10
355.6399495377
 20
80.515025061
 30
0.0
 40
23.70975736021931
 50
282.8802313842
 51
288.6644826149
  0
ARC
  5
376
  8
0
  6
CONTINUOUS
 62
     7
 10
357.9920221684
 20
69.0790440517
 30
0.0
 40
11.99434856678385
 50
283.962367899
 51
316.8923243167
  0
LINE
  5
377
  8
0
  6
CONTINUOUS
 62
     7
 10
367.3247047207
 20
61.5108364856
 30
0.0
 11
366.7487413129
 21
60.8824470674
 31
0.0
  0
ARC
  5
378
  8
0
  6
CONTINUOUS
 62
     7
 10
357.2377057614
 20
71.9136853797
 30
0.0
 40
14.4902316447435
 50
273.07306723
 51
314.1168584966
  0
POLYLINE
  5
379
  8
0
  6
CONTINUOUS
 62
     7
 66
     1
 10
0.0
 20
0.0
 30
0.0
  0
VERTEX
  5
A8B
  8
0
  6
CONTINUOUS
 62
     7
 10
371.1258307537
 20
73.9491970872
 30
0.0
  0
VERTEX
  5
A8C
  8
0
  6
CONTINUOUS
 62
     7
 10
370.8695307812
 20
72.9178281163
 30
0.0
  0
VERTEX
  5
A8D
  8
0
  6
CONTINUOUS
 62
     7
 10
370.635794892
 20
71.9772481953
 30
0.0
  0
VERTEX
  5
A8E
  8
0
  6
CONTINUOUS
 62
     7
 10
370.4246193608
 20
71.1274535989
 30
0.0
  0
VERTEX
  5
A8F
  8
0
  6
CONTINUOUS
 62
     7
 10
370.2360041877
 20
70.3684480523
 30
0.0
  0
VERTEX
  5
A90
  8
0
  6
CONTINUOUS
 62
     7
 10
370.0699493727
 20
69.7002315556
 30
0.0
  0
VERTEX
  5
A91
  8
0
  6
CONTINUOUS
 62
     7
 10
369.926458641
 20
69.1228003835
 30
0.0
  0
VERTEX
  5
A92
  8
0
  6
CONTINUOUS
 62
     7
 10
369.8295414886
 20
68.7327960169
 30
0.0
  0
VERTEX
  5
A93
  8
0
  6
CONTINUOUS
 62
     7
 10
369.7465531966
 20
68.3988423681
 30
0.0
  0
VERTEX
  5
A94
  8
0
  6
CONTINUOUS
 62
     7
 10
369.5940956911
 20
67.7853503858
 30
0.0
  0
VERTEX
  5
A95
  8
0
  6
CONTINUOUS
 62
     7
 10
369.4560960373
 20
67.2300139105
 30
0.0
  0
VERTEX
  5
A96
  8
0
  6
CONTINUOUS
 62
     7
 10
369.3168521365
 20
66.6790434753
 30
0.0
  0
VERTEX
  5
A97
  8
0
  6
CONTINUOUS
 62
     7
 10
369.1511214217
 20
66.0967172717
 30
0.0
  0
VERTEX
  5
A98
  8
0
  6
CONTINUOUS
 62
     7
 10
368.7778063556
 20
65.0621408259
 30
0.0
  0
VERTEX
  5
A99
  8
0
  6
CONTINUOUS
 62
     7
 10
368.2873495361
 20
64.0251727437
 30
0.0
  0
VERTEX
  5
A9A
  8
0
  6
CONTINUOUS
 62
     7
 10
367.6980272373
 20
63.0374865269
 30
0.0
  0
VERTEX
  5
A9B
  8
0
  6
CONTINUOUS
 62
     7
 10
367.136801078
 20
62.2602717613
 30
0.0
  0
VERTEX
  5
A9C
  8
0
  6
CONTINUOUS
 62
     7
 10
366.5170170805
 20
61.5326368844
 30
0.0
  0
VERTEX
  5
A9D
  8
0
  6
CONTINUOUS
 62
     7
 10
365.8386715194
 20
60.854581896
 30
0.0
  0
VERTEX
  5
A9E
  8
0
  6
CONTINUOUS
 62
     7
 10
365.1064843377
 20
60.2308490907
 30
0.0
  0
VERTEX
  5
A9F
  8
0
  6
CONTINUOUS
 62
     7
 10
364.3288523397
 20
59.6695633268
 30
0.0
  0
VERTEX
  5
AA0
  8
0
  6
CONTINUOUS
 62
     7
 10
363.5057718
 20
59.1707320546
 30
0.0
  0
VERTEX
  5
AA1
  8
0
  6
CONTINUOUS
 62
     7
 10
362.8632002017
 20
58.8401833212
 30
0.0
  0
VERTEX
  5
AA2
  8
0
  6
CONTINUOUS
 62
     7
 10
362.2041367432
 20
58.5499049758
 30
0.0
  0
VERTEX
  5
AA3
  8
0
  6
CONTINUOUS
 62
     7
 10
361.5285776993
 20
58.2998970186
 30
0.0
  0
VERTEX
  5
AA4
  8
0
  6
CONTINUOUS
 62
     7
 10
361.1846104702
 20
58.1899972295
 30
0.0
  0
VERTEX
  5
AA5
  8
0
  6
CONTINUOUS
 62
     7
 10
361.0110827228
 20
58.1388229167
 30
0.0
  0
VERTEX
  5
AA6
  8
0
  6
CONTINUOUS
 62
     7
 10
360.9239332816
 20
58.1141801214
 30
0.0
  0
VERTEX
  5
AA7
  8
0
  6
CONTINUOUS
 62
     7
 10
360.8802617034
 20
58.1020952796
 30
0.0
  0
VERTEX
  5
AA8
  8
0
  6
CONTINUOUS
 62
     7
 10
360.8583979747
 20
58.0961087381
 30
0.0
  0
VERTEX
  5
AA9
  8
0
  6
CONTINUOUS
 62
     7
 10
360.8474642476
 20
58.0931322312
 30
0.0
  0
VERTEX
  5
AAA
  8
0
  6
CONTINUOUS
 62
     7
 10
360.8419955215
 20
58.0916495656
 30
0.0
  0
VERTEX
  5
AAB
  8
0
  6
CONTINUOUS
 62
     7
 10
360.8392574331
 20
58.0909082329
 30
0.0
  0
VERTEX
  5
AAC
  8
0
  6
CONTINUOUS
 62
     7
 10
360.8378902516
 20
58.0905357038
 30
0.0
  0
VERTEX
  5
AAD
  8
0
  6
CONTINUOUS
 62
     7
 10
360.8372085234
 20
58.0903494393
 30
0.0
  0
VERTEX
  5
AAE
  8
0
  6
CONTINUOUS
 62
     7
 10
360.8368657967
 20
58.0902600323
 30
0.0
  0
VERTEX
  5
AAF
  8
0
  6
CONTINUOUS
 62
     7
 10
360.8366944334
 20
58.0902116036
 30
0.0
  0
VERTEX
  5
AB0
  8
0
  6
CONTINUOUS
 62
     7
 10
360.8366087517
 20
58.0901892518
 30
0.0
  0
VERTEX
  5
AB1
  8
0
  6
CONTINUOUS
 62
     7
 10
360.8365677735
 20
58.090178076
 30
0.0
  0
VERTEX
  5
AB2
  8
0
  6
CONTINUOUS
 62
     7
 10
360.8365454218
 20
58.0901706254
 30
0.0
  0
VERTEX
  5
AB3
  8
0
  6
CONTINUOUS
 62
     7
 10
360.8365342459
 20
58.0901669001
 30
0.0
  0
VERTEX
  5
AB4
  8
0
  6
CONTINUOUS
 62
     7
 10
360.83652307
 20
58.0901669001
 30
0.0
  0
VERTEX
  5
AB5
  8
0
  6
CONTINUOUS
 62
     7
 10
360.7376315138
 20
58.0652372574
 30
0.0
  0
VERTEX
  5
AB6
  8
0
  6
CONTINUOUS
 62
     7
 10
360.5662048301
 20
58.0243633723
 30
0.0
  0
VERTEX
  5
AB7
  8
0
  6
CONTINUOUS
 62
     7
 10
360.3222504696
 20
57.9675489699
 30
0.0
  0
VERTEX
  5
AB8
  8
0
  6
CONTINUOUS
 62
     7
 10
360.0057684323
 20
57.8947865998
 30
0.0
  0
VERTEX
  5
AB9
  8
0
  6
CONTINUOUS
 62
     7
 10
359.6167512676
 20
57.8060799872
 30
0.0
  0
VERTEX
  5
ABA
  8
0
  6
CONTINUOUS
 62
     7
 10
359.1552064261
 20
57.7014291322
 30
0.0
  0
VERTEX
  5
ABB
  8
0
  6
CONTINUOUS
 62
     7
 10
358.6211264571
 20
57.5808303093
 30
0.0
  0
VERTEX
  5
ABC
  8
0
  6
CONTINUOUS
 62
     7
 10
358.0145188114
 20
57.4442909693
 30
0.0
  0
SEQEND
  5
B38
  8
0
  6
CONTINUOUS
 62
     7
  0
ARC
  5
37A
  8
0
  6
CONTINUOUS
 62
     7
 10
345.4477811382
 20
73.4735619348
 30
0.0
 40
25.68245433857675
 50
358.2893809829
 51
1.0611697983
  0
ARC
  5
37B
  8
0
  6
CONTINUOUS
 62
     7
 10
309.7019118244
 20
84.194884547
 30
0.0
 40
62.48205068811222
 50
340.4805514512
 51
349.4052944802
  0
ARC
  5
37C
  8
0
  6
CONTINUOUS
 62
     7
 10
305.7743406649
 20
73.4735619348
 30
0.0
 40
25.68245433857675
 50
178.9388302017
 51
181.7106190171
  0
POLYLINE
  5
37D
  8
0
  6
CONTINUOUS
 62
     7
 66
     1
 10
0.0
 20
0.0
 30
0.0
  0
VERTEX
  5
ABD
  8
0
  6
CONTINUOUS
 62
     7
 10
280.0962910494
 20
73.9491970872
 30
0.0
  0
VERTEX
  5
ABE
  8
0
  6
CONTINUOUS
 62
     7
 10
280.3525910219
 20
72.9178281163
 30
0.0
  0
VERTEX
  5
ABF
  8
0
  6
CONTINUOUS
 62
     7
 10
280.5863269111
 20
71.9772481953
 30
0.0
  0
VERTEX
  5
AC0
  8
0
  6
CONTINUOUS
 62
     7
 10
280.7975024423
 20
71.1274535989
 30
0.0
  0
VERTEX
  5
AC1
  8
0
  6
CONTINUOUS
 62
     7
 10
280.9861176154
 20
70.3684480523
 30
0.0
  0
VERTEX
  5
AC2
  8
0
  6
CONTINUOUS
 62
     7
 10
281.1521724304
 20
69.7002315556
 30
0.0
  0
VERTEX
  5
AC3
  8
0
  6
CONTINUOUS
 62
     7
 10
281.2956631622
 20
69.1228003835
 30
0.0
  0
VERTEX
  5
AC4
  8
0
  6
CONTINUOUS
 62
     7
 10
281.3925803146
 20
68.7327960169
 30
0.0
  0
VERTEX
  5
AC5
  8
0
  6
CONTINUOUS
 62
     7
 10
281.4755686065
 20
68.3988423681
 30
0.0
  0
VERTEX
  5
AC6
  8
0
  6
CONTINUOUS
 62
     7
 10
281.628026112
 20
67.7853503858
 30
0.0
  0
VERTEX
  5
AC7
  8
0
  6
CONTINUOUS
 62
     7
 10
281.7660257658
 20
67.2300139105
 30
0.0
  0
VERTEX
  5
AC8
  8
0
  6
CONTINUOUS
 62
     7
 10
281.9052696666
 20
66.6790434753
 30
0.0
  0
VERTEX
  5
AC9
  8
0
  6
CONTINUOUS
 62
     7
 10
282.0710003814
 20
66.0967172717
 30
0.0
  0
VERTEX
  5
ACA
  8
0
  6
CONTINUOUS
 62
     7
 10
282.4443154475
 20
65.0621408259
 30
0.0
  0
VERTEX
  5
ACB
  8
0
  6
CONTINUOUS
 62
     7
 10
282.934772267
 20
64.0251727437
 30
0.0
  0
VERTEX
  5
ACC
  8
0
  6
CONTINUOUS
 62
     7
 10
283.5240945658
 20
63.0374865269
 30
0.0
  0
VERTEX
  5
ACD
  8
0
  6
CONTINUOUS
 62
     7
 10
284.0853207251
 20
62.2602717613
 30
0.0
  0
VERTEX
  5
ACE
  8
0
  6
CONTINUOUS
 62
     7
 10
284.7051047227
 20
61.5326368844
 30
0.0
  0
VERTEX
  5
ACF
  8
0
  6
CONTINUOUS
 62
     7
 10
285.3834502837
 20
60.854581896
 30
0.0
  0
VERTEX
  5
AD0
  8
0
  6
CONTINUOUS
 62
     7
 10
286.1156374654
 20
60.2308490907
 30
0.0
  0
VERTEX
  5
AD1
  8
0
  6
CONTINUOUS
 62
     7
 10
286.8932694635
 20
59.6695633268
 30
0.0
  0
VERTEX
  5
AD2
  8
0
  6
CONTINUOUS
 62
     7
 10
287.7163500032
 20
59.1707320546
 30
0.0
  0
VERTEX
  5
AD3
  8
0
  6
CONTINUOUS
 62
     7
 10
288.3589216015
 20
58.8401833212
 30
0.0
  0
VERTEX
  5
AD4
  8
0
  6
CONTINUOUS
 62
     7
 10
289.0179850599
 20
58.5499049758
 30
0.0
  0
VERTEX
  5
AD5
  8
0
  6
CONTINUOUS
 62
     7
 10
289.6935441038
 20
58.2998970186
 30
0.0
  0
VERTEX
  5
AD6
  8
0
  6
CONTINUOUS
 62
     7
 10
290.0375113329
 20
58.1899972295
 30
0.0
  0
VERTEX
  5
AD7
  8
0
  6
CONTINUOUS
 62
     7
 10
290.2110390803
 20
58.1388229167
 30
0.0
  0
VERTEX
  5
AD8
  8
0
  6
CONTINUOUS
 62
     7
 10
290.2981885215
 20
58.1141801214
 30
0.0
  0
VERTEX
  5
AD9
  8
0
  6
CONTINUOUS
 62
     7
 10
290.3418600997
 20
58.1020952796
 30
0.0
  0
VERTEX
  5
ADA
  8
0
  6
CONTINUOUS
 62
     7
 10
290.3637238285
 20
58.0961087381
 30
0.0
  0
VERTEX
  5
ADB
  8
0
  6
CONTINUOUS
 62
     7
 10
290.3746575555
 20
58.0931322312
 30
0.0
  0
VERTEX
  5
ADC
  8
0
  6
CONTINUOUS
 62
     7
 10
290.3801262817
 20
58.0916495656
 30
0.0
  0
VERTEX
  5
ADD
  8
0
  6
CONTINUOUS
 62
     7
 10
290.38286437
 20
58.0909082329
 30
0.0
  0
VERTEX
  5
ADE
  8
0
  6
CONTINUOUS
 62
     7
 10
290.3842315516
 20
58.0905357038
 30
0.0
  0
VERTEX
  5
ADF
  8
0
  6
CONTINUOUS
 62
     7
 10
290.3849132797
 20
58.0903494393
 30
0.0
  0
VERTEX
  5
AE0
  8
0
  6
CONTINUOUS
 62
     7
 10
290.3852560064
 20
58.0902600323
 30
0.0
  0
VERTEX
  5
AE1
  8
0
  6
CONTINUOUS
 62
     7
 10
290.3854273698
 20
58.0902116036
 30
0.0
  0
VERTEX
  5
AE2
  8
0
  6
CONTINUOUS
 62
     7
 10
290.3855130514
 20
58.0901892518
 30
0.0
  0
VERTEX
  5
AE3
  8
0
  6
CONTINUOUS
 62
     7
 10
290.3855540296
 20
58.090178076
 30
0.0
  0
VERTEX
  5
AE4
  8
0
  6
CONTINUOUS
 62
     7
 10
290.3855763814
 20
58.0901706254
 30
0.0
  0
VERTEX
  5
AE5
  8
0
  6
CONTINUOUS
 62
     7
 10
290.3855875572
 20
58.0901669001
 30
0.0
  0
VERTEX
  5
AE6
  8
0
  6
CONTINUOUS
 62
     7
 10
290.3855987331
 20
58.0901669001
 30
0.0
  0
VERTEX
  5
AE7
  8
0
  6
CONTINUOUS
 62
     7
 10
290.4844902894
 20
58.0652372574
 30
0.0
  0
VERTEX
  5
AE8
  8
0
  6
CONTINUOUS
 62
     7
 10
290.655916973
 20
58.0243633723
 30
0.0
  0
VERTEX
  5
AE9
  8
0
  6
CONTINUOUS
 62
     7
 10
290.8998713335
 20
57.9675489699
 30
0.0
  0
VERTEX
  5
AEA
  8
0
  6
CONTINUOUS
 62
     7
 10
291.2163533708
 20
57.8947865998
 30
0.0
  0
VERTEX
  5
AEB
  8
0
  6
CONTINUOUS
 62
     7
 10
291.6053705355
 20
57.8060799872
 30
0.0
  0
VERTEX
  5
AEC
  8
0
  6
CONTINUOUS
 62
     7
 10
292.0669153771
 20
57.7014291322
 30
0.0
  0
VERTEX
  5
AED
  8
0
  6
CONTINUOUS
 62
     7
 10
292.600995346
 20
57.5808303093
 30
0.0
  0
VERTEX
  5
AEE
  8
0
  6
CONTINUOUS
 62
     7
 10
293.2076029917
 20
57.4442909693
 30
0.0
  0
SEQEND
  5
B37
  8
0
  6
CONTINUOUS
 62
     7
  0
ARC
  5
37E
  8
0
  6
CONTINUOUS
 62
     7
 10
293.9844160417
 20
71.9136853797
 30
0.0
 40
14.49023164474353
 50
225.8831415034
 51
266.92693277
  0
LINE
  5
37F
  8
0
  6
CONTINUOUS
 62
     7
 10
283.8974170825
 20
61.5108364856
 30
0.0
 11
284.4733804902
 21
60.8824470674
 31
0.0
  0
ARC
  5
380
  8
0
  6
CONTINUOUS
 62
     7
 10
293.2300996347
 20
69.0790440517
 30
0.0
 40
11.99434856678384
 50
223.1076756833
 51
256.037632101
  0
ARC
  5
381
  8
0
  6
CONTINUOUS
 62
     7
 10
295.5821722654
 20
80.515025061
 30
0.0
 40
23.70975736021931
 50
251.3355173851
 51
257.1197686158
  0
ARC
  5
382
  8
0
  6
CONTINUOUS
 62
     7
 10
292.8588687636
 20
68.9929030173
 30
0.0
 40
11.97338081227184
 50
205.1536168457
 51
246.0292419196
  0
ARC
  5
383
  8
0
  6
CONTINUOUS
 62
     7
 10
304.6086315736
 20
72.0405437264
 30
0.0
 40
24.00862857108402
 50
194.1377939833
 51
199.8107885517
  0
ARC
  5
384
  8
0
  6
CONTINUOUS
 62
     7
 10
306.8004777981
 20
72.9859274427
 30
0.0
 40
26.0331370194229
 50
201.8002406245
 51
203.314279095
  0
ARC
  5
385
  8
0
  6
CONTINUOUS
 62
     7
 10
341.5202099788
 20
84.194884547
 30
0.0
 40
62.48205068811222
 50
190.5947055198
 51
199.5194485488
  0
ARC
  5
386
  8
0
  6
CONTINUOUS
 62
     7
 10
292.6110609016
 20
154.4305965041
 30
0.0
 40
13.00000000000013
 50
334.4012067358
 51
87.3699038403
  0
ARC
  5
387
  8
0
  6
CONTINUOUS
 62
     7
 10
292.6110609016
 20
154.4305965041
 30
0.0
 40
13.00000000000012
 50
195.7036441265
 51
279.8436969276
  0
ARC
  5
388
  8
0
  6
CONTINUOUS
 62
     7
 10
358.6110609016
 20
154.4305965041
 30
0.0
 40
13.00000000000013
 50
92.6300961597
 51
205.5987932642
  0
ARC
  5
389
  8
0
  6
CONTINUOUS
 62
     7
 10
358.6110609016
 20
154.4305965041
 30
0.0
 40
13.00000000000012
 50
260.1563030724
 51
344.2963558735
  0
ARC
  5
38A
  8
0
  6
CONTINUOUS
 62
     7
 10
292.6110609016
 20
70.4305965041
 30
0.0
 40
13.00000000000012
 50
272.6300961597
 51
25.5987932642
  0
ARC
  5
38B
  8
0
  6
CONTINUOUS
 62
     7
 10
292.6110609016
 20
70.4305965041
 30
0.0
 40
13.00000000000012
 50
80.1563030724
 51
164.2963558735
  0
ARC
  5
38C
  8
0
  6
CONTINUOUS
 62
     7
 10
358.6110609016
 20
70.4305965041
 30
0.0
 40
13.00000000000012
 50
154.4012067358
 51
267.3699038403
  0
ARC
  5
38D
  8
0
  6
CONTINUOUS
 62
     7
 10
358.6110609016
 20
70.4305965041
 30
0.0
 40
13.00000000000012
 50
15.7036441265
 51
99.8436969276
  0
ARC
  5
38E
  8
0
  6
CONTINUOUS
 62
     7
 10
185.6110609016
 20
112.4305965041
 30
0.0
 40
175.5877718081998
 50
350.4931008694
 51
9.5068991306
  0
ARC
  5
38F
  8
0
  6
CONTINUOUS
 62
     7
 10
465.6110609016
 20
112.4305965041
 30
0.0
 40
175.5877718081998
 50
170.4931008694
 51
189.5068991306
  0
LINE
  5
390
  8
0
  6
CONTINUOUS
 62
     7
 10
284.4733767649
 20
163.9787496661
 30
0.0
 11
284.5438257298
 21
163.9480942523
 31
0.0
  0
LINE
  5
391
  8
0
  6
CONTINUOUS
 62
     7
 10
366.7487450382
 20
163.9787496661
 30
0.0
 11
366.6782960734
 21
163.9480942523
 31
0.0
  0
LINE
  5
392
  8
0
  6
CONTINUOUS
 62
     7
 10
284.4733767649
 20
60.8824433421
 30
0.0
 11
284.5438257298
 21
60.913098756
 31
0.0
  0
LINE
  5
393
  8
0
  6
CONTINUOUS
 62
     7
 10
366.7487450382
 20
60.8824433421
 30
0.0
 11
366.6782960734
 21
60.913098756
 31
0.0
  0
ARC
  5
394
  8
0
  6
CONTINUOUS
 62
     7
 10
325.6110609016
 20
12.4305965041
 30
0.0
 40
159.0
 50
77.1675056236
 51
102.8324943764
  0
ARC
  5
395
  8
0
  6
CONTINUOUS
 62
     7
 10
325.6110609016
 20
212.4305965041
 30
0.0
 40
159.0
 50
257.1675056236
 51
282.8324943764
  0
ARC
  5
396
  8
0
  6
CONTINUOUS
 62
     7
 10
185.6110609016
 20
112.4305965041
 30
0.0
 40
190.0
 50
345.9101289586
 51
14.0898710414
  0
ARC
  5
397
  8
0
  6
CONTINUOUS
 62
     7
 10
465.6110609016
 20
112.4305965041
 30
0.0
 40
190.0
 50
165.9101289586
 51
194.0898710414
  0
LINE
  5
398
  8
0
  6
CONTINUOUS
 62
     7
 10
261.2841710886
 20
145.9305973386
 30
0.0
 11
261.2841710886
 21
78.9305956697
 31
0.0
  0
LINE
  5
399
  8
0
  6
CONTINUOUS
 62
     7
 10
389.9379507145
 20
145.9305973386
 30
0.0
 11
389.9379507145
 21
78.9305956697
 31
0.0
  0
LINE
  5
39A
  8
0
  6
CONTINUOUS
 62
     7
 10
242.285376831
 20
82.2805964982
 30
0.0
 11
242.285376831
 21
142.5805965101
 31
0.0
  0
LINE
  5
39B
  8
0
  6
CONTINUOUS
 62
     7
 10
408.9367449722
 20
142.5805965101
 30
0.0
 11
408.9367449722
 21
82.2805964982
 31
0.0
  0
LINE
  5
39C
  8
0
  6
CONTINUOUS
 62
     7
 10
609.8027587375
 20
142.5805965101
 30
0.0
 11
609.8027587375
 21
82.2805964982
 31
0.0
  0
LINE
  5
39D
  8
0
  6
CONTINUOUS
 62
     7
 10
41.4193630656
 20
142.5805965101
 30
0.0
 11
41.4193630656
 21
82.2805964982
 31
0.0
  0
LINE
  5
39E
  8
0
  6
CONTINUOUS
 62
     7
 10
610.6110573253
 20
141.1805970257
 30
0.0
 11
610.6110573253
 21
83.6805959826
 31
0.0
  0
LINE
  5
39F
  8
0
  6
CONTINUOUS
 62
     7
 10
40.6110644778
 20
141.1805970257
 30
0.0
 11
40.6110644778
 21
83.6805959826
 31
0.0
  0
ARC
  5
3A0
  8
0
  6
CONTINUOUS
 62
     8
 10
325.6110609016
 20
112.4305965041
 30
0.0
 40
22.14899490411917
 50
163.046624701
 51
256.953375299
  0
ARC
  5
3A1
  8
0
  6
CONTINUOUS
 62
     8
 10
325.6110609016
 20
112.4305965041
 30
0.0
 40
19.15310629985536
 50
165.1326274177
 51
254.8673725823
  0
ARC
  5
3A2
  8
0
  6
CONTINUOUS
 62
     8
 10
325.6110609016
 20
112.4305965041
 30
0.0
 40
22.1489949041192
 50
283.046624701
 51
16.953375299
  0
ARC
  5
3A3
  8
0
  6
CONTINUOUS
 62
     8
 10
325.6110609016
 20
112.4305965041
 30
0.0
 40
19.15310629985541
 50
285.1326274177
 51
14.8673725823
  0
ARC
  5
3A4
  8
0
  6
CONTINUOUS
 62
     8
 10
325.6110609016
 20
112.4305965041
 30
0.0
 40
22.14899490411918
 50
43.046624701
 51
136.953375299
  0
ARC
  5
3A5
  8
0
  6
CONTINUOUS
 62
     8
 10
325.6110609016
 20
112.4305965041
 30
0.0
 40
19.15310629985539
 50
45.1326274177
 51
134.8673725823
  0
ARC
  5
3A6
  8
0
  6
CONTINUOUS
 62
     8
 10
5.9790038113
 20
130.1067085246
 30
0.0
 40
341.5027662068511
 50
0.8049761992
 51
3.1379961329
  0
ARC
  5
3A7
  8
0
  6
CONTINUOUS
 62
     8
 10
645.2431179918
 20
130.1067085246
 30
0.0
 40
341.5027662068511
 50
176.8620038671
 51
179.1950238008
  0
ARC
  5
3A8
  8
0
  6
CONTINUOUS
 62
     8
 10
5.9790038113
 20
94.7544844837
 30
0.0
 40
341.5027662068511
 50
356.8620038671
 51
359.1950238008
  0
ARC
  5
3A9
  8
0
  6
CONTINUOUS
 62
     8
 10
645.2431179918
 20
94.7544844837
 30
0.0
 40
341.5027662068511
 50
180.8049761992
 51
183.1379961329
  0
POLYLINE
  5
3AA
  8
0
  6
CONTINUOUS
 62
     8
 66
     1
 10
0.0
 20
0.0
 30
0.0
  0
VERTEX
  5
AEF
  8
0
  6
CONTINUOUS
 62
     8
 10
297.6505667409
 20
126.5935439279
 30
0.0
  0
VERTEX
  5
AF0
  8
0
  6
CONTINUOUS
 62
     8
 10
296.8809385291
 20
126.6584412789
 30
0.0
  0
VERTEX
  5
AF1
  8
0
  6
CONTINUOUS
 62
     8
 10
295.8163790843
 20
126.7482077365
 30
0.0
  0
VERTEX
  5
AF2
  8
0
  6
CONTINUOUS
 62
     8
 10
294.8291063747
 20
126.8314577302
 30
0.0
  0
VERTEX
  5
AF3
  8
0
  6
CONTINUOUS
 62
     8
 10
293.9349770984
 20
126.9068538805
 30
0.0
  0
VERTEX
  5
AF4
  8
0
  6
CONTINUOUS
 62
     8
 10
293.1469887933
 20
126.9732990896
 30
0.0
  0
VERTEX
  5
AF5
  8
0
  6
CONTINUOUS
 62
     8
 10
292.4746670267
 20
127.0299914887
 30
0.0
  0
VERTEX
  5
AF6
  8
0
  6
CONTINUOUS
 62
     8
 10
291.923715218
 20
127.076449584
 30
0.0
  0
VERTEX
  5
AF7
  8
0
  6
CONTINUOUS
 62
     8
 10
291.49596621
 20
127.112518776
 30
0.0
  0
VERTEX
  5
AF8
  8
0
  6
CONTINUOUS
 62
     8
 10
291.1896244129
 20
127.1383499389
 30
0.0
  0
VERTEX
  5
AF9
  8
0
  6
CONTINUOUS
 62
     8
 10
290.9997202894
 20
127.1543640306
 30
0.0
  0
VERTEX
  5
AFA
  8
0
  6
CONTINUOUS
 62
     8
 10
290.9187138519
 20
127.1611943504
 30
0.0
  0
SEQEND
  5
B36
  8
0
  6
CONTINUOUS
 62
     8
  0
ARC
  5
3AB
  8
0
  6
CONTINUOUS
 62
     8
 10
579.8994106786
 20
101.9281307168
 30
0.0
 40
290.0802486189265
 50
172.1715596714
 51
175.0097342427
  0
ARC
  5
3AC
  8
0
  6
CONTINUOUS
 62
     8
 10
71.3227111245
 20
101.9281307168
 30
0.0
 40
290.0802486189265
 50
4.9902657573
 51
7.8284403286
  0
POLYLINE
  5
3AD
  8
0
  6
CONTINUOUS
 62
     8
 66
     1
 10
0.0
 20
0.0
 30
0.0
  0
VERTEX
  5
AFB
  8
0
  6
CONTINUOUS
 62
     8
 10
353.5715550622
 20
126.5935439279
 30
0.0
  0
VERTEX
  5
AFC
  8
0
  6
CONTINUOUS
 62
     8
 10
354.3411832741
 20
126.6584412789
 30
0.0
  0
VERTEX
  5
AFD
  8
0
  6
CONTINUOUS
 62
     8
 10
355.4057427189
 20
126.7482077365
 30
0.0
  0
VERTEX
  5
AFE
  8
0
  6
CONTINUOUS
 62
     8
 10
356.3930154285
 20
126.8314577302
 30
0.0
  0
VERTEX
  5
AFF
  8
0
  6
CONTINUOUS
 62
     8
 10
357.2871447047
 20
126.9068538805
 30
0.0
  0
VERTEX
  5
B00
  8
0
  6
CONTINUOUS
 62
     8
 10
358.0751330098
 20
126.9732990896
 30
0.0
  0
VERTEX
  5
B01
  8
0
  6
CONTINUOUS
 62
     8
 10
358.7474547764
 20
127.0299914887
 30
0.0
  0
VERTEX
  5
B02
  8
0
  6
CONTINUOUS
 62
     8
 10
359.2984065851
 20
127.076449584
 30
0.0
  0
VERTEX
  5
B03
  8
0
  6
CONTINUOUS
 62
     8
 10
359.7261555931
 20
127.112518776
 30
0.0
  0
VERTEX
  5
B04
  8
0
  6
CONTINUOUS
 62
     8
 10
360.0324973902
 20
127.1383499389
 30
0.0
  0
VERTEX
  5
B05
  8
0
  6
CONTINUOUS
 62
     8
 10
360.2224015137
 20
127.1543640306
 30
0.0
  0
VERTEX
  5
B06
  8
0
  6
CONTINUOUS
 62
     8
 10
360.3034079513
 20
127.1611943504
 30
0.0
  0
SEQEND
  5
B35
  8
0
  6
CONTINUOUS
 62
     8
  0
ARC
  5
3AE
  8
0
  6
CONTINUOUS
 62
     8
 10
579.8994106786
 20
122.9330622915
 30
0.0
 40
290.0802486189265
 50
184.9902657573
 51
187.8284403286
  0
POLYLINE
  5
3AF
  8
0
  6
CONTINUOUS
 62
     8
 66
     1
 10
0.0
 20
0.0
 30
0.0
  0
VERTEX
  5
B07
  8
0
  6
CONTINUOUS
 62
     8
 10
297.6505667409
 20
98.2676490804
 30
0.0
  0
VERTEX
  5
B08
  8
0
  6
CONTINUOUS
 62
     8
 10
296.8809385291
 20
98.2027517294
 30
0.0
  0
VERTEX
  5
B09
  8
0
  6
CONTINUOUS
 62
     8
 10
295.8163790843
 20
98.1129852717
 30
0.0
  0
VERTEX
  5
B0A
  8
0
  6
CONTINUOUS
 62
     8
 10
294.8291063747
 20
98.0297352781
 30
0.0
  0
VERTEX
  5
B0B
  8
0
  6
CONTINUOUS
 62
     8
 10
293.9349770984
 20
97.9543391278
 30
0.0
  0
VERTEX
  5
B0C
  8
0
  6
CONTINUOUS
 62
     8
 10
293.1469887933
 20
97.8878939187
 30
0.0
  0
VERTEX
  5
B0D
  8
0
  6
CONTINUOUS
 62
     8
 10
292.4746670267
 20
97.8312015196
 30
0.0
  0
VERTEX
  5
B0E
  8
0
  6
CONTINUOUS
 62
     8
 10
291.923715218
 20
97.7847434243
 30
0.0
  0
VERTEX
  5
B0F
  8
0
  6
CONTINUOUS
 62
     8
 10
291.49596621
 20
97.7486742323
 30
0.0
  0
VERTEX
  5
B10
  8
0
  6
CONTINUOUS
 62
     8
 10
291.1896244129
 20
97.7228430694
 30
0.0
  0
VERTEX
  5
B11
  8
0
  6
CONTINUOUS
 62
     8
 10
290.9997202894
 20
97.7068289777
 30
0.0
  0
VERTEX
  5
B12
  8
0
  6
CONTINUOUS
 62
     8
 10
290.9187138519
 20
97.6999986579
 30
0.0
  0
SEQEND
  5
B34
  8
0
  6
CONTINUOUS
 62
     8
  0
POLYLINE
  5
3B0
  8
0
  6
CONTINUOUS
 62
     8
 66
     1
 10
0.0
 20
0.0
 30
0.0
  0
VERTEX
  5
B13
  8
0
  6
CONTINUOUS
 62
     8
 10
353.5715550622
 20
98.2676490804
 30
0.0
  0
VERTEX
  5
B14
  8
0
  6
CONTINUOUS
 62
     8
 10
354.3411832741
 20
98.2027517294
 30
0.0
  0
VERTEX
  5
B15
  8
0
  6
CONTINUOUS
 62
     8
 10
355.4057427189
 20
98.1129852717
 30
0.0
  0
VERTEX
  5
B16
  8
0
  6
CONTINUOUS
 62
     8
 10
356.3930154285
 20
98.0297352781
 30
0.0
  0
VERTEX
  5
B17
  8
0
  6
CONTINUOUS
 62
     8
 10
357.2871447047
 20
97.9543391278
 30
0.0
  0
VERTEX
  5
B18
  8
0
  6
CONTINUOUS
 62
     8
 10
358.0751330098
 20
97.8878939187
 30
0.0
  0
VERTEX
  5
B19
  8
0
  6
CONTINUOUS
 62
     8
 10
358.7474547764
 20
97.8312015196
 30
0.0
  0
VERTEX
  5
B1A
  8
0
  6
CONTINUOUS
 62
     8
 10
359.2984065851
 20
97.7847434243
 30
0.0
  0
VERTEX
  5
B1B
  8
0
  6
CONTINUOUS
 62
     8
 10
359.7261555931
 20
97.7486742323
 30
0.0
  0
VERTEX
  5
B1C
  8
0
  6
CONTINUOUS
 62
     8
 10
360.0324973902
 20
97.7228430694
 30
0.0
  0
VERTEX
  5
B1D
  8
0
  6
CONTINUOUS
 62
     8
 10
360.2224015137
 20
97.7068289777
 30
0.0
  0
VERTEX
  5
B1E
  8
0
  6
CONTINUOUS
 62
     8
 10
360.3034079513
 20
97.6999986579
 30
0.0
  0
SEQEND
  5
B33
  8
0
  6
CONTINUOUS
 62
     8
  0
ARC
  5
3B1
  8
0
  6
CONTINUOUS
 62
     8
 10
71.3227111245
 20
122.9330622915
 30
0.0
 40
290.0802486189265
 50
352.1715596714
 51
355.0097342427
  0
LINE
  5
3B2
  8
0
  6
CONTINUOUS
 62
     8
 10
360.9233707627
 20
112.4305965041
 30
0.0
 11
357.0090294322
 21
112.4305965041
 31
0.0
  0
ARC
  5
3B3
  8
0
  6
CONTINUOUS
 62
     8
 10
185.6140823605
 20
112.4307454514
 30
0.0
 40
175.3092884022937
 50
359.99995132
 51
4.8199890964
  0
LINE
  5
3B4
  8
0
  6
CONTINUOUS
 62
     8
 10
290.2987510404
 20
112.4305965041
 30
0.0
 11
294.2130923709
 21
112.4305965041
 31
0.0
  0
ARC
  5
3B5
  8
0
  6
CONTINUOUS
 62
     8
 10
465.6080394426
 20
112.4307454514
 30
0.0
 40
175.3092884022939
 50
175.1800109036
 51
180.00004868
  0
ARC
  5
3B6
  8
0
  6
CONTINUOUS
 62
     8
 10
185.6140823605
 20
112.4304475569
 30
0.0
 40
175.3092884022938
 50
355.1800109036
 51
0.00004868
  0
ARC
  5
3B7
  8
0
  6
CONTINUOUS
 62
     8
 10
465.6080394426
 20
112.4304475569
 30
0.0
 40
175.3092884022939
 50
179.99995132
 51
184.8199890964
  0
ARC
  5
3B8
  8
0
  6
CONTINUOUS
 62
     8
 10
293.2597889544
 20
155.5936222316
 30
0.0
 40
12.28132840699226
 50
147.5766396816
 51
165.6121541344
  0
LINE
  5
3B9
  8
0
  6
CONTINUOUS
 62
     8
 10
290.3360672733
 20
167.4221211707
 30
0.0
 11
290.2969405493
 21
167.4593442714
 31
0.0
  0
LINE
  5
3BA
  8
0
  6
CONTINUOUS
 62
     8
 10
360.8860545298
 20
167.4221211707
 30
0.0
 11
360.9251812538
 21
167.4593442714
 31
0.0
  0
ARC
  5
3BB
  8
0
  6
CONTINUOUS
 62
     8
 10
357.9623328487
 20
155.5936222316
 30
0.0
 40
12.28132840699226
 50
14.3878458656
 51
32.4233603184
  0
ARC
  5
3BC
  8
0
  6
CONTINUOUS
 62
     8
 10
357.9623328487
 20
69.2675707767
 30
0.0
 40
12.28132840699225
 50
327.5766396816
 51
345.6121541344
  0
LINE
  5
3BD
  8
0
  6
CONTINUOUS
 62
     8
 10
369.8949240586
 20
66.1763230001
 30
0.0
 11
369.858472093
 21
66.2158706819
 31
0.0
  0
LINE
  5
3BE
  8
0
  6
CONTINUOUS
 62
     8
 10
360.8860545298
 20
57.4390718376
 30
0.0
 11
360.9251812538
 21
57.4018487369
 31
0.0
  0
LINE
  5
3BF
  8
0
  6
CONTINUOUS
 62
     8
 10
290.3360672733
 20
57.4390718376
 30
0.0
 11
290.2969405493
 21
57.4018487369
 31
0.0
  0
LINE
  5
3C0
  8
0
  6
CONTINUOUS
 62
     8
 10
281.3271977445
 20
66.1763230001
 30
0.0
 11
281.3636497101
 21
66.2158706819
 31
0.0
  0
ARC
  5
3C1
  8
0
  6
CONTINUOUS
 62
     8
 10
293.2597889544
 20
69.2675707767
 30
0.0
 40
12.28132840699225
 50
194.3878458656
 51
212.4233603184
  0
ARC
  5
3C2
  8
0
  6
CONTINUOUS
 62
     8
 10
325.6110609016
 20
12.4305965041
 30
0.0
 40
155.9570753766879
 50
79.9929078073
 51
100.0070921927
  0
ARC
  5
3C3
  8
0
  6
CONTINUOUS
 62
     8
 10
325.6110609016
 20
212.4305965041
 30
0.0
 40
155.9570753766878
 50
259.9929078073
 51
280.0070921927
  0
ARC
  5
3C4
  8
0
  6
CONTINUOUS
 62
     8
 10
465.6110609016
 20
112.4305965041
 30
0.0
 40
186.9570753766879
 50
169.3209139001
 51
190.6790860999
  0
ARC
  5
3C5
  8
0
  6
CONTINUOUS
 62
     8
 10
185.6110609016
 20
112.4305965041
 30
0.0
 40
186.9570753766879
 50
349.3209139001
 51
10.6790860999
  0
ARC
  5
3C6
  8
0
  6
CONTINUOUS
 62
     8
 10
325.6110609016
 20
12.4305965041
 30
0.0
 40
158.9550193265412
 50
77.1782833736
 51
102.8217166264
  0
ARC
  5
3C7
  8
0
  6
CONTINUOUS
 62
     8
 10
325.6110609016
 20
212.4305965041
 30
0.0
 40
158.9550193265412
 50
257.1782833736
 51
282.8217166264
  0
POLYLINE
  5
3C8
  8
0
  6
CONTINUOUS
 62
     8
 66
     1
 10
0.0
 20
0.0
 30
0.0
  0
VERTEX
  5
B1F
  8
0
  6
CONTINUOUS
 62
     8
 10
369.3441138109
 20
158.5163229739
 30
0.0
  0
VERTEX
  5
B20
  8
0
  6
CONTINUOUS
 62
     8
 10
369.6146555683
 20
158.584182862
 30
0.0
  0
VERTEX
  5
B21
  8
0
  6
CONTINUOUS
 62
     8
 10
369.7871178827
 20
158.6274446582
 30
0.0
  0
VERTEX
  5
B22
  8
0
  6
CONTINUOUS
 62
     8
 10
369.8584683677
 20
158.6453409528
 30
0.0
  0
SEQEND
  5
B32
  8
0
  6
CONTINUOUS
 62
     8
  0
ARC
  5
3C9
  8
0
  6
CONTINUOUS
 62
     8
 10
185.6110609016
 20
112.4305965041
 30
0.0
 40
189.9550193265412
 50
345.919022755
 51
14.080977245
  0
POLYLINE
  5
3CA
  8
0
  6
CONTINUOUS
 62
     8
 66
     1
 10
0.0
 20
0.0
 30
0.0
  0
VERTEX
  5
B23
  8
0
  6
CONTINUOUS
 62
     8
 10
369.3441138109
 20
66.3448700344
 30
0.0
  0
VERTEX
  5
B24
  8
0
  6
CONTINUOUS
 62
     8
 10
369.6146555683
 20
66.2770101463
 30
0.0
  0
VERTEX
  5
B25
  8
0
  6
CONTINUOUS
 62
     8
 10
369.7871178827
 20
66.2337483501
 30
0.0
  0
VERTEX
  5
B26
  8
0
  6
CONTINUOUS
 62
     8
 10
369.8584683677
 20
66.2158520555
 30
0.0
  0
SEQEND
  5
B31
  8
0
  6
CONTINUOUS
 62
     8
  0
POLYLINE
  5
3CB
  8
0
  6
CONTINUOUS
 62
     8
 66
     1
 10
0.0
 20
0.0
 30
0.0
  0
VERTEX
  5
B27
  8
0
  6
CONTINUOUS
 62
     8
 10
281.8780079922
 20
66.3448700344
 30
0.0
  0
VERTEX
  5
B28
  8
0
  6
CONTINUOUS
 62
     8
 10
281.6074662348
 20
66.2770101463
 30
0.0
  0
VERTEX
  5
B29
  8
0
  6
CONTINUOUS
 62
     8
 10
281.4350039205
 20
66.2337483501
 30
0.0
  0
VERTEX
  5
B2A
  8
0
  6
CONTINUOUS
 62
     8
 10
281.3636534354
 20
66.2158520555
 30
0.0
  0
SEQEND
  5
B30
  8
0
  6
CONTINUOUS
 62
     8
  0
ARC
  5
3CC
  8
0
  6
CONTINUOUS
 62
     8
 10
465.6110609016
 20
112.4305965041
 30
0.0
 40
189.9550193265412
 50
165.919022755
 51
194.080977245
  0
POLYLINE
  5
3CD
  8
0
  6
CONTINUOUS
 62
     8
 66
     1
 10
0.0
 20
0.0
 30
0.0
  0
VERTEX
  5
B2B
  8
0
  6
CONTINUOUS
 62
     8
 10
281.8780079922
 20
158.5163229739
 30
0.0
  0
VERTEX
  5
B2C
  8
0
  6
CONTINUOUS
 62
     8
 10
281.6074662348
 20
158.584182862
 30
0.0
  0
VERTEX
  5
B2D
  8
0
  6
CONTINUOUS
 62
     8
 10
281.4350039205
 20
158.6274446582
 30
0.0
  0
VERTEX
  5
B2E
  8
0
  6
CONTINUOUS
 62
     8
 10
281.3636534354
 20
158.6453409528
 30
0.0
  0
SEQEND
  5
B2F
  8
0
  6
CONTINUOUS
 62
     8
  0
INSERT
  5
3D9
  8
FORMAT
  2
SW_CENTERMARKSYMBOL_1
 10
325.6110609016
 20
112.4305965041
 30
0.0
  0
ENDSEC
  0
EOF
