  0
SECTION
  2
HEADER
  9
$ACADVER
  1
AC1009
  9
$DWGCODEPAGE
  3
ansi_1252
  9
$INSBASE
 10
0.0
 20
0.0
 30
0.0
  9
$EXTMIN
 10
0.0
 20
0.0
 30
0.0
  9
$EXTMAX
 10
297.0
 20
210.0
 30
0.0
  9
$LIMMIN
 10
0.0
 20
0.0
  9
$LIMMAX
 10
297.0
 20
210.0
  9
$ORTHOMODE
 70
     0
  9
$REGENMODE
 70
     1
  9
$FILLMODE
 70
     1
  9
$QTEXTMODE
 70
     0
  9
$MIRRTEXT
 70
     1
  9
$DRAGMODE
 70
     2
  9
$LTSCALE
 40
1.0
  9
$OSMODE
 70
    37
  9
$ATTMODE
 70
     1
  9
$TEXTSIZE
 40
2.5
  9
$TRACEWID
 40
1.0
  9
$TEXTSTYLE
  7
STANDARD
  9
$CLAYER
  8
0
  9
$CELTYPE
  6
BYLAYER
  9
$CECOLOR
 62
   256
  9
$DIMSCALE
 40
1.0
  9
$DIMASZ
 40
2.5
  9
$DIMEXO
 40
1.0
  9
$DIMDLI
 40
3.75
  9
$DIMRND
 40
0.0
  9
$DIMDLE
 40
0.0
  9
$DIMEXE
 40
1.0
  9
$DIMTP
 40
0.0
  9
$DIMTM
 40
0.0
  9
$DIMTXT
 40
2.5
  9
$DIMCEN
 40
2.5
  9
$DIMTSZ
 40
0.0
  9
$DIMTOL
 70
     0
  9
$DIMLIM
 70
     0
  9
$DIMTIH
 70
     1
  9
$DIMTOH
 70
     1
  9
$DIMSE1
 70
     0
  9
$DIMSE2
 70
     0
  9
$DIMTAD
 70
     1
  9
$DIMZIN
 70
     0
  9
$DIMBLK
  1

  9
$DIMASO
 70
     1
  9
$DIMSHO
 70
     1
  9
$DIMPOST
  1

  9
$DIMAPOST
  1

  9
$DIMALT
 70
     0
  9
$DIMALTD
 70
     3
  9
$DIMALTF
 40
0.0393700787
  9
$DIMLFAC
 40
1.0
  9
$DIMTOFL
 70
     1
  9
$DIMTVP
 40
0.0
  9
$DIMTIX
 70
     0
  9
$DIMSOXD
 70
     0
  9
$DIMSAH
 70
     0
  9
$DIMBLK1
  1

  9
$DIMBLK2
  1

  9
$DIMSTYLE
  2
ISO-25
  9
$DIMCLRD
 70
     0
  9
$DIMCLRE
 70
     0
  9
$DIMCLRT
 70
     0
  9
$DIMTFAC
 40
1.0
  9
$DIMGAP
 40
1.524
  9
$LUNITS
 70
     2
  9
$LUPREC
 70
     2
  9
$SKETCHINC
 40
1.0
  9
$FILLETRAD
 40
10.0
  9
$AUNITS
 70
     0
  9
$AUPREC
 70
     2
  9
$MENU
  1
.
  9
$ELEVATION
 40
0.0
  9
$PELEVATION
 40
0.0
  9
$THICKNESS
 40
0.0
  9
$LIMCHECK
 70
     0
  9
$CHAMFERA
 40
10.0
  9
$CHAMFERB
 40
10.0
  9
$SKPOLY
 70
     0
  9
$TDCREATE
 40
2457434.396029676
  9
$TDUPDATE
 40
2457434.396030741
  9
$TDINDWG
 40
0.0000000116
  9
$TDUSRTIMER
 40
0.0000000116
  9
$USRTIMER
 70
     1
  9
$ANGBASE
 50
0.0
  9
$ANGDIR
 70
     0
  9
$PDMODE
 70
     0
  9
$PDSIZE
 40
-1.0
  9
$PLINEWID
 40
0.0
  9
$COORDS
 70
     1
  9
$SPLFRAME
 70
     0
  9
$SPLINETYPE
 70
     6
  9
$SPLINESEGS
 70
     8
  9
$ATTDIA
 70
     0
  9
$ATTREQ
 70
     1
  9
$HANDLING
 70
     1
  9
$HANDSEED
  5
B84
  9
$SURFTAB1
 70
     6
  9
$SURFTAB2
 70
     6
  9
$SURFTYPE
 70
     6
  9
$SURFU
 70
     6
  9
$SURFV
 70
     6
  9
$UCSNAME
  2

  9
$UCSORG
 10
0.0
 20
0.0
 30
0.0
  9
$UCSXDIR
 10
1.0
 20
0.0
 30
0.0
  9
$UCSYDIR
 10
0.0
 20
1.0
 30
0.0
  9
$PUCSNAME
  2

  9
$PUCSORG
 10
0.0
 20
0.0
 30
0.0
  9
$PUCSXDIR
 10
1.0
 20
0.0
 30
0.0
  9
$PUCSYDIR
 10
0.0
 20
1.0
 30
0.0
  9
$USERI1
 70
     0
  9
$USERI2
 70
     0
  9
$USERI3
 70
     0
  9
$USERI4
 70
     0
  9
$USERI5
 70
     0
  9
$USERR1
 40
0.0
  9
$USERR2
 40
0.0
  9
$USERR3
 40
0.0
  9
$USERR4
 40
0.0
  9
$USERR5
 40
0.0
  9
$WORLDVIEW
 70
     1
  9
$SHADEDGE
 70
     3
  9
$SHADEDIF
 70
    70
  9
$TILEMODE
 70
     1
  9
$MAXACTVP
 70
    64
  9
$PLIMCHECK
 70
     0
  9
$PEXTMIN
 10
1.0000000000E+20
 20
1.0000000000E+20
 30
1.0000000000E+20
  9
$PEXTMAX
 10
-1.0000000000E+20
 20
-1.0000000000E+20
 30
-1.0000000000E+20
  9
$PLIMMIN
 10
0.0
 20
0.0
  9
$PLIMMAX
 10
420.0
 20
297.0
  9
$UNITMODE
 70
     0
  9
$VISRETAIN
 70
     1
  9
$PLINEGEN
 70
     0
  9
$PSLTSCALE
 70
     1
  0
ENDSEC
  0
SECTION
  2
TABLES
  0
TABLE
  2
VPORT
 70
     1
  0
VPORT
  2
*ACTIVE
 70
     0
 10
0.0
 20
0.0
 11
1.0
 21
1.0
 12
148.5
 22
105.0
 13
0.0
 23
0.0
 14
10.0
 24
10.0
 15
10.0
 25
10.0
 16
0.0
 26
0.0
 36
1.0
 17
0.0
 27
0.0
 37
0.0
 40
210.0
 41
1.4142857143
 42
50.0
 43
0.0
 44
0.0
 50
0.0
 51
0.0
 71
     0
 72
  2000
 73
     1
 74
     3
 75
     0
 76
     0
 77
     0
 78
     0
  0
ENDTAB
  0
TABLE
  2
LTYPE
 70
     6
  0
LTYPE
  2
CONTINUOUS
 70
     0
  3
Solid line
 72
    65
 73
     0
 40
0.0
  0
LTYPE
  2
HIDDEN
 70
     0
  3
Hidden __ __ __ __ __ __ __ __ __ __ __ __ __ __
 72
    65
 73
     2
 40
1.905
 49
1.27
 49
-0.635
  0
LTYPE
  2
PHANTOM
 70
     0
  3
Phantom ______  __  __  ______  __  __  ______
 72
    65
 73
     6
 40
12.7
 49
6.35
 49
-1.27
 49
1.27
 49
-1.27
 49
1.27
 49
-1.27
  0
LTYPE
  2
CENTER
 70
     0
  3
Center ____ _ ____ _ ____ _ ____ _ ____ _ ____
 72
    65
 73
     4
 40
10.16
 49
6.35
 49
-1.27
 49
1.27
 49
-1.27
  0
LTYPE
  2
CENTERX2
 70
     0
  3
Center (2x) ________  __  ________  __  _____
 72
    65
 73
     4
 40
20.32
 49
12.7
 49
-2.54
 49
2.54
 49
-2.54
  0
LTYPE
  2
DOT2
 70
     0
  3
Dot (.5x) ........................................
 72
    65
 73
     2
 40
0.635
 49
0.0
 49
-0.635
  0
ENDTAB
  0
TABLE
  2
LAYER
 70
     3
  0
LAYER
  2
0
 70
     0
 62
     7
  6
CONTINUOUS
  0
LAYER
  2
FORMAT
 70
     0
 62
     7
  6
CONTINUOUS
  0
LAYER
  2
PROTOTYPE
 70
     0
 62
    -7
  6
CONTINUOUS
  0
ENDTAB
  0
TABLE
  2
STYLE
 70
     1
  0
STYLE
  2
STANDARD
 70
     0
 40
0.0
 41
1.0
 50
0.0
 71
     0
 42
2.5
  3
txt
  4

  0
ENDTAB
  0
TABLE
  2
VIEW
 70
     0
  0
ENDTAB
  0
TABLE
  2
UCS
 70
     0
  0
ENDTAB
  0
TABLE
  2
APPID
 70
     1
  0
APPID
  2
ACAD
 70
     0
  0
ENDTAB
  0
TABLE
  2
DIMSTYLE
 70
     1
  0
DIMSTYLE
  2
ISO-25
 70
     0
  3

  4

  5

  6

  7

 40
1.0
 41
2.5
 42
0.625
 43
3.75
 44
1.25
 45
0.0
 46
0.0
 47
0.0
 48
0.0
140
2.5
141
2.5
142
0.0
143
0.0393700787
144
1.0
145
0.0
146
1.0
147
0.625
 71
     0
 72
     0
 73
     0
 74
     0
 75
     0
 76
     0
 77
     1
 78
     8
170
     0
171
     3
172
     1
173
     0
174
     0
175
     0
176
     0
177
     0
178
     0
  0
ENDTAB
  0
ENDSEC
  0
SECTION
  2
BLOCKS
  0
BLOCK
  8
0
  2
$MODEL_SPACE
 70
     0
 10
0.0
 20
0.0
 30
0.0
  3
$MODEL_SPACE
  1

  0
ENDBLK
  5
21
  8
0
  0
BLOCK
 67
     1
  8
0
  2
$PAPER_SPACE
 70
     0
 10
0.0
 20
0.0
 30
0.0
  3
$PAPER_SPACE
  1

  0
ENDBLK
  5
1D
 67
     1
  8
0
  0
BLOCK
  8
0
  2
SW_NOTE_0
 70
     0
 10
0.0
 20
0.0
 30
0.0
  3
SW_NOTE_0
  1

  0
TEXT
  5
49
  8
PROTOTYPE
 62
     0
 10
-1.8734443898
 20
1.8734443898
 30
0.0
 40
7.5
  1
Prototype: 
 50
45.0
 41
0.7
 11
0.0
 21
0.0
 31
0.0
 73
     1
  0
TEXT
  5
4A
  8
PROTOTYPE
 62
     0
 10
5.5260248648
 20
-5.5260248648
 30
0.0
 40
3.5
  1
 /   
 50
45.0
 41
0.42
 11
6.4002989134
 21
-6.4002989134
 31
0.0
 73
     1
  0
ENDBLK
  5
48
  8
0
  0
BLOCK
  8
0
  2
SW_CENTERMARKSYMBOL_0
 70
     0
 10
0.0
 20
0.0
 30
0.0
  3
SW_CENTERMARKSYMBOL_0
  1

  0
LINE
  5
3A9
  8
FORMAT
 62
     0
 10
0.0
 20
0.0
 30
0.0
 11
0.0
 21
2.5
 31
0.0
  0
LINE
  5
3AA
  8
FORMAT
 62
     0
 10
0.0
 20
0.0
 30
0.0
 11
-2.5
 21
0.0
 31
0.0
  0
LINE
  5
3AB
  8
FORMAT
 62
     0
 10
0.0
 20
0.0
 30
0.0
 11
0.0
 21
-2.5
 31
0.0
  0
LINE
  5
3AC
  8
FORMAT
 62
     0
 10
0.0
 20
0.0
 30
0.0
 11
2.5
 21
0.0
 31
0.0
  0
LINE
  5
3AD
  8
FORMAT
 62
     0
 10
0.0
 20
5.0
 30
0.0
 11
0.0
 21
594.8495245303
 31
0.0
  0
LINE
  5
3AE
  8
FORMAT
 62
     0
 10
-5.0
 20
0.0
 30
0.0
 11
-101.0523486163
 21
0.0
 31
0.0
  0
LINE
  5
3AF
  8
FORMAT
 62
     0
 10
0.0
 20
-5.0
 30
0.0
 11
0.0
 21
-100.5615024037
 31
0.0
  0
LINE
  5
3B0
  8
FORMAT
 62
     0
 10
5.0
 20
0.0
 30
0.0
 11
99.1208297046
 21
0.0
 31
0.0
  0
ENDBLK
  5
3A8
  8
0
  0
BLOCK
  8
0
  2
SW_CENTERMARKSYMBOL_1
 70
     0
 10
0.0
 20
0.0
 30
0.0
  3
SW_CENTERMARKSYMBOL_1
  1

  0
LINE
  5
474
  8
FORMAT
 62
     0
 10
0.0
 20
0.0
 30
0.0
 11
0.0
 21
2.5
 31
0.0
  0
LINE
  5
475
  8
FORMAT
 62
     0
 10
0.0
 20
0.0
 30
0.0
 11
-2.5
 21
0.0
 31
0.0
  0
LINE
  5
476
  8
FORMAT
 62
     0
 10
0.0
 20
0.0
 30
0.0
 11
0.0
 21
-2.5
 31
0.0
  0
LINE
  5
477
  8
FORMAT
 62
     0
 10
0.0
 20
0.0
 30
0.0
 11
2.5
 21
0.0
 31
0.0
  0
LINE
  5
478
  8
FORMAT
 62
     0
 10
0.0
 20
5.0
 30
0.0
 11
0.0
 21
81.1490395644
 31
0.0
  0
LINE
  5
479
  8
FORMAT
 62
     0
 10
-5.0
 20
0.0
 30
0.0
 11
-92.233817119
 21
0.0
 31
0.0
  0
LINE
  5
47A
  8
FORMAT
 62
     0
 10
0.0
 20
-5.0
 30
0.0
 11
0.0
 21
-94.8163248379
 31
0.0
  0
LINE
  5
47B
  8
FORMAT
 62
     0
 10
5.0
 20
0.0
 30
0.0
 11
89.6392573592
 21
0.0
 31
0.0
  0
ENDBLK
  5
473
  8
0
  0
ENDSEC
  0
SECTION
  2
ENTITIES
  0
INSERT
  5
4B
  8
PROTOTYPE
  2
SW_NOTE_0
 10
28.8436580118
 20
77.0999149454
 30
0.0
  0
LINE
  5
4C
  8
0
  6
CONTINUOUS
 62
     7
 10
-135.2057643572
 20
400.3374934817
 30
0.0
 11
-176.8138781527
 21
400.3374934817
 31
0.0
  0
LINE
  5
4D
  8
0
  6
CONTINUOUS
 62
     7
 10
-176.8138781527
 20
215.3374910975
 30
0.0
 11
-170.8138734439
 21
215.3374910975
 31
0.0
  0
LINE
  5
4E
  8
0
  6
CONTINUOUS
 62
     7
 10
-18.8138783315
 20
215.3374910975
 30
0.0
 11
-12.8138736227
 21
215.3374910975
 31
0.0
  0
LINE
  5
4F
  8
0
  6
CONTINUOUS
 62
     7
 10
-12.8138736227
 20
400.3374934817
 30
0.0
 11
-54.4219874182
 21
400.3374934817
 31
0.0
  0
LINE
  5
50
  8
0
  6
CONTINUOUS
 62
     7
 10
-162.3137817124
 20
570.8375037337
 30
0.0
 11
-162.3137817124
 21
565.8374786997
 31
0.0
  0
LINE
  5
51
  8
0
  6
CONTINUOUS
 62
     7
 10
-27.313970063
 20
565.8374786997
 30
0.0
 11
-27.313970063
 21
570.8375037337
 31
0.0
  0
LINE
  5
52
  8
0
  6
CONTINUOUS
 62
     7
 10
-27.3138732055
 20
851.8375218535
 30
0.0
 11
-27.3138732055
 21
855.8374703551
 31
0.0
  0
LINE
  5
53
  8
0
  6
CONTINUOUS
 62
     7
 10
-162.3138785699
 20
855.8374703551
 30
0.0
 11
-162.3138785699
 21
851.8375218535
 31
0.0
  0
LINE
  5
54
  8
0
  6
CONTINUOUS
 62
     7
 10
-120.4760447481
 20
392.8374931836
 30
0.0
 11
-117.80133288
 21
411.8690476442
 31
0.0
  0
LINE
  5
55
  8
0
  6
CONTINUOUS
 62
     7
 10
-71.8264188954
 20
411.8690476442
 30
0.0
 11
-69.1517070273
 21
392.8374931836
 31
0.0
  0
LINE
  5
56
  8
0
  6
CONTINUOUS
 62
     7
 10
-32.3138758877
 20
533.8374883557
 30
0.0
 11
-32.3138758877
 21
563.8375044489
 31
0.0
  0
LINE
  5
57
  8
0
  6
CONTINUOUS
 62
     7
 10
-157.3138758877
 20
563.8375044489
 30
0.0
 11
-157.3138758877
 21
533.8374883557
 31
0.0
  0
LINE
  5
58
  8
0
  6
CONTINUOUS
 62
     7
 10
-157.3138758877
 20
533.8374883557
 30
0.0
 11
-157.3138758877
 21
522.8374958659
 31
0.0
  0
LINE
  5
59
  8
0
  6
CONTINUOUS
 62
     7
 10
-32.3138758877
 20
522.8374958659
 30
0.0
 11
-32.3138758877
 21
533.8374883557
 31
0.0
  0
LINE
  5
5A
  8
0
  6
CONTINUOUS
 62
     7
 10
-12.8138736227
 20
245.8374933029
 30
0.0
 11
-9.8138749936
 21
248.8374919319
 31
0.0
  0
LINE
  5
5B
  8
0
  6
CONTINUOUS
 62
     7
 10
-9.8138749936
 20
366.8374926472
 30
0.0
 11
-12.8138736227
 21
369.8374912763
 31
0.0
  0
LINE
  5
5C
  8
0
  6
CONTINUOUS
 62
     7
 10
-176.8138781527
 20
369.8374912763
 30
0.0
 11
-179.8138767818
 21
366.8374926472
 31
0.0
  0
LINE
  5
5D
  8
0
  6
CONTINUOUS
 62
     7
 10
-179.8138767818
 20
248.8374919319
 30
0.0
 11
-176.8138781527
 21
245.8374933029
 31
0.0
  0
LINE
  5
5E
  8
0
  6
CONTINUOUS
 62
     7
 10
-144.4996446708
 20
434.8374963427
 30
0.0
 11
-144.8138766328
 21
422.8374943757
 31
0.0
  0
LINE
  5
5F
  8
0
  6
CONTINUOUS
 62
     7
 10
-44.8138751426
 20
422.8374943757
 30
0.0
 11
-45.1281071046
 21
434.8374963427
 31
0.0
  0
LINE
  5
60
  8
0
  6
CONTINUOUS
 62
     7
 10
-144.8138766328
 20
422.8374943757
 30
0.0
 11
-143.759820644
 21
415.3374940777
 31
0.0
  0
LINE
  5
61
  8
0
  6
CONTINUOUS
 62
     7
 10
-45.8679311314
 20
415.3374940777
 30
0.0
 11
-44.8138751426
 21
422.8374943757
 31
0.0
  0
LINE
  5
62
  8
0
  6
CONTINUOUS
 62
     7
 10
-52.5661148468
 20
413.5427162671
 30
0.0
 11
-45.8679311314
 21
415.3374940777
 31
0.0
  0
LINE
  5
63
  8
0
  6
CONTINUOUS
 62
     7
 10
-143.759820644
 20
415.3374940777
 30
0.0
 11
-137.0616369286
 21
413.5427162671
 31
0.0
  0
LINE
  5
64
  8
0
  6
CONTINUOUS
 62
     7
 10
-45.1281071046
 20
434.8374963427
 30
0.0
 11
-50.107207183
 21
437.7121836567
 31
0.0
  0
LINE
  5
65
  8
0
  6
CONTINUOUS
 62
     7
 10
-139.5205445925
 20
437.7121836567
 30
0.0
 11
-144.4996446708
 21
434.8374963427
 31
0.0
  0
ARC
  5
66
  8
0
  6
CONTINUOUS
 62
     7
 10
-60.4687987767
 20
466.8374922896
 30
0.0
 40
8.00000000000001
 50
1.5
 51
55.5739686315
  0
ARC
  5
67
  8
0
  6
CONTINUOUS
 62
     7
 10
-129.1589529987
 20
466.8374922896
 30
0.0
 40
8.000000000000044
 50
124.4255436871
 51
178.5
  0
LINE
  5
68
  8
0
  6
CONTINUOUS
 62
     7
 10
-137.1562108734
 20
467.0469076062
 30
0.0
 11
-137.5282965937
 21
452.8374881172
 31
0.0
  0
LINE
  5
69
  8
0
  6
CONTINUOUS
 62
     7
 10
-52.0994551817
 20
452.8374881172
 30
0.0
 11
-52.471540902
 21
467.0469076062
 31
0.0
  0
LINE
  5
6A
  8
0
  6
CONTINUOUS
 62
     7
 10
-18.3138773182
 20
890.8374965811
 30
0.0
 11
-68.3138762006
 21
890.8374965811
 31
0.0
  0
LINE
  5
6B
  8
0
  6
CONTINUOUS
 62
     7
 10
-47.2516194323
 20
871.83750278
 30
0.0
 11
-18.3138773182
 21
871.83750278
 31
0.0
  0
ARC
  5
6C
  8
0
  6
CONTINUOUS
 62
     7
 10
-94.8138758877
 20
876.8374922896
 30
0.0
 40
16.12701665430405
 50
82.8042444299
 51
97.1957555701
  0
ARC
  5
6D
  8
0
  6
CONTINUOUS
 62
     7
 10
-138.1893829027
 20
480.0248836717
 30
0.0
 40
7.982276519293912
 50
304.1981997422
 51
358.5724642321
  0
ARC
  5
6E
  8
0
  6
CONTINUOUS
 62
     7
 10
-51.4425112725
 20
480.0232860073
 30
0.0
 40
7.978103191305268
 50
181.4168052929
 51
235.9734276603
  0
LINE
  5
6F
  8
0
  6
CONTINUOUS
 62
     7
 10
-120.8138764241
 20
513.837492528
 30
0.0
 11
-129.8138760367
 21
504.8374891901
 31
0.0
  0
LINE
  5
70
  8
0
  6
CONTINUOUS
 62
     7
 10
-59.8138757387
 20
504.8374891901
 30
0.0
 11
-68.8138753513
 21
513.837492528
 31
0.0
  0
LINE
  5
71
  8
0
  6
CONTINUOUS
 62
     7
 10
-129.8138760367
 20
504.8374891901
 30
0.0
 11
-129.8138760367
 21
494.8374987269
 31
0.0
  0
LINE
  5
72
  8
0
  6
CONTINUOUS
 62
     7
 10
-59.8138757387
 20
494.8374987269
 30
0.0
 11
-59.8138757387
 21
504.8374891901
 31
0.0
  0
LINE
  5
73
  8
0
  6
CONTINUOUS
 62
     7
 10
-129.8138760367
 20
494.8374987269
 30
0.0
 11
-130.206968669
 21
479.8259199286
 31
0.0
  0
LINE
  5
74
  8
0
  6
CONTINUOUS
 62
     7
 10
-59.4207831064
 20
479.8259199286
 30
0.0
 11
-59.8138757387
 21
494.8374987269
 31
0.0
  0
ARC
  5
75
  8
0
  6
CONTINUOUS
 62
     7
 10
-67.8152340698
 20
519.8374922896
 30
0.0
 40
3.000000000011369
 50
90.0
 51
180.0
  0
ARC
  5
76
  8
0
  6
CONTINUOUS
 62
     7
 10
-121.8125177056
 20
519.8374922896
 30
0.0
 40
3.000000000011369
 50
0.0000000013
 51
90.0
  0
LINE
  5
77
  8
0
  6
CONTINUOUS
 62
     7
 10
-70.8152335474
 20
507.0172459507
 30
0.0
 11
-70.8152335474
 21
519.8374897862
 31
0.0
  0
LINE
  5
78
  8
0
  6
CONTINUOUS
 62
     7
 10
-118.812518228
 20
519.8374897862
 30
0.0
 11
-118.812518228
 21
507.0152640963
 31
0.0
  0
LINE
  5
79
  8
0
  6
CONTINUOUS
 62
     7
 10
-78.8138751277
 20
563.8375044489
 30
0.0
 11
-78.8138751277
 21
565.8374786997
 31
0.0
  0
LINE
  5
7A
  8
0
  6
CONTINUOUS
 62
     7
 10
-110.8138766477
 20
565.8374786997
 30
0.0
 11
-110.8138766477
 21
563.8375044489
 31
0.0
  0
ARC
  5
7B
  8
0
  6
CONTINUOUS
 62
     7
 10
-123.8138758877
 20
519.8374922896
 30
0.0
 40
3.0
 50
0.0
 51
90.0
  0
ARC
  5
7C
  8
0
  6
CONTINUOUS
 62
     7
 10
-65.8138758877
 20
519.8374922896
 30
0.0
 40
3.000000000000014
 50
90.0
 51
180.0
  0
LINE
  5
7D
  8
0
  6
CONTINUOUS
 62
     7
 10
-120.8138764241
 20
519.8374897862
 30
0.0
 11
-120.8138764241
 21
513.837492528
 31
0.0
  0
LINE
  5
7E
  8
0
  6
CONTINUOUS
 62
     7
 10
-68.8138753513
 20
513.837492528
 30
0.0
 11
-68.8138753513
 21
519.8374897862
 31
0.0
  0
LINE
  5
7F
  8
0
  6
CONTINUOUS
 62
     7
 10
-68.3138762006
 20
862.3374760771
 30
0.0
 11
-18.3138773182
 21
862.3374760771
 31
0.0
  0
CIRCLE
  5
80
  8
0
  6
CONTINUOUS
 62
     7
 10
-55.3138758877
 20
875.8374922896
 30
0.0
 40
8.999999999999886
  0
LINE
  5
81
  8
0
  6
CONTINUOUS
 62
     7
 10
-135.1783871988
 20
400.1426906014
 30
0.0
 11
-160.8138755301
 21
400.1426906014
 31
0.0
  0
LINE
  5
82
  8
0
  6
CONTINUOUS
 62
     7
 10
-160.8138755301
 20
400.1426906014
 30
0.0
 11
-160.8138755301
 21
228.2959804559
 31
0.0
  0
LINE
  5
83
  8
0
  6
CONTINUOUS
 62
     7
 10
-170.8138734439
 20
228.2959804559
 30
0.0
 11
-160.8138755301
 21
228.2959804559
 31
0.0
  0
LINE
  5
84
  8
0
  6
CONTINUOUS
 62
     7
 10
-176.8138781527
 20
307.8374922896
 30
0.0
 11
-176.8138781527
 21
400.3374934817
 31
0.0
  0
LINE
  5
85
  8
0
  6
CONTINUOUS
 62
     7
 10
-176.8138781527
 20
215.3374910975
 30
0.0
 11
-176.8138781527
 21
307.8374922896
 31
0.0
  0
LINE
  5
86
  8
0
  6
CONTINUOUS
 62
     7
 10
-18.8138783315
 20
228.2959804559
 30
0.0
 11
-28.8138762453
 21
228.2959804559
 31
0.0
  0
LINE
  5
87
  8
0
  6
CONTINUOUS
 62
     7
 10
-54.4493645767
 20
400.1426906014
 30
0.0
 11
-28.8138762453
 21
400.1426906014
 31
0.0
  0
LINE
  5
88
  8
0
  6
CONTINUOUS
 62
     7
 10
-12.8138736227
 20
307.8374922896
 30
0.0
 11
-12.8138736227
 21
400.3374934817
 31
0.0
  0
LINE
  5
89
  8
0
  6
CONTINUOUS
 62
     7
 10
-12.8138736227
 20
215.3374910975
 30
0.0
 11
-12.8138736227
 21
307.8374922896
 31
0.0
  0
LINE
  5
8A
  8
0
  6
CONTINUOUS
 62
     7
 10
-28.8138762453
 20
400.1426906014
 30
0.0
 11
-28.8138762453
 21
228.2959804559
 31
0.0
  0
CIRCLE
  5
8B
  8
0
  6
CONTINUOUS
 62
     7
 10
-94.8138758877
 20
875.8374922896
 30
0.0
 40
11.49999999999989
  0
LINE
  5
8C
  8
0
  6
CONTINUOUS
 62
     7
 10
-48.313874785
 20
864.8374736929
 30
0.0
 11
-48.313874785
 21
870.1806128645
 31
0.0
  0
LINE
  5
8D
  8
0
  6
CONTINUOUS
 62
     7
 10
-48.313874785
 20
881.4943493033
 30
0.0
 11
-48.313874785
 21
886.8374884749
 31
0.0
  0
LINE
  5
8E
  8
0
  6
CONTINUOUS
 62
     7
 10
-48.313874785
 20
886.8374884749
 30
0.0
 11
-91.4597739802
 21
886.8374884749
 31
0.0
  0
LINE
  5
8F
  8
0
  6
CONTINUOUS
 62
     7
 10
-91.4597739802
 20
864.8374736929
 30
0.0
 11
-48.313874785
 21
864.8374736929
 31
0.0
  0
LINE
  5
90
  8
0
  6
CONTINUOUS
 62
     7
 10
-109.3138754705
 20
886.8374884749
 30
0.0
 11
-109.3138754705
 21
864.8374736929
 31
0.0
  0
LINE
  5
91
  8
0
  6
CONTINUOUS
 62
     7
 10
-98.1679777952
 20
886.8374884749
 30
0.0
 11
-109.3138754705
 21
886.8374884749
 31
0.0
  0
LINE
  5
92
  8
0
  6
CONTINUOUS
 62
     7
 10
-109.3138754705
 20
864.8374736929
 30
0.0
 11
-98.1679777952
 21
864.8374736929
 31
0.0
  0
LINE
  5
93
  8
0
  6
CONTINUOUS
 62
     7
 10
-92.8138757927
 20
836.8374765539
 30
0.0
 11
-92.8138757927
 21
585.8374894285
 31
0.0
  0
LINE
  5
94
  8
0
  6
CONTINUOUS
 62
     7
 10
-96.8138759827
 20
585.8374894285
 30
0.0
 11
-96.8138759827
 21
836.8374765539
 31
0.0
  0
LINE
  5
95
  8
0
  6
CONTINUOUS
 62
     7
 10
-96.8138759827
 20
836.8374765539
 30
0.0
 11
-92.8138757927
 21
836.8374765539
 31
0.0
  0
LINE
  5
96
  8
0
  6
CONTINUOUS
 62
     7
 10
-96.8138759827
 20
585.8374894285
 30
0.0
 11
-92.8138757927
 21
585.8374894285
 31
0.0
  0
LINE
  5
97
  8
0
  6
CONTINUOUS
 62
     7
 10
-89.5638759585
 20
729.8374832297
 30
0.0
 11
-89.5638759585
 21
836.8374765539
 31
0.0
  0
LINE
  5
98
  8
0
  6
CONTINUOUS
 62
     7
 10
-89.5638759585
 20
585.8374894285
 30
0.0
 11
-89.5638759585
 21
729.8374832297
 31
0.0
  0
LINE
  5
99
  8
0
  6
CONTINUOUS
 62
     7
 10
-91.3138757797
 20
585.8374894285
 30
0.0
 11
-91.3138757797
 21
836.8374765539
 31
0.0
  0
LINE
  5
9A
  8
0
  6
CONTINUOUS
 62
     7
 10
-91.3138757797
 20
836.8374765539
 30
0.0
 11
-89.5638759585
 21
836.8374765539
 31
0.0
  0
LINE
  5
9B
  8
0
  6
CONTINUOUS
 62
     7
 10
-91.3138757797
 20
585.8374894285
 30
0.0
 11
-89.5638759585
 21
585.8374894285
 31
0.0
  0
LINE
  5
9C
  8
0
  6
CONTINUOUS
 62
     7
 10
-100.0638758169
 20
585.8374894285
 30
0.0
 11
-100.0638758169
 21
774.837499919
 31
0.0
  0
LINE
  5
9D
  8
0
  6
CONTINUOUS
 62
     7
 10
-100.0638758169
 20
774.837499919
 30
0.0
 11
-100.0638758169
 21
836.8374765539
 31
0.0
  0
LINE
  5
9E
  8
0
  6
CONTINUOUS
 62
     7
 10
-98.3138759957
 20
836.8374765539
 30
0.0
 11
-98.3138759957
 21
585.8374894285
 31
0.0
  0
LINE
  5
9F
  8
0
  6
CONTINUOUS
 62
     7
 10
-100.0638758169
 20
836.8374765539
 30
0.0
 11
-98.3138759957
 21
836.8374765539
 31
0.0
  0
LINE
  5
A0
  8
0
  6
CONTINUOUS
 62
     7
 10
-100.0638758169
 20
585.8374894285
 30
0.0
 11
-98.3138759957
 21
585.8374894285
 31
0.0
  0
LINE
  5
A1
  8
0
  6
CONTINUOUS
 62
     7
 10
-87.2956212016
 20
585.8374894285
 30
0.0
 11
-87.2956212016
 21
729.8374832297
 31
0.0
  0
LINE
  5
A2
  8
0
  6
CONTINUOUS
 62
     7
 10
-89.5638759585
 20
585.8374894285
 30
0.0
 11
-87.2955411078
 21
585.8374894285
 31
0.0
  0
LINE
  5
A3
  8
0
  6
CONTINUOUS
 62
     7
 10
-87.2955858113
 20
729.8374832297
 30
0.0
 11
-87.2955858113
 21
774.837499919
 31
0.0
  0
LINE
  5
A4
  8
0
  6
CONTINUOUS
 62
     7
 10
-87.2954768466
 20
774.837499919
 30
0.0
 11
-87.2954768466
 21
836.8374765539
 31
0.0
  0
LINE
  5
A5
  8
0
  6
CONTINUOUS
 62
     7
 10
-87.2954768466
 20
836.8374765539
 30
0.0
 11
-89.5638759585
 21
836.8374765539
 31
0.0
  0
LINE
  5
A6
  8
0
  6
CONTINUOUS
 62
     7
 10
-102.3321305739
 20
729.8374832297
 30
0.0
 11
-102.3321305739
 21
585.8374894285
 31
0.0
  0
LINE
  5
A7
  8
0
  6
CONTINUOUS
 62
     7
 10
-100.0639517197
 20
774.837499919
 30
0.0
 11
-100.0639517197
 21
729.8374832297
 31
0.0
  0
LINE
  5
A8
  8
0
  6
CONTINUOUS
 62
     7
 10
-100.0639517197
 20
774.837499919
 30
0.0
 11
-100.0638758169
 21
774.837499919
 31
0.0
  0
LINE
  5
A9
  8
0
  6
CONTINUOUS
 62
     7
 10
-102.3322106676
 20
585.8374894285
 30
0.0
 11
-100.0638758169
 21
585.8374894285
 31
0.0
  0
LINE
  5
AA
  8
0
  6
CONTINUOUS
 62
     7
 10
-102.3321659641
 20
774.837499919
 30
0.0
 11
-102.3321659641
 21
729.8374832297
 31
0.0
  0
LINE
  5
AB
  8
0
  6
CONTINUOUS
 62
     7
 10
-102.3322749289
 20
774.837499919
 30
0.0
 11
-102.3322749289
 21
836.8374765539
 31
0.0
  0
LINE
  5
AC
  8
0
  6
CONTINUOUS
 62
     7
 10
-100.0638758169
 20
836.8374765539
 30
0.0
 11
-102.3322749289
 21
836.8374765539
 31
0.0
  0
LINE
  5
AD
  8
0
  6
CONTINUOUS
 62
     7
 10
-96.8138759827
 20
836.8374765539
 30
0.0
 11
-98.3138759957
 21
836.8374765539
 31
0.0
  0
LINE
  5
AE
  8
0
  6
CONTINUOUS
 62
     7
 10
-98.3138759957
 20
585.8374894285
 30
0.0
 11
-96.8138759827
 21
585.8374894285
 31
0.0
  0
LINE
  5
AF
  8
0
  6
CONTINUOUS
 62
     7
 10
-91.3138757797
 20
836.8374765539
 30
0.0
 11
-92.8138757927
 21
836.8374765539
 31
0.0
  0
LINE
  5
B0
  8
0
  6
CONTINUOUS
 62
     7
 10
-92.8138757927
 20
585.8374894285
 30
0.0
 11
-91.3138757797
 21
585.8374894285
 31
0.0
  0
POLYLINE
  5
B1
  8
0
  6
CONTINUOUS
 62
     7
 66
     1
 10
0.0
 20
0.0
 30
0.0
  0
VERTEX
  5
47D
  8
0
  6
CONTINUOUS
 62
     7
 10
-116.6811734775
 20
438.9516473437
 30
0.0
  0
VERTEX
  5
47E
  8
0
  6
CONTINUOUS
 62
     7
 10
-113.1289154628
 20
438.8604224348
 30
0.0
  0
VERTEX
  5
47F
  8
0
  6
CONTINUOUS
 62
     7
 10
-109.5606405625
 20
438.7853950882
 30
0.0
  0
VERTEX
  5
480
  8
0
  6
CONTINUOUS
 62
     7
 10
-105.9806151652
 20
438.7265951062
 30
0.0
  0
VERTEX
  5
481
  8
0
  6
CONTINUOUS
 62
     7
 10
-102.3931103164
 20
438.6840820933
 30
0.0
  0
VERTEX
  5
482
  8
0
  6
CONTINUOUS
 62
     7
 10
-98.7995416263
 20
438.6579007531
 30
0.0
  0
VERTEX
  5
483
  8
0
  6
CONTINUOUS
 62
     7
 10
-95.2013600955
 20
438.6479914809
 30
0.0
  0
VERTEX
  5
484
  8
0
  6
CONTINUOUS
 62
     7
 10
-91.6028695984
 20
438.654384079
 30
0.0
  0
VERTEX
  5
485
  8
0
  6
CONTINUOUS
 62
     7
 10
-88.0083740094
 20
438.6770636463
 30
0.0
  0
VERTEX
  5
486
  8
0
  6
CONTINUOUS
 62
     7
 10
-84.2263643035
 20
438.7186229849
 30
0.0
  0
VERTEX
  5
487
  8
0
  6
CONTINUOUS
 62
     7
 10
-80.4520631546
 20
438.7782872343
 30
0.0
  0
VERTEX
  5
488
  8
0
  6
CONTINUOUS
 62
     7
 10
-76.6904689708
 20
438.8559818888
 30
0.0
  0
VERTEX
  5
489
  8
0
  6
CONTINUOUS
 62
     7
 10
-72.9465782979
 20
438.9516473437
 30
0.0
  0
SEQEND
  5
B83
  8
0
  6
CONTINUOUS
 62
     7
  0
ARC
  5
B2
  8
0
  6
CONTINUOUS
 62
     7
 10
-62.586779584
 20
450.2492432645
 30
0.0
 40
15.32844098350522
 50
227.4794430688
 51
256.91569263
  0
ARC
  5
B3
  8
0
  6
CONTINUOUS
 62
     7
 10
-61.306430794
 20
458.5228854853
 30
0.0
 40
23.68540589211583
 50
258.4299811064
 51
269.9318605421
  0
LINE
  5
B4
  8
0
  6
CONTINUOUS
 62
     7
 10
-61.3345988432
 20
434.8374963427
 30
0.0
 11
-128.2931529322
 21
434.8374963427
 31
0.0
  0
ARC
  5
B5
  8
0
  6
CONTINUOUS
 62
     7
 10
-128.3213209814
 20
458.5228854853
 30
0.0
 40
23.68540589211589
 50
270.0681394579
 51
281.5700188936
  0
ARC
  5
B6
  8
0
  6
CONTINUOUS
 62
     7
 10
-127.0409721914
 20
450.2492432645
 30
0.0
 40
15.32844098350524
 50
283.08430737
 51
312.5205569312
  0
LINE
  5
B7
  8
0
  6
CONTINUOUS
 62
     7
 10
-72.9465782979
 20
438.9516473437
 30
0.0
 11
-72.7663897315
 21
452.8374881172
 31
0.0
  0
LINE
  5
B8
  8
0
  6
CONTINUOUS
 62
     7
 10
-116.6811734775
 20
438.9516473437
 30
0.0
 11
-116.8613620439
 21
452.8374881172
 31
0.0
  0
LINE
  5
B9
  8
0
  6
CONTINUOUS
 62
     7
 10
-94.8138758877
 20
565.8374786997
 30
0.0
 11
-94.8138758877
 21
585.8374894285
 31
0.0
  0
LINE
  5
BA
  8
0
  6
CONTINUOUS
 62
     7
 10
-162.3137817124
 20
565.8374786997
 30
0.0
 11
-94.8138758877
 21
565.8374786997
 31
0.0
  0
LINE
  5
BB
  8
0
  6
CONTINUOUS
 62
     7
 10
-94.8138758877
 20
565.8374786997
 30
0.0
 11
-27.313970063
 21
565.8374786997
 31
0.0
  0
LINE
  5
BC
  8
0
  6
CONTINUOUS
 62
     7
 10
-162.3138785699
 20
855.8374703551
 30
0.0
 11
-27.3138732055
 21
855.8374703551
 31
0.0
  0
LINE
  5
BD
  8
0
  6
CONTINUOUS
 62
     7
 10
-61.4126287738
 20
415.3374940777
 30
0.0
 11
-128.2151230016
 21
415.3374940777
 31
0.0
  0
LINE
  5
BE
  8
0
  6
CONTINUOUS
 62
     7
 10
-61.2262934783
 20
422.8374943757
 30
0.0
 11
-94.8138758877
 21
422.8374943757
 31
0.0
  0
LINE
  5
BF
  8
0
  6
CONTINUOUS
 62
     7
 10
-94.8138758877
 20
422.8374943757
 30
0.0
 11
-128.4014582971
 21
422.8374943757
 31
0.0
  0
ARC
  5
C0
  8
0
  6
CONTINUOUS
 62
     7
 10
-76.1188692835
 20
352.0680616311
 30
0.0
 40
59.80061450216932
 50
85.8549103079
 51
90.0648216218
  0
LINE
  5
C1
  8
0
  6
CONTINUOUS
 62
     7
 10
-113.4412270376
 20
411.8686378622
 30
0.0
 11
-76.1865247378
 21
411.8686378622
 31
0.0
  0
ARC
  5
C2
  8
0
  6
CONTINUOUS
 62
     7
 10
-113.5088824919
 20
352.0680616311
 30
0.0
 40
59.80061450216932
 50
89.9351783782
 51
94.1450896921
  0
POLYLINE
  5
C3
  8
0
  6
CONTINUOUS
 62
     7
 66
     1
 10
0.0
 20
0.0
 30
0.0
  0
VERTEX
  5
48A
  8
0
  6
CONTINUOUS
 62
     7
 10
-117.8160496393
 20
411.8711189056
 30
0.0
  0
VERTEX
  5
48B
  8
0
  6
CONTINUOUS
 62
     7
 10
-117.8021077404
 20
412.0614663387
 30
0.0
  0
VERTEX
  5
48C
  8
0
  6
CONTINUOUS
 62
     7
 10
-117.9085914382
 20
412.3592138911
 30
0.0
  0
VERTEX
  5
48D
  8
0
  6
CONTINUOUS
 62
     7
 10
-118.1409880856
 20
412.6552925134
 30
0.0
  0
VERTEX
  5
48E
  8
0
  6
CONTINUOUS
 62
     7
 10
-118.5003631154
 20
412.9478544617
 30
0.0
  0
VERTEX
  5
48F
  8
0
  6
CONTINUOUS
 62
     7
 10
-118.9816166052
 20
413.2332862044
 30
0.0
  0
VERTEX
  5
490
  8
0
  6
CONTINUOUS
 62
     7
 10
-119.5762902835
 20
413.5062233234
 30
0.0
  0
VERTEX
  5
491
  8
0
  6
CONTINUOUS
 62
     7
 10
-120.2751826832
 20
413.7619868541
 30
0.0
  0
VERTEX
  5
492
  8
0
  6
CONTINUOUS
 62
     7
 10
-121.0750621149
 20
414.0005320931
 30
0.0
  0
VERTEX
  5
493
  8
0
  6
CONTINUOUS
 62
     7
 10
-121.9610125163
 20
414.2171875263
 30
0.0
  0
VERTEX
  5
494
  8
0
  6
CONTINUOUS
 62
     7
 10
-122.9001358488
 20
414.4047782445
 30
0.0
  0
VERTEX
  5
495
  8
0
  6
CONTINUOUS
 62
     7
 10
-123.9046082237
 20
414.5676851893
 30
0.0
  0
VERTEX
  5
496
  8
0
  6
CONTINUOUS
 62
     7
 10
-124.9547843227
 20
414.702630105
 30
0.0
  0
VERTEX
  5
497
  8
0
  6
CONTINUOUS
 62
     7
 10
-125.9339712897
 20
414.7988990569
 30
0.0
  0
VERTEX
  5
498
  8
0
  6
CONTINUOUS
 62
     7
 10
-126.9337125459
 20
414.8703724766
 30
0.0
  0
VERTEX
  5
499
  8
0
  6
CONTINUOUS
 62
     7
 10
-127.9369071463
 20
414.9157837653
 30
0.0
  0
SEQEND
  5
B82
  8
0
  6
CONTINUOUS
 62
     7
  0
POLYLINE
  5
C4
  8
0
  6
CONTINUOUS
 62
     7
 66
     1
 10
0.0
 20
0.0
 30
0.0
  0
VERTEX
  5
49A
  8
0
  6
CONTINUOUS
 62
     7
 10
-71.8117021361
 20
411.8711189056
 30
0.0
  0
VERTEX
  5
49B
  8
0
  6
CONTINUOUS
 62
     7
 10
-71.8256440351
 20
412.0614663387
 30
0.0
  0
VERTEX
  5
49C
  8
0
  6
CONTINUOUS
 62
     7
 10
-71.7191603372
 20
412.3592138911
 30
0.0
  0
VERTEX
  5
49D
  8
0
  6
CONTINUOUS
 62
     7
 10
-71.4867636898
 20
412.6552925134
 30
0.0
  0
VERTEX
  5
49E
  8
0
  6
CONTINUOUS
 62
     7
 10
-71.12738866
 20
412.9478544617
 30
0.0
  0
VERTEX
  5
49F
  8
0
  6
CONTINUOUS
 62
     7
 10
-70.6461351702
 20
413.2332862044
 30
0.0
  0
VERTEX
  5
4A0
  8
0
  6
CONTINUOUS
 62
     7
 10
-70.0514614919
 20
413.5062233234
 30
0.0
  0
VERTEX
  5
4A1
  8
0
  6
CONTINUOUS
 62
     7
 10
-69.3525690922
 20
413.7619868541
 30
0.0
  0
VERTEX
  5
4A2
  8
0
  6
CONTINUOUS
 62
     7
 10
-68.5526896605
 20
414.0005320931
 30
0.0
  0
VERTEX
  5
4A3
  8
0
  6
CONTINUOUS
 62
     7
 10
-67.6667392591
 20
414.2171875263
 30
0.0
  0
VERTEX
  5
4A4
  8
0
  6
CONTINUOUS
 62
     7
 10
-66.7276159266
 20
414.4047782445
 30
0.0
  0
VERTEX
  5
4A5
  8
0
  6
CONTINUOUS
 62
     7
 10
-65.7231435517
 20
414.5676851893
 30
0.0
  0
VERTEX
  5
4A6
  8
0
  6
CONTINUOUS
 62
     7
 10
-64.6729674527
 20
414.702630105
 30
0.0
  0
VERTEX
  5
4A7
  8
0
  6
CONTINUOUS
 62
     7
 10
-63.6937804857
 20
414.7988990569
 30
0.0
  0
VERTEX
  5
4A8
  8
0
  6
CONTINUOUS
 62
     7
 10
-62.6940392295
 20
414.8703724766
 30
0.0
  0
VERTEX
  5
4A9
  8
0
  6
CONTINUOUS
 62
     7
 10
-61.6908446291
 20
414.9157837653
 30
0.0
  0
SEQEND
  5
B81
  8
0
  6
CONTINUOUS
 62
     7
  0
LINE
  5
C5
  8
0
  6
CONTINUOUS
 62
     7
 10
-123.6831006
 20
452.8374881172
 30
0.0
 11
-137.9223168233
 21
452.8374881172
 31
0.0
  0
LINE
  5
C6
  8
0
  6
CONTINUOUS
 62
     7
 10
-123.6831006
 20
452.8374881172
 30
0.0
 11
-123.5708501527
 21
435.3187591458
 31
0.0
  0
LINE
  5
C7
  8
0
  6
CONTINUOUS
 62
     7
 10
-65.9446511755
 20
452.8374881172
 30
0.0
 11
-66.0569016227
 21
435.3187591458
 31
0.0
  0
LINE
  5
C8
  8
0
  6
CONTINUOUS
 62
     7
 10
-65.9446511755
 20
452.8374881172
 30
0.0
 11
-51.7054349521
 21
452.8374881172
 31
0.0
  0
LINE
  5
C9
  8
0
  6
CONTINUOUS
 62
     7
 10
-51.8662855366
 20
415.3374940777
 30
0.0
 11
-61.4126287738
 21
415.3374940777
 31
0.0
  0
LINE
  5
CA
  8
0
  6
CONTINUOUS
 62
     7
 10
-50.8376285771
 20
422.8374943757
 30
0.0
 11
-61.2262934783
 21
422.8374943757
 31
0.0
  0
LINE
  5
CB
  8
0
  6
CONTINUOUS
 62
     7
 10
-137.7614662388
 20
415.3374940777
 30
0.0
 11
-128.2151230016
 21
415.3374940777
 31
0.0
  0
LINE
  5
CC
  8
0
  6
CONTINUOUS
 62
     7
 10
-138.7901231983
 20
422.8374943757
 30
0.0
 11
-128.4014582971
 21
422.8374943757
 31
0.0
  0
LINE
  5
CD
  8
0
  6
CONTINUOUS
 62
     7
 10
-72.7663897315
 20
452.8374881172
 30
0.0
 11
-65.9446511755
 21
452.8374881172
 31
0.0
  0
LINE
  5
CE
  8
0
  6
CONTINUOUS
 62
     7
 10
-116.8613620439
 20
452.8374881172
 30
0.0
 11
-123.6831006
 21
452.8374881172
 31
0.0
  0
ARC
  5
CF
  8
0
  6
CONTINUOUS
 62
     7
 10
-46.577529831
 20
-10.1047261852
 30
0.0
 40
425.2891324296566
 50
90.8084271633
 51
92.0365239694
  0
ARC
  5
D0
  8
0
  6
CONTINUOUS
 62
     7
 10
-143.0502219444
 20
-10.1047261852
 30
0.0
 40
425.2891324296566
 50
87.9634760306
 51
89.1915728367
  0
LINE
  5
D1
  8
0
  6
CONTINUOUS
 62
     7
 10
-134.1517083684
 20
392.8374931836
 30
0.0
 11
-120.4760447481
 21
392.8374931836
 31
0.0
  0
LINE
  5
D2
  8
0
  6
CONTINUOUS
 62
     7
 10
-134.1517083684
 20
392.8374931836
 30
0.0
 11
-137.277383391
 21
415.0778413439
 31
0.0
  0
POLYLINE
  5
D3
  8
0
  6
CONTINUOUS
 62
     7
 66
     1
 10
0.0
 20
0.0
 30
0.0
  0
VERTEX
  5
4AA
  8
0
  6
CONTINUOUS
 62
     7
 10
-137.0497122744
 20
415.1420727992
 30
0.0
  0
VERTEX
  5
4AB
  8
0
  6
CONTINUOUS
 62
     7
 10
-137.2240148822
 20
415.1259199405
 30
0.0
  0
VERTEX
  5
4AC
  8
0
  6
CONTINUOUS
 62
     7
 10
-137.277383391
 20
415.0778413439
 30
0.0
  0
SEQEND
  5
B80
  8
0
  6
CONTINUOUS
 62
     7
  0
POLYLINE
  5
D4
  8
0
  6
CONTINUOUS
 62
     7
 66
     1
 10
0.0
 20
0.0
 30
0.0
  0
VERTEX
  5
4AD
  8
0
  6
CONTINUOUS
 62
     7
 10
-52.578039501
 20
415.1420727992
 30
0.0
  0
VERTEX
  5
4AE
  8
0
  6
CONTINUOUS
 62
     7
 10
-52.4037368932
 20
415.1259199405
 30
0.0
  0
VERTEX
  5
4AF
  8
0
  6
CONTINUOUS
 62
     7
 10
-52.3503683844
 20
415.0778413439
 30
0.0
  0
SEQEND
  5
B7F
  8
0
  6
CONTINUOUS
 62
     7
  0
LINE
  5
D5
  8
0
  6
CONTINUOUS
 62
     7
 10
-55.476043407
 20
392.8374931836
 30
0.0
 11
-52.3503683844
 21
415.0778413439
 31
0.0
  0
LINE
  5
D6
  8
0
  6
CONTINUOUS
 62
     7
 10
-55.476043407
 20
392.8374931836
 30
0.0
 11
-69.1517070273
 21
392.8374931836
 31
0.0
  0
LINE
  5
D7
  8
0
  6
CONTINUOUS
 62
     7
 10
-157.3138758877
 20
563.8375044489
 30
0.0
 11
-32.3138758877
 21
563.8375044489
 31
0.0
  0
LINE
  5
D8
  8
0
  6
CONTINUOUS
 62
     7
 10
-107.3330166155
 20
522.8374958659
 30
0.0
 11
-94.8138758877
 21
522.8374958659
 31
0.0
  0
LINE
  5
D9
  8
0
  6
CONTINUOUS
 62
     7
 10
-157.3138758877
 20
522.8374958659
 30
0.0
 11
-107.3330166155
 21
522.8374958659
 31
0.0
  0
LINE
  5
DA
  8
0
  6
CONTINUOUS
 62
     7
 10
-82.2947351599
 20
522.8374958659
 30
0.0
 11
-32.3138758877
 21
522.8374958659
 31
0.0
  0
LINE
  5
DB
  8
0
  6
CONTINUOUS
 62
     7
 10
-94.8138758877
 20
522.8374958659
 30
0.0
 11
-82.2947351599
 21
522.8374958659
 31
0.0
  0
LINE
  5
DC
  8
0
  6
CONTINUOUS
 62
     7
 10
-111.7175780574
 20
504.8374891901
 30
0.0
 11
-77.910173718
 21
504.8374891901
 31
0.0
  0
LINE
  5
DD
  8
0
  6
CONTINUOUS
 62
     7
 10
-9.8138749936
 20
307.8374922896
 30
0.0
 11
-9.8138749936
 21
366.8374926472
 31
0.0
  0
LINE
  5
DE
  8
0
  6
CONTINUOUS
 62
     7
 10
-9.8138749936
 20
248.8374919319
 30
0.0
 11
-9.8138749936
 21
307.8374922896
 31
0.0
  0
LINE
  5
DF
  8
0
  6
CONTINUOUS
 62
     7
 10
-179.8138767818
 20
307.8374922896
 30
0.0
 11
-179.8138767818
 21
366.8374926472
 31
0.0
  0
LINE
  5
E0
  8
0
  6
CONTINUOUS
 62
     7
 10
-179.8138767818
 20
248.8374919319
 30
0.0
 11
-179.8138767818
 21
307.8374922896
 31
0.0
  0
POLYLINE
  5
E1
  8
0
  6
CONTINUOUS
 62
     7
 66
     1
 10
0.0
 20
0.0
 30
0.0
  0
VERTEX
  5
4B0
  8
0
  6
CONTINUOUS
 62
     7
 10
-104.2785048822
 20
504.8374891901
 30
0.0
  0
VERTEX
  5
4B1
  8
0
  6
CONTINUOUS
 62
     7
 10
-104.4304194266
 20
504.0447474146
 30
0.0
  0
VERTEX
  5
4B2
  8
0
  6
CONTINUOUS
 62
     7
 10
-104.6977043489
 20
502.7118832493
 30
0.0
  0
VERTEX
  5
4B3
  8
0
  6
CONTINUOUS
 62
     7
 10
-104.9797004426
 20
501.3996571923
 30
0.0
  0
VERTEX
  5
4B4
  8
0
  6
CONTINUOUS
 62
     7
 10
-105.279867571
 20
500.1160115624
 30
0.0
  0
VERTEX
  5
4B5
  8
0
  6
CONTINUOUS
 62
     7
 10
-105.5250140244
 20
499.1531134272
 30
0.0
  0
VERTEX
  5
4B6
  8
0
  6
CONTINUOUS
 62
     7
 10
-105.7873936707
 20
498.2190192366
 30
0.0
  0
VERTEX
  5
4B7
  8
0
  6
CONTINUOUS
 62
     7
 10
-106.0713650996
 20
497.3322362328
 30
0.0
  0
VERTEX
  5
4B8
  8
0
  6
CONTINUOUS
 62
     7
 10
-106.3812887633
 20
496.5112120533
 30
0.0
  0
VERTEX
  5
4B9
  8
0
  6
CONTINUOUS
 62
     7
 10
-106.559751589
 20
496.107301178
 30
0.0
  0
VERTEX
  5
4BA
  8
0
  6
CONTINUOUS
 62
     7
 10
-106.7491332406
 20
495.7379311943
 30
0.0
  0
VERTEX
  5
4BB
  8
0
  6
CONTINUOUS
 62
     7
 10
-106.9497689942
 20
495.4145014906
 30
0.0
  0
VERTEX
  5
4BC
  8
0
  6
CONTINUOUS
 62
     7
 10
-107.1220329368
 20
495.1935619736
 30
0.0
  0
VERTEX
  5
4BD
  8
0
  6
CONTINUOUS
 62
     7
 10
-107.3022997344
 20
495.0185925389
 30
0.0
  0
VERTEX
  5
4BE
  8
0
  6
CONTINUOUS
 62
     7
 10
-107.4883109295
 20
494.8989213133
 30
0.0
  0
VERTEX
  5
4BF
  8
0
  6
CONTINUOUS
 62
     7
 10
-107.7481890434
 20
494.8374987269
 30
0.0
  0
SEQEND
  5
B7E
  8
0
  6
CONTINUOUS
 62
     7
  0
POLYLINE
  5
E2
  8
0
  6
CONTINUOUS
 62
     7
 66
     1
 10
0.0
 20
0.0
 30
0.0
  0
VERTEX
  5
4C0
  8
0
  6
CONTINUOUS
 62
     7
 10
-85.3492468932
 20
504.8374891901
 30
0.0
  0
VERTEX
  5
4C1
  8
0
  6
CONTINUOUS
 62
     7
 10
-85.0726301187
 20
503.4118354941
 30
0.0
  0
VERTEX
  5
4C2
  8
0
  6
CONTINUOUS
 62
     7
 10
-84.7810963506
 20
502.0064175749
 30
0.0
  0
VERTEX
  5
4C3
  8
0
  6
CONTINUOUS
 62
     7
 10
-84.4710767606
 20
500.6289989376
 30
0.0
  0
VERTEX
  5
4C4
  8
0
  6
CONTINUOUS
 62
     7
 10
-84.2242166737
 20
499.6177316332
 30
0.0
  0
VERTEX
  5
4C5
  8
0
  6
CONTINUOUS
 62
     7
 10
-83.9606887066
 20
498.6333162213
 30
0.0
  0
VERTEX
  5
4C6
  8
0
  6
CONTINUOUS
 62
     7
 10
-83.6761203
 20
497.6923525954
 30
0.0
  0
VERTEX
  5
4C7
  8
0
  6
CONTINUOUS
 62
     7
 10
-83.3661361003
 20
496.811530056
 30
0.0
  0
VERTEX
  5
4C8
  8
0
  6
CONTINUOUS
 62
     7
 10
-83.1844415853
 20
496.3645399237
 30
0.0
  0
VERTEX
  5
4C9
  8
0
  6
CONTINUOUS
 62
     7
 10
-82.9914156684
 20
495.9504366541
 30
0.0
  0
VERTEX
  5
4CA
  8
0
  6
CONTINUOUS
 62
     7
 10
-82.7863170171
 20
495.5805302286
 30
0.0
  0
VERTEX
  5
4CB
  8
0
  6
CONTINUOUS
 62
     7
 10
-82.607948255
 20
495.3185231114
 30
0.0
  0
VERTEX
  5
4CC
  8
0
  6
CONTINUOUS
 62
     7
 10
-82.4202085251
 20
495.1032311344
 30
0.0
  0
VERTEX
  5
4CD
  8
0
  6
CONTINUOUS
 62
     7
 10
-82.2250554675
 20
494.9460238838
 30
0.0
  0
VERTEX
  5
4CE
  8
0
  6
CONTINUOUS
 62
     7
 10
-82.0535114372
 20
494.8652148867
 30
0.0
  0
VERTEX
  5
4CF
  8
0
  6
CONTINUOUS
 62
     7
 10
-81.879562732
 20
494.8374987269
 30
0.0
  0
SEQEND
  5
B7D
  8
0
  6
CONTINUOUS
 62
     7
  0
LINE
  5
E3
  8
0
  6
CONTINUOUS
 62
     7
 10
-81.879562732
 20
494.8374987269
 30
0.0
 11
-107.7481890434
 21
494.8374987269
 31
0.0
  0
LINE
  5
E4
  8
0
  6
CONTINUOUS
 62
     7
 10
-71.7307329515
 20
474.837487998
 30
0.0
 11
-74.9302097002
 21
474.837487998
 31
0.0
  0
LINE
  5
E5
  8
0
  6
CONTINUOUS
 62
     7
 10
-117.8970188239
 20
474.837487998
 30
0.0
 11
-114.6975420752
 21
474.837487998
 31
0.0
  0
LINE
  5
E6
  8
0
  6
CONTINUOUS
 62
     7
 10
-116.9125251809
 20
494.8374987269
 30
0.0
 11
-107.7481890434
 21
494.8374987269
 31
0.0
  0
LINE
  5
E7
  8
0
  6
CONTINUOUS
 62
     7
 10
-72.7152265945
 20
494.8374987269
 30
0.0
 11
-81.879562732
 21
494.8374987269
 31
0.0
  0
LINE
  5
E8
  8
0
  6
CONTINUOUS
 62
     7
 10
-71.3138766924
 20
886.8374884749
 30
0.0
 11
-71.3138766924
 21
891.8374837065
 31
0.0
  0
LINE
  5
E9
  8
0
  6
CONTINUOUS
 62
     7
 10
-71.3138766924
 20
860.8374655867
 30
0.0
 11
-71.3138766924
 21
864.8374736929
 31
0.0
  0
LINE
  5
EA
  8
0
  6
CONTINUOUS
 62
     7
 10
-115.1173021981
 20
860.8374655867
 30
0.0
 11
-71.3138766924
 21
860.8374655867
 31
0.0
  0
LINE
  5
EB
  8
0
  6
CONTINUOUS
 62
     7
 10
-109.3138754705
 20
891.8374837065
 30
0.0
 11
-115.3138764539
 21
879.8375189925
 31
0.0
  0
LINE
  5
EC
  8
0
  6
CONTINUOUS
 62
     7
 10
-120.3138754109
 20
879.8375189925
 30
0.0
 11
-120.3138754109
 21
866.0340369368
 31
0.0
  0
LINE
  5
ED
  8
0
  6
CONTINUOUS
 62
     7
 10
-115.3138764539
 20
879.8375189925
 30
0.0
 11
-120.3138754109
 21
879.8375189925
 31
0.0
  0
LINE
  5
EE
  8
0
  6
CONTINUOUS
 62
     7
 10
-71.3138766924
 20
891.8374837065
 30
0.0
 11
-109.3138754705
 21
891.8374837065
 31
0.0
  0
LINE
  5
EF
  8
0
  6
CONTINUOUS
 62
     7
 10
-120.3138754109
 20
866.0340369368
 30
0.0
 11
-115.1173021981
 21
860.8374655867
 31
0.0
  0
LINE
  5
F0
  8
0
  6
CONTINUOUS
 62
     7
 10
-89.9309483694
 20
378.4358859682
 30
0.0
 11
-82.8138757834
 21
378.4358859682
 31
0.0
  0
LINE
  5
F1
  8
0
  6
CONTINUOUS
 62
     7
 10
-93.6184996145
 20
369.3787404025
 30
0.0
 11
-89.9309483694
 21
378.4358859682
 31
0.0
  0
LINE
  5
F2
  8
0
  6
CONTINUOUS
 62
     7
 10
-96.0092521609
 20
369.3787404025
 30
0.0
 11
-93.6184996145
 21
369.3787404025
 31
0.0
  0
LINE
  5
F3
  8
0
  6
CONTINUOUS
 62
     7
 10
-99.696803406
 20
378.4358859682
 30
0.0
 11
-96.0092521609
 21
369.3787404025
 31
0.0
  0
LINE
  5
F4
  8
0
  6
CONTINUOUS
 62
     7
 10
-106.813875992
 20
378.4358859682
 30
0.0
 11
-99.696803406
 21
378.4358859682
 31
0.0
  0
LINE
  5
F5
  8
0
  6
CONTINUOUS
 62
     7
 10
-106.813875992
 20
378.4358859682
 30
0.0
 11
-106.813875992
 21
380.8073089147
 31
0.0
  0
LINE
  5
F6
  8
0
  6
CONTINUOUS
 62
     7
 10
-98.0710187332
 20
380.8073089147
 30
0.0
 11
-106.813875992
 21
380.8073089147
 31
0.0
  0
LINE
  5
F7
  8
0
  6
CONTINUOUS
 62
     7
 10
-82.8138757834
 20
380.8073089147
 30
0.0
 11
-91.5567330422
 21
380.8073089147
 31
0.0
  0
LINE
  5
F8
  8
0
  6
CONTINUOUS
 62
     7
 10
-82.8138757834
 20
378.4358859682
 30
0.0
 11
-82.8138757834
 21
380.8073089147
 31
0.0
  0
LINE
  5
F9
  8
0
  6
CONTINUOUS
 62
     7
 10
-91.5567330422
 20
380.8073089147
 30
0.0
 11
-94.8138758877
 21
372.807315054
 31
0.0
  0
LINE
  5
FA
  8
0
  6
CONTINUOUS
 62
     7
 10
-94.8138758877
 20
372.807315054
 30
0.0
 11
-98.0710187332
 21
380.8073089147
 31
0.0
  0
LINE
  5
FB
  8
0
  6
CONTINUOUS
 62
     7
 10
-106.813875992
 20
369.3787404025
 30
0.0
 11
-104.273731854
 21
369.3787404025
 31
0.0
  0
LINE
  5
FC
  8
0
  6
CONTINUOUS
 62
     7
 10
-104.5655291864
 20
375.2358839536
 30
0.0
 11
-106.813875992
 21
369.3787404025
 31
0.0
  0
LINE
  5
FD
  8
0
  6
CONTINUOUS
 62
     7
 10
-106.813875992
 20
375.2358839536
 30
0.0
 11
-104.5655291864
 21
375.2358839536
 31
0.0
  0
LINE
  5
FE
  8
0
  6
CONTINUOUS
 62
     7
 10
-106.813875992
 20
375.2358839536
 30
0.0
 11
-106.813875992
 21
377.5215954209
 31
0.0
  0
LINE
  5
FF
  8
0
  6
CONTINUOUS
 62
     7
 10
-100.3117179835
 20
377.5215954209
 30
0.0
 11
-106.813875992
 21
377.5215954209
 31
0.0
  0
LINE
  5
100
  8
0
  6
CONTINUOUS
 62
     7
 10
-100.0686949456
 20
370.6358805919
 30
0.0
 11
-99.5568582194
 21
369.3787404025
 31
0.0
  0
LINE
  5
101
  8
0
  6
CONTINUOUS
 62
     7
 10
-103.7911605427
 20
370.6358805919
 30
0.0
 11
-100.0686949456
 21
370.6358805919
 31
0.0
  0
LINE
  5
102
  8
0
  6
CONTINUOUS
 62
     7
 10
-104.273731854
 20
369.3787404025
 30
0.0
 11
-103.7911605427
 21
370.6358805919
 31
0.0
  0
LINE
  5
103
  8
0
  6
CONTINUOUS
 62
     7
 10
-100.9527761826
 20
372.807315054
 30
0.0
 11
-102.1107216703
 21
375.6513879323
 31
0.0
  0
LINE
  5
104
  8
0
  6
CONTINUOUS
 62
     7
 10
-102.1107216703
 20
375.6513879323
 30
0.0
 11
-103.2024603674
 21
372.807315054
 31
0.0
  0
LINE
  5
105
  8
0
  6
CONTINUOUS
 62
     7
 10
-103.2024603674
 20
372.807315054
 30
0.0
 11
-100.9527761826
 21
372.807315054
 31
0.0
  0
LINE
  5
106
  8
0
  6
CONTINUOUS
 62
     7
 10
-99.5568582194
 20
369.3787404025
 30
0.0
 11
-96.9964121805
 21
369.3787404025
 31
0.0
  0
LINE
  5
107
  8
0
  6
CONTINUOUS
 62
     7
 10
-96.9964121805
 20
369.3787404025
 30
0.0
 11
-100.3117179835
 21
377.5215954209
 31
0.0
  0
LINE
  5
108
  8
0
  6
CONTINUOUS
 62
     7
 10
-83.3853045815
 20
369.3787404025
 30
0.0
 11
-86.1142324621
 21
373.000150981
 31
0.0
  0
LINE
  5
109
  8
0
  6
CONTINUOUS
 62
     7
 10
-86.354654316
 20
369.3787404025
 30
0.0
 11
-83.3853045815
 21
369.3787404025
 31
0.0
  0
LINE
  5
10A
  8
0
  6
CONTINUOUS
 62
     7
 10
-88.7673320586
 20
372.5804746771
 30
0.0
 11
-86.354654316
 21
369.3787404025
 31
0.0
  0
LINE
  5
10B
  8
0
  6
CONTINUOUS
 62
     7
 10
-90.070893556
 20
369.3787404025
 30
0.0
 11
-88.7673320586
 21
372.5804746771
 31
0.0
  0
LINE
  5
10C
  8
0
  6
CONTINUOUS
 62
     7
 10
-86.7555877531
 20
377.5215954209
 30
0.0
 11
-89.3160337919
 21
377.5215954209
 31
0.0
  0
LINE
  5
10D
  8
0
  6
CONTINUOUS
 62
     7
 10
-87.9646074364
 20
374.552077117
 30
0.0
 11
-86.7555877531
 21
377.5215954209
 31
0.0
  0
ARC
  5
10E
  8
0
  6
CONTINUOUS
 62
     7
 10
-88.0756175334
 20
377.5260367835
 30
0.0
 40
2.976030802887267
 50
272.1377083648
 51
359.9144930122
  0
LINE
  5
10F
  8
0
  6
CONTINUOUS
 62
     7
 10
-82.8138757834
 20
377.5215954209
 30
0.0
 11
-85.0995900446
 21
377.5215954209
 31
0.0
  0
LINE
  5
110
  8
0
  6
CONTINUOUS
 62
     7
 10
-82.8138757834
 20
375.2358839536
 30
0.0
 11
-82.8138757834
 21
377.5215954209
 31
0.0
  0
LINE
  5
111
  8
0
  6
CONTINUOUS
 62
     7
 10
-83.4995899686
 20
375.2358839536
 30
0.0
 11
-82.8138757834
 21
375.2358839536
 31
0.0
  0
ARC
  5
112
  8
0
  6
CONTINUOUS
 62
     7
 10
-86.8843754888
 20
376.5475680596
 30
0.0
 40
3.630053472287724
 50
282.2488166031
 51
338.8174772729
  0
LINE
  5
113
  8
0
  6
CONTINUOUS
 62
     7
 10
-89.3160337919
 20
377.5215954209
 30
0.0
 11
-92.6313395949
 21
369.3787404025
 31
0.0
  0
LINE
  5
114
  8
0
  6
CONTINUOUS
 62
     7
 10
-92.6313395949
 20
369.3787404025
 30
0.0
 11
-90.070893556
 21
369.3787404025
 31
0.0
  0
LINE
  5
115
  8
0
  6
CONTINUOUS
 62
     7
 10
-64.6069124678
 20
474.837487998
 30
0.0
 11
-71.7307329515
 21
474.837487998
 31
0.0
  0
LINE
  5
116
  8
0
  6
CONTINUOUS
 62
     7
 10
-125.0208393076
 20
474.837487998
 30
0.0
 11
-117.8970188239
 21
474.837487998
 31
0.0
  0
LINE
  5
117
  8
0
  6
CONTINUOUS
 62
     7
 10
-139.5977996627
 20
434.8374963427
 30
0.0
 11
-144.4996446708
 21
434.8374963427
 31
0.0
  0
LINE
  5
118
  8
0
  6
CONTINUOUS
 62
     7
 10
-139.1140632668
 20
452.8374881172
 30
0.0
 11
-139.5977996627
 21
434.8374963427
 31
0.0
  0
LINE
  5
119
  8
0
  6
CONTINUOUS
 62
     7
 10
-137.9223168233
 20
452.8374881172
 30
0.0
 11
-139.1140632668
 21
452.8374881172
 31
0.0
  0
LINE
  5
11A
  8
0
  6
CONTINUOUS
 62
     7
 10
-50.5136885086
 20
452.8374881172
 30
0.0
 11
-50.0299521127
 21
434.8374963427
 31
0.0
  0
LINE
  5
11B
  8
0
  6
CONTINUOUS
 62
     7
 10
-45.1281071046
 20
434.8374963427
 30
0.0
 11
-50.0299521127
 21
434.8374963427
 31
0.0
  0
LINE
  5
11C
  8
0
  6
CONTINUOUS
 62
     7
 10
-51.7054349521
 20
452.8374881172
 30
0.0
 11
-50.5136885086
 21
452.8374881172
 31
0.0
  0
LINE
  5
11D
  8
0
  6
CONTINUOUS
 62
     7
 10
-137.7614662388
 20
415.3374940777
 30
0.0
 11
-143.759820644
 21
415.3374940777
 31
0.0
  0
LINE
  5
11E
  8
0
  6
CONTINUOUS
 62
     7
 10
-138.7901231983
 20
422.8374943757
 30
0.0
 11
-144.8138766328
 21
422.8374943757
 31
0.0
  0
LINE
  5
11F
  8
0
  6
CONTINUOUS
 62
     7
 10
-51.8662855366
 20
415.3374940777
 30
0.0
 11
-45.8679311314
 21
415.3374940777
 31
0.0
  0
LINE
  5
120
  8
0
  6
CONTINUOUS
 62
     7
 10
-50.8376285771
 20
422.8374943757
 30
0.0
 11
-44.8138751426
 21
422.8374943757
 31
0.0
  0
LINE
  5
121
  8
0
  6
CONTINUOUS
 62
     7
 10
-117.9260649124
 20
504.7808647776
 30
0.0
 11
-117.9260649124
 21
504.8374891901
 31
0.0
  0
ARC
  5
122
  8
0
  6
CONTINUOUS
 62
     7
 10
-152.6306834361
 20
488.6464955101
 30
0.0
 40
38.2717705174296
 50
24.9339773286
 51
27.366574792
  0
LINE
  5
123
  8
0
  6
CONTINUOUS
 62
     7
 10
-117.9260649124
 20
504.8374891901
 30
0.0
 11
-111.7175780574
 21
504.8374891901
 31
0.0
  0
ARC
  5
124
  8
0
  6
CONTINUOUS
 62
     7
 10
-36.9989770062
 20
488.647432634
 30
0.0
 40
38.26964468269004
 50
152.6333576339
 51
155.0660902455
  0
LINE
  5
125
  8
0
  6
CONTINUOUS
 62
     7
 10
-71.701686863
 20
504.8374891901
 30
0.0
 11
-71.701686863
 21
504.7808647776
 31
0.0
  0
LINE
  5
126
  8
0
  6
CONTINUOUS
 62
     7
 10
-77.910173718
 20
504.8374891901
 30
0.0
 11
-71.701686863
 21
504.8374891901
 31
0.0
  0
LINE
  5
127
  8
0
  6
CONTINUOUS
 62
     7
 10
-18.8138783315
 20
228.2959804559
 30
0.0
 11
-18.8138783315
 21
215.3374910975
 31
0.0
  0
LINE
  5
128
  8
0
  6
CONTINUOUS
 62
     7
 10
-18.8138783315
 20
215.3374910975
 30
0.0
 11
-28.8138762453
 21
215.3374910975
 31
0.0
  0
LINE
  5
129
  8
0
  6
CONTINUOUS
 62
     7
 10
-28.8138762453
 20
228.2959804559
 30
0.0
 11
-28.8138762453
 21
215.3374910975
 31
0.0
  0
LINE
  5
12A
  8
0
  6
CONTINUOUS
 62
     7
 10
-170.8138734439
 20
215.3374910975
 30
0.0
 11
-160.8138755301
 21
215.3374910975
 31
0.0
  0
LINE
  5
12B
  8
0
  6
CONTINUOUS
 62
     7
 10
-170.8138734439
 20
228.2959804559
 30
0.0
 11
-170.8138734439
 21
215.3374910975
 31
0.0
  0
LINE
  5
12C
  8
0
  6
CONTINUOUS
 62
     7
 10
-160.8138755301
 20
228.2959804559
 30
0.0
 11
-160.8138755301
 21
215.3374910975
 31
0.0
  0
LINE
  5
12D
  8
0
  6
CONTINUOUS
 62
     7
 10
-129.2955279687
 20
353.2225736106
 30
0.0
 11
-130.5468120018
 21
358.8667572165
 31
0.0
  0
LINE
  5
12E
  8
0
  6
CONTINUOUS
 62
     7
 10
-60.3322238067
 20
353.2225736106
 30
0.0
 11
-59.0809397736
 21
358.8667572165
 31
0.0
  0
ARC
  5
12F
  8
0
  6
CONTINUOUS
 62
     7
 10
-54.4474408501
 20
351.8876719241
 30
0.0
 40
6.034288106993032
 50
167.2193347905
 51
254.4869259575
  0
ARC
  5
130
  8
0
  6
CONTINUOUS
 62
     7
 10
15.1835221715
 20
333.4255748309
 30
0.0
 40
72.35880191490136
 50
169.933525008
 51
177.5460541902
  0
ARC
  5
131
  8
0
  6
CONTINUOUS
 62
     7
 10
-204.8112739469
 20
333.4255748309
 30
0.0
 40
72.35880191490136
 50
2.4539458098
 51
10.066474992
  0
ARC
  5
132
  8
0
  6
CONTINUOUS
 62
     7
 10
-135.1803109253
 20
351.8876719241
 30
0.0
 40
6.034288106993046
 50
285.5130740425
 51
12.7806652095
  0
LINE
  5
133
  8
0
  6
CONTINUOUS
 62
     7
 10
-62.1916316787
 20
474.83610219
 30
0.0
 11
-62.2417666355
 21
474.837487998
 31
0.0
  0
LINE
  5
134
  8
0
  6
CONTINUOUS
 62
     7
 10
-62.2417666355
 20
474.837487998
 30
0.0
 11
-64.6069124678
 21
474.837487998
 31
0.0
  0
LINE
  5
135
  8
0
  6
CONTINUOUS
 62
     7
 10
-127.4385936895
 20
474.8360276842
 30
0.0
 11
-127.3859851399
 21
474.837487998
 31
0.0
  0
LINE
  5
136
  8
0
  6
CONTINUOUS
 62
     7
 10
-127.3859851399
 20
474.837487998
 30
0.0
 11
-125.0208393076
 21
474.837487998
 31
0.0
  0
LINE
  5
137
  8
0
  6
CONTINUOUS
 62
     7
 10
-68.3138762006
 20
892.8374708319
 30
0.0
 11
-121.3138755748
 21
892.8374708319
 31
0.0
  0
LINE
  5
138
  8
0
  6
CONTINUOUS
 62
     7
 10
-68.3138762006
 20
855.8374703551
 30
0.0
 11
-68.3138762006
 21
864.8374736929
 31
0.0
  0
LINE
  5
139
  8
0
  6
CONTINUOUS
 62
     7
 10
-68.3138762006
 20
886.8374884749
 30
0.0
 11
-68.3138762006
 21
892.8374708319
 31
0.0
  0
LINE
  5
13A
  8
0
  6
CONTINUOUS
 62
     7
 10
-121.3138755748
 20
855.8374703551
 30
0.0
 11
-121.3138755748
 21
892.8374708319
 31
0.0
  0
POLYLINE
  5
13B
  8
0
  6
CONTINUOUS
 62
     7
 66
     1
 10
0.0
 20
0.0
 30
0.0
  0
VERTEX
  5
4D0
  8
0
  6
CONTINUOUS
 62
     7
 10
-56.0613610187
 20
346.0732162619
 30
0.0
  0
VERTEX
  5
4D1
  8
0
  6
CONTINUOUS
 62
     7
 10
-41.2863009015
 20
348.9778735364
 30
0.0
  0
VERTEX
  5
4D2
  8
0
  6
CONTINUOUS
 62
     7
 10
-32.7119641343
 20
350.6614998603
 30
0.0
  0
VERTEX
  5
4D3
  8
0
  6
CONTINUOUS
 62
     7
 10
-28.8138762453
 20
351.4264807725
 30
0.0
  0
SEQEND
  5
B7C
  8
0
  6
CONTINUOUS
 62
     7
  0
POLYLINE
  5
13C
  8
0
  6
CONTINUOUS
 62
     7
 66
     1
 10
0.0
 20
0.0
 30
0.0
  0
VERTEX
  5
4D4
  8
0
  6
CONTINUOUS
 62
     7
 10
-28.8138762453
 20
264.397880497
 30
0.0
  0
VERTEX
  5
4D5
  8
0
  6
CONTINUOUS
 62
     7
 10
-32.6578766444
 20
265.1548855627
 30
0.0
  0
VERTEX
  5
4D6
  8
0
  6
CONTINUOUS
 62
     7
 10
-57.1089238265
 20
269.9792035544
 30
0.0
  0
SEQEND
  5
B7B
  8
0
  6
CONTINUOUS
 62
     7
  0
LINE
  5
13D
  8
0
  6
CONTINUOUS
 62
     7
 10
-57.1089238265
 20
336.5237139786
 30
0.0
 11
-57.1089238265
 21
269.9792035544
 31
0.0
  0
POLYLINE
  5
13E
  8
0
  6
CONTINUOUS
 62
     7
 66
     1
 10
0.0
 20
0.0
 30
0.0
  0
VERTEX
  5
4D7
  8
0
  6
CONTINUOUS
 62
     7
 10
-160.8138755301
 20
264.397880497
 30
0.0
  0
VERTEX
  5
4D8
  8
0
  6
CONTINUOUS
 62
     7
 10
-156.969875131
 20
265.1548855627
 30
0.0
  0
VERTEX
  5
4D9
  8
0
  6
CONTINUOUS
 62
     7
 10
-132.5188279489
 20
269.9792035544
 30
0.0
  0
SEQEND
  5
B7A
  8
0
  6
CONTINUOUS
 62
     7
  0
POLYLINE
  5
13F
  8
0
  6
CONTINUOUS
 62
     7
 66
     1
 10
0.0
 20
0.0
 30
0.0
  0
VERTEX
  5
4DA
  8
0
  6
CONTINUOUS
 62
     7
 10
-133.5663907567
 20
346.0732162619
 30
0.0
  0
VERTEX
  5
4DB
  8
0
  6
CONTINUOUS
 62
     7
 10
-148.3414508739
 20
348.9778735364
 30
0.0
  0
VERTEX
  5
4DC
  8
0
  6
CONTINUOUS
 62
     7
 10
-156.9157876411
 20
350.6614998603
 30
0.0
  0
VERTEX
  5
4DD
  8
0
  6
CONTINUOUS
 62
     7
 10
-160.8138755301
 20
351.4264807725
 30
0.0
  0
SEQEND
  5
B79
  8
0
  6
CONTINUOUS
 62
     7
  0
LINE
  5
140
  8
0
  6
CONTINUOUS
 62
     7
 10
-132.5188279489
 20
336.5237139786
 30
0.0
 11
-132.5188279489
 21
269.9792035544
 31
0.0
  0
POLYLINE
  5
141
  8
0
  6
CONTINUOUS
 62
     7
 66
     1
 10
0.0
 20
0.0
 30
0.0
  0
VERTEX
  5
4DE
  8
0
  6
CONTINUOUS
 62
     7
 10
-130.5468120018
 20
358.8667572165
 30
0.0
  0
VERTEX
  5
4DF
  8
0
  6
CONTINUOUS
 62
     7
 10
-130.6891702452
 20
359.7271241868
 30
0.0
  0
VERTEX
  5
4E0
  8
0
  6
CONTINUOUS
 62
     7
 10
-130.7375915685
 20
360.6083192551
 30
0.0
  0
SEQEND
  5
B78
  8
0
  6
CONTINUOUS
 62
     7
  0
POLYLINE
  5
142
  8
0
  6
CONTINUOUS
 62
     7
 66
     1
 10
0.0
 20
0.0
 30
0.0
  0
VERTEX
  5
4E1
  8
0
  6
CONTINUOUS
 62
     7
 10
-59.0809397736
 20
358.8667572165
 30
0.0
  0
VERTEX
  5
4E2
  8
0
  6
CONTINUOUS
 62
     7
 10
-58.9385815302
 20
359.7271241868
 30
0.0
  0
VERTEX
  5
4E3
  8
0
  6
CONTINUOUS
 62
     7
 10
-58.8901602069
 20
360.6083192551
 30
0.0
  0
SEQEND
  5
B77
  8
0
  6
CONTINUOUS
 62
     7
  0
LINE
  5
143
  8
0
  6
CONTINUOUS
 62
     7
 10
-58.8901602069
 20
360.6083192551
 30
0.0
 11
-58.8901602069
 21
392.8374931836
 31
0.0
  0
LINE
  5
144
  8
0
  6
CONTINUOUS
 62
     7
 10
-130.7375915685
 20
360.6083192551
 30
0.0
 11
-130.7375915685
 21
392.8374931836
 31
0.0
  0
LINE
  5
145
  8
0
  6
CONTINUOUS
 62
     7
 10
-57.1089238265
 20
269.9792035544
 30
0.0
 11
-132.5188279489
 21
269.9792035544
 31
0.0
  0
LINE
  5
146
  8
0
  6
CONTINUOUS
 62
     7
 10
-18.3138773182
 20
890.8374965811
 30
0.0
 11
-18.3138773182
 21
871.83750278
 31
0.0
  0
LINE
  5
147
  8
0
  6
CONTINUOUS
 62
     7
 10
-70.8111748436
 20
494.8374987269
 30
0.0
 11
-72.7152265945
 21
494.8374987269
 31
0.0
  0
LINE
  5
148
  8
0
  6
CONTINUOUS
 62
     7
 10
-118.8165769318
 20
494.8374987269
 30
0.0
 11
-116.9125251809
 21
494.8374987269
 31
0.0
  0
POLYLINE
  5
149
  8
0
  6
CONTINUOUS
 62
     7
 66
     1
 10
0.0
 20
0.0
 30
0.0
  0
VERTEX
  5
4E4
  8
0
  6
CONTINUOUS
 62
     7
 10
-118.4114162216
 20
504.8374891901
 30
0.0
  0
VERTEX
  5
4E5
  8
0
  6
CONTINUOUS
 62
     7
 10
-118.1603521446
 20
504.8233777905
 30
0.0
  0
VERTEX
  5
4E6
  8
0
  6
CONTINUOUS
 62
     7
 10
-117.9260649124
 20
504.7808647776
 30
0.0
  0
SEQEND
  5
B76
  8
0
  6
CONTINUOUS
 62
     7
  0
POLYLINE
  5
14A
  8
0
  6
CONTINUOUS
 62
     7
 66
     1
 10
0.0
 20
0.0
 30
0.0
  0
VERTEX
  5
4E7
  8
0
  6
CONTINUOUS
 62
     7
 10
-71.701686863
 20
504.7808647776
 30
0.0
  0
VERTEX
  5
4E8
  8
0
  6
CONTINUOUS
 62
     7
 10
-71.4701451698
 20
504.8230648661
 30
0.0
  0
VERTEX
  5
4E9
  8
0
  6
CONTINUOUS
 62
     7
 10
-71.2163355538
 20
504.8374891901
 30
0.0
  0
SEQEND
  5
B75
  8
0
  6
CONTINUOUS
 62
     7
  0
ARC
  5
14B
  8
0
  6
CONTINUOUS
 62
     7
 10
-117.1650439674
 20
506.9676585625
 30
0.0
 40
1.646905162998583
 50
178.3435742297
 51
206.2469047485
  0
LINE
  5
14C
  8
0
  6
CONTINUOUS
 62
     7
 10
-129.8138760367
 20
504.8374891901
 30
0.0
 11
-118.4114162216
 21
504.8374891901
 31
0.0
  0
LINE
  5
14D
  8
0
  6
CONTINUOUS
 62
     7
 10
-120.8138764241
 20
513.837492528
 30
0.0
 11
-118.812518228
 21
513.837492528
 31
0.0
  0
LINE
  5
14E
  8
0
  6
CONTINUOUS
 62
     7
 10
-71.2163355538
 20
504.8374891901
 30
0.0
 11
-59.8138757387
 21
504.8374891901
 31
0.0
  0
POLYLINE
  5
14F
  8
0
  6
CONTINUOUS
 62
     7
 66
     1
 10
0.0
 20
0.0
 30
0.0
  0
VERTEX
  5
4EA
  8
0
  6
CONTINUOUS
 62
     7
 10
-70.819392834
 20
507.0172459507
 30
0.0
  0
VERTEX
  5
4EB
  8
0
  6
CONTINUOUS
 62
     7
 10
-70.8510242739
 20
506.6299796725
 30
0.0
  0
VERTEX
  5
4EC
  8
0
  6
CONTINUOUS
 62
     7
 10
-70.9856041113
 20
506.2393308306
 30
0.0
  0
SEQEND
  5
B74
  8
0
  6
CONTINUOUS
 62
     7
  0
LINE
  5
150
  8
0
  6
CONTINUOUS
 62
     7
 10
-70.8152335474
 20
513.837492528
 30
0.0
 11
-68.8138753513
 21
513.837492528
 31
0.0
  0
LINE
  5
151
  8
0
  6
CONTINUOUS
 62
     7
 10
-118.8165769318
 20
494.8374987269
 30
0.0
 11
-129.8138760367
 21
494.8374987269
 31
0.0
  0
LINE
  5
152
  8
0
  6
CONTINUOUS
 62
     7
 10
-70.8111748436
 20
494.8374987269
 30
0.0
 11
-59.8138757387
 21
494.8374987269
 31
0.0
  0
LINE
  5
153
  8
0
  6
CONTINUOUS
 62
     7
 10
-29.493436251
 20
570.8375037337
 30
0.0
 11
-31.1742648819
 21
570.8375037337
 31
0.0
  0
LINE
  5
154
  8
0
  6
CONTINUOUS
 62
     7
 10
-158.4534868935
 20
851.8375218535
 30
0.0
 11
-160.1343155244
 21
851.8375218535
 31
0.0
  0
LINE
  5
155
  8
0
  6
CONTINUOUS
 62
     7
 10
-29.493436251
 20
851.8375218535
 30
0.0
 11
-31.1742648819
 21
851.8375218535
 31
0.0
  0
LINE
  5
156
  8
0
  6
CONTINUOUS
 62
     7
 10
-160.1343155244
 20
570.8375037337
 30
0.0
 11
-158.4534868935
 21
570.8375037337
 31
0.0
  0
LINE
  5
157
  8
0
  6
CONTINUOUS
 62
     7
 10
-29.493436251
 20
774.837499919
 30
0.0
 11
-17.8019106725
 21
774.837499919
 31
0.0
  0
LINE
  5
158
  8
0
  6
CONTINUOUS
 62
     7
 10
-17.8019106725
 20
851.8375218535
 30
0.0
 11
-29.493436251
 21
851.8375218535
 31
0.0
  0
LINE
  5
159
  8
0
  6
CONTINUOUS
 62
     7
 10
-29.493436251
 20
570.8375037337
 30
0.0
 11
-17.8019106725
 21
570.8375037337
 31
0.0
  0
LINE
  5
15A
  8
0
  6
CONTINUOUS
 62
     7
 10
-171.8258411029
 20
585.8374894285
 30
0.0
 11
-160.1343155244
 21
585.8374894285
 31
0.0
  0
LINE
  5
15B
  8
0
  6
CONTINUOUS
 62
     7
 10
-171.8258411029
 20
774.837499919
 30
0.0
 11
-160.1343155244
 21
774.837499919
 31
0.0
  0
LINE
  5
15C
  8
0
  6
CONTINUOUS
 62
     7
 10
-171.8258411029
 20
570.8375037337
 30
0.0
 11
-160.1343155244
 21
570.8375037337
 31
0.0
  0
LINE
  5
15D
  8
0
  6
CONTINUOUS
 62
     7
 10
-160.1343155244
 20
851.8375218535
 30
0.0
 11
-171.8258411029
 21
851.8375218535
 31
0.0
  0
LINE
  5
15E
  8
0
  6
CONTINUOUS
 62
     7
 10
-174.1957143286
 20
774.837499919
 30
0.0
 11
-174.1957143286
 21
729.8374832297
 31
0.0
  0
LINE
  5
15F
  8
0
  6
CONTINUOUS
 62
     7
 10
-176.3138771394
 20
585.8374894285
 30
0.0
 11
-176.3138771394
 21
774.837499919
 31
0.0
  0
LINE
  5
160
  8
0
  6
CONTINUOUS
 62
     7
 10
-175.6734401325
 20
729.8374832297
 30
0.0
 11
-175.6734401325
 21
774.837499919
 31
0.0
  0
LINE
  5
161
  8
0
  6
CONTINUOUS
 62
     7
 10
-176.3138771394
 20
774.837499919
 30
0.0
 11
-176.3138771394
 21
851.8375218535
 31
0.0
  0
LINE
  5
162
  8
0
  6
CONTINUOUS
 62
     7
 10
-176.3138771394
 20
851.8375218535
 30
0.0
 11
-171.8258411029
 21
851.8375218535
 31
0.0
  0
LINE
  5
163
  8
0
  6
CONTINUOUS
 62
     7
 10
-13.313874636
 20
570.8375037337
 30
0.0
 11
-13.313874636
 21
585.8374894285
 31
0.0
  0
LINE
  5
164
  8
0
  6
CONTINUOUS
 62
     7
 10
-17.8019106725
 20
570.8375037337
 30
0.0
 11
-13.313874636
 21
570.8375037337
 31
0.0
  0
LINE
  5
165
  8
0
  6
CONTINUOUS
 62
     7
 10
-13.954311643
 20
774.837499919
 30
0.0
 11
-13.954311643
 21
729.8374832297
 31
0.0
  0
LINE
  5
166
  8
0
  6
CONTINUOUS
 62
     7
 10
-13.313874636
 20
585.8374894285
 30
0.0
 11
-13.313874636
 21
774.837499919
 31
0.0
  0
LINE
  5
167
  8
0
  6
CONTINUOUS
 62
     7
 10
-15.4320374468
 20
729.8374832297
 30
0.0
 11
-15.4320374468
 21
774.837499919
 31
0.0
  0
LINE
  5
168
  8
0
  6
CONTINUOUS
 62
     7
 10
-13.313874636
 20
851.8375218535
 30
0.0
 11
-13.313874636
 21
774.837499919
 31
0.0
  0
LINE
  5
169
  8
0
  6
CONTINUOUS
 62
     7
 10
-17.8019106725
 20
851.8375218535
 30
0.0
 11
-13.313874636
 21
851.8375218535
 31
0.0
  0
LINE
  5
16A
  8
0
  6
CONTINUOUS
 62
     7
 10
-176.3138771394
 20
570.8375037337
 30
0.0
 11
-176.3138771394
 21
585.8374894285
 31
0.0
  0
LINE
  5
16B
  8
0
  6
CONTINUOUS
 62
     7
 10
-176.3138771394
 20
570.8375037337
 30
0.0
 11
-171.8258411029
 21
570.8375037337
 31
0.0
  0
LINE
  5
16C
  8
0
  6
CONTINUOUS
 62
     7
 10
-131.9410950282
 20
263.3374915147
 30
0.0
 11
-160.8138755301
 21
257.7251926685
 31
0.0
  0
LINE
  5
16D
  8
0
  6
CONTINUOUS
 62
     7
 10
-57.6866567472
 20
263.3374915147
 30
0.0
 11
-28.8138762453
 21
257.7251926685
 31
0.0
  0
LINE
  5
16E
  8
0
  6
CONTINUOUS
 62
     7
 10
-131.9410950282
 20
263.3374915147
 30
0.0
 11
-57.6866567472
 21
263.3374915147
 31
0.0
  0
CIRCLE
  5
16F
  8
0
  6
CONTINUOUS
 62
     7
 10
-43.8138758877
 20
362.8374922896
 30
0.0
 40
8.0
  0
CIRCLE
  5
170
  8
0
  6
CONTINUOUS
 62
     7
 10
-145.8138758877
 20
362.8374922896
 30
0.0
 40
8.0
  0
LINE
  5
171
  8
0
  6
CONTINUOUS
 62
     7
 10
-18.3138773182
 20
871.83750278
 30
0.0
 11
-18.3138773182
 21
862.3374760771
 31
0.0
  0
LINE
  5
172
  8
0
  6
CONTINUOUS
 62
     8
 10
-89.5638759585
 20
729.8374832297
 30
0.0
 11
-87.2955858113
 21
729.8374832297
 31
0.0
  0
LINE
  5
173
  8
0
  6
CONTINUOUS
 62
     8
 10
-102.3321659641
 20
729.8374832297
 30
0.0
 11
-100.0639517197
 21
729.8374832297
 31
0.0
  0
LINE
  5
174
  8
0
  6
CONTINUOUS
 62
     8
 10
-118.4476707468
 20
471.916025939
 30
0.0
 11
-118.3731984684
 21
452.8374881172
 31
0.0
  0
LINE
  5
175
  8
0
  6
CONTINUOUS
 62
     8
 10
-118.4476707468
 20
471.916025939
 30
0.0
 11
-71.1800810287
 21
471.916025939
 31
0.0
  0
LINE
  5
176
  8
0
  6
CONTINUOUS
 62
     8
 10
-71.1800810287
 20
471.916025939
 30
0.0
 11
-71.254553307
 21
452.8374881172
 31
0.0
  0
LINE
  5
177
  8
0
  6
CONTINUOUS
 62
     8
 10
-158.4534868935
 20
570.8375037337
 30
0.0
 11
-158.4534868935
 21
585.8374894285
 31
0.0
  0
LINE
  5
178
  8
0
  6
CONTINUOUS
 62
     8
 10
-158.4534868935
 20
585.8374894285
 30
0.0
 11
-102.3321017029
 21
585.8374894285
 31
0.0
  0
LINE
  5
179
  8
0
  6
CONTINUOUS
 62
     8
 10
-31.1742648819
 20
585.8374894285
 30
0.0
 11
-31.1742648819
 21
570.8375037337
 31
0.0
  0
LINE
  5
17A
  8
0
  6
CONTINUOUS
 62
     8
 10
-87.2956500726
 20
585.8374894285
 30
0.0
 11
-31.1742648819
 21
585.8374894285
 31
0.0
  0
LINE
  5
17B
  8
0
  6
CONTINUOUS
 62
     8
 10
-128.2931529322
 20
434.8374963427
 30
0.0
 11
-128.3496581355
 21
422.8374943757
 31
0.0
  0
LINE
  5
17C
  8
0
  6
CONTINUOUS
 62
     8
 10
-61.3345988432
 20
434.8374963427
 30
0.0
 11
-61.2780936399
 21
422.8374943757
 31
0.0
  0
LINE
  5
17D
  8
0
  6
CONTINUOUS
 62
     8
 10
-31.1742648819
 20
851.8375218535
 30
0.0
 11
-31.1742648819
 21
774.837499919
 31
0.0
  0
LINE
  5
17E
  8
0
  6
CONTINUOUS
 62
     8
 10
-87.2955127025
 20
774.837499919
 30
0.0
 11
-31.1742648819
 21
774.837499919
 31
0.0
  0
LINE
  5
17F
  8
0
  6
CONTINUOUS
 62
     8
 10
-158.4534868935
 20
774.837499919
 30
0.0
 11
-102.3322390729
 21
774.837499919
 31
0.0
  0
LINE
  5
180
  8
0
  6
CONTINUOUS
 62
     8
 10
-158.4534868935
 20
774.837499919
 30
0.0
 11
-158.4534868935
 21
851.8375218535
 31
0.0
  0
LINE
  5
181
  8
0
  6
CONTINUOUS
 62
     8
 10
-128.2151230016
 20
415.3374940777
 30
0.0
 11
-128.4014582971
 21
422.8374943757
 31
0.0
  0
LINE
  5
182
  8
0
  6
CONTINUOUS
 62
     8
 10
-61.4126287738
 20
415.3374940777
 30
0.0
 11
-61.2262934783
 21
422.8374943757
 31
0.0
  0
LINE
  5
183
  8
0
  6
CONTINUOUS
 62
     8
 10
-158.4534868935
 20
585.8374894285
 30
0.0
 11
-158.4534868935
 21
774.837499919
 31
0.0
  0
LINE
  5
184
  8
0
  6
CONTINUOUS
 62
     8
 10
-31.1742648819
 20
774.837499919
 30
0.0
 11
-31.1742648819
 21
585.8374894285
 31
0.0
  0
LINE
  5
185
  8
0
  6
CONTINUOUS
 62
     8
 10
-127.9369071463
 20
414.9157837653
 30
0.0
 11
-128.2151230016
 21
415.3374940777
 31
0.0
  0
LINE
  5
186
  8
0
  6
CONTINUOUS
 62
     8
 10
-61.6908446291
 20
414.9157837653
 30
0.0
 11
-61.4126287738
 21
415.3374940777
 31
0.0
  0
LINE
  5
187
  8
0
  6
CONTINUOUS
 62
     8
 10
-137.9223168233
 20
452.8374881172
 30
0.0
 11
-138.6883333662
 21
422.8374943757
 31
0.0
  0
LINE
  5
188
  8
0
  6
CONTINUOUS
 62
     8
 10
-51.7054349521
 20
452.8374881172
 30
0.0
 11
-50.9394184092
 21
422.8374943757
 31
0.0
  0
LINE
  5
189
  8
0
  6
CONTINUOUS
 62
     8
 10
-51.8662855366
 20
415.3374940777
 30
0.0
 11
-50.8376285771
 21
422.8374943757
 31
0.0
  0
LINE
  5
18A
  8
0
  6
CONTINUOUS
 62
     8
 10
-137.7614662388
 20
415.3374940777
 30
0.0
 11
-138.7901231983
 21
422.8374943757
 31
0.0
  0
LINE
  5
18B
  8
0
  6
CONTINUOUS
 62
     8
 10
-52.578039501
 20
415.1420727992
 30
0.0
 11
-51.8662855366
 21
415.3374940777
 31
0.0
  0
LINE
  5
18C
  8
0
  6
CONTINUOUS
 62
     8
 10
-137.0497122744
 20
415.1420727992
 30
0.0
 11
-137.7614662388
 21
415.3374940777
 31
0.0
  0
LINE
  5
18D
  8
0
  6
CONTINUOUS
 62
     8
 10
-157.3138758877
 20
533.8374883557
 30
0.0
 11
-32.3138758877
 21
533.8374883557
 31
0.0
  0
POLYLINE
  5
18E
  8
0
  6
CONTINUOUS
 62
     8
 66
     1
 10
0.0
 20
0.0
 30
0.0
  0
VERTEX
  5
4ED
  8
0
  6
CONTINUOUS
 62
     8
 10
-82.2947351599
 20
522.8374958659
 30
0.0
  0
VERTEX
  5
4EE
  8
0
  6
CONTINUOUS
 62
     8
 10
-82.4998617509
 20
522.8186309958
 30
0.0
  0
VERTEX
  5
4EF
  8
0
  6
CONTINUOUS
 62
     8
 10
-82.7024085784
 20
522.7622748041
 30
0.0
  0
VERTEX
  5
4F0
  8
0
  6
CONTINUOUS
 62
     8
 10
-82.8998294065
 20
522.6691425467
 30
0.0
  0
VERTEX
  5
4F1
  8
0
  6
CONTINUOUS
 62
     8
 10
-83.0896403977
 20
522.540396514
 30
0.0
  0
VERTEX
  5
4F2
  8
0
  6
CONTINUOUS
 62
     8
 10
-83.2694545725
 20
522.3776609326
 30
0.0
  0
VERTEX
  5
4F3
  8
0
  6
CONTINUOUS
 62
     8
 10
-83.4370116109
 20
522.1829921627
 30
0.0
  0
VERTEX
  5
4F4
  8
0
  6
CONTINUOUS
 62
     8
 10
-83.5902039299
 20
521.9588190937
 30
0.0
  0
VERTEX
  5
4F5
  8
0
  6
CONTINUOUS
 62
     8
 10
-83.727104623
 20
521.707958045
 30
0.0
  0
VERTEX
  5
4F6
  8
0
  6
CONTINUOUS
 62
     8
 10
-83.8459926063
 20
521.433582964
 30
0.0
  0
VERTEX
  5
4F7
  8
0
  6
CONTINUOUS
 62
     8
 10
-83.9453721756
 20
521.1391509199
 30
0.0
  0
VERTEX
  5
4F8
  8
0
  6
CONTINUOUS
 62
     8
 10
-84.0239944273
 20
520.8283275986
 30
0.0
  0
VERTEX
  5
4F9
  8
0
  6
CONTINUOUS
 62
     8
 10
-84.080870297
 20
520.5050618077
 30
0.0
  0
VERTEX
  5
4FA
  8
0
  6
CONTINUOUS
 62
     8
 10
-84.1152845287
 20
520.1733917618
 30
0.0
  0
VERTEX
  5
4FB
  8
0
  6
CONTINUOUS
 62
     8
 10
-84.1268040577
 20
519.8374897862
 30
0.0
  0
SEQEND
  5
B73
  8
0
  6
CONTINUOUS
 62
     8
  0
POLYLINE
  5
18F
  8
0
  6
CONTINUOUS
 62
     8
 66
     1
 10
0.0
 20
0.0
 30
0.0
  0
VERTEX
  5
4FC
  8
0
  6
CONTINUOUS
 62
     8
 10
-84.1268040577
 20
519.8374897862
 30
0.0
  0
VERTEX
  5
4FD
  8
0
  6
CONTINUOUS
 62
     8
 10
-84.218853187
 20
519.8380858326
 30
0.0
  0
VERTEX
  5
4FE
  8
0
  6
CONTINUOUS
 62
     8
 10
-85.0908449257
 20
519.8931456232
 30
0.0
  0
VERTEX
  5
4FF
  8
0
  6
CONTINUOUS
 62
     8
 10
-85.9969016501
 20
520.0263023997
 30
0.0
  0
VERTEX
  5
500
  8
0
  6
CONTINUOUS
 62
     8
 10
-86.9282558897
 20
520.2219844485
 30
0.0
  0
VERTEX
  5
501
  8
0
  6
CONTINUOUS
 62
     8
 10
-87.8761434333
 20
520.4646200562
 30
0.0
  0
VERTEX
  5
502
  8
0
  6
CONTINUOUS
 62
     8
 10
-88.9600278215
 20
520.7796157027
 30
0.0
  0
VERTEX
  5
503
  8
0
  6
CONTINUOUS
 62
     8
 10
-90.0634453038
 20
521.1319238568
 30
0.0
  0
VERTEX
  5
504
  8
0
  6
CONTINUOUS
 62
     8
 10
-91.1806626582
 20
521.5128869438
 30
0.0
  0
VERTEX
  5
505
  8
0
  6
CONTINUOUS
 62
     8
 10
-92.3059466632
 20
521.9138473893
 30
0.0
  0
VERTEX
  5
506
  8
0
  6
CONTINUOUS
 62
     8
 10
-93.4335642133
 20
522.3261923218
 30
0.0
  0
VERTEX
  5
507
  8
0
  6
CONTINUOUS
 62
     8
 10
-94.7826899583
 20
522.8259027624
 30
0.0
  0
VERTEX
  5
508
  8
0
  6
CONTINUOUS
 62
     8
 10
-94.8138758877
 20
522.8374958659
 30
0.0
  0
SEQEND
  5
B72
  8
0
  6
CONTINUOUS
 62
     8
  0
POLYLINE
  5
190
  8
0
  6
CONTINUOUS
 62
     8
 66
     1
 10
0.0
 20
0.0
 30
0.0
  0
VERTEX
  5
509
  8
0
  6
CONTINUOUS
 62
     8
 10
-105.5009477177
 20
519.8374897862
 30
0.0
  0
VERTEX
  5
50A
  8
0
  6
CONTINUOUS
 62
     8
 10
-105.5124672467
 20
520.1733917618
 30
0.0
  0
VERTEX
  5
50B
  8
0
  6
CONTINUOUS
 62
     8
 10
-105.5468814784
 20
520.5050618077
 30
0.0
  0
VERTEX
  5
50C
  8
0
  6
CONTINUOUS
 62
     8
 10
-105.6037573481
 20
520.8283275986
 30
0.0
  0
VERTEX
  5
50D
  8
0
  6
CONTINUOUS
 62
     8
 10
-105.6823795998
 20
521.1391509199
 30
0.0
  0
VERTEX
  5
50E
  8
0
  6
CONTINUOUS
 62
     8
 10
-105.7817591691
 20
521.433582964
 30
0.0
  0
VERTEX
  5
50F
  8
0
  6
CONTINUOUS
 62
     8
 10
-105.9006471524
 20
521.707958045
 30
0.0
  0
VERTEX
  5
510
  8
0
  6
CONTINUOUS
 62
     8
 10
-106.0375478456
 20
521.9588190937
 30
0.0
  0
VERTEX
  5
511
  8
0
  6
CONTINUOUS
 62
     8
 10
-106.1907401645
 20
522.1829921627
 30
0.0
  0
VERTEX
  5
512
  8
0
  6
CONTINUOUS
 62
     8
 10
-106.3582972029
 20
522.3776609326
 30
0.0
  0
VERTEX
  5
513
  8
0
  6
CONTINUOUS
 62
     8
 10
-106.5381113777
 20
522.540396514
 30
0.0
  0
VERTEX
  5
514
  8
0
  6
CONTINUOUS
 62
     8
 10
-106.727922369
 20
522.6691425467
 30
0.0
  0
VERTEX
  5
515
  8
0
  6
CONTINUOUS
 62
     8
 10
-106.925343197
 20
522.7622748041
 30
0.0
  0
VERTEX
  5
516
  8
0
  6
CONTINUOUS
 62
     8
 10
-107.1278900245
 20
522.8186309958
 30
0.0
  0
VERTEX
  5
517
  8
0
  6
CONTINUOUS
 62
     8
 10
-107.3330166155
 20
522.8374958659
 30
0.0
  0
SEQEND
  5
B71
  8
0
  6
CONTINUOUS
 62
     8
  0
POLYLINE
  5
191
  8
0
  6
CONTINUOUS
 62
     8
 66
     1
 10
0.0
 20
0.0
 30
0.0
  0
VERTEX
  5
518
  8
0
  6
CONTINUOUS
 62
     8
 10
-94.8138758877
 20
522.8374958659
 30
0.0
  0
VERTEX
  5
519
  8
0
  6
CONTINUOUS
 62
     8
 10
-94.8450618171
 20
522.8259027624
 30
0.0
  0
VERTEX
  5
51A
  8
0
  6
CONTINUOUS
 62
     8
 10
-96.1941875621
 20
522.3261923218
 30
0.0
  0
VERTEX
  5
51B
  8
0
  6
CONTINUOUS
 62
     8
 10
-97.3218051122
 20
521.9138473893
 30
0.0
  0
VERTEX
  5
51C
  8
0
  6
CONTINUOUS
 62
     8
 10
-98.4470891172
 20
521.5128869438
 30
0.0
  0
VERTEX
  5
51D
  8
0
  6
CONTINUOUS
 62
     8
 10
-99.5643064717
 20
521.1319238568
 30
0.0
  0
VERTEX
  5
51E
  8
0
  6
CONTINUOUS
 62
     8
 10
-100.6677239539
 20
520.7796157027
 30
0.0
  0
VERTEX
  5
51F
  8
0
  6
CONTINUOUS
 62
     8
 10
-101.7516083421
 20
520.4646200562
 30
0.0
  0
VERTEX
  5
520
  8
0
  6
CONTINUOUS
 62
     8
 10
-102.6994958857
 20
520.2219844485
 30
0.0
  0
VERTEX
  5
521
  8
0
  6
CONTINUOUS
 62
     8
 10
-103.6308501253
 20
520.0263023997
 30
0.0
  0
VERTEX
  5
522
  8
0
  6
CONTINUOUS
 62
     8
 10
-104.5369068498
 20
519.8931456232
 30
0.0
  0
VERTEX
  5
523
  8
0
  6
CONTINUOUS
 62
     8
 10
-105.4088985884
 20
519.8380858326
 30
0.0
  0
VERTEX
  5
524
  8
0
  6
CONTINUOUS
 62
     8
 10
-105.5009477177
 20
519.8374897862
 30
0.0
  0
SEQEND
  5
B70
  8
0
  6
CONTINUOUS
 62
     8
  0
LINE
  5
192
  8
0
  6
CONTINUOUS
 62
     8
 10
-111.7175780574
 20
519.8374897862
 30
0.0
 11
-111.7175780574
 21
504.8374891901
 31
0.0
  0
LINE
  5
193
  8
0
  6
CONTINUOUS
 62
     8
 10
-105.5009477177
 20
519.8374897862
 30
0.0
 11
-111.7175780574
 21
519.8374897862
 31
0.0
  0
LINE
  5
194
  8
0
  6
CONTINUOUS
 62
     8
 10
-77.910173718
 20
519.8374897862
 30
0.0
 11
-84.1268040577
 21
519.8374897862
 31
0.0
  0
LINE
  5
195
  8
0
  6
CONTINUOUS
 62
     8
 10
-77.910173718
 20
519.8374897862
 30
0.0
 11
-77.910173718
 21
504.8374891901
 31
0.0
  0
ARC
  5
196
  8
0
  6
CONTINUOUS
 62
     8
 10
-74.9603811208
 20
519.8877339792
 30
0.0
 40
2.95022047406517
 50
91.0102458233
 51
180.9758319447
  0
ARC
  5
197
  8
0
  6
CONTINUOUS
 62
     8
 10
-114.6673706546
 20
519.8877339792
 30
0.0
 40
2.95022047406517
 50
359.0241680553
 51
88.9897541767
  0
POLYLINE
  5
198
  8
0
  6
CONTINUOUS
 62
     8
 66
     1
 10
0.0
 20
0.0
 30
0.0
  0
VERTEX
  5
525
  8
0
  6
CONTINUOUS
 62
     8
 10
-82.0554960856
 20
482.6280832911
 30
0.0
  0
VERTEX
  5
526
  8
0
  6
CONTINUOUS
 62
     8
 10
-82.4388759548
 20
482.5828433657
 30
0.0
  0
VERTEX
  5
527
  8
0
  6
CONTINUOUS
 62
     8
 10
-82.8557322139
 20
482.4553788328
 30
0.0
  0
VERTEX
  5
528
  8
0
  6
CONTINUOUS
 62
     8
 10
-83.2981095055
 20
482.2579831505
 30
0.0
  0
VERTEX
  5
529
  8
0
  6
CONTINUOUS
 62
     8
 10
-83.8813232595
 20
481.929487052
 30
0.0
  0
VERTEX
  5
52A
  8
0
  6
CONTINUOUS
 62
     8
 10
-84.4938615674
 20
481.5252781534
 30
0.0
  0
VERTEX
  5
52B
  8
0
  6
CONTINUOUS
 62
     8
 10
-85.1285411382
 20
481.0606152439
 30
0.0
  0
VERTEX
  5
52C
  8
0
  6
CONTINUOUS
 62
     8
 10
-85.7781777495
 20
480.5507273102
 30
0.0
  0
VERTEX
  5
52D
  8
0
  6
CONTINUOUS
 62
     8
 10
-86.6747377777
 20
479.807651105
 30
0.0
  0
VERTEX
  5
52E
  8
0
  6
CONTINUOUS
 62
     8
 10
-87.5949114898
 20
479.011169138
 30
0.0
  0
VERTEX
  5
52F
  8
0
  6
CONTINUOUS
 62
     8
 10
-88.5353177191
 20
478.174841466
 30
0.0
  0
VERTEX
  5
530
  8
0
  6
CONTINUOUS
 62
     8
 10
-89.4925762305
 20
477.312257948
 30
0.0
  0
VERTEX
  5
531
  8
0
  6
CONTINUOUS
 62
     8
 10
-90.4633053915
 20
476.4370233441
 30
0.0
  0
VERTEX
  5
532
  8
0
  6
CONTINUOUS
 62
     8
 10
-91.0707461053
 20
475.8832067871
 30
0.0
  0
VERTEX
  5
533
  8
0
  6
CONTINUOUS
 62
     8
 10
-91.6868485847
 20
475.3256947422
 30
0.0
  0
VERTEX
  5
534
  8
0
  6
CONTINUOUS
 62
     8
 10
-92.3225966153
 20
474.7851998234
 30
0.0
  0
VERTEX
  5
535
  8
0
  6
CONTINUOUS
 62
     8
 10
-92.9889734007
 20
474.2823899412
 30
0.0
  0
VERTEX
  5
536
  8
0
  6
CONTINUOUS
 62
     8
 10
-93.69696261
 20
473.8379628086
 30
0.0
  0
VERTEX
  5
537
  8
0
  6
CONTINUOUS
 62
     8
 10
-94.0446845243
 20
473.6664504433
 30
0.0
  0
VERTEX
  5
538
  8
0
  6
CONTINUOUS
 62
     8
 10
-94.412129406
 20
473.544305625
 30
0.0
  0
VERTEX
  5
539
  8
0
  6
CONTINUOUS
 62
     8
 10
-94.6812878729
 20
473.5013306761
 30
0.0
  0
VERTEX
  5
53A
  8
0
  6
CONTINUOUS
 62
     8
 10
-94.8138758877
 20
473.4959960604
 30
0.0
  0
VERTEX
  5
53B
  8
0
  6
CONTINUOUS
 62
     8
 10
-95.1483705767
 20
473.5302389288
 30
0.0
  0
VERTEX
  5
53C
  8
0
  6
CONTINUOUS
 62
     8
 10
-95.4722185025
 20
473.6226410294
 30
0.0
  0
VERTEX
  5
53D
  8
0
  6
CONTINUOUS
 62
     8
 10
-95.6797147274
 20
473.7093806887
 30
0.0
  0
VERTEX
  5
53E
  8
0
  6
CONTINUOUS
 62
     8
 10
-96.2428970134
 20
474.0215600157
 30
0.0
  0
VERTEX
  5
53F
  8
0
  6
CONTINUOUS
 62
     8
 10
-96.7699571384
 20
474.3940443421
 30
0.0
  0
VERTEX
  5
540
  8
0
  6
CONTINUOUS
 62
     8
 10
-97.2733900754
 20
474.7945726538
 30
0.0
  0
VERTEX
  5
541
  8
0
  6
CONTINUOUS
 62
     8
 10
-98.3618002256
 20
475.7106513405
 30
0.0
  0
VERTEX
  5
542
  8
0
  6
CONTINUOUS
 62
     8
 10
-99.4185991922
 20
476.6451329613
 30
0.0
  0
VERTEX
  5
543
  8
0
  6
CONTINUOUS
 62
     8
 10
-100.4477772267
 20
477.5787354136
 30
0.0
  0
VERTEX
  5
544
  8
0
  6
CONTINUOUS
 62
     8
 10
-101.4533257449
 20
478.4921914959
 30
0.0
  0
VERTEX
  5
545
  8
0
  6
CONTINUOUS
 62
     8
 10
-102.4392359296
 20
479.3662191058
 30
0.0
  0
VERTEX
  5
546
  8
0
  6
CONTINUOUS
 62
     8
 10
-103.1018859112
 20
479.93411726
 30
0.0
  0
VERTEX
  5
547
  8
0
  6
CONTINUOUS
 62
     8
 10
-103.7556305865
 20
480.4763556147
 30
0.0
  0
VERTEX
  5
548
  8
0
  6
CONTINUOUS
 62
     8
 10
-104.3961998412
 20
480.9830099964
 30
0.0
  0
VERTEX
  5
549
  8
0
  6
CONTINUOUS
 62
     8
 10
-105.0193226302
 20
481.4442158366
 30
0.0
  0
VERTEX
  5
54A
  8
0
  6
CONTINUOUS
 62
     8
 10
-105.620727908
 20
481.8500936652
 30
0.0
  0
VERTEX
  5
54B
  8
0
  6
CONTINUOUS
 62
     8
 10
-106.1493335629
 20
482.1633905793
 30
0.0
  0
VERTEX
  5
54C
  8
0
  6
CONTINUOUS
 62
     8
 10
-106.653791886
 20
482.4081868553
 30
0.0
  0
VERTEX
  5
54D
  8
0
  6
CONTINUOUS
 62
     8
 10
-107.1250923315
 20
482.5682551289
 30
0.0
  0
VERTEX
  5
54E
  8
0
  6
CONTINUOUS
 62
     8
 10
-107.4822098354
 20
482.6253414774
 30
0.0
  0
VERTEX
  5
54F
  8
0
  6
CONTINUOUS
 62
     8
 10
-107.5722556898
 20
482.6280832911
 30
0.0
  0
SEQEND
  5
B6F
  8
0
  6
CONTINUOUS
 62
     8
  0
LINE
  5
199
  8
0
  6
CONTINUOUS
 62
     8
 10
-108.0435673112
 20
482.6280832911
 30
0.0
 11
-107.5722556898
 21
482.6280832911
 31
0.0
  0
LINE
  5
19A
  8
0
  6
CONTINUOUS
 62
     8
 10
-108.0435673112
 20
482.6280832911
 30
0.0
 11
-107.7481890434
 21
494.8374987269
 31
0.0
  0
LINE
  5
19B
  8
0
  6
CONTINUOUS
 62
     8
 10
-81.5841844642
 20
482.6280832911
 30
0.0
 11
-81.879562732
 21
494.8374987269
 31
0.0
  0
LINE
  5
19C
  8
0
  6
CONTINUOUS
 62
     8
 10
-81.5841844642
 20
482.6280832911
 30
0.0
 11
-82.0554960856
 21
482.6280832911
 31
0.0
  0
POLYLINE
  5
19D
  8
0
  6
CONTINUOUS
 62
     8
 66
     1
 10
0.0
 20
0.0
 30
0.0
  0
VERTEX
  5
550
  8
0
  6
CONTINUOUS
 62
     8
 10
-114.6975420752
 20
474.837487998
 30
0.0
  0
VERTEX
  5
551
  8
0
  6
CONTINUOUS
 62
     8
 10
-114.5291850308
 20
474.83674294
 30
0.0
  0
VERTEX
  5
552
  8
0
  6
CONTINUOUS
 62
     8
 10
-113.7343105266
 20
474.8156726981
 30
0.0
  0
VERTEX
  5
553
  8
0
  6
CONTINUOUS
 62
     8
 10
-112.9253115842
 20
474.7702986622
 30
0.0
  0
VERTEX
  5
554
  8
0
  6
CONTINUOUS
 62
     8
 10
-112.0995264837
 20
474.7055829192
 30
0.0
  0
VERTEX
  5
555
  8
0
  6
CONTINUOUS
 62
     8
 10
-111.264241893
 20
474.6253103638
 30
0.0
  0
VERTEX
  5
556
  8
0
  6
CONTINUOUS
 62
     8
 10
-110.0124204868
 20
474.4839132452
 30
0.0
  0
VERTEX
  5
557
  8
0
  6
CONTINUOUS
 62
     8
 10
-108.746482093
 20
474.3211329603
 30
0.0
  0
VERTEX
  5
558
  8
0
  6
CONTINUOUS
 62
     8
 10
-107.4619088659
 20
474.1410077238
 30
0.0
  0
VERTEX
  5
559
  8
0
  6
CONTINUOUS
 62
     8
 10
-106.1676480213
 20
473.9478886748
 30
0.0
  0
VERTEX
  5
55A
  8
0
  6
CONTINUOUS
 62
     8
 10
-104.2540595272
 20
473.6472279454
 30
0.0
  0
VERTEX
  5
55B
  8
0
  6
CONTINUOUS
 62
     8
 10
-102.326576166
 20
473.333171072
 30
0.0
  0
VERTEX
  5
55C
  8
0
  6
CONTINUOUS
 62
     8
 10
-100.3751196304
 20
473.0114102984
 30
0.0
  0
VERTEX
  5
55D
  8
0
  6
CONTINUOUS
 62
     8
 10
-98.4131333289
 20
472.7010787154
 30
0.0
  0
VERTEX
  5
55E
  8
0
  6
CONTINUOUS
 62
     8
 10
-97.2493703348
 20
472.5355119133
 30
0.0
  0
VERTEX
  5
55F
  8
0
  6
CONTINUOUS
 62
     8
 10
-96.0783072851
 20
472.4051267529
 30
0.0
  0
VERTEX
  5
560
  8
0
  6
CONTINUOUS
 62
     8
 10
-94.8138758877
 20
472.3469228173
 30
0.0
  0
VERTEX
  5
561
  8
0
  6
CONTINUOUS
 62
     8
 10
-94.6203144313
 20
472.3483831311
 30
0.0
  0
VERTEX
  5
562
  8
0
  6
CONTINUOUS
 62
     8
 10
-93.901111487
 20
472.3781854534
 30
0.0
  0
VERTEX
  5
563
  8
0
  6
CONTINUOUS
 62
     8
 10
-93.182435875
 20
472.4401891852
 30
0.0
  0
VERTEX
  5
564
  8
0
  6
CONTINUOUS
 62
     8
 10
-91.98636565
 20
472.5877851868
 30
0.0
  0
VERTEX
  5
565
  8
0
  6
CONTINUOUS
 62
     8
 10
-90.7958001235
 20
472.7652878189
 30
0.0
  0
VERTEX
  5
566
  8
0
  6
CONTINUOUS
 62
     8
 10
-88.4191012347
 20
473.149022522
 30
0.0
  0
VERTEX
  5
567
  8
0
  6
CONTINUOUS
 62
     8
 10
-86.6138404572
 20
473.4458983565
 30
0.0
  0
VERTEX
  5
568
  8
0
  6
CONTINUOUS
 62
     8
 10
-84.8190952429
 20
473.7358600521
 30
0.0
  0
VERTEX
  5
569
  8
0
  6
CONTINUOUS
 62
     8
 10
-83.0257768148
 20
474.0138561154
 30
0.0
  0
VERTEX
  5
56A
  8
0
  6
CONTINUOUS
 62
     8
 10
-81.2489195132
 20
474.2709458494
 30
0.0
  0
VERTEX
  5
56B
  8
0
  6
CONTINUOUS
 62
     8
 10
-80.2141726354
 20
474.4090200091
 30
0.0
  0
VERTEX
  5
56C
  8
0
  6
CONTINUOUS
 62
     8
 10
-79.1878830978
 20
474.5346218968
 30
0.0
  0
VERTEX
  5
56D
  8
0
  6
CONTINUOUS
 62
     8
 10
-78.1669933686
 20
474.6453971291
 30
0.0
  0
VERTEX
  5
56E
  8
0
  6
CONTINUOUS
 62
     8
 10
-77.1583654323
 20
474.7365624333
 30
0.0
  0
VERTEX
  5
56F
  8
0
  6
CONTINUOUS
 62
     8
 10
-76.0332327673
 20
474.8092651987
 30
0.0
  0
VERTEX
  5
570
  8
0
  6
CONTINUOUS
 62
     8
 10
-74.9302097002
 20
474.837487998
 30
0.0
  0
SEQEND
  5
B6E
  8
0
  6
CONTINUOUS
 62
     8
  0
ARC
  5
19E
  8
0
  6
CONTINUOUS
 62
     8
 10
-115.1236995704
 20
482.3809468141
 30
0.0
 40
7.555486822152678
 50
273.2334105875
 51
1.8744527813
  0
ARC
  5
19F
  8
0
  6
CONTINUOUS
 62
     8
 10
-74.504052205
 20
482.3809468141
 30
0.0
 40
7.555486822152678
 50
178.1255472187
 51
266.7665894125
  0
ARC
  5
1A0
  8
0
  6
CONTINUOUS
 62
     8
 10
-75.5413034498
 20
472.6066265692
 30
0.0
 40
4.415562278712164
 50
351.0019114227
 51
30.3464244737
  0
ARC
  5
1A1
  8
0
  6
CONTINUOUS
 62
     8
 10
-114.0864483256
 20
472.6066265692
 30
0.0
 40
4.415562278712164
 50
149.6535755263
 51
188.9980885773
  0
LINE
  5
1A2
  8
0
  6
CONTINUOUS
 62
     8
 10
-117.1630975196
 20
504.8374891901
 30
0.0
 11
-117.1630975196
 21
494.8374987269
 31
0.0
  0
LINE
  5
1A3
  8
0
  6
CONTINUOUS
 62
     8
 10
-72.4646542558
 20
494.8374987269
 30
0.0
 11
-72.4646542558
 21
504.8374891901
 31
0.0
  0
ARC
  5
1A4
  8
0
  6
CONTINUOUS
 62
     8
 10
-118.6188229975
 20
439.999718067
 30
0.0
 40
31.91676677352934
 50
89.692752443
 51
94.0317946919
  0
LINE
  5
1A5
  8
0
  6
CONTINUOUS
 62
     8
 10
-120.8056416699
 20
452.8374881172
 30
0.0
 11
-120.8628919312
 21
471.8374968195
 31
0.0
  0
ARC
  5
1A6
  8
0
  6
CONTINUOUS
 62
     8
 10
-71.0089287779
 20
439.999718067
 30
0.0
 40
31.91676677352934
 50
85.9682053081
 51
90.307247557
  0
LINE
  5
1A7
  8
0
  6
CONTINUOUS
 62
     8
 10
-68.8221101055
 20
452.8374881172
 30
0.0
 11
-68.7648598442
 21
471.8374968195
 31
0.0
  0
ARC
  5
1A8
  8
0
  6
CONTINUOUS
 62
     8
 10
-71.7478756362
 20
471.8544731573
 30
0.0
 40
2.983064097798569
 50
359.6739333364
 51
89.670738255
  0
ARC
  5
1A9
  8
0
  6
CONTINUOUS
 62
     8
 10
-117.8798761392
 20
471.8544731573
 30
0.0
 40
2.983064097798569
 50
90.329261745
 51
180.3260666636
  0
LINE
  5
1AA
  8
0
  6
CONTINUOUS
 62
     8
 10
-68.7648598442
 20
471.8374968195
 30
0.0
 11
-62.968459014
 21
471.8374968195
 31
0.0
  0
ARC
  5
1AB
  8
0
  6
CONTINUOUS
 62
     8
 10
-63.1771412964
 20
467.1524171486
 30
0.0
 40
4.689724919165498
 50
357.7509668196
 51
87.449623688
  0
LINE
  5
1AC
  8
0
  6
CONTINUOUS
 62
     8
 10
-58.491028879
 20
466.9683784867
 30
0.0
 11
-58.1742488185
 21
452.8374881172
 31
0.0
  0
LINE
  5
1AD
  8
0
  6
CONTINUOUS
 62
     8
 10
-131.1367228964
 20
466.9683784867
 30
0.0
 11
-131.4535029569
 21
452.8374881172
 31
0.0
  0
ARC
  5
1AE
  8
0
  6
CONTINUOUS
 62
     8
 10
-126.450610479
 20
467.1524171486
 30
0.0
 40
4.689724919165497
 50
92.550376312
 51
182.2490331804
  0
LINE
  5
1AF
  8
0
  6
CONTINUOUS
 62
     8
 10
-120.8628919312
 20
471.8374968195
 30
0.0
 11
-126.6592927614
 21
471.8374968195
 31
0.0
  0
ARC
  5
1B0
  8
0
  6
CONTINUOUS
 62
     8
 10
-73.9037661107
 20
482.5132163733
 30
0.0
 40
7.681277269748313
 50
179.1431587894
 51
267.8220380398
  0
ARC
  5
1B1
  8
0
  6
CONTINUOUS
 62
     8
 10
-115.7239856648
 20
482.5132163733
 30
0.0
 40
7.681277269748313
 50
272.1779619602
 51
0.8568412106
  0
POLYLINE
  5
1B2
  8
0
  6
CONTINUOUS
 62
     8
 66
     1
 10
0.0
 20
0.0
 30
0.0
  0
VERTEX
  5
571
  8
0
  6
CONTINUOUS
 62
     8
 10
-64.6069124678
 20
474.837487998
 30
0.0
  0
VERTEX
  5
572
  8
0
  6
CONTINUOUS
 62
     8
 10
-64.4234642723
 20
474.818623128
 30
0.0
  0
VERTEX
  5
573
  8
0
  6
CONTINUOUS
 62
     8
 10
-64.2423220316
 20
474.7622818375
 30
0.0
  0
VERTEX
  5
574
  8
0
  6
CONTINUOUS
 62
     8
 10
-64.0657656232
 20
474.66914958
 30
0.0
  0
VERTEX
  5
575
  8
0
  6
CONTINUOUS
 62
     8
 10
-63.8960153201
 20
474.5404035473
 30
0.0
  0
VERTEX
  5
576
  8
0
  6
CONTINUOUS
 62
     8
 10
-63.7352038512
 20
474.3776679659
 30
0.0
  0
VERTEX
  5
577
  8
0
  6
CONTINUOUS
 62
     8
 10
-63.5853540489
 20
474.1829842949
 30
0.0
  0
VERTEX
  5
578
  8
0
  6
CONTINUOUS
 62
     8
 10
-63.4483509103
 20
473.9588112259
 30
0.0
  0
VERTEX
  5
579
  8
0
  6
CONTINUOUS
 62
     8
 10
-63.3259192446
 20
473.7079650784
 30
0.0
  0
VERTEX
  5
57A
  8
0
  6
CONTINUOUS
 62
     8
 10
-63.2195957342
 20
473.4335899973
 30
0.0
  0
VERTEX
  5
57B
  8
0
  6
CONTINUOUS
 62
     8
 10
-63.1307177583
 20
473.1391430521
 30
0.0
  0
VERTEX
  5
57C
  8
0
  6
CONTINUOUS
 62
     8
 10
-63.0604029039
 20
472.8283346319
 30
0.0
  0
VERTEX
  5
57D
  8
0
  6
CONTINUOUS
 62
     8
 10
-63.0095377901
 20
472.5050539398
 30
0.0
  0
VERTEX
  5
57E
  8
0
  6
CONTINUOUS
 62
     8
 10
-62.978763167
 20
472.173383894
 30
0.0
  0
VERTEX
  5
57F
  8
0
  6
CONTINUOUS
 62
     8
 10
-62.968459014
 20
471.8374968195
 30
0.0
  0
SEQEND
  5
B6D
  8
0
  6
CONTINUOUS
 62
     8
  0
POLYLINE
  5
1B3
  8
0
  6
CONTINUOUS
 62
     8
 66
     1
 10
0.0
 20
0.0
 30
0.0
  0
VERTEX
  5
580
  8
0
  6
CONTINUOUS
 62
     8
 10
-125.0208393076
 20
474.837487998
 30
0.0
  0
VERTEX
  5
581
  8
0
  6
CONTINUOUS
 62
     8
 10
-125.2042875031
 20
474.818623128
 30
0.0
  0
VERTEX
  5
582
  8
0
  6
CONTINUOUS
 62
     8
 10
-125.3854297438
 20
474.7622818375
 30
0.0
  0
VERTEX
  5
583
  8
0
  6
CONTINUOUS
 62
     8
 10
-125.5619861522
 20
474.66914958
 30
0.0
  0
VERTEX
  5
584
  8
0
  6
CONTINUOUS
 62
     8
 10
-125.7317364553
 20
474.5404035473
 30
0.0
  0
VERTEX
  5
585
  8
0
  6
CONTINUOUS
 62
     8
 10
-125.8925479242
 20
474.3776679659
 30
0.0
  0
VERTEX
  5
586
  8
0
  6
CONTINUOUS
 62
     8
 10
-126.0423977265
 20
474.1829842949
 30
0.0
  0
VERTEX
  5
587
  8
0
  6
CONTINUOUS
 62
     8
 10
-126.1794008651
 20
473.9588112259
 30
0.0
  0
VERTEX
  5
588
  8
0
  6
CONTINUOUS
 62
     8
 10
-126.3018325308
 20
473.7079650784
 30
0.0
  0
VERTEX
  5
589
  8
0
  6
CONTINUOUS
 62
     8
 10
-126.4081560412
 20
473.4335899973
 30
0.0
  0
VERTEX
  5
58A
  8
0
  6
CONTINUOUS
 62
     8
 10
-126.4970340172
 20
473.1391430521
 30
0.0
  0
VERTEX
  5
58B
  8
0
  6
CONTINUOUS
 62
     8
 10
-126.5673488715
 20
472.8283346319
 30
0.0
  0
VERTEX
  5
58C
  8
0
  6
CONTINUOUS
 62
     8
 10
-126.6182139853
 20
472.5050539398
 30
0.0
  0
VERTEX
  5
58D
  8
0
  6
CONTINUOUS
 62
     8
 10
-126.6489886084
 20
472.173383894
 30
0.0
  0
VERTEX
  5
58E
  8
0
  6
CONTINUOUS
 62
     8
 10
-126.6592927614
 20
471.8374968195
 30
0.0
  0
SEQEND
  5
B6C
  8
0
  6
CONTINUOUS
 62
     8
  0
ARC
  5
1B4
  8
0
  6
CONTINUOUS
 62
     8
 10
-64.7656131622
 20
482.513214585
 30
0.0
 40
7.681275447861867
 50
179.1431452454
 51
267.8220443718
  0
LINE
  5
1B5
  8
0
  6
CONTINUOUS
 62
     8
 10
-72.446029667
 20
482.6280832911
 30
0.0
 11
-81.5841844642
 21
482.6280832911
 31
0.0
  0
ARC
  5
1B6
  8
0
  6
CONTINUOUS
 62
     8
 10
-124.8621386132
 20
482.513214585
 30
0.0
 40
7.681275447861867
 50
272.1779556282
 51
0.8568547546
  0
LINE
  5
1B7
  8
0
  6
CONTINUOUS
 62
     8
 10
-117.1817221084
 20
482.6280832911
 30
0.0
 11
-108.0435673112
 21
482.6280832911
 31
0.0
  0
LINE
  5
1B8
  8
0
  6
CONTINUOUS
 62
     8
 10
-76.1865247378
 20
316.4070523033
 30
0.0
 11
-76.6792167315
 21
314.2876759792
 31
0.0
  0
ARC
  5
1B9
  8
0
  6
CONTINUOUS
 62
     8
 10
-94.8138758877
 20
158.6267268405
 30
0.0
 40
156.7137420568475
 50
83.3549386109
 51
96.6450613891
  0
LINE
  5
1BA
  8
0
  6
CONTINUOUS
 62
     8
 10
-113.4412270376
 20
316.4070523033
 30
0.0
 11
-112.9485350439
 21
314.2876759792
 31
0.0
  0
LINE
  5
1BB
  8
0
  6
CONTINUOUS
 62
     8
 10
-113.4412270376
 20
411.8686378622
 30
0.0
 11
-113.4412270376
 21
316.4070523033
 31
0.0
  0
LINE
  5
1BC
  8
0
  6
CONTINUOUS
 62
     8
 10
-76.1865247378
 20
411.8686378622
 30
0.0
 11
-76.1865247378
 21
316.4070523033
 31
0.0
  0
POLYLINE
  5
1BD
  8
0
  6
CONTINUOUS
 62
     8
 66
     1
 10
0.0
 20
0.0
 30
0.0
  0
VERTEX
  5
58F
  8
0
  6
CONTINUOUS
 62
     8
 10
-77.5618329981
 20
308.9645746784
 30
0.0
  0
VERTEX
  5
590
  8
0
  6
CONTINUOUS
 62
     8
 10
-77.6721146295
 20
308.4041387463
 30
0.0
  0
VERTEX
  5
591
  8
0
  6
CONTINUOUS
 62
     8
 10
-77.781481702
 20
307.8686558636
 30
0.0
  0
SEQEND
  5
B6B
  8
0
  6
CONTINUOUS
 62
     8
  0
ARC
  5
1BE
  8
0
  6
CONTINUOUS
 62
     8
 10
-94.8138758877
 20
169.4309271767
 30
0.0
 40
139.4815657199318
 50
82.9859833927
 51
97.0140166073
  0
POLYLINE
  5
1BF
  8
0
  6
CONTINUOUS
 62
     8
 66
     1
 10
0.0
 20
0.0
 30
0.0
  0
VERTEX
  5
592
  8
0
  6
CONTINUOUS
 62
     8
 10
-112.0659187773
 20
308.9645746784
 30
0.0
  0
VERTEX
  5
593
  8
0
  6
CONTINUOUS
 62
     8
 10
-111.9556371459
 20
308.4041387463
 30
0.0
  0
VERTEX
  5
594
  8
0
  6
CONTINUOUS
 62
     8
 10
-111.8462700734
 20
307.8686558636
 30
0.0
  0
SEQEND
  5
B6A
  8
0
  6
CONTINUOUS
 62
     8
  0
ARC
  5
1C0
  8
0
  6
CONTINUOUS
 62
     8
 10
-1.1750964683
 20
330.0859561253
 30
0.0
 40
112.8843976225088
 50
188.0450086939
 51
190.7839588487
  0
ARC
  5
1C1
  8
0
  6
CONTINUOUS
 62
     8
 10
-188.4526553071
 20
330.0859561253
 30
0.0
 40
112.8843976225088
 50
349.2160411513
 51
351.9549913061
  0
ARC
  5
1C2
  8
0
  6
CONTINUOUS
 62
     8
 10
-316.5504322761
 20
268.8962778846
 30
0.0
 40
201.405295305292
 50
12.2117056931
 51
12.5197750388
  0
ARC
  5
1C3
  8
0
  6
CONTINUOUS
 62
     8
 10
-97.4162344372
 20
236.6623247192
 30
0.0
 40
79.16405447149943
 50
101.3150638937
 51
106.5258650239
  0
POLYLINE
  5
1C4
  8
0
  6
CONTINUOUS
 62
     8
 66
     1
 10
0.0
 20
0.0
 30
0.0
  0
VERTEX
  5
595
  8
0
  6
CONTINUOUS
 62
     8
 10
-119.7023950854
 20
311.498428431
 30
0.0
  0
VERTEX
  5
596
  8
0
  6
CONTINUOUS
 62
     8
 10
-119.619183276
 20
311.2269881802
 30
0.0
  0
VERTEX
  5
597
  8
0
  6
CONTINUOUS
 62
     8
 10
-119.5003390649
 20
310.9647840882
 30
0.0
  0
VERTEX
  5
598
  8
0
  6
CONTINUOUS
 62
     8
 10
-119.3464119324
 20
310.7130254773
 30
0.0
  0
VERTEX
  5
599
  8
0
  6
CONTINUOUS
 62
     8
 10
-119.1581096837
 20
310.4728732413
 30
0.0
  0
VERTEX
  5
59A
  8
0
  6
CONTINUOUS
 62
     8
 10
-118.936302174
 20
310.2454349553
 30
0.0
  0
VERTEX
  5
59B
  8
0
  6
CONTINUOUS
 62
     8
 10
-118.6820119956
 20
310.0317590559
 30
0.0
  0
VERTEX
  5
59C
  8
0
  6
CONTINUOUS
 62
     8
 10
-118.3964107522
 20
309.8328313479
 30
0.0
  0
VERTEX
  5
59D
  8
0
  6
CONTINUOUS
 62
     8
 10
-118.080815334
 20
309.6495690677
 30
0.0
  0
VERTEX
  5
59E
  8
0
  6
CONTINUOUS
 62
     8
 10
-117.7366823295
 20
309.4828171577
 30
0.0
  0
VERTEX
  5
59F
  8
0
  6
CONTINUOUS
 62
     8
 10
-117.3655987123
 20
309.3333446575
 30
0.0
  0
VERTEX
  5
5A0
  8
0
  6
CONTINUOUS
 62
     8
 10
-116.9692762533
 20
309.2018408623
 30
0.0
  0
VERTEX
  5
5A1
  8
0
  6
CONTINUOUS
 62
     8
 10
-116.5495403448
 20
309.0889121793
 30
0.0
  0
VERTEX
  5
5A2
  8
0
  6
CONTINUOUS
 62
     8
 10
-116.1083281377
 20
308.9950795673
 30
0.0
  0
VERTEX
  5
5A3
  8
0
  6
CONTINUOUS
 62
     8
 10
-115.6476736406
 20
308.9207753926
 30
0.0
  0
VERTEX
  5
5A4
  8
0
  6
CONTINUOUS
 62
     8
 10
-115.1697021315
 20
308.866342615
 30
0.0
  0
VERTEX
  5
5A5
  8
0
  6
CONTINUOUS
 62
     8
 10
-114.6766171196
 20
308.8320319928
 30
0.0
  0
VERTEX
  5
5A6
  8
0
  6
CONTINUOUS
 62
     8
 10
-114.1706928948
 20
308.8180019675
 30
0.0
  0
VERTEX
  5
5A7
  8
0
  6
CONTINUOUS
 62
     8
 10
-113.6542614886
 20
308.8243171494
 30
0.0
  0
VERTEX
  5
5A8
  8
0
  6
CONTINUOUS
 62
     8
 10
-113.1297052243
 20
308.8509483185
 30
0.0
  0
VERTEX
  5
5A9
  8
0
  6
CONTINUOUS
 62
     8
 10
-112.5994418153
 20
308.8977728892
 30
0.0
  0
VERTEX
  5
5AA
  8
0
  6
CONTINUOUS
 62
     8
 10
-112.0659187773
 20
308.9645746784
 30
0.0
  0
SEQEND
  5
B69
  8
0
  6
CONTINUOUS
 62
     8
  0
ARC
  5
1C5
  8
0
  6
CONTINUOUS
 62
     8
 10
-92.2115173382
 20
236.6623247192
 30
0.0
 40
79.16405447149943
 50
73.4741349761
 51
78.6849361063
  0
ARC
  5
1C6
  8
0
  6
CONTINUOUS
 62
     8
 10
126.9226805007
 20
268.8962778846
 30
0.0
 40
201.4052953052919
 50
167.4802249612
 51
167.7882943069
  0
POLYLINE
  5
1C7
  8
0
  6
CONTINUOUS
 62
     8
 66
     1
 10
0.0
 20
0.0
 30
0.0
  0
VERTEX
  5
5AB
  8
0
  6
CONTINUOUS
 62
     8
 10
-69.92535669
 20
311.498428431
 30
0.0
  0
VERTEX
  5
5AC
  8
0
  6
CONTINUOUS
 62
     8
 10
-70.0085684994
 20
311.2269881802
 30
0.0
  0
VERTEX
  5
5AD
  8
0
  6
CONTINUOUS
 62
     8
 10
-70.1274127105
 20
310.9647840882
 30
0.0
  0
VERTEX
  5
5AE
  8
0
  6
CONTINUOUS
 62
     8
 10
-70.281339843
 20
310.7130254773
 30
0.0
  0
VERTEX
  5
5AF
  8
0
  6
CONTINUOUS
 62
     8
 10
-70.4696420917
 20
310.4728732413
 30
0.0
  0
VERTEX
  5
5B0
  8
0
  6
CONTINUOUS
 62
     8
 10
-70.6914496014
 20
310.2454349553
 30
0.0
  0
VERTEX
  5
5B1
  8
0
  6
CONTINUOUS
 62
     8
 10
-70.9457397798
 20
310.0317590559
 30
0.0
  0
VERTEX
  5
5B2
  8
0
  6
CONTINUOUS
 62
     8
 10
-71.2313410232
 20
309.8328313479
 30
0.0
  0
VERTEX
  5
5B3
  8
0
  6
CONTINUOUS
 62
     8
 10
-71.5469364414
 20
309.6495690677
 30
0.0
  0
VERTEX
  5
5B4
  8
0
  6
CONTINUOUS
 62
     8
 10
-71.8910694459
 20
309.4828171577
 30
0.0
  0
VERTEX
  5
5B5
  8
0
  6
CONTINUOUS
 62
     8
 10
-72.2621530631
 20
309.3333446575
 30
0.0
  0
VERTEX
  5
5B6
  8
0
  6
CONTINUOUS
 62
     8
 10
-72.6584755221
 20
309.2018408623
 30
0.0
  0
VERTEX
  5
5B7
  8
0
  6
CONTINUOUS
 62
     8
 10
-73.0782114306
 20
309.0889121793
 30
0.0
  0
VERTEX
  5
5B8
  8
0
  6
CONTINUOUS
 62
     8
 10
-73.5194236377
 20
308.9950795673
 30
0.0
  0
VERTEX
  5
5B9
  8
0
  6
CONTINUOUS
 62
     8
 10
-73.9800781348
 20
308.9207753926
 30
0.0
  0
VERTEX
  5
5BA
  8
0
  6
CONTINUOUS
 62
     8
 10
-74.4580496439
 20
308.866342615
 30
0.0
  0
VERTEX
  5
5BB
  8
0
  6
CONTINUOUS
 62
     8
 10
-74.9511346558
 20
308.8320319928
 30
0.0
  0
VERTEX
  5
5BC
  8
0
  6
CONTINUOUS
 62
     8
 10
-75.4570588806
 20
308.8180019675
 30
0.0
  0
VERTEX
  5
5BD
  8
0
  6
CONTINUOUS
 62
     8
 10
-75.9734902868
 20
308.8243171494
 30
0.0
  0
VERTEX
  5
5BE
  8
0
  6
CONTINUOUS
 62
     8
 10
-76.4980465511
 20
308.8509483185
 30
0.0
  0
VERTEX
  5
5BF
  8
0
  6
CONTINUOUS
 62
     8
 10
-77.0283099601
 20
308.8977728892
 30
0.0
  0
VERTEX
  5
5C0
  8
0
  6
CONTINUOUS
 62
     8
 10
-77.5618329981
 20
308.9645746784
 30
0.0
  0
SEQEND
  5
B68
  8
0
  6
CONTINUOUS
 62
     8
  0
POLYLINE
  5
1C8
  8
0
  6
CONTINUOUS
 62
     8
 66
     1
 10
0.0
 20
0.0
 30
0.0
  0
VERTEX
  5
5C1
  8
0
  6
CONTINUOUS
 62
     8
 10
-62.1029064396
 20
347.9035184408
 30
0.0
  0
VERTEX
  5
5C2
  8
0
  6
CONTINUOUS
 62
     8
 10
-62.1904060581
 20
347.7157489085
 30
0.0
  0
VERTEX
  5
5C3
  8
0
  6
CONTINUOUS
 62
     8
 10
-62.292192165
 20
347.4956997359
 30
0.0
  0
VERTEX
  5
5C4
  8
0
  6
CONTINUOUS
 62
     8
 10
-62.4081716278
 20
347.2435683632
 30
0.0
  0
VERTEX
  5
5C5
  8
0
  6
CONTINUOUS
 62
     8
 10
-62.5382401386
 20
346.9595932091
 30
0.0
  0
VERTEX
  5
5C6
  8
0
  6
CONTINUOUS
 62
     8
 10
-62.682278488
 20
346.6440238679
 30
0.0
  0
VERTEX
  5
5C7
  8
0
  6
CONTINUOUS
 62
     8
 10
-62.8401562908
 20
346.2971546376
 30
0.0
  0
VERTEX
  5
5C8
  8
0
  6
CONTINUOUS
 62
     8
 10
-63.0117282608
 20
345.9192947173
 30
0.0
  0
VERTEX
  5
5C9
  8
0
  6
CONTINUOUS
 62
     8
 10
-63.196841661
 20
345.5107942844
 30
0.0
  0
VERTEX
  5
5CA
  8
0
  6
CONTINUOUS
 62
     8
 10
-63.3953214029
 20
345.0720221424
 30
0.0
  0
VERTEX
  5
5CB
  8
0
  6
CONTINUOUS
 62
     8
 10
-63.6069942603
 20
344.6033768976
 30
0.0
  0
VERTEX
  5
5CC
  8
0
  6
CONTINUOUS
 62
     8
 10
-63.8316609302
 20
344.1052869582
 30
0.0
  0
VERTEX
  5
5CD
  8
0
  6
CONTINUOUS
 62
     8
 10
-64.0691202471
 20
343.5782068098
 30
0.0
  0
VERTEX
  5
5CE
  8
0
  6
CONTINUOUS
 62
     8
 10
-64.319156144
 20
343.0226132894
 30
0.0
  0
VERTEX
  5
5CF
  8
0
  6
CONTINUOUS
 62
     8
 10
-64.5815395156
 20
342.4390167618
 30
0.0
  0
VERTEX
  5
5D0
  8
0
  6
CONTINUOUS
 62
     8
 10
-64.8560338059
 20
341.827942493
 30
0.0
  0
VERTEX
  5
5D1
  8
0
  6
CONTINUOUS
 62
     8
 10
-65.1423856953
 20
341.1899530018
 30
0.0
  0
VERTEX
  5
5D2
  8
0
  6
CONTINUOUS
 62
     8
 10
-65.440336276
 20
340.5256294334
 30
0.0
  0
VERTEX
  5
5D3
  8
0
  6
CONTINUOUS
 62
     8
 10
-65.7496154645
 20
339.8355715597
 30
0.0
  0
VERTEX
  5
5D4
  8
0
  6
CONTINUOUS
 62
     8
 10
-66.0699401388
 20
339.1204089547
 30
0.0
  0
VERTEX
  5
5D5
  8
0
  6
CONTINUOUS
 62
     8
 10
-66.4010178635
 20
338.3807935441
 30
0.0
  0
VERTEX
  5
5D6
  8
0
  6
CONTINUOUS
 62
     8
 10
-66.7425487527
 20
337.6174014682
 30
0.0
  0
VERTEX
  5
5D7
  8
0
  6
CONTINUOUS
 62
     8
 10
-67.0942217448
 20
336.830925631
 30
0.0
  0
VERTEX
  5
5D8
  8
0
  6
CONTINUOUS
 62
     8
 10
-67.4557146022
 20
336.0220812881
 30
0.0
  0
VERTEX
  5
5D9
  8
0
  6
CONTINUOUS
 62
     8
 10
-67.8266994992
 20
335.1916079098
 30
0.0
  0
VERTEX
  5
5DA
  8
0
  6
CONTINUOUS
 62
     8
 10
-68.2068392971
 20
334.3402580047
 30
0.0
  0
VERTEX
  5
5DB
  8
0
  6
CONTINUOUS
 62
     8
 10
-68.595787544
 20
333.4688082958
 30
0.0
  0
VERTEX
  5
5DC
  8
0
  6
CONTINUOUS
 62
     8
 10
-68.9931903371
 20
332.5780541325
 30
0.0
  0
VERTEX
  5
5DD
  8
0
  6
CONTINUOUS
 62
     8
 10
-69.3986844608
 20
331.6688039029
 30
0.0
  0
VERTEX
  5
5DE
  8
0
  6
CONTINUOUS
 62
     8
 10
-69.8119011113
 20
330.7418864841
 30
0.0
  0
VERTEX
  5
5DF
  8
0
  6
CONTINUOUS
 62
     8
 10
-70.2324658969
 20
329.7981475169
 30
0.0
  0
VERTEX
  5
5E0
  8
0
  6
CONTINUOUS
 62
     8
 10
-70.6599932501
 20
328.8384438181
 30
0.0
  0
VERTEX
  5
5E1
  8
0
  6
CONTINUOUS
 62
     8
 10
-71.0940957406
 20
327.8636526937
 30
0.0
  0
VERTEX
  5
5E2
  8
0
  6
CONTINUOUS
 62
     8
 10
-71.5343766251
 20
326.8746570373
 30
0.0
  0
VERTEX
  5
5E3
  8
0
  6
CONTINUOUS
 62
     8
 10
-71.9804354349
 20
325.8723602319
 30
0.0
  0
VERTEX
  5
5E4
  8
0
  6
CONTINUOUS
 62
     8
 10
-72.4318661133
 20
324.8576768363
 30
0.0
  0
VERTEX
  5
5E5
  8
0
  6
CONTINUOUS
 62
     8
 10
-72.8882570157
 20
323.8315269971
 30
0.0
  0
VERTEX
  5
5E6
  8
0
  6
CONTINUOUS
 62
     8
 10
-73.3491946349
 20
322.7948457623
 30
0.0
  0
VERTEX
  5
5E7
  8
0
  6
CONTINUOUS
 62
     8
 10
-73.8142580131
 20
321.7485793555
 30
0.0
  0
VERTEX
  5
5E8
  8
0
  6
CONTINUOUS
 62
     8
 10
-74.2830224672
 20
320.6936795885
 30
0.0
  0
VERTEX
  5
5E9
  8
0
  6
CONTINUOUS
 62
     8
 10
-74.7550633142
 20
319.6311057234
 30
0.0
  0
VERTEX
  5
5EA
  8
0
  6
CONTINUOUS
 62
     8
 10
-75.2299502829
 20
318.5618272671
 30
0.0
  0
VERTEX
  5
5EB
  8
0
  6
CONTINUOUS
 62
     8
 10
-75.7072475144
 20
317.4868165204
 30
0.0
  0
VERTEX
  5
5EC
  8
0
  6
CONTINUOUS
 62
     8
 10
-76.1865247378
 20
316.4070523033
 30
0.0
  0
SEQEND
  5
B67
  8
0
  6
CONTINUOUS
 62
     8
  0
LINE
  5
1C9
  8
0
  6
CONTINUOUS
 62
     8
 10
-62.1029064396
 20
347.9035184408
 30
0.0
 11
-62.1029064396
 21
392.8374931836
 31
0.0
  0
POLYLINE
  5
1CA
  8
0
  6
CONTINUOUS
 62
     8
 66
     1
 10
0.0
 20
0.0
 30
0.0
  0
VERTEX
  5
5ED
  8
0
  6
CONTINUOUS
 62
     8
 10
-127.5248453358
 20
347.9035184408
 30
0.0
  0
VERTEX
  5
5EE
  8
0
  6
CONTINUOUS
 62
     8
 10
-127.4373457173
 20
347.7157489085
 30
0.0
  0
VERTEX
  5
5EF
  8
0
  6
CONTINUOUS
 62
     8
 10
-127.3355596104
 20
347.4956997359
 30
0.0
  0
VERTEX
  5
5F0
  8
0
  6
CONTINUOUS
 62
     8
 10
-127.2195801476
 20
347.2435683632
 30
0.0
  0
VERTEX
  5
5F1
  8
0
  6
CONTINUOUS
 62
     8
 10
-127.0895116368
 20
346.9595932091
 30
0.0
  0
VERTEX
  5
5F2
  8
0
  6
CONTINUOUS
 62
     8
 10
-126.9454732874
 20
346.6440238679
 30
0.0
  0
VERTEX
  5
5F3
  8
0
  6
CONTINUOUS
 62
     8
 10
-126.7875954846
 20
346.2971546376
 30
0.0
  0
VERTEX
  5
5F4
  8
0
  6
CONTINUOUS
 62
     8
 10
-126.6160235146
 20
345.9192947173
 30
0.0
  0
VERTEX
  5
5F5
  8
0
  6
CONTINUOUS
 62
     8
 10
-126.4309101144
 20
345.5107942844
 30
0.0
  0
VERTEX
  5
5F6
  8
0
  6
CONTINUOUS
 62
     8
 10
-126.2324303725
 20
345.0720221424
 30
0.0
  0
VERTEX
  5
5F7
  8
0
  6
CONTINUOUS
 62
     8
 10
-126.0207575151
 20
344.6033768976
 30
0.0
  0
VERTEX
  5
5F8
  8
0
  6
CONTINUOUS
 62
     8
 10
-125.7960908452
 20
344.1052869582
 30
0.0
  0
VERTEX
  5
5F9
  8
0
  6
CONTINUOUS
 62
     8
 10
-125.5586315283
 20
343.5782068098
 30
0.0
  0
VERTEX
  5
5FA
  8
0
  6
CONTINUOUS
 62
     8
 10
-125.3085956314
 20
343.0226132894
 30
0.0
  0
VERTEX
  5
5FB
  8
0
  6
CONTINUOUS
 62
     8
 10
-125.0462122598
 20
342.4390167618
 30
0.0
  0
VERTEX
  5
5FC
  8
0
  6
CONTINUOUS
 62
     8
 10
-124.7717179695
 20
341.827942493
 30
0.0
  0
VERTEX
  5
5FD
  8
0
  6
CONTINUOUS
 62
     8
 10
-124.4853660801
 20
341.1899530018
 30
0.0
  0
VERTEX
  5
5FE
  8
0
  6
CONTINUOUS
 62
     8
 10
-124.1874154994
 20
340.5256294334
 30
0.0
  0
VERTEX
  5
5FF
  8
0
  6
CONTINUOUS
 62
     8
 10
-123.8781363109
 20
339.8355715597
 30
0.0
  0
VERTEX
  5
600
  8
0
  6
CONTINUOUS
 62
     8
 10
-123.5578116366
 20
339.1204089547
 30
0.0
  0
VERTEX
  5
601
  8
0
  6
CONTINUOUS
 62
     8
 10
-123.2267339119
 20
338.3807935441
 30
0.0
  0
VERTEX
  5
602
  8
0
  6
CONTINUOUS
 62
     8
 10
-122.8852030227
 20
337.6174014682
 30
0.0
  0
VERTEX
  5
603
  8
0
  6
CONTINUOUS
 62
     8
 10
-122.5335300306
 20
336.830925631
 30
0.0
  0
VERTEX
  5
604
  8
0
  6
CONTINUOUS
 62
     8
 10
-122.1720371732
 20
336.0220812881
 30
0.0
  0
VERTEX
  5
605
  8
0
  6
CONTINUOUS
 62
     8
 10
-121.8010522762
 20
335.1916079098
 30
0.0
  0
VERTEX
  5
606
  8
0
  6
CONTINUOUS
 62
     8
 10
-121.4209124783
 20
334.3402580047
 30
0.0
  0
VERTEX
  5
607
  8
0
  6
CONTINUOUS
 62
     8
 10
-121.0319642314
 20
333.4688082958
 30
0.0
  0
VERTEX
  5
608
  8
0
  6
CONTINUOUS
 62
     8
 10
-120.6345614383
 20
332.5780541325
 30
0.0
  0
VERTEX
  5
609
  8
0
  6
CONTINUOUS
 62
     8
 10
-120.2290673146
 20
331.6688039029
 30
0.0
  0
VERTEX
  5
60A
  8
0
  6
CONTINUOUS
 62
     8
 10
-119.8158506641
 20
330.7418864841
 30
0.0
  0
VERTEX
  5
60B
  8
0
  6
CONTINUOUS
 62
     8
 10
-119.3952858785
 20
329.7981475169
 30
0.0
  0
VERTEX
  5
60C
  8
0
  6
CONTINUOUS
 62
     8
 10
-118.9677585253
 20
328.8384438181
 30
0.0
  0
VERTEX
  5
60D
  8
0
  6
CONTINUOUS
 62
     8
 10
-118.5336560348
 20
327.8636526937
 30
0.0
  0
VERTEX
  5
60E
  8
0
  6
CONTINUOUS
 62
     8
 10
-118.0933751503
 20
326.8746570373
 30
0.0
  0
VERTEX
  5
60F
  8
0
  6
CONTINUOUS
 62
     8
 10
-117.6473163405
 20
325.8723602319
 30
0.0
  0
VERTEX
  5
610
  8
0
  6
CONTINUOUS
 62
     8
 10
-117.1958856622
 20
324.8576768363
 30
0.0
  0
VERTEX
  5
611
  8
0
  6
CONTINUOUS
 62
     8
 10
-116.7394947598
 20
323.8315269971
 30
0.0
  0
VERTEX
  5
612
  8
0
  6
CONTINUOUS
 62
     8
 10
-116.2785571405
 20
322.7948457623
 30
0.0
  0
VERTEX
  5
613
  8
0
  6
CONTINUOUS
 62
     8
 10
-115.8134937623
 20
321.7485793555
 30
0.0
  0
VERTEX
  5
614
  8
0
  6
CONTINUOUS
 62
     8
 10
-115.3447293082
 20
320.6936795885
 30
0.0
  0
VERTEX
  5
615
  8
0
  6
CONTINUOUS
 62
     8
 10
-114.8726884613
 20
319.6311057234
 30
0.0
  0
VERTEX
  5
616
  8
0
  6
CONTINUOUS
 62
     8
 10
-114.3978014925
 20
318.5618272671
 30
0.0
  0
VERTEX
  5
617
  8
0
  6
CONTINUOUS
 62
     8
 10
-113.920504261
 20
317.4868165204
 30
0.0
  0
VERTEX
  5
618
  8
0
  6
CONTINUOUS
 62
     8
 10
-113.4412270376
 20
316.4070523033
 30
0.0
  0
SEQEND
  5
B66
  8
0
  6
CONTINUOUS
 62
     8
  0
LINE
  5
1CB
  8
0
  6
CONTINUOUS
 62
     8
 10
-127.5248453358
 20
347.9035184408
 30
0.0
 11
-127.5248453358
 21
392.8374931836
 31
0.0
  0
LINE
  5
1CC
  8
0
  6
CONTINUOUS
 62
     8
 10
-119.9343037197
 20
312.556224844
 30
0.0
 11
-120.4045992682
 21
314.6756011682
 31
0.0
  0
ARC
  5
1CD
  8
0
  6
CONTINUOUS
 62
     8
 10
-98.4250878248
 20
241.1486738899
 30
0.0
 40
76.74182665446978
 50
101.2839160185
 51
106.6430597943
  0
ARC
  5
1CE
  8
0
  6
CONTINUOUS
 62
     8
 10
-91.2026639506
 20
241.1486738899
 30
0.0
 40
76.74182665446978
 50
73.3569402057
 51
78.7160839815
  0
LINE
  5
1CF
  8
0
  6
CONTINUOUS
 62
     8
 10
-69.6934480557
 20
312.556224844
 30
0.0
 11
-69.2231525073
 21
314.6756011682
 31
0.0
  0
ARC
  5
1D0
  8
0
  6
CONTINUOUS
 62
     8
 10
-67.3412407827
 20
347.2733163035
 30
0.0
 40
5.276106653966538
 50
347.9524210361
 51
6.8600465535
  0
POLYLINE
  5
1D1
  8
0
  6
CONTINUOUS
 62
     8
 66
     1
 10
0.0
 20
0.0
 30
0.0
  0
VERTEX
  5
619
  8
0
  6
CONTINUOUS
 62
     8
 10
-69.2231525073
 20
314.6756011682
 30
0.0
  0
VERTEX
  5
61A
  8
0
  6
CONTINUOUS
 62
     8
 10
-68.9778197894
 20
315.7810200626
 30
0.0
  0
VERTEX
  5
61B
  8
0
  6
CONTINUOUS
 62
     8
 10
-68.7335282901
 20
316.8814317012
 30
0.0
  0
VERTEX
  5
61C
  8
0
  6
CONTINUOUS
 62
     8
 10
-68.4905127028
 20
317.9757869491
 30
0.0
  0
VERTEX
  5
61D
  8
0
  6
CONTINUOUS
 62
     8
 10
-68.249005858
 20
319.0630408624
 30
0.0
  0
VERTEX
  5
61E
  8
0
  6
CONTINUOUS
 62
     8
 10
-68.0092349985
 20
320.1421559477
 30
0.0
  0
VERTEX
  5
61F
  8
0
  6
CONTINUOUS
 62
     8
 10
-67.771432955
 20
321.2121012309
 30
0.0
  0
VERTEX
  5
620
  8
0
  6
CONTINUOUS
 62
     8
 10
-67.5358232448
 20
322.2718569139
 30
0.0
  0
VERTEX
  5
621
  8
0
  6
CONTINUOUS
 62
     8
 10
-67.302631248
 20
323.3204106489
 30
0.0
  0
VERTEX
  5
622
  8
0
  6
CONTINUOUS
 62
     8
 10
-67.0720823446
 20
324.3567612642
 30
0.0
  0
VERTEX
  5
623
  8
0
  6
CONTINUOUS
 62
     8
 10
-66.8443944642
 20
325.3799215579
 30
0.0
  0
VERTEX
  5
624
  8
0
  6
CONTINUOUS
 62
     8
 10
-66.6197836736
 20
326.38891271
 30
0.0
  0
VERTEX
  5
625
  8
0
  6
CONTINUOUS
 62
     8
 10
-66.3984679023
 20
327.3827735955
 30
0.0
  0
VERTEX
  5
626
  8
0
  6
CONTINUOUS
 62
     8
 10
-66.1806539038
 20
328.3605524028
 30
0.0
  0
VERTEX
  5
627
  8
0
  6
CONTINUOUS
 62
     8
 10
-65.9665540198
 20
329.3213196719
 30
0.0
  0
VERTEX
  5
628
  8
0
  6
CONTINUOUS
 62
     8
 10
-65.7563694158
 20
330.2641571188
 30
0.0
  0
VERTEX
  5
629
  8
0
  6
CONTINUOUS
 62
     8
 10
-65.5503031203
 20
331.1881632233
 30
0.0
  0
VERTEX
  5
62A
  8
0
  6
CONTINUOUS
 62
     8
 10
-65.3485488483
 20
332.0924588168
 30
0.0
  0
VERTEX
  5
62B
  8
0
  6
CONTINUOUS
 62
     8
 10
-65.1513021776
 20
332.9761777693
 30
0.0
  0
VERTEX
  5
62C
  8
0
  6
CONTINUOUS
 62
     8
 10
-64.9587493727
 20
333.8384781653
 30
0.0
  0
VERTEX
  5
62D
  8
0
  6
CONTINUOUS
 62
     8
 10
-64.7710748354
 20
334.6785385782
 30
0.0
  0
VERTEX
  5
62E
  8
0
  6
CONTINUOUS
 62
     8
 10
-64.5884573797
 20
335.4955543453
 30
0.0
  0
VERTEX
  5
62F
  8
0
  6
CONTINUOUS
 62
     8
 10
-64.4110739568
 20
336.2887468809
 30
0.0
  0
VERTEX
  5
630
  8
0
  6
CONTINUOUS
 62
     8
 10
-64.2390884796
 20
337.0573599512
 30
0.0
  0
VERTEX
  5
631
  8
0
  6
CONTINUOUS
 62
     8
 10
-64.0726704487
 20
337.8006578112
 30
0.0
  0
VERTEX
  5
632
  8
0
  6
CONTINUOUS
 62
     8
 10
-63.9119763264
 20
338.5179326558
 30
0.0
  0
VERTEX
  5
633
  8
0
  6
CONTINUOUS
 62
     8
 10
-63.7571588495
 20
339.2085008943
 30
0.0
  0
VERTEX
  5
634
  8
0
  6
CONTINUOUS
 62
     8
 10
-63.6083670297
 20
339.871699425
 30
0.0
  0
VERTEX
  5
635
  8
0
  6
CONTINUOUS
 62
     8
 10
-63.4657405654
 20
340.5068986738
 30
0.0
  0
VERTEX
  5
636
  8
0
  6
CONTINUOUS
 62
     8
 10
-63.3294210175
 20
341.1134951437
 30
0.0
  0
VERTEX
  5
637
  8
0
  6
CONTINUOUS
 62
     8
 10
-63.1995313206
 20
341.6909039641
 30
0.0
  0
VERTEX
  5
638
  8
0
  6
CONTINUOUS
 62
     8
 10
-63.07620186
 20
342.238573792
 30
0.0
  0
VERTEX
  5
639
  8
0
  6
CONTINUOUS
 62
     8
 10
-62.9595481196
 20
342.7559868121
 30
0.0
  0
VERTEX
  5
63A
  8
0
  6
CONTINUOUS
 62
     8
 10
-62.8496781328
 20
343.2426475609
 30
0.0
  0
VERTEX
  5
63B
  8
0
  6
CONTINUOUS
 62
     8
 10
-62.7466999331
 20
343.6980903769
 30
0.0
  0
VERTEX
  5
63C
  8
0
  6
CONTINUOUS
 62
     8
 10
-62.6507141033
 20
344.1218794012
 30
0.0
  0
VERTEX
  5
63D
  8
0
  6
CONTINUOUS
 62
     8
 10
-62.561806325
 20
344.5136123026
 30
0.0
  0
VERTEX
  5
63E
  8
0
  6
CONTINUOUS
 62
     8
 10
-62.4800660053
 20
344.8729165519
 30
0.0
  0
VERTEX
  5
63F
  8
0
  6
CONTINUOUS
 62
     8
 10
-62.4055713752
 20
345.1994456971
 30
0.0
  0
VERTEX
  5
640
  8
0
  6
CONTINUOUS
 62
     8
 10
-62.33838949
 20
345.4928868139
 30
0.0
  0
VERTEX
  5
641
  8
0
  6
CONTINUOUS
 62
     8
 10
-62.2785874048
 20
345.7529679561
 30
0.0
  0
VERTEX
  5
642
  8
0
  6
CONTINUOUS
 62
     8
 10
-62.2262209991
 20
345.9794320786
 30
0.0
  0
VERTEX
  5
643
  8
0
  6
CONTINUOUS
 62
     8
 10
-62.1813424268
 20
346.17206684
 30
0.0
  0
SEQEND
  5
B65
  8
0
  6
CONTINUOUS
 62
     8
  0
POLYLINE
  5
1D2
  8
0
  6
CONTINUOUS
 62
     8
 66
     1
 10
0.0
 20
0.0
 30
0.0
  0
VERTEX
  5
644
  8
0
  6
CONTINUOUS
 62
     8
 10
-120.4045992682
 20
314.6756011682
 30
0.0
  0
VERTEX
  5
645
  8
0
  6
CONTINUOUS
 62
     8
 10
-120.649931986
 20
315.7810200626
 30
0.0
  0
VERTEX
  5
646
  8
0
  6
CONTINUOUS
 62
     8
 10
-120.8942234853
 20
316.8814317012
 30
0.0
  0
VERTEX
  5
647
  8
0
  6
CONTINUOUS
 62
     8
 10
-121.1372390726
 20
317.9757869491
 30
0.0
  0
VERTEX
  5
648
  8
0
  6
CONTINUOUS
 62
     8
 10
-121.3787459174
 20
319.0630408624
 30
0.0
  0
VERTEX
  5
649
  8
0
  6
CONTINUOUS
 62
     8
 10
-121.6185167769
 20
320.1421559477
 30
0.0
  0
VERTEX
  5
64A
  8
0
  6
CONTINUOUS
 62
     8
 10
-121.8563188204
 20
321.2121012309
 30
0.0
  0
VERTEX
  5
64B
  8
0
  6
CONTINUOUS
 62
     8
 10
-122.0919285306
 20
322.2718569139
 30
0.0
  0
VERTEX
  5
64C
  8
0
  6
CONTINUOUS
 62
     8
 10
-122.3251205275
 20
323.3204106489
 30
0.0
  0
VERTEX
  5
64D
  8
0
  6
CONTINUOUS
 62
     8
 10
-122.5556694308
 20
324.3567612642
 30
0.0
  0
VERTEX
  5
64E
  8
0
  6
CONTINUOUS
 62
     8
 10
-122.7833573112
 20
325.3799215579
 30
0.0
  0
VERTEX
  5
64F
  8
0
  6
CONTINUOUS
 62
     8
 10
-123.0079681018
 20
326.38891271
 30
0.0
  0
VERTEX
  5
650
  8
0
  6
CONTINUOUS
 62
     8
 10
-123.2292838732
 20
327.3827735955
 30
0.0
  0
VERTEX
  5
651
  8
0
  6
CONTINUOUS
 62
     8
 10
-123.4470978716
 20
328.3605524028
 30
0.0
  0
VERTEX
  5
652
  8
0
  6
CONTINUOUS
 62
     8
 10
-123.6611977556
 20
329.3213196719
 30
0.0
  0
VERTEX
  5
653
  8
0
  6
CONTINUOUS
 62
     8
 10
-123.8713823596
 20
330.2641571188
 30
0.0
  0
VERTEX
  5
654
  8
0
  6
CONTINUOUS
 62
     8
 10
-124.0774486551
 20
331.1881632233
 30
0.0
  0
VERTEX
  5
655
  8
0
  6
CONTINUOUS
 62
     8
 10
-124.2792029271
 20
332.0924588168
 30
0.0
  0
VERTEX
  5
656
  8
0
  6
CONTINUOUS
 62
     8
 10
-124.4764495978
 20
332.9761777693
 30
0.0
  0
VERTEX
  5
657
  8
0
  6
CONTINUOUS
 62
     8
 10
-124.6690024027
 20
333.8384781653
 30
0.0
  0
VERTEX
  5
658
  8
0
  6
CONTINUOUS
 62
     8
 10
-124.85667694
 20
334.6785385782
 30
0.0
  0
VERTEX
  5
659
  8
0
  6
CONTINUOUS
 62
     8
 10
-125.0392943958
 20
335.4955543453
 30
0.0
  0
VERTEX
  5
65A
  8
0
  6
CONTINUOUS
 62
     8
 10
-125.2166778186
 20
336.2887468809
 30
0.0
  0
VERTEX
  5
65B
  8
0
  6
CONTINUOUS
 62
     8
 10
-125.3886632958
 20
337.0573599512
 30
0.0
  0
VERTEX
  5
65C
  8
0
  6
CONTINUOUS
 62
     8
 10
-125.5550813267
 20
337.8006578112
 30
0.0
  0
VERTEX
  5
65D
  8
0
  6
CONTINUOUS
 62
     8
 10
-125.715775449
 20
338.5179326558
 30
0.0
  0
VERTEX
  5
65E
  8
0
  6
CONTINUOUS
 62
     8
 10
-125.8705929259
 20
339.2085008943
 30
0.0
  0
VERTEX
  5
65F
  8
0
  6
CONTINUOUS
 62
     8
 10
-126.0193847457
 20
339.871699425
 30
0.0
  0
VERTEX
  5
660
  8
0
  6
CONTINUOUS
 62
     8
 10
-126.16201121
 20
340.5068986738
 30
0.0
  0
VERTEX
  5
661
  8
0
  6
CONTINUOUS
 62
     8
 10
-126.2983307579
 20
341.1134951437
 30
0.0
  0
VERTEX
  5
662
  8
0
  6
CONTINUOUS
 62
     8
 10
-126.4282204548
 20
341.6909039641
 30
0.0
  0
VERTEX
  5
663
  8
0
  6
CONTINUOUS
 62
     8
 10
-126.5515499154
 20
342.238573792
 30
0.0
  0
VERTEX
  5
664
  8
0
  6
CONTINUOUS
 62
     8
 10
-126.6682036558
 20
342.7559868121
 30
0.0
  0
VERTEX
  5
665
  8
0
  6
CONTINUOUS
 62
     8
 10
-126.7780736426
 20
343.2426475609
 30
0.0
  0
VERTEX
  5
666
  8
0
  6
CONTINUOUS
 62
     8
 10
-126.8810518423
 20
343.6980903769
 30
0.0
  0
VERTEX
  5
667
  8
0
  6
CONTINUOUS
 62
     8
 10
-126.9770376721
 20
344.1218794012
 30
0.0
  0
VERTEX
  5
668
  8
0
  6
CONTINUOUS
 62
     8
 10
-127.0659454504
 20
344.5136123026
 30
0.0
  0
VERTEX
  5
669
  8
0
  6
CONTINUOUS
 62
     8
 10
-127.1476857701
 20
344.8729165519
 30
0.0
  0
VERTEX
  5
66A
  8
0
  6
CONTINUOUS
 62
     8
 10
-127.2221804002
 20
345.1994456971
 30
0.0
  0
VERTEX
  5
66B
  8
0
  6
CONTINUOUS
 62
     8
 10
-127.2893622854
 20
345.4928868139
 30
0.0
  0
VERTEX
  5
66C
  8
0
  6
CONTINUOUS
 62
     8
 10
-127.3491643706
 20
345.7529679561
 30
0.0
  0
VERTEX
  5
66D
  8
0
  6
CONTINUOUS
 62
     8
 10
-127.4015307763
 20
345.9794320786
 30
0.0
  0
VERTEX
  5
66E
  8
0
  6
CONTINUOUS
 62
     8
 10
-127.4464093486
 20
346.17206684
 30
0.0
  0
SEQEND
  5
B64
  8
0
  6
CONTINUOUS
 62
     8
  0
ARC
  5
1D3
  8
0
  6
CONTINUOUS
 62
     8
 10
-122.2865109927
 20
347.2733163035
 30
0.0
 40
5.276106653966538
 50
173.1399534465
 51
192.0475789639
  0
POLYLINE
  5
1D4
  8
0
  6
CONTINUOUS
 62
     8
 66
     1
 10
0.0
 20
0.0
 30
0.0
  0
VERTEX
  5
66F
  8
0
  6
CONTINUOUS
 62
     8
 10
-77.781481702
 20
307.8686558636
 30
0.0
  0
VERTEX
  5
670
  8
0
  6
CONTINUOUS
 62
     8
 10
-78.0152567068
 20
306.4381249404
 30
0.0
  0
VERTEX
  5
671
  8
0
  6
CONTINUOUS
 62
     8
 10
-78.1424697825
 20
304.9984441293
 30
0.0
  0
VERTEX
  5
672
  8
0
  6
CONTINUOUS
 62
     8
 10
-78.1696774402
 20
303.5565446751
 30
0.0
  0
VERTEX
  5
673
  8
0
  6
CONTINUOUS
 62
     8
 10
-78.1007502565
 20
302.0803406523
 30
0.0
  0
VERTEX
  5
674
  8
0
  6
CONTINUOUS
 62
     8
 10
-77.9408831486
 20
300.6073706472
 30
0.0
  0
VERTEX
  5
675
  8
0
  6
CONTINUOUS
 62
     8
 10
-77.6970833877
 20
299.1418079162
 30
0.0
  0
VERTEX
  5
676
  8
0
  6
CONTINUOUS
 62
     8
 10
-77.3283150384
 20
297.4948021272
 30
0.0
  0
VERTEX
  5
677
  8
0
  6
CONTINUOUS
 62
     8
 10
-76.869241927
 20
295.8595384533
 30
0.0
  0
VERTEX
  5
678
  8
0
  6
CONTINUOUS
 62
     8
 10
-76.3287376949
 20
294.2377510169
 30
0.0
  0
VERTEX
  5
679
  8
0
  6
CONTINUOUS
 62
     8
 10
-75.7156759837
 20
292.6311739409
 30
0.0
  0
VERTEX
  5
67A
  8
0
  6
CONTINUOUS
 62
     8
 10
-75.0389267096
 20
291.0415422792
 30
0.0
  0
VERTEX
  5
67B
  8
0
  6
CONTINUOUS
 62
     8
 10
-74.0924347529
 20
289.0307050819
 30
0.0
  0
VERTEX
  5
67C
  8
0
  6
CONTINUOUS
 62
     8
 10
-73.0692055413
 20
287.0412529135
 30
0.0
  0
VERTEX
  5
67D
  8
0
  6
CONTINUOUS
 62
     8
 10
-71.9848648051
 20
285.0703191632
 30
0.0
  0
VERTEX
  5
67E
  8
0
  6
CONTINUOUS
 62
     8
 10
-70.8550326863
 20
283.1150334949
 30
0.0
  0
VERTEX
  5
67F
  8
0
  6
CONTINUOUS
 62
     8
 10
-70.8403885701
 20
283.0901690448
 30
0.0
  0
SEQEND
  5
B63
  8
0
  6
CONTINUOUS
 62
     8
  0
LINE
  5
1D5
  8
0
  6
CONTINUOUS
 62
     8
 10
-118.7873632053
 20
283.0901690448
 30
0.0
 11
-70.8403885701
 21
283.0901690448
 31
0.0
  0
POLYLINE
  5
1D6
  8
0
  6
CONTINUOUS
 62
     8
 66
     1
 10
0.0
 20
0.0
 30
0.0
  0
VERTEX
  5
680
  8
0
  6
CONTINUOUS
 62
     8
 10
-111.8462700734
 20
307.8686558636
 30
0.0
  0
VERTEX
  5
681
  8
0
  6
CONTINUOUS
 62
     8
 10
-111.6124950686
 20
306.4381249404
 30
0.0
  0
VERTEX
  5
682
  8
0
  6
CONTINUOUS
 62
     8
 10
-111.4852819929
 20
304.9984441293
 30
0.0
  0
VERTEX
  5
683
  8
0
  6
CONTINUOUS
 62
     8
 10
-111.4580743352
 20
303.5565446751
 30
0.0
  0
VERTEX
  5
684
  8
0
  6
CONTINUOUS
 62
     8
 10
-111.5270015189
 20
302.0803406523
 30
0.0
  0
VERTEX
  5
685
  8
0
  6
CONTINUOUS
 62
     8
 10
-111.6868686268
 20
300.6073706472
 30
0.0
  0
VERTEX
  5
686
  8
0
  6
CONTINUOUS
 62
     8
 10
-111.9306683877
 20
299.1418079162
 30
0.0
  0
VERTEX
  5
687
  8
0
  6
CONTINUOUS
 62
     8
 10
-112.299436737
 20
297.4948021272
 30
0.0
  0
VERTEX
  5
688
  8
0
  6
CONTINUOUS
 62
     8
 10
-112.7585098484
 20
295.8595384533
 30
0.0
  0
VERTEX
  5
689
  8
0
  6
CONTINUOUS
 62
     8
 10
-113.2990140805
 20
294.2377510169
 30
0.0
  0
VERTEX
  5
68A
  8
0
  6
CONTINUOUS
 62
     8
 10
-113.9120757917
 20
292.6311739409
 30
0.0
  0
VERTEX
  5
68B
  8
0
  6
CONTINUOUS
 62
     8
 10
-114.5888250658
 20
291.0415422792
 30
0.0
  0
VERTEX
  5
68C
  8
0
  6
CONTINUOUS
 62
     8
 10
-115.5353170225
 20
289.0307050819
 30
0.0
  0
VERTEX
  5
68D
  8
0
  6
CONTINUOUS
 62
     8
 10
-116.5585462341
 20
287.0412529135
 30
0.0
  0
VERTEX
  5
68E
  8
0
  6
CONTINUOUS
 62
     8
 10
-117.6428869704
 20
285.0703191632
 30
0.0
  0
VERTEX
  5
68F
  8
0
  6
CONTINUOUS
 62
     8
 10
-118.7727190891
 20
283.1150334949
 30
0.0
  0
VERTEX
  5
690
  8
0
  6
CONTINUOUS
 62
     8
 10
-118.7873632053
 20
283.0901690448
 30
0.0
  0
SEQEND
  5
B62
  8
0
  6
CONTINUOUS
 62
     8
  0
LINE
  5
1D7
  8
0
  6
CONTINUOUS
 62
     8
 10
-69.9718222359
 20
311.284294088
 30
0.0
 11
-69.92535669
 21
311.498428431
 31
0.0
  0
POLYLINE
  5
1D8
  8
0
  6
CONTINUOUS
 62
     8
 66
     1
 10
0.0
 20
0.0
 30
0.0
  0
VERTEX
  5
691
  8
0
  6
CONTINUOUS
 62
     8
 10
-69.9718222359
 20
311.284294088
 30
0.0
  0
VERTEX
  5
692
  8
0
  6
CONTINUOUS
 62
     8
 10
-70.0719245115
 20
310.9558613194
 30
0.0
  0
VERTEX
  5
693
  8
0
  6
CONTINUOUS
 62
     8
 10
-70.207038928
 20
310.6367615672
 30
0.0
  0
VERTEX
  5
694
  8
0
  6
CONTINUOUS
 62
     8
 10
-70.3765526751
 20
310.3284442021
 30
0.0
  0
VERTEX
  5
695
  8
0
  6
CONTINUOUS
 62
     8
 10
-70.5796946177
 20
310.0323092347
 30
0.0
  0
VERTEX
  5
696
  8
0
  6
CONTINUOUS
 62
     8
 10
-70.8155446091
 20
309.7497017277
 30
0.0
  0
VERTEX
  5
697
  8
0
  6
CONTINUOUS
 62
     8
 10
-71.0830297658
 20
309.4819049273
 30
0.0
  0
VERTEX
  5
698
  8
0
  6
CONTINUOUS
 62
     8
 10
-71.3809337804
 20
309.2301350241
 30
0.0
  0
VERTEX
  5
699
  8
0
  6
CONTINUOUS
 62
     8
 10
-71.7079062352
 20
308.9955355661
 30
0.0
  0
VERTEX
  5
69A
  8
0
  6
CONTINUOUS
 62
     8
 10
-72.062462602
 20
308.7791718115
 30
0.0
  0
VERTEX
  5
69B
  8
0
  6
CONTINUOUS
 62
     8
 10
-72.4429916927
 20
308.5820265385
 30
0.0
  0
VERTEX
  5
69C
  8
0
  6
CONTINUOUS
 62
     8
 10
-72.8477631101
 20
308.4049949228
 30
0.0
  0
VERTEX
  5
69D
  8
0
  6
CONTINUOUS
 62
     8
 10
-73.2749421486
 20
308.2488809867
 30
0.0
  0
VERTEX
  5
69E
  8
0
  6
CONTINUOUS
 62
     8
 10
-73.7225879321
 20
308.1143937286
 30
0.0
  0
VERTEX
  5
69F
  8
0
  6
CONTINUOUS
 62
     8
 10
-74.1886645892
 20
308.0021439362
 30
0.0
  0
VERTEX
  5
6A0
  8
0
  6
CONTINUOUS
 62
     8
 10
-74.6710598806
 20
307.9126413266
 30
0.0
  0
VERTEX
  5
6A1
  8
0
  6
CONTINUOUS
 62
     8
 10
-75.1675814727
 20
307.8462924075
 30
0.0
  0
VERTEX
  5
6A2
  8
0
  6
CONTINUOUS
 62
     8
 10
-75.6759718397
 20
307.8033984873
 30
0.0
  0
VERTEX
  5
6A3
  8
0
  6
CONTINUOUS
 62
     8
 10
-76.193925027
 20
307.7841543689
 30
0.0
  0
VERTEX
  5
6A4
  8
0
  6
CONTINUOUS
 62
     8
 10
-76.7190885136
 20
307.7886474473
 30
0.0
  0
VERTEX
  5
6A5
  8
0
  6
CONTINUOUS
 62
     8
 10
-77.2490762511
 20
307.8168573154
 30
0.0
  0
VERTEX
  5
6A6
  8
0
  6
CONTINUOUS
 62
     8
 10
-77.781481702
 20
307.8686558636
 30
0.0
  0
SEQEND
  5
B61
  8
0
  6
CONTINUOUS
 62
     8
  0
LINE
  5
1D9
  8
0
  6
CONTINUOUS
 62
     8
 10
-119.6559295395
 20
311.284294088
 30
0.0
 11
-119.7023950854
 21
311.498428431
 31
0.0
  0
POLYLINE
  5
1DA
  8
0
  6
CONTINUOUS
 62
     8
 66
     1
 10
0.0
 20
0.0
 30
0.0
  0
VERTEX
  5
6A7
  8
0
  6
CONTINUOUS
 62
     8
 10
-119.6559295395
 20
311.284294088
 30
0.0
  0
VERTEX
  5
6A8
  8
0
  6
CONTINUOUS
 62
     8
 10
-119.5558272639
 20
310.9558613194
 30
0.0
  0
VERTEX
  5
6A9
  8
0
  6
CONTINUOUS
 62
     8
 10
-119.4207128474
 20
310.6367615672
 30
0.0
  0
VERTEX
  5
6AA
  8
0
  6
CONTINUOUS
 62
     8
 10
-119.2511991003
 20
310.3284442021
 30
0.0
  0
VERTEX
  5
6AB
  8
0
  6
CONTINUOUS
 62
     8
 10
-119.0480571577
 20
310.0323092347
 30
0.0
  0
VERTEX
  5
6AC
  8
0
  6
CONTINUOUS
 62
     8
 10
-118.8122071663
 20
309.7497017277
 30
0.0
  0
VERTEX
  5
6AD
  8
0
  6
CONTINUOUS
 62
     8
 10
-118.5447220096
 20
309.4819049273
 30
0.0
  0
VERTEX
  5
6AE
  8
0
  6
CONTINUOUS
 62
     8
 10
-118.246817995
 20
309.2301350241
 30
0.0
  0
VERTEX
  5
6AF
  8
0
  6
CONTINUOUS
 62
     8
 10
-117.9198455402
 20
308.9955355661
 30
0.0
  0
VERTEX
  5
6B0
  8
0
  6
CONTINUOUS
 62
     8
 10
-117.5652891734
 20
308.7791718115
 30
0.0
  0
VERTEX
  5
6B1
  8
0
  6
CONTINUOUS
 62
     8
 10
-117.1847600827
 20
308.5820265385
 30
0.0
  0
VERTEX
  5
6B2
  8
0
  6
CONTINUOUS
 62
     8
 10
-116.7799886653
 20
308.4049949228
 30
0.0
  0
VERTEX
  5
6B3
  8
0
  6
CONTINUOUS
 62
     8
 10
-116.3528096268
 20
308.2488809867
 30
0.0
  0
VERTEX
  5
6B4
  8
0
  6
CONTINUOUS
 62
     8
 10
-115.9051638433
 20
308.1143937286
 30
0.0
  0
VERTEX
  5
6B5
  8
0
  6
CONTINUOUS
 62
     8
 10
-115.4390871862
 20
308.0021439362
 30
0.0
  0
VERTEX
  5
6B6
  8
0
  6
CONTINUOUS
 62
     8
 10
-114.9566918948
 20
307.9126413266
 30
0.0
  0
VERTEX
  5
6B7
  8
0
  6
CONTINUOUS
 62
     8
 10
-114.4601703027
 20
307.8462924075
 30
0.0
  0
VERTEX
  5
6B8
  8
0
  6
CONTINUOUS
 62
     8
 10
-113.9517799357
 20
307.8033984873
 30
0.0
  0
VERTEX
  5
6B9
  8
0
  6
CONTINUOUS
 62
     8
 10
-113.4338267484
 20
307.7841543689
 30
0.0
  0
VERTEX
  5
6BA
  8
0
  6
CONTINUOUS
 62
     8
 10
-112.9086632618
 20
307.7886474473
 30
0.0
  0
VERTEX
  5
6BB
  8
0
  6
CONTINUOUS
 62
     8
 10
-112.3786755243
 20
307.8168573154
 30
0.0
  0
VERTEX
  5
6BC
  8
0
  6
CONTINUOUS
 62
     8
 10
-111.8462700734
 20
307.8686558636
 30
0.0
  0
SEQEND
  5
B60
  8
0
  6
CONTINUOUS
 62
     8
  0
POLYLINE
  5
1DB
  8
0
  6
CONTINUOUS
 62
     8
 66
     1
 10
0.0
 20
0.0
 30
0.0
  0
VERTEX
  5
6BD
  8
0
  6
CONTINUOUS
 62
     8
 10
-116.9125251809
 20
494.8374987269
 30
0.0
  0
VERTEX
  5
6BE
  8
0
  6
CONTINUOUS
 62
     8
 10
-117.0468777755
 20
488.7433708334
 30
0.0
  0
VERTEX
  5
6BF
  8
0
  6
CONTINUOUS
 62
     8
 10
-117.1817221084
 20
482.6280832911
 30
0.0
  0
SEQEND
  5
B5F
  8
0
  6
CONTINUOUS
 62
     8
  0
POLYLINE
  5
1DC
  8
0
  6
CONTINUOUS
 62
     8
 66
     1
 10
0.0
 20
0.0
 30
0.0
  0
VERTEX
  5
6C0
  8
0
  6
CONTINUOUS
 62
     8
 10
-72.7152265945
 20
494.8374987269
 30
0.0
  0
VERTEX
  5
6C1
  8
0
  6
CONTINUOUS
 62
     8
 10
-72.5808739999
 20
488.7433708334
 30
0.0
  0
VERTEX
  5
6C2
  8
0
  6
CONTINUOUS
 62
     8
 10
-72.446029667
 20
482.6280832911
 30
0.0
  0
SEQEND
  5
B5E
  8
0
  6
CONTINUOUS
 62
     8
  0
LINE
  5
1DD
  8
0
  6
CONTINUOUS
 62
     8
 10
-111.7175780574
 20
519.8374897862
 30
0.0
 11
-118.6421476641
 21
519.8374897862
 31
0.0
  0
ARC
  5
1DE
  8
0
  6
CONTINUOUS
 62
     8
 10
-121.5919402614
 20
519.8877339792
 30
0.0
 40
2.95022047406517
 50
359.0241680553
 51
88.9897541767
  0
ARC
  5
1DF
  8
0
  6
CONTINUOUS
 62
     8
 10
-68.035811514
 20
519.8877339792
 30
0.0
 40
2.95022047406517
 50
91.0102458233
 51
180.9758319447
  0
LINE
  5
1E0
  8
0
  6
CONTINUOUS
 62
     8
 10
-70.9856041113
 20
519.8374897862
 30
0.0
 11
-77.910173718
 21
519.8374897862
 31
0.0
  0
POLYLINE
  5
1E1
  8
0
  6
CONTINUOUS
 62
     8
 66
     1
 10
0.0
 20
0.0
 30
0.0
  0
VERTEX
  5
6C3
  8
0
  6
CONTINUOUS
 62
     8
 10
-118.7873632053
 20
283.0901690448
 30
0.0
  0
VERTEX
  5
6C4
  8
0
  6
CONTINUOUS
 62
     8
 10
-118.7849101016
 20
283.1209809208
 30
0.0
  0
VERTEX
  5
6C5
  8
0
  6
CONTINUOUS
 62
     8
 10
-118.6305862257
 20
285.2597986037
 30
0.0
  0
VERTEX
  5
6C6
  8
0
  6
CONTINUOUS
 62
     8
 10
-118.5030304232
 20
287.4724720294
 30
0.0
  0
VERTEX
  5
6C7
  8
0
  6
CONTINUOUS
 62
     8
 10
-118.4047703037
 20
289.7508279109
 30
0.0
  0
VERTEX
  5
6C8
  8
0
  6
CONTINUOUS
 62
     8
 10
-118.3383372018
 20
292.0866910988
 30
0.0
  0
VERTEX
  5
6C9
  8
0
  6
CONTINUOUS
 62
     8
 10
-118.3058042416
 20
294.5409738148
 30
0.0
  0
VERTEX
  5
6CA
  8
0
  6
CONTINUOUS
 62
     8
 10
-118.3163486758
 20
297.0456652963
 30
0.0
  0
VERTEX
  5
6CB
  8
0
  6
CONTINUOUS
 62
     8
 10
-118.3791105041
 20
299.5914523179
 30
0.0
  0
VERTEX
  5
6CC
  8
0
  6
CONTINUOUS
 62
     8
 10
-118.5032241383
 20
302.1690188596
 30
0.0
  0
VERTEX
  5
6CD
  8
0
  6
CONTINUOUS
 62
     8
 10
-118.6702661553
 20
304.4285024205
 30
0.0
  0
VERTEX
  5
6CE
  8
0
  6
CONTINUOUS
 62
     8
 10
-118.9061925152
 20
306.701306921
 30
0.0
  0
VERTEX
  5
6CF
  8
0
  6
CONTINUOUS
 62
     8
 10
-119.228083674
 20
308.9942498753
 30
0.0
  0
VERTEX
  5
6D0
  8
0
  6
CONTINUOUS
 62
     8
 10
-119.6559295395
 20
311.284294088
 30
0.0
  0
SEQEND
  5
B5D
  8
0
  6
CONTINUOUS
 62
     8
  0
POLYLINE
  5
1E2
  8
0
  6
CONTINUOUS
 62
     8
 66
     1
 10
0.0
 20
0.0
 30
0.0
  0
VERTEX
  5
6D1
  8
0
  6
CONTINUOUS
 62
     8
 10
-70.8403885701
 20
283.0901690448
 30
0.0
  0
VERTEX
  5
6D2
  8
0
  6
CONTINUOUS
 62
     8
 10
-70.8428416738
 20
283.1209809208
 30
0.0
  0
VERTEX
  5
6D3
  8
0
  6
CONTINUOUS
 62
     8
 10
-70.9971655497
 20
285.2597986037
 30
0.0
  0
VERTEX
  5
6D4
  8
0
  6
CONTINUOUS
 62
     8
 10
-71.1247213522
 20
287.4724720294
 30
0.0
  0
VERTEX
  5
6D5
  8
0
  6
CONTINUOUS
 62
     8
 10
-71.2229814717
 20
289.7508279109
 30
0.0
  0
VERTEX
  5
6D6
  8
0
  6
CONTINUOUS
 62
     8
 10
-71.2894145736
 20
292.0866910988
 30
0.0
  0
VERTEX
  5
6D7
  8
0
  6
CONTINUOUS
 62
     8
 10
-71.3219475338
 20
294.5409738148
 30
0.0
  0
VERTEX
  5
6D8
  8
0
  6
CONTINUOUS
 62
     8
 10
-71.3114030996
 20
297.0456652963
 30
0.0
  0
VERTEX
  5
6D9
  8
0
  6
CONTINUOUS
 62
     8
 10
-71.2486412713
 20
299.5914523179
 30
0.0
  0
VERTEX
  5
6DA
  8
0
  6
CONTINUOUS
 62
     8
 10
-71.1245276371
 20
302.1690188596
 30
0.0
  0
VERTEX
  5
6DB
  8
0
  6
CONTINUOUS
 62
     8
 10
-70.9574856201
 20
304.4285024205
 30
0.0
  0
VERTEX
  5
6DC
  8
0
  6
CONTINUOUS
 62
     8
 10
-70.7215592602
 20
306.701306921
 30
0.0
  0
VERTEX
  5
6DD
  8
0
  6
CONTINUOUS
 62
     8
 10
-70.3996681014
 20
308.9942498753
 30
0.0
  0
VERTEX
  5
6DE
  8
0
  6
CONTINUOUS
 62
     8
 10
-69.9718222359
 20
311.284294088
 30
0.0
  0
SEQEND
  5
B5C
  8
0
  6
CONTINUOUS
 62
     8
  0
LINE
  5
1E3
  8
0
  6
CONTINUOUS
 62
     8
 10
-118.6421476641
 20
519.8374897862
 30
0.0
 11
-118.6421476641
 21
506.2393308306
 31
0.0
  0
LINE
  5
1E4
  8
0
  6
CONTINUOUS
 62
     8
 10
-70.9856041113
 20
506.2393308306
 30
0.0
 11
-70.9856041113
 21
519.8374897862
 31
0.0
  0
ARC
  5
1E5
  8
0
  6
CONTINUOUS
 62
     8
 10
-125.3087266696
 20
466.6660047368
 30
0.0
 40
8.176552930285444
 50
87.982262103
 51
177.3299227321
  0
ARC
  5
1E6
  8
0
  6
CONTINUOUS
 62
     8
 10
-127.133366926
 20
621.1367307899
 30
0.0
 40
154.2203219777978
 50
267.6427768057
 51
268.5125101105
  0
ARC
  5
1E7
  8
0
  6
CONTINUOUS
 62
     8
 10
-64.3355444353
 20
466.6480753619
 30
0.0
 40
8.193907488774457
 50
2.7899310781
 51
91.8978840868
  0
ARC
  5
1E8
  8
0
  6
CONTINUOUS
 62
     8
 10
-62.4943848494
 20
621.1367307899
 30
0.0
 40
154.2203219777978
 50
271.4874898895
 51
272.3572231943
  0
POLYLINE
  5
1E9
  8
0
  6
CONTINUOUS
 62
     8
 66
     1
 10
0.0
 20
0.0
 30
0.0
  0
VERTEX
  5
6DF
  8
0
  6
CONTINUOUS
 62
     8
 10
-129.2955279687
 20
353.2225736106
 30
0.0
  0
VERTEX
  5
6E0
  8
0
  6
CONTINUOUS
 62
     8
 10
-129.2438730934
 20
353.0385777974
 30
0.0
  0
VERTEX
  5
6E1
  8
0
  6
CONTINUOUS
 62
     8
 10
-129.1848384181
 20
352.8210804487
 30
0.0
  0
VERTEX
  5
6E2
  8
0
  6
CONTINUOUS
 62
     8
 10
-129.1184723714
 20
352.570245477
 30
0.0
  0
VERTEX
  5
6E3
  8
0
  6
CONTINUOUS
 62
     8
 10
-129.0448271075
 20
352.2862665975
 30
0.0
  0
VERTEX
  5
6E4
  8
0
  6
CONTINUOUS
 62
     8
 10
-128.9639510551
 20
351.9693598771
 30
0.0
  0
VERTEX
  5
6E5
  8
0
  6
CONTINUOUS
 62
     8
 10
-128.8759149948
 20
351.6197674597
 30
0.0
  0
VERTEX
  5
6E6
  8
0
  6
CONTINUOUS
 62
     8
 10
-128.7807822564
 20
351.2377538407
 30
0.0
  0
VERTEX
  5
6E7
  8
0
  6
CONTINUOUS
 62
     8
 10
-128.6786236206
 20
350.8236170435
 30
0.0
  0
VERTEX
  5
6E8
  8
0
  6
CONTINUOUS
 62
     8
 10
-128.5695173183
 20
350.3776625419
 30
0.0
  0
VERTEX
  5
6E9
  8
0
  6
CONTINUOUS
 62
     8
 10
-128.4535490313
 20
349.9002405131
 30
0.0
  0
VERTEX
  5
6EA
  8
0
  6
CONTINUOUS
 62
     8
 10
-128.3308081666
 20
349.3917123103
 30
0.0
  0
VERTEX
  5
6EB
  8
0
  6
CONTINUOUS
 62
     8
 10
-128.201384131
 20
348.8524653638
 30
0.0
  0
VERTEX
  5
6EC
  8
0
  6
CONTINUOUS
 62
     8
 10
-128.0653812328
 20
348.2829094553
 30
0.0
  0
VERTEX
  5
6ED
  8
0
  6
CONTINUOUS
 62
     8
 10
-127.9228963295
 20
347.683480444
 30
0.0
  0
VERTEX
  5
6EE
  8
0
  6
CONTINUOUS
 62
     8
 10
-127.774044905
 20
347.0546365404
 30
0.0
  0
VERTEX
  5
6EF
  8
0
  6
CONTINUOUS
 62
     8
 10
-127.6189349929
 20
346.3968583072
 30
0.0
  0
VERTEX
  5
6F0
  8
0
  6
CONTINUOUS
 62
     8
 10
-127.4576895276
 20
345.710644933
 30
0.0
  0
VERTEX
  5
6F1
  8
0
  6
CONTINUOUS
 62
     8
 10
-127.2904277185
 20
344.996521684
 30
0.0
  0
VERTEX
  5
6F2
  8
0
  6
CONTINUOUS
 62
     8
 10
-127.1172799507
 20
344.2550324524
 30
0.0
  0
VERTEX
  5
6F3
  8
0
  6
CONTINUOUS
 62
     8
 10
-126.9383766094
 20
343.4867472077
 30
0.0
  0
VERTEX
  5
6F4
  8
0
  6
CONTINUOUS
 62
     8
 10
-126.7538555303
 20
342.6922470951
 30
0.0
  0
VERTEX
  5
6F5
  8
0
  6
CONTINUOUS
 62
     8
 10
-126.5638582745
 20
341.8721393371
 30
0.0
  0
VERTEX
  5
6F6
  8
0
  6
CONTINUOUS
 62
     8
 10
-126.368526403
 20
341.0270535076
 30
0.0
  0
VERTEX
  5
6F7
  8
0
  6
CONTINUOUS
 62
     8
 10
-126.1680126527
 20
340.1576303566
 30
0.0
  0
VERTEX
  5
6F8
  8
0
  6
CONTINUOUS
 62
     8
 10
-125.9624660352
 20
339.2645329857
 30
0.0
  0
VERTEX
  5
6F9
  8
0
  6
CONTINUOUS
 62
     8
 10
-125.752046738
 20
338.3484468484
 30
0.0
  0
VERTEX
  5
6FA
  8
0
  6
CONTINUOUS
 62
     8
 10
-125.5369168112
 20
337.410068574
 30
0.0
  0
VERTEX
  5
6FB
  8
0
  6
CONTINUOUS
 62
     8
 10
-125.3172345796
 20
336.4501152808
 30
0.0
  0
VERTEX
  5
6FC
  8
0
  6
CONTINUOUS
 62
     8
 10
-125.0931732693
 20
335.4693171257
 30
0.0
  0
VERTEX
  5
6FD
  8
0
  6
CONTINUOUS
 62
     8
 10
-124.864902381
 20
334.4684247548
 30
0.0
  0
VERTEX
  5
6FE
  8
0
  6
CONTINUOUS
 62
     8
 10
-124.632593278
 20
333.4482018525
 30
0.0
  0
VERTEX
  5
6FF
  8
0
  6
CONTINUOUS
 62
     8
 10
-124.3964266369
 20
332.4094270045
 30
0.0
  0
VERTEX
  5
700
  8
0
  6
CONTINUOUS
 62
     8
 10
-124.1565831342
 20
331.352891835
 30
0.0
  0
VERTEX
  5
701
  8
0
  6
CONTINUOUS
 62
     8
 10
-123.913241584
 20
330.2794028694
 30
0.0
  0
VERTEX
  5
702
  8
0
  6
CONTINUOUS
 62
     8
 10
-123.666591976
 20
329.1897796715
 30
0.0
  0
VERTEX
  5
703
  8
0
  6
CONTINUOUS
 62
     8
 10
-123.4168187121
 20
328.084852981
 30
0.0
  0
VERTEX
  5
704
  8
0
  6
CONTINUOUS
 62
     8
 10
-123.1641155073
 20
326.9654665762
 30
0.0
  0
VERTEX
  5
705
  8
0
  6
CONTINUOUS
 62
     8
 10
-122.9086742142
 20
325.8324754113
 30
0.0
  0
VERTEX
  5
706
  8
0
  6
CONTINUOUS
 62
     8
 10
-122.6506904104
 20
324.6867418909
 30
0.0
  0
VERTEX
  5
707
  8
0
  6
CONTINUOUS
 62
     8
 10
-122.3903596738
 20
323.5291433209
 30
0.0
  0
VERTEX
  5
708
  8
0
  6
CONTINUOUS
 62
     8
 10
-122.1278813073
 20
322.3605607325
 30
0.0
  0
VERTEX
  5
709
  8
0
  6
CONTINUOUS
 62
     8
 10
-121.863454614
 20
321.1818863327
 30
0.0
  0
VERTEX
  5
70A
  8
0
  6
CONTINUOUS
 62
     8
 10
-121.5972826222
 20
319.994019779
 30
0.0
  0
VERTEX
  5
70B
  8
0
  6
CONTINUOUS
 62
     8
 10
-121.3295683602
 20
318.7978681797
 30
0.0
  0
VERTEX
  5
70C
  8
0
  6
CONTINUOUS
 62
     8
 10
-121.0605167189
 20
317.5943432996
 30
0.0
  0
VERTEX
  5
70D
  8
0
  6
CONTINUOUS
 62
     8
 10
-120.7903307268
 20
316.384364354
 30
0.0
  0
VERTEX
  5
70E
  8
0
  6
CONTINUOUS
 62
     8
 10
-120.5192190001
 20
315.1688538181
 30
0.0
  0
VERTEX
  5
70F
  8
0
  6
CONTINUOUS
 62
     8
 10
-120.2473882923
 20
313.9487397546
 30
0.0
  0
VERTEX
  5
710
  8
0
  6
CONTINUOUS
 62
     8
 10
-119.9750434944
 20
312.7249534862
 30
0.0
  0
VERTEX
  5
711
  8
0
  6
CONTINUOUS
 62
     8
 10
-119.7023950854
 20
311.498428431
 30
0.0
  0
SEQEND
  5
B5B
  8
0
  6
CONTINUOUS
 62
     8
  0
ARC
  5
1EA
  8
0
  6
CONTINUOUS
 62
     8
 10
-433.6601325007
 20
278.111957936
 30
0.0
 40
313.6861850173239
 50
12.5310569868
 51
14.9181066974
  0
ARC
  5
1EB
  8
0
  6
CONTINUOUS
 62
     8
 10
244.0323807253
 20
278.111957936
 30
0.0
 40
313.6861850173239
 50
165.0818933026
 51
167.4689430132
  0
POLYLINE
  5
1EC
  8
0
  6
CONTINUOUS
 62
     8
 66
     1
 10
0.0
 20
0.0
 30
0.0
  0
VERTEX
  5
712
  8
0
  6
CONTINUOUS
 62
     8
 10
-60.3322238067
 20
353.2225736106
 30
0.0
  0
VERTEX
  5
713
  8
0
  6
CONTINUOUS
 62
     8
 10
-60.383878682
 20
353.0385777974
 30
0.0
  0
VERTEX
  5
714
  8
0
  6
CONTINUOUS
 62
     8
 10
-60.4429133573
 20
352.8210804487
 30
0.0
  0
VERTEX
  5
715
  8
0
  6
CONTINUOUS
 62
     8
 10
-60.509279404
 20
352.570245477
 30
0.0
  0
VERTEX
  5
716
  8
0
  6
CONTINUOUS
 62
     8
 10
-60.5829246679
 20
352.2862665975
 30
0.0
  0
VERTEX
  5
717
  8
0
  6
CONTINUOUS
 62
     8
 10
-60.6638007203
 20
351.9693598771
 30
0.0
  0
VERTEX
  5
718
  8
0
  6
CONTINUOUS
 62
     8
 10
-60.7518367806
 20
351.6197674597
 30
0.0
  0
VERTEX
  5
719
  8
0
  6
CONTINUOUS
 62
     8
 10
-60.846969519
 20
351.2377538407
 30
0.0
  0
VERTEX
  5
71A
  8
0
  6
CONTINUOUS
 62
     8
 10
-60.9491281548
 20
350.8236170435
 30
0.0
  0
VERTEX
  5
71B
  8
0
  6
CONTINUOUS
 62
     8
 10
-61.0582344571
 20
350.3776625419
 30
0.0
  0
VERTEX
  5
71C
  8
0
  6
CONTINUOUS
 62
     8
 10
-61.1742027441
 20
349.9002405131
 30
0.0
  0
VERTEX
  5
71D
  8
0
  6
CONTINUOUS
 62
     8
 10
-61.2969436088
 20
349.3917123103
 30
0.0
  0
VERTEX
  5
71E
  8
0
  6
CONTINUOUS
 62
     8
 10
-61.4263676444
 20
348.8524653638
 30
0.0
  0
VERTEX
  5
71F
  8
0
  6
CONTINUOUS
 62
     8
 10
-61.5623705426
 20
348.2829094553
 30
0.0
  0
VERTEX
  5
720
  8
0
  6
CONTINUOUS
 62
     8
 10
-61.7048554459
 20
347.683480444
 30
0.0
  0
VERTEX
  5
721
  8
0
  6
CONTINUOUS
 62
     8
 10
-61.8537068704
 20
347.0546365404
 30
0.0
  0
VERTEX
  5
722
  8
0
  6
CONTINUOUS
 62
     8
 10
-62.0088167825
 20
346.3968583072
 30
0.0
  0
VERTEX
  5
723
  8
0
  6
CONTINUOUS
 62
     8
 10
-62.1700622478
 20
345.710644933
 30
0.0
  0
VERTEX
  5
724
  8
0
  6
CONTINUOUS
 62
     8
 10
-62.3373240569
 20
344.996521684
 30
0.0
  0
VERTEX
  5
725
  8
0
  6
CONTINUOUS
 62
     8
 10
-62.5104718247
 20
344.2550324524
 30
0.0
  0
VERTEX
  5
726
  8
0
  6
CONTINUOUS
 62
     8
 10
-62.689375166
 20
343.4867472077
 30
0.0
  0
VERTEX
  5
727
  8
0
  6
CONTINUOUS
 62
     8
 10
-62.8738962451
 20
342.6922470951
 30
0.0
  0
VERTEX
  5
728
  8
0
  6
CONTINUOUS
 62
     8
 10
-63.0638935009
 20
341.8721393371
 30
0.0
  0
VERTEX
  5
729
  8
0
  6
CONTINUOUS
 62
     8
 10
-63.2592253724
 20
341.0270535076
 30
0.0
  0
VERTEX
  5
72A
  8
0
  6
CONTINUOUS
 62
     8
 10
-63.4597391227
 20
340.1576303566
 30
0.0
  0
VERTEX
  5
72B
  8
0
  6
CONTINUOUS
 62
     8
 10
-63.6652857402
 20
339.2645329857
 30
0.0
  0
VERTEX
  5
72C
  8
0
  6
CONTINUOUS
 62
     8
 10
-63.8757050374
 20
338.3484468484
 30
0.0
  0
VERTEX
  5
72D
  8
0
  6
CONTINUOUS
 62
     8
 10
-64.0908349642
 20
337.410068574
 30
0.0
  0
VERTEX
  5
72E
  8
0
  6
CONTINUOUS
 62
     8
 10
-64.3105171958
 20
336.4501152808
 30
0.0
  0
VERTEX
  5
72F
  8
0
  6
CONTINUOUS
 62
     8
 10
-64.5345785061
 20
335.4693171257
 30
0.0
  0
VERTEX
  5
730
  8
0
  6
CONTINUOUS
 62
     8
 10
-64.7628493944
 20
334.4684247548
 30
0.0
  0
VERTEX
  5
731
  8
0
  6
CONTINUOUS
 62
     8
 10
-64.9951584974
 20
333.4482018525
 30
0.0
  0
VERTEX
  5
732
  8
0
  6
CONTINUOUS
 62
     8
 10
-65.2313251385
 20
332.4094270045
 30
0.0
  0
VERTEX
  5
733
  8
0
  6
CONTINUOUS
 62
     8
 10
-65.4711686412
 20
331.352891835
 30
0.0
  0
VERTEX
  5
734
  8
0
  6
CONTINUOUS
 62
     8
 10
-65.7145101914
 20
330.2794028694
 30
0.0
  0
VERTEX
  5
735
  8
0
  6
CONTINUOUS
 62
     8
 10
-65.9611597994
 20
329.1897796715
 30
0.0
  0
VERTEX
  5
736
  8
0
  6
CONTINUOUS
 62
     8
 10
-66.2109330633
 20
328.084852981
 30
0.0
  0
VERTEX
  5
737
  8
0
  6
CONTINUOUS
 62
     8
 10
-66.4636362681
 20
326.9654665762
 30
0.0
  0
VERTEX
  5
738
  8
0
  6
CONTINUOUS
 62
     8
 10
-66.7190775612
 20
325.8324754113
 30
0.0
  0
VERTEX
  5
739
  8
0
  6
CONTINUOUS
 62
     8
 10
-66.977061365
 20
324.6867418909
 30
0.0
  0
VERTEX
  5
73A
  8
0
  6
CONTINUOUS
 62
     8
 10
-67.2373921016
 20
323.5291433209
 30
0.0
  0
VERTEX
  5
73B
  8
0
  6
CONTINUOUS
 62
     8
 10
-67.4998704681
 20
322.3605607325
 30
0.0
  0
VERTEX
  5
73C
  8
0
  6
CONTINUOUS
 62
     8
 10
-67.7642971614
 20
321.1818863327
 30
0.0
  0
VERTEX
  5
73D
  8
0
  6
CONTINUOUS
 62
     8
 10
-68.0304691532
 20
319.994019779
 30
0.0
  0
VERTEX
  5
73E
  8
0
  6
CONTINUOUS
 62
     8
 10
-68.2981834152
 20
318.7978681797
 30
0.0
  0
VERTEX
  5
73F
  8
0
  6
CONTINUOUS
 62
     8
 10
-68.5672350565
 20
317.5943432996
 30
0.0
  0
VERTEX
  5
740
  8
0
  6
CONTINUOUS
 62
     8
 10
-68.8374210486
 20
316.384364354
 30
0.0
  0
VERTEX
  5
741
  8
0
  6
CONTINUOUS
 62
     8
 10
-69.1085327754
 20
315.1688538181
 30
0.0
  0
VERTEX
  5
742
  8
0
  6
CONTINUOUS
 62
     8
 10
-69.3803634831
 20
313.9487397546
 30
0.0
  0
VERTEX
  5
743
  8
0
  6
CONTINUOUS
 62
     8
 10
-69.652708281
 20
312.7249534862
 30
0.0
  0
VERTEX
  5
744
  8
0
  6
CONTINUOUS
 62
     8
 10
-69.92535669
 20
311.498428431
 30
0.0
  0
SEQEND
  5
B5A
  8
0
  6
CONTINUOUS
 62
     8
  0
POLYLINE
  5
1ED
  8
0
  6
CONTINUOUS
 62
     8
 66
     1
 10
0.0
 20
0.0
 30
0.0
  0
VERTEX
  5
745
  8
0
  6
CONTINUOUS
 62
     8
 10
-70.8403885701
 20
283.0901690448
 30
0.0
  0
VERTEX
  5
746
  8
0
  6
CONTINUOUS
 62
     8
 10
-70.6214364955
 20
283.9736402655
 30
0.0
  0
VERTEX
  5
747
  8
0
  6
CONTINUOUS
 62
     8
 10
-70.3968555072
 20
284.8780085022
 30
0.0
  0
VERTEX
  5
748
  8
0
  6
CONTINUOUS
 62
     8
 10
-70.1668430457
 20
285.8024821306
 30
0.0
  0
VERTEX
  5
749
  8
0
  6
CONTINUOUS
 62
     8
 10
-69.9316002765
 20
286.7462490374
 30
0.0
  0
VERTEX
  5
74A
  8
0
  6
CONTINUOUS
 62
     8
 10
-69.6913358161
 20
287.7084859336
 30
0.0
  0
VERTEX
  5
74B
  8
0
  6
CONTINUOUS
 62
     8
 10
-69.4462564179
 20
288.6883471781
 30
0.0
  0
VERTEX
  5
74C
  8
0
  6
CONTINUOUS
 62
     8
 10
-69.1965781489
 20
289.684977817
 30
0.0
  0
VERTEX
  5
74D
  8
0
  6
CONTINUOUS
 62
     8
 10
-68.9425189385
 20
290.6975042695
 30
0.0
  0
VERTEX
  5
74E
  8
0
  6
CONTINUOUS
 62
     8
 10
-68.6843023041
 20
291.725038054
 30
0.0
  0
VERTEX
  5
74F
  8
0
  6
CONTINUOUS
 62
     8
 10
-68.4221554884
 20
292.7666813755
 30
0.0
  0
VERTEX
  5
750
  8
0
  6
CONTINUOUS
 62
     8
 10
-68.1563038716
 20
293.8215215379
 30
0.0
  0
VERTEX
  5
751
  8
0
  6
CONTINUOUS
 62
     8
 10
-67.8869858721
 20
294.8886346692
 30
0.0
  0
VERTEX
  5
752
  8
0
  6
CONTINUOUS
 62
     8
 10
-67.614432458
 20
295.9670866528
 30
0.0
  0
VERTEX
  5
753
  8
0
  6
CONTINUOUS
 62
     8
 10
-67.3388839105
 20
297.0559331277
 30
0.0
  0
VERTEX
  5
754
  8
0
  6
CONTINUOUS
 62
     8
 10
-67.0605842361
 20
298.1542204196
 30
0.0
  0
VERTEX
  5
755
  8
0
  6
CONTINUOUS
 62
     8
 10
-66.7797718534
 20
299.2609864721
 30
0.0
  0
VERTEX
  5
756
  8
0
  6
CONTINUOUS
 62
     8
 10
-66.4966963568
 20
300.3752631755
 30
0.0
  0
VERTEX
  5
757
  8
0
  6
CONTINUOUS
 62
     8
 10
-66.2116054782
 20
301.4960740382
 30
0.0
  0
VERTEX
  5
758
  8
0
  6
CONTINUOUS
 62
     8
 10
-65.924748812
 20
302.622437446
 30
0.0
  0
VERTEX
  5
759
  8
0
  6
CONTINUOUS
 62
     8
 10
-65.6363759527
 20
303.7533680597
 30
0.0
  0
VERTEX
  5
75A
  8
0
  6
CONTINUOUS
 62
     8
 10
-65.3467402199
 20
304.8878744865
 30
0.0
  0
VERTEX
  5
75B
  8
0
  6
CONTINUOUS
 62
     8
 10
-65.0560949335
 20
306.02496382
 30
0.0
  0
VERTEX
  5
75C
  8
0
  6
CONTINUOUS
 62
     8
 10
-64.7646952757
 20
307.1636404182
 30
0.0
  0
VERTEX
  5
75D
  8
0
  6
CONTINUOUS
 62
     8
 10
-64.4727964291
 20
308.3029070092
 30
0.0
  0
VERTEX
  5
75E
  8
0
  6
CONTINUOUS
 62
     8
 10
-64.180653576
 20
309.4417660884
 30
0.0
  0
VERTEX
  5
75F
  8
0
  6
CONTINUOUS
 62
     8
 10
-63.8885218987
 20
310.5792202676
 30
0.0
  0
VERTEX
  5
760
  8
0
  6
CONTINUOUS
 62
     8
 10
-63.596660305
 20
311.7142738463
 30
0.0
  0
VERTEX
  5
761
  8
0
  6
CONTINUOUS
 62
     8
 10
-63.3053183892
 20
312.8459327543
 30
0.0
  0
VERTEX
  5
762
  8
0
  6
CONTINUOUS
 62
     8
 10
-63.0147569218
 20
313.9732055986
 30
0.0
  0
VERTEX
  5
763
  8
0
  6
CONTINUOUS
 62
     8
 10
-62.7252310851
 20
315.0951061087
 30
0.0
  0
VERTEX
  5
764
  8
0
  6
CONTINUOUS
 62
     8
 10
-62.4369867483
 20
316.2106512735
 30
0.0
  0
VERTEX
  5
765
  8
0
  6
CONTINUOUS
 62
     8
 10
-62.1502846816
 20
317.3188646013
 30
0.0
  0
VERTEX
  5
766
  8
0
  6
CONTINUOUS
 62
     8
 10
-61.8653707543
 20
318.4187751884
 30
0.0
  0
VERTEX
  5
767
  8
0
  6
CONTINUOUS
 62
     8
 10
-61.5824982861
 20
319.5094200471
 30
0.0
  0
VERTEX
  5
768
  8
0
  6
CONTINUOUS
 62
     8
 10
-61.3019094208
 20
320.5898455033
 30
0.0
  0
VERTEX
  5
769
  8
0
  6
CONTINUOUS
 62
     8
 10
-61.0238574782
 20
321.6591034705
 30
0.0
  0
VERTEX
  5
76A
  8
0
  6
CONTINUOUS
 62
     8
 10
-60.7485771516
 20
322.7162579695
 30
0.0
  0
VERTEX
  5
76B
  8
0
  6
CONTINUOUS
 62
     8
 10
-60.4763180354
 20
323.7603851283
 30
0.0
  0
VERTEX
  5
76C
  8
0
  6
CONTINUOUS
 62
     8
 10
-60.207314823
 20
324.7905675942
 30
0.0
  0
VERTEX
  5
76D
  8
0
  6
CONTINUOUS
 62
     8
 10
-59.9417984823
 20
325.8059066409
 30
0.0
  0
VERTEX
  5
76E
  8
0
  6
CONTINUOUS
 62
     8
 10
-59.6800074318
 20
326.8055100614
 30
0.0
  0
VERTEX
  5
76F
  8
0
  6
CONTINUOUS
 62
     8
 10
-59.4221726397
 20
327.7885061378
 30
0.0
  0
VERTEX
  5
770
  8
0
  6
CONTINUOUS
 62
     8
 10
-59.168513898
 20
328.7540306026
 30
0.0
  0
VERTEX
  5
771
  8
0
  6
CONTINUOUS
 62
     8
 10
-58.9192547241
 20
329.7012396777
 30
0.0
  0
VERTEX
  5
772
  8
0
  6
CONTINUOUS
 62
     8
 10
-58.6746186355
 20
330.6293044859
 30
0.0
  0
VERTEX
  5
773
  8
0
  6
CONTINUOUS
 62
     8
 10
-58.4348142484
 20
331.5374091888
 30
0.0
  0
VERTEX
  5
774
  8
0
  6
CONTINUOUS
 62
     8
 10
-58.2000501791
 20
332.4247640246
 30
0.0
  0
VERTEX
  5
775
  8
0
  6
CONTINUOUS
 62
     8
 10
-57.9705387691
 20
333.2905866826
 30
0.0
  0
VERTEX
  5
776
  8
0
  6
CONTINUOUS
 62
     8
 10
-57.7464737335
 20
334.1341227913
 30
0.0
  0
VERTEX
  5
777
  8
0
  6
CONTINUOUS
 62
     8
 10
-57.5280599633
 20
334.9546310181
 30
0.0
  0
VERTEX
  5
778
  8
0
  6
CONTINUOUS
 62
     8
 10
-57.3154799977
 20
335.7513942445
 30
0.0
  0
VERTEX
  5
779
  8
0
  6
CONTINUOUS
 62
     8
 10
-57.1089238265
 20
336.5237139786
 30
0.0
  0
SEQEND
  5
B59
  8
0
  6
CONTINUOUS
 62
     8
  0
POLYLINE
  5
1EE
  8
0
  6
CONTINUOUS
 62
     8
 66
     1
 10
0.0
 20
0.0
 30
0.0
  0
VERTEX
  5
77A
  8
0
  6
CONTINUOUS
 62
     8
 10
-118.7873632053
 20
283.0901690448
 30
0.0
  0
VERTEX
  5
77B
  8
0
  6
CONTINUOUS
 62
     8
 10
-119.0063152799
 20
283.9736402655
 30
0.0
  0
VERTEX
  5
77C
  8
0
  6
CONTINUOUS
 62
     8
 10
-119.2308962682
 20
284.8780085022
 30
0.0
  0
VERTEX
  5
77D
  8
0
  6
CONTINUOUS
 62
     8
 10
-119.4609087297
 20
285.8024821306
 30
0.0
  0
VERTEX
  5
77E
  8
0
  6
CONTINUOUS
 62
     8
 10
-119.6961514989
 20
286.7462490374
 30
0.0
  0
VERTEX
  5
77F
  8
0
  6
CONTINUOUS
 62
     8
 10
-119.9364159593
 20
287.7084859336
 30
0.0
  0
VERTEX
  5
780
  8
0
  6
CONTINUOUS
 62
     8
 10
-120.1814953575
 20
288.6883471781
 30
0.0
  0
VERTEX
  5
781
  8
0
  6
CONTINUOUS
 62
     8
 10
-120.4311736265
 20
289.684977817
 30
0.0
  0
VERTEX
  5
782
  8
0
  6
CONTINUOUS
 62
     8
 10
-120.6852328369
 20
290.6975042695
 30
0.0
  0
VERTEX
  5
783
  8
0
  6
CONTINUOUS
 62
     8
 10
-120.9434494713
 20
291.725038054
 30
0.0
  0
VERTEX
  5
784
  8
0
  6
CONTINUOUS
 62
     8
 10
-121.205596287
 20
292.7666813755
 30
0.0
  0
VERTEX
  5
785
  8
0
  6
CONTINUOUS
 62
     8
 10
-121.4714479038
 20
293.8215215379
 30
0.0
  0
VERTEX
  5
786
  8
0
  6
CONTINUOUS
 62
     8
 10
-121.7407659033
 20
294.8886346692
 30
0.0
  0
VERTEX
  5
787
  8
0
  6
CONTINUOUS
 62
     8
 10
-122.0133193174
 20
295.9670866528
 30
0.0
  0
VERTEX
  5
788
  8
0
  6
CONTINUOUS
 62
     8
 10
-122.2888678649
 20
297.0559331277
 30
0.0
  0
VERTEX
  5
789
  8
0
  6
CONTINUOUS
 62
     8
 10
-122.5671675393
 20
298.1542204196
 30
0.0
  0
VERTEX
  5
78A
  8
0
  6
CONTINUOUS
 62
     8
 10
-122.847979922
 20
299.2609864721
 30
0.0
  0
VERTEX
  5
78B
  8
0
  6
CONTINUOUS
 62
     8
 10
-123.1310554186
 20
300.3752631755
 30
0.0
  0
VERTEX
  5
78C
  8
0
  6
CONTINUOUS
 62
     8
 10
-123.4161462972
 20
301.4960740382
 30
0.0
  0
VERTEX
  5
78D
  8
0
  6
CONTINUOUS
 62
     8
 10
-123.7030029634
 20
302.622437446
 30
0.0
  0
VERTEX
  5
78E
  8
0
  6
CONTINUOUS
 62
     8
 10
-123.9913758227
 20
303.7533680597
 30
0.0
  0
VERTEX
  5
78F
  8
0
  6
CONTINUOUS
 62
     8
 10
-124.2810115555
 20
304.8878744865
 30
0.0
  0
VERTEX
  5
790
  8
0
  6
CONTINUOUS
 62
     8
 10
-124.5716568419
 20
306.02496382
 30
0.0
  0
VERTEX
  5
791
  8
0
  6
CONTINUOUS
 62
     8
 10
-124.8630564997
 20
307.1636404182
 30
0.0
  0
VERTEX
  5
792
  8
0
  6
CONTINUOUS
 62
     8
 10
-125.1549553463
 20
308.3029070092
 30
0.0
  0
VERTEX
  5
793
  8
0
  6
CONTINUOUS
 62
     8
 10
-125.4470981994
 20
309.4417660884
 30
0.0
  0
VERTEX
  5
794
  8
0
  6
CONTINUOUS
 62
     8
 10
-125.7392298767
 20
310.5792202676
 30
0.0
  0
VERTEX
  5
795
  8
0
  6
CONTINUOUS
 62
     8
 10
-126.0310914704
 20
311.7142738463
 30
0.0
  0
VERTEX
  5
796
  8
0
  6
CONTINUOUS
 62
     8
 10
-126.3224333862
 20
312.8459327543
 30
0.0
  0
VERTEX
  5
797
  8
0
  6
CONTINUOUS
 62
     8
 10
-126.6129948536
 20
313.9732055986
 30
0.0
  0
VERTEX
  5
798
  8
0
  6
CONTINUOUS
 62
     8
 10
-126.9025206903
 20
315.0951061087
 30
0.0
  0
VERTEX
  5
799
  8
0
  6
CONTINUOUS
 62
     8
 10
-127.1907650271
 20
316.2106512735
 30
0.0
  0
VERTEX
  5
79A
  8
0
  6
CONTINUOUS
 62
     8
 10
-127.4774670938
 20
317.3188646013
 30
0.0
  0
VERTEX
  5
79B
  8
0
  6
CONTINUOUS
 62
     8
 10
-127.7623810211
 20
318.4187751884
 30
0.0
  0
VERTEX
  5
79C
  8
0
  6
CONTINUOUS
 62
     8
 10
-128.0452534893
 20
319.5094200471
 30
0.0
  0
VERTEX
  5
79D
  8
0
  6
CONTINUOUS
 62
     8
 10
-128.3258423546
 20
320.5898455033
 30
0.0
  0
VERTEX
  5
79E
  8
0
  6
CONTINUOUS
 62
     8
 10
-128.6038942972
 20
321.6591034705
 30
0.0
  0
VERTEX
  5
79F
  8
0
  6
CONTINUOUS
 62
     8
 10
-128.8791746238
 20
322.7162579695
 30
0.0
  0
VERTEX
  5
7A0
  8
0
  6
CONTINUOUS
 62
     8
 10
-129.15143374
 20
323.7603851283
 30
0.0
  0
VERTEX
  5
7A1
  8
0
  6
CONTINUOUS
 62
     8
 10
-129.4204369524
 20
324.7905675942
 30
0.0
  0
VERTEX
  5
7A2
  8
0
  6
CONTINUOUS
 62
     8
 10
-129.6859532932
 20
325.8059066409
 30
0.0
  0
VERTEX
  5
7A3
  8
0
  6
CONTINUOUS
 62
     8
 10
-129.9477443436
 20
326.8055100614
 30
0.0
  0
VERTEX
  5
7A4
  8
0
  6
CONTINUOUS
 62
     8
 10
-130.2055791357
 20
327.7885061378
 30
0.0
  0
VERTEX
  5
7A5
  8
0
  6
CONTINUOUS
 62
     8
 10
-130.4592378774
 20
328.7540306026
 30
0.0
  0
VERTEX
  5
7A6
  8
0
  6
CONTINUOUS
 62
     8
 10
-130.7084970513
 20
329.7012396777
 30
0.0
  0
VERTEX
  5
7A7
  8
0
  6
CONTINUOUS
 62
     8
 10
-130.9531331399
 20
330.6293044859
 30
0.0
  0
VERTEX
  5
7A8
  8
0
  6
CONTINUOUS
 62
     8
 10
-131.192937527
 20
331.5374091888
 30
0.0
  0
VERTEX
  5
7A9
  8
0
  6
CONTINUOUS
 62
     8
 10
-131.4277015963
 20
332.4247640246
 30
0.0
  0
VERTEX
  5
7AA
  8
0
  6
CONTINUOUS
 62
     8
 10
-131.6572130063
 20
333.2905866826
 30
0.0
  0
VERTEX
  5
7AB
  8
0
  6
CONTINUOUS
 62
     8
 10
-131.8812780419
 20
334.1341227913
 30
0.0
  0
VERTEX
  5
7AC
  8
0
  6
CONTINUOUS
 62
     8
 10
-132.0996918121
 20
334.9546310181
 30
0.0
  0
VERTEX
  5
7AD
  8
0
  6
CONTINUOUS
 62
     8
 10
-132.3122717777
 20
335.7513942445
 30
0.0
  0
VERTEX
  5
7AE
  8
0
  6
CONTINUOUS
 62
     8
 10
-132.5188279489
 20
336.5237139786
 30
0.0
  0
SEQEND
  5
B58
  8
0
  6
CONTINUOUS
 62
     8
  0
LINE
  5
1EF
  8
0
  6
CONTINUOUS
 62
     8
 10
-133.868128095
 20
452.8380543614
 30
0.0
 11
-133.4764026442
 21
467.0469076062
 31
0.0
  0
LINE
  5
1F0
  8
0
  6
CONTINUOUS
 62
     8
 10
-55.7596236804
 20
452.8380543614
 30
0.0
 11
-56.1513491312
 21
467.0469076062
 31
0.0
  0
LINE
  5
1F1
  8
0
  6
CONTINUOUS
 62
     8
 10
-52.471540902
 20
467.0469076062
 30
0.0
 11
-56.1513491312
 21
467.0469076062
 31
0.0
  0
ARC
  5
1F2
  8
0
  6
CONTINUOUS
 62
     8
 10
-62.1591528619
 20
460.3474812359
 30
0.0
 40
14.48865735758735
 50
64.6074645334
 51
90.1284384491
  0
ARC
  5
1F3
  8
0
  6
CONTINUOUS
 62
     8
 10
-127.4690740429
 20
460.3487740618
 30
0.0
 40
14.48728568686297
 50
89.8794531333
 51
115.3930304562
  0
LINE
  5
1F4
  8
0
  6
CONTINUOUS
 62
     8
 10
-137.1562108734
 20
467.0469076062
 30
0.0
 11
-133.4764026442
 21
467.0469076062
 31
0.0
  0
ARC
  5
1F5
  8
0
  6
CONTINUOUS
 62
     8
 10
-458.9666764116
 20
270.8482652792
 30
0.0
 40
340.2810594592275
 50
13.0879172721
 51
15.2945978065
  0
ARC
  5
1F6
  8
0
  6
CONTINUOUS
 62
     8
 10
269.3389246362
 20
270.8482652792
 30
0.0
 40
340.2810594592274
 50
164.7054021935
 51
166.9120827279
  0
POLYLINE
  5
1F7
  8
0
  6
CONTINUOUS
 62
     8
 66
     1
 10
0.0
 20
0.0
 30
0.0
  0
VERTEX
  5
7AF
  8
0
  6
CONTINUOUS
 62
     8
 10
-121.3724632153
 20
482.6280832911
 30
0.0
  0
VERTEX
  5
7B0
  8
0
  6
CONTINUOUS
 62
     8
 10
-121.3965863326
 20
482.0918799067
 30
0.0
  0
VERTEX
  5
7B1
  8
0
  6
CONTINUOUS
 62
     8
 10
-121.4477122167
 20
481.5590441847
 30
0.0
  0
VERTEX
  5
7B2
  8
0
  6
CONTINUOUS
 62
     8
 10
-121.5256098995
 20
481.0319752121
 30
0.0
  0
VERTEX
  5
7B3
  8
0
  6
CONTINUOUS
 62
     8
 10
-121.6299292037
 20
480.5130422736
 30
0.0
  0
VERTEX
  5
7B4
  8
0
  6
CONTINUOUS
 62
     8
 10
-121.7601988801
 20
480.0045848513
 30
0.0
  0
VERTEX
  5
7B5
  8
0
  6
CONTINUOUS
 62
     8
 10
-121.9158303329
 20
479.5088977242
 30
0.0
  0
VERTEX
  5
7B6
  8
0
  6
CONTINUOUS
 62
     8
 10
-122.0961250702
 20
479.0282309676
 30
0.0
  0
VERTEX
  5
7B7
  8
0
  6
CONTINUOUS
 62
     8
 10
-122.3002672532
 20
478.5647303486
 30
0.0
  0
VERTEX
  5
7B8
  8
0
  6
CONTINUOUS
 62
     8
 10
-122.5273385981
 20
478.1204820299
 30
0.0
  0
VERTEX
  5
7B9
  8
0
  6
CONTINUOUS
 62
     8
 10
-122.7763146499
 20
477.6975125695
 30
0.0
  0
VERTEX
  5
7BA
  8
0
  6
CONTINUOUS
 62
     8
 10
-123.0460740963
 20
477.2977144146
 30
0.0
  0
VERTEX
  5
7BB
  8
0
  6
CONTINUOUS
 62
     8
 10
-123.3353987673
 20
476.922890606
 30
0.0
  0
VERTEX
  5
7BC
  8
0
  6
CONTINUOUS
 62
     8
 10
-123.6429848114
 20
476.5747398758
 30
0.0
  0
VERTEX
  5
7BD
  8
0
  6
CONTINUOUS
 62
     8
 10
-123.9674445579
 20
476.254811945
 30
0.0
  0
VERTEX
  5
7BE
  8
0
  6
CONTINUOUS
 62
     8
 10
-124.3073176929
 20
475.9645671273
 30
0.0
  0
VERTEX
  5
7BF
  8
0
  6
CONTINUOUS
 62
     8
 10
-124.6610712597
 20
475.7053167248
 30
0.0
  0
VERTEX
  5
7C0
  8
0
  6
CONTINUOUS
 62
     8
 10
-125.0271089712
 20
475.4782081271
 30
0.0
  0
VERTEX
  5
7C1
  8
0
  6
CONTINUOUS
 62
     8
 10
-125.4037823865
 20
475.2842844153
 30
0.0
  0
VERTEX
  5
7C2
  8
0
  6
CONTINUOUS
 62
     8
 10
-125.7893909106
 20
475.1244098568
 30
0.0
  0
VERTEX
  5
7C3
  8
0
  6
CONTINUOUS
 62
     8
 10
-126.1821985582
 20
474.9993146086
 30
0.0
  0
VERTEX
  5
7C4
  8
0
  6
CONTINUOUS
 62
     8
 10
-126.5804320911
 20
474.9095500136
 30
0.0
  0
VERTEX
  5
7C5
  8
0
  6
CONTINUOUS
 62
     8
 10
-126.9823015073
 20
474.8555333042
 30
0.0
  0
VERTEX
  5
7C6
  8
0
  6
CONTINUOUS
 62
     8
 10
-127.3859851399
 20
474.837487998
 30
0.0
  0
SEQEND
  5
B57
  8
0
  6
CONTINUOUS
 62
     8
  0
LINE
  5
1F8
  8
0
  6
CONTINUOUS
 62
     8
 10
-121.3724632153
 20
482.6280832911
 30
0.0
 11
-119.0765537658
 21
482.6280832911
 31
0.0
  0
POLYLINE
  5
1F9
  8
0
  6
CONTINUOUS
 62
     8
 66
     1
 10
0.0
 20
0.0
 30
0.0
  0
VERTEX
  5
7C7
  8
0
  6
CONTINUOUS
 62
     8
 10
-124.5702244678
 20
474.837487998
 30
0.0
  0
VERTEX
  5
7C8
  8
0
  6
CONTINUOUS
 62
     8
 10
-124.2014356294
 20
474.8555333042
 30
0.0
  0
VERTEX
  5
7C9
  8
0
  6
CONTINUOUS
 62
     8
 10
-123.8343101332
 20
474.9095500136
 30
0.0
  0
VERTEX
  5
7CA
  8
0
  6
CONTINUOUS
 62
     8
 10
-123.4705020079
 20
474.9993146086
 30
0.0
  0
VERTEX
  5
7CB
  8
0
  6
CONTINUOUS
 62
     8
 10
-123.1116503814
 20
475.1244098568
 30
0.0
  0
VERTEX
  5
7CC
  8
0
  6
CONTINUOUS
 62
     8
 10
-122.7593757549
 20
475.2842844153
 30
0.0
  0
VERTEX
  5
7CD
  8
0
  6
CONTINUOUS
 62
     8
 10
-122.4152669647
 20
475.4782081271
 30
0.0
  0
VERTEX
  5
7CE
  8
0
  6
CONTINUOUS
 62
     8
 10
-122.0808700064
 20
475.7053167248
 30
0.0
  0
VERTEX
  5
7CF
  8
0
  6
CONTINUOUS
 62
     8
 10
-121.7576992104
 20
475.9645671273
 30
0.0
  0
VERTEX
  5
7D0
  8
0
  6
CONTINUOUS
 62
     8
 10
-121.4472074399
 20
476.254811945
 30
0.0
  0
VERTEX
  5
7D1
  8
0
  6
CONTINUOUS
 62
     8
 10
-121.1507935414
 20
476.5747398758
 30
0.0
  0
VERTEX
  5
7D2
  8
0
  6
CONTINUOUS
 62
     8
 10
-120.8697986195
 20
476.922890606
 30
0.0
  0
VERTEX
  5
7D3
  8
0
  6
CONTINUOUS
 62
     8
 10
-120.6054855475
 20
477.2977144146
 30
0.0
  0
VERTEX
  5
7D4
  8
0
  6
CONTINUOUS
 62
     8
 10
-120.3590464184
 20
477.6975125695
 30
0.0
  0
VERTEX
  5
7D5
  8
0
  6
CONTINUOUS
 62
     8
 10
-120.1315932313
 20
478.1204820299
 30
0.0
  0
VERTEX
  5
7D6
  8
0
  6
CONTINUOUS
 62
     8
 10
-119.9241523036
 20
478.5647303486
 30
0.0
  0
VERTEX
  5
7D7
  8
0
  6
CONTINUOUS
 62
     8
 10
-119.7376568207
 20
479.0282309676
 30
0.0
  0
VERTEX
  5
7D8
  8
0
  6
CONTINUOUS
 62
     8
 10
-119.5729486981
 20
479.5088977242
 30
0.0
  0
VERTEX
  5
7D9
  8
0
  6
CONTINUOUS
 62
     8
 10
-119.4307692686
 20
480.0045848513
 30
0.0
  0
VERTEX
  5
7DA
  8
0
  6
CONTINUOUS
 62
     8
 10
-119.3117611447
 20
480.5130422736
 30
0.0
  0
VERTEX
  5
7DB
  8
0
  6
CONTINUOUS
 62
     8
 10
-119.2164607683
 20
481.0319752121
 30
0.0
  0
VERTEX
  5
7DC
  8
0
  6
CONTINUOUS
 62
     8
 10
-119.1452965477
 20
481.5590441847
 30
0.0
  0
VERTEX
  5
7DD
  8
0
  6
CONTINUOUS
 62
     8
 10
-119.0985907206
 20
482.0918799067
 30
0.0
  0
VERTEX
  5
7DE
  8
0
  6
CONTINUOUS
 62
     8
 10
-119.0765537658
 20
482.6280832911
 30
0.0
  0
SEQEND
  5
B56
  8
0
  6
CONTINUOUS
 62
     8
  0
ARC
  5
1FA
  8
0
  6
CONTINUOUS
 62
     8
 10
-118.1291379371
 20
575.4797484922
 30
0.0
 40
92.85649857368155
 50
269.4154004175
 51
270.5845995825
  0
POLYLINE
  5
1FB
  8
0
  6
CONTINUOUS
 62
     8
 66
     1
 10
0.0
 20
0.0
 30
0.0
  0
VERTEX
  5
7DF
  8
0
  6
CONTINUOUS
 62
     8
 10
-65.0575273076
 20
474.837487998
 30
0.0
  0
VERTEX
  5
7E0
  8
0
  6
CONTINUOUS
 62
     8
 10
-65.426316146
 20
474.8555333042
 30
0.0
  0
VERTEX
  5
7E1
  8
0
  6
CONTINUOUS
 62
     8
 10
-65.7934416422
 20
474.9095500136
 30
0.0
  0
VERTEX
  5
7E2
  8
0
  6
CONTINUOUS
 62
     8
 10
-66.1572497675
 20
474.9993146086
 30
0.0
  0
VERTEX
  5
7E3
  8
0
  6
CONTINUOUS
 62
     8
 10
-66.516101394
 20
475.1244098568
 30
0.0
  0
VERTEX
  5
7E4
  8
0
  6
CONTINUOUS
 62
     8
 10
-66.8683760205
 20
475.2842844153
 30
0.0
  0
VERTEX
  5
7E5
  8
0
  6
CONTINUOUS
 62
     8
 10
-67.2124848107
 20
475.4782081271
 30
0.0
  0
VERTEX
  5
7E6
  8
0
  6
CONTINUOUS
 62
     8
 10
-67.546881769
 20
475.7053167248
 30
0.0
  0
VERTEX
  5
7E7
  8
0
  6
CONTINUOUS
 62
     8
 10
-67.8700525651
 20
475.9645671273
 30
0.0
  0
VERTEX
  5
7E8
  8
0
  6
CONTINUOUS
 62
     8
 10
-68.1805443356
 20
476.254811945
 30
0.0
  0
VERTEX
  5
7E9
  8
0
  6
CONTINUOUS
 62
     8
 10
-68.476958234
 20
476.5747398758
 30
0.0
  0
VERTEX
  5
7EA
  8
0
  6
CONTINUOUS
 62
     8
 10
-68.7579531559
 20
476.922890606
 30
0.0
  0
VERTEX
  5
7EB
  8
0
  6
CONTINUOUS
 62
     8
 10
-69.0222662279
 20
477.2977144146
 30
0.0
  0
VERTEX
  5
7EC
  8
0
  6
CONTINUOUS
 62
     8
 10
-69.268705357
 20
477.6975125695
 30
0.0
  0
VERTEX
  5
7ED
  8
0
  6
CONTINUOUS
 62
     8
 10
-69.4961585441
 20
478.1204820299
 30
0.0
  0
VERTEX
  5
7EE
  8
0
  6
CONTINUOUS
 62
     8
 10
-69.7035994718
 20
478.5647303486
 30
0.0
  0
VERTEX
  5
7EF
  8
0
  6
CONTINUOUS
 62
     8
 10
-69.8900949547
 20
479.0282309676
 30
0.0
  0
VERTEX
  5
7F0
  8
0
  6
CONTINUOUS
 62
     8
 10
-70.0548030773
 20
479.5088977242
 30
0.0
  0
VERTEX
  5
7F1
  8
0
  6
CONTINUOUS
 62
     8
 10
-70.1969825068
 20
480.0045848513
 30
0.0
  0
VERTEX
  5
7F2
  8
0
  6
CONTINUOUS
 62
     8
 10
-70.3159906307
 20
480.5130422736
 30
0.0
  0
VERTEX
  5
7F3
  8
0
  6
CONTINUOUS
 62
     8
 10
-70.4112910071
 20
481.0319752121
 30
0.0
  0
VERTEX
  5
7F4
  8
0
  6
CONTINUOUS
 62
     8
 10
-70.4824552277
 20
481.5590441847
 30
0.0
  0
VERTEX
  5
7F5
  8
0
  6
CONTINUOUS
 62
     8
 10
-70.5291610548
 20
482.0918799067
 30
0.0
  0
VERTEX
  5
7F6
  8
0
  6
CONTINUOUS
 62
     8
 10
-70.5511980096
 20
482.6280832911
 30
0.0
  0
SEQEND
  5
B55
  8
0
  6
CONTINUOUS
 62
     8
  0
ARC
  5
1FC
  8
0
  6
CONTINUOUS
 62
     8
 10
-71.4986138383
 20
575.4797484922
 30
0.0
 40
92.85649857368155
 50
269.4154004175
 51
270.5845995825
  0
LINE
  5
1FD
  8
0
  6
CONTINUOUS
 62
     8
 10
-68.2552885601
 20
482.6280832911
 30
0.0
 11
-70.5511980096
 21
482.6280832911
 31
0.0
  0
POLYLINE
  5
1FE
  8
0
  6
CONTINUOUS
 62
     8
 66
     1
 10
0.0
 20
0.0
 30
0.0
  0
VERTEX
  5
7F7
  8
0
  6
CONTINUOUS
 62
     8
 10
-68.2552885601
 20
482.6280832911
 30
0.0
  0
VERTEX
  5
7F8
  8
0
  6
CONTINUOUS
 62
     8
 10
-68.2311654428
 20
482.0918799067
 30
0.0
  0
VERTEX
  5
7F9
  8
0
  6
CONTINUOUS
 62
     8
 10
-68.1800395587
 20
481.5590441847
 30
0.0
  0
VERTEX
  5
7FA
  8
0
  6
CONTINUOUS
 62
     8
 10
-68.1021418759
 20
481.0319752121
 30
0.0
  0
VERTEX
  5
7FB
  8
0
  6
CONTINUOUS
 62
     8
 10
-67.9978225717
 20
480.5130422736
 30
0.0
  0
VERTEX
  5
7FC
  8
0
  6
CONTINUOUS
 62
     8
 10
-67.8675528953
 20
480.0045848513
 30
0.0
  0
VERTEX
  5
7FD
  8
0
  6
CONTINUOUS
 62
     8
 10
-67.7119214425
 20
479.5088977242
 30
0.0
  0
VERTEX
  5
7FE
  8
0
  6
CONTINUOUS
 62
     8
 10
-67.5316267052
 20
479.0282309676
 30
0.0
  0
VERTEX
  5
7FF
  8
0
  6
CONTINUOUS
 62
     8
 10
-67.3274845222
 20
478.5647303486
 30
0.0
  0
VERTEX
  5
800
  8
0
  6
CONTINUOUS
 62
     8
 10
-67.1004131773
 20
478.1204820299
 30
0.0
  0
VERTEX
  5
801
  8
0
  6
CONTINUOUS
 62
     8
 10
-66.8514371255
 20
477.6975125695
 30
0.0
  0
VERTEX
  5
802
  8
0
  6
CONTINUOUS
 62
     8
 10
-66.5816776791
 20
477.2977144146
 30
0.0
  0
VERTEX
  5
803
  8
0
  6
CONTINUOUS
 62
     8
 10
-66.2923530081
 20
476.922890606
 30
0.0
  0
VERTEX
  5
804
  8
0
  6
CONTINUOUS
 62
     8
 10
-65.984766964
 20
476.5747398758
 30
0.0
  0
VERTEX
  5
805
  8
0
  6
CONTINUOUS
 62
     8
 10
-65.6603072176
 20
476.254811945
 30
0.0
  0
VERTEX
  5
806
  8
0
  6
CONTINUOUS
 62
     8
 10
-65.3204340825
 20
475.9645671273
 30
0.0
  0
VERTEX
  5
807
  8
0
  6
CONTINUOUS
 62
     8
 10
-64.9666805157
 20
475.7053167248
 30
0.0
  0
VERTEX
  5
808
  8
0
  6
CONTINUOUS
 62
     8
 10
-64.6006428042
 20
475.4782081271
 30
0.0
  0
VERTEX
  5
809
  8
0
  6
CONTINUOUS
 62
     8
 10
-64.2239693889
 20
475.2842844153
 30
0.0
  0
VERTEX
  5
80A
  8
0
  6
CONTINUOUS
 62
     8
 10
-63.8383608648
 20
475.1244098568
 30
0.0
  0
VERTEX
  5
80B
  8
0
  6
CONTINUOUS
 62
     8
 10
-63.4455532172
 20
474.9993146086
 30
0.0
  0
VERTEX
  5
80C
  8
0
  6
CONTINUOUS
 62
     8
 10
-63.0473196843
 20
474.9095500136
 30
0.0
  0
VERTEX
  5
80D
  8
0
  6
CONTINUOUS
 62
     8
 10
-62.6454502681
 20
474.8555333042
 30
0.0
  0
VERTEX
  5
80E
  8
0
  6
CONTINUOUS
 62
     8
 10
-62.2417666355
 20
474.837487998
 30
0.0
  0
SEQEND
  5
B54
  8
0
  6
CONTINUOUS
 62
     8
  0
POLYLINE
  5
1FF
  8
0
  6
CONTINUOUS
 62
     8
 66
     1
 10
0.0
 20
0.0
 30
0.0
  0
VERTEX
  5
80F
  8
0
  6
CONTINUOUS
 62
     8
 10
-121.3724632153
 20
482.6280832911
 30
0.0
  0
VERTEX
  5
810
  8
0
  6
CONTINUOUS
 62
     8
 10
-121.3822905311
 20
482.6280683899
 30
0.0
  0
VERTEX
  5
811
  8
0
  6
CONTINUOUS
 62
     8
 10
-122.5100159982
 20
482.5846464062
 30
0.0
  0
VERTEX
  5
812
  8
0
  6
CONTINUOUS
 62
     8
 10
-123.5709712246
 20
482.4652583027
 30
0.0
  0
VERTEX
  5
813
  8
0
  6
CONTINUOUS
 62
     8
 10
-124.5615985581
 20
482.2839409733
 30
0.0
  0
VERTEX
  5
814
  8
0
  6
CONTINUOUS
 62
     8
 10
-125.4783403465
 20
482.0547015095
 30
0.0
  0
VERTEX
  5
815
  8
0
  6
CONTINUOUS
 62
     8
 10
-126.3176426628
 20
481.7915768051
 30
0.0
  0
VERTEX
  5
816
  8
0
  6
CONTINUOUS
 62
     8
 10
-127.0759441295
 20
481.5085888529
 30
0.0
  0
VERTEX
  5
817
  8
0
  6
CONTINUOUS
 62
     8
 10
-127.7769692579
 20
481.2072426701
 30
0.0
  0
VERTEX
  5
818
  8
0
  6
CONTINUOUS
 62
     8
 10
-128.3938289026
 20
480.9085339928
 30
0.0
  0
VERTEX
  5
819
  8
0
  6
CONTINUOUS
 62
     8
 10
-128.9241351524
 20
480.6247860813
 30
0.0
  0
VERTEX
  5
81A
  8
0
  6
CONTINUOUS
 62
     8
 10
-129.3654889205
 20
480.3682625914
 30
0.0
  0
VERTEX
  5
81B
  8
0
  6
CONTINUOUS
 62
     8
 10
-129.7154985705
 20
480.1512569809
 30
0.0
  0
VERTEX
  5
81C
  8
0
  6
CONTINUOUS
 62
     8
 10
-129.9873292783
 20
479.9750060463
 30
0.0
  0
VERTEX
  5
81D
  8
0
  6
CONTINUOUS
 62
     8
 10
-130.1517561415
 20
479.864320221
 30
0.0
  0
VERTEX
  5
81E
  8
0
  6
CONTINUOUS
 62
     8
 10
-130.206968669
 20
479.8259199286
 30
0.0
  0
VERTEX
  5
81F
  8
0
  6
CONTINUOUS
 62
     8
 10
-130.2069649437
 20
479.8259199286
 30
0.0
  0
SEQEND
  5
B53
  8
0
  6
CONTINUOUS
 62
     8
  0
POLYLINE
  5
200
  8
0
  6
CONTINUOUS
 62
     8
 66
     1
 10
0.0
 20
0.0
 30
0.0
  0
VERTEX
  5
820
  8
0
  6
CONTINUOUS
 62
     8
 10
-68.2552885601
 20
482.6280832911
 30
0.0
  0
VERTEX
  5
821
  8
0
  6
CONTINUOUS
 62
     8
 10
-68.2454612443
 20
482.6280683899
 30
0.0
  0
VERTEX
  5
822
  8
0
  6
CONTINUOUS
 62
     8
 10
-67.1177357772
 20
482.5846464062
 30
0.0
  0
VERTEX
  5
823
  8
0
  6
CONTINUOUS
 62
     8
 10
-66.0567805508
 20
482.4652583027
 30
0.0
  0
VERTEX
  5
824
  8
0
  6
CONTINUOUS
 62
     8
 10
-65.0661532173
 20
482.2839409733
 30
0.0
  0
VERTEX
  5
825
  8
0
  6
CONTINUOUS
 62
     8
 10
-64.1494114289
 20
482.0547015095
 30
0.0
  0
VERTEX
  5
826
  8
0
  6
CONTINUOUS
 62
     8
 10
-63.3101091126
 20
481.7915768051
 30
0.0
  0
VERTEX
  5
827
  8
0
  6
CONTINUOUS
 62
     8
 10
-62.5518076459
 20
481.5085888529
 30
0.0
  0
VERTEX
  5
828
  8
0
  6
CONTINUOUS
 62
     8
 10
-61.8507825175
 20
481.2072426701
 30
0.0
  0
VERTEX
  5
829
  8
0
  6
CONTINUOUS
 62
     8
 10
-61.2339228729
 20
480.9085339928
 30
0.0
  0
VERTEX
  5
82A
  8
0
  6
CONTINUOUS
 62
     8
 10
-60.703616623
 20
480.6247860813
 30
0.0
  0
VERTEX
  5
82B
  8
0
  6
CONTINUOUS
 62
     8
 10
-60.2622628549
 20
480.3682625914
 30
0.0
  0
VERTEX
  5
82C
  8
0
  6
CONTINUOUS
 62
     8
 10
-59.9122532049
 20
480.1512569809
 30
0.0
  0
VERTEX
  5
82D
  8
0
  6
CONTINUOUS
 62
     8
 10
-59.6404224971
 20
479.9750060463
 30
0.0
  0
VERTEX
  5
82E
  8
0
  6
CONTINUOUS
 62
     8
 10
-59.4759956339
 20
479.864320221
 30
0.0
  0
VERTEX
  5
82F
  8
0
  6
CONTINUOUS
 62
     8
 10
-59.4207831064
 20
479.8259199286
 30
0.0
  0
VERTEX
  5
830
  8
0
  6
CONTINUOUS
 62
     8
 10
-59.4207868317
 20
479.8259199286
 30
0.0
  0
SEQEND
  5
B52
  8
0
  6
CONTINUOUS
 62
     8
  0
LINE
  5
201
  8
0
  6
CONTINUOUS
 62
     8
 10
-70.5511980096
 20
482.6280832911
 30
0.0
 11
-70.8111748436
 21
494.8374987269
 31
0.0
  0
LINE
  5
202
  8
0
  6
CONTINUOUS
 62
     8
 10
-119.0765537658
 20
482.6280832911
 30
0.0
 11
-118.8165769318
 21
494.8374987269
 31
0.0
  0
LINE
  5
203
  8
0
  6
CONTINUOUS
 62
     8
 10
-118.4114162216
 20
494.8374987269
 30
0.0
 11
-118.4114162216
 21
504.8374891901
 31
0.0
  0
LINE
  5
204
  8
0
  6
CONTINUOUS
 62
     8
 10
-71.2163355538
 20
504.8374891901
 30
0.0
 11
-71.2163355538
 21
494.8374987269
 31
0.0
  0
LINE
  5
205
  8
0
  6
CONTINUOUS
 62
     8
 10
-70.8152335474
 20
519.8374897862
 30
0.0
 11
-70.9856041113
 21
519.8374897862
 31
0.0
  0
LINE
  5
206
  8
0
  6
CONTINUOUS
 62
     8
 10
-118.6421476641
 20
519.8374897862
 30
0.0
 11
-118.812518228
 21
519.8374897862
 31
0.0
  0
LINE
  5
207
  8
0
  6
CONTINUOUS
 62
     8
 10
-31.1742648819
 20
774.837499919
 30
0.0
 11
-29.493436251
 21
774.837499919
 31
0.0
  0
LINE
  5
208
  8
0
  6
CONTINUOUS
 62
     8
 10
-29.493436251
 20
774.837499919
 30
0.0
 11
-29.493436251
 21
570.8375037337
 31
0.0
  0
LINE
  5
209
  8
0
  6
CONTINUOUS
 62
     8
 10
-160.1343155244
 20
585.8374894285
 30
0.0
 11
-158.4534868935
 21
585.8374894285
 31
0.0
  0
LINE
  5
20A
  8
0
  6
CONTINUOUS
 62
     8
 10
-160.1343155244
 20
585.8374894285
 30
0.0
 11
-160.1343155244
 21
774.837499919
 31
0.0
  0
LINE
  5
20B
  8
0
  6
CONTINUOUS
 62
     8
 10
-160.1343155244
 20
774.837499919
 30
0.0
 11
-158.4534868935
 21
774.837499919
 31
0.0
  0
LINE
  5
20C
  8
0
  6
CONTINUOUS
 62
     8
 10
-160.1343155244
 20
774.837499919
 30
0.0
 11
-160.1343155244
 21
851.8375218535
 31
0.0
  0
LINE
  5
20D
  8
0
  6
CONTINUOUS
 62
     8
 10
-29.493436251
 20
851.8375218535
 30
0.0
 11
-29.493436251
 21
774.837499919
 31
0.0
  0
LINE
  5
20E
  8
0
  6
CONTINUOUS
 62
     8
 10
-160.1343155244
 20
570.8375037337
 30
0.0
 11
-160.1343155244
 21
585.8374894285
 31
0.0
  0
LINE
  5
20F
  8
0
  6
CONTINUOUS
 62
     8
 10
-17.8019106725
 20
851.8375218535
 30
0.0
 11
-17.8019106725
 21
774.837499919
 31
0.0
  0
LINE
  5
210
  8
0
  6
CONTINUOUS
 62
     8
 10
-17.8019106725
 20
774.837499919
 30
0.0
 11
-17.8019106725
 21
585.8374894285
 31
0.0
  0
LINE
  5
211
  8
0
  6
CONTINUOUS
 62
     8
 10
-17.8019106725
 20
585.8374894285
 30
0.0
 11
-17.8019106725
 21
570.8375037337
 31
0.0
  0
LINE
  5
212
  8
0
  6
CONTINUOUS
 62
     8
 10
-171.8258411029
 20
585.8374894285
 30
0.0
 11
-171.8258411029
 21
774.837499919
 31
0.0
  0
LINE
  5
213
  8
0
  6
CONTINUOUS
 62
     8
 10
-171.8258411029
 20
570.8375037337
 30
0.0
 11
-171.8258411029
 21
585.8374894285
 31
0.0
  0
LINE
  5
214
  8
0
  6
CONTINUOUS
 62
     8
 10
-171.8258411029
 20
774.837499919
 30
0.0
 11
-171.8258411029
 21
851.8375218535
 31
0.0
  0
LINE
  5
215
  8
0
  6
CONTINUOUS
 62
     8
 10
-174.1957143286
 20
774.837499919
 30
0.0
 11
-171.8258411029
 21
774.837499919
 31
0.0
  0
LINE
  5
216
  8
0
  6
CONTINUOUS
 62
     8
 10
-176.3138771394
 20
585.8374894285
 30
0.0
 11
-171.8258411029
 21
585.8374894285
 31
0.0
  0
LINE
  5
217
  8
0
  6
CONTINUOUS
 62
     8
 10
-176.3138771394
 20
774.837499919
 30
0.0
 11
-175.6734401325
 21
774.837499919
 31
0.0
  0
LINE
  5
218
  8
0
  6
CONTINUOUS
 62
     8
 10
-175.6734401325
 20
729.8374832297
 30
0.0
 11
-174.1957143286
 21
729.8374832297
 31
0.0
  0
LINE
  5
219
  8
0
  6
CONTINUOUS
 62
     8
 10
-17.8019106725
 20
585.8374894285
 30
0.0
 11
-13.313874636
 21
585.8374894285
 31
0.0
  0
LINE
  5
21A
  8
0
  6
CONTINUOUS
 62
     8
 10
-13.954311643
 20
774.837499919
 30
0.0
 11
-13.313874636
 21
774.837499919
 31
0.0
  0
LINE
  5
21B
  8
0
  6
CONTINUOUS
 62
     8
 10
-17.8019106725
 20
774.837499919
 30
0.0
 11
-15.4320374468
 21
774.837499919
 31
0.0
  0
LINE
  5
21C
  8
0
  6
CONTINUOUS
 62
     8
 10
-15.4320374468
 20
729.8374832297
 30
0.0
 11
-13.954311643
 21
729.8374832297
 31
0.0
  0
LINE
  5
21D
  8
0
  6
CONTINUOUS
 62
     8
 10
-118.812518228
 20
519.8374897862
 30
0.0
 11
-120.8138764241
 21
519.8374897862
 31
0.0
  0
LINE
  5
21E
  8
0
  6
CONTINUOUS
 62
     8
 10
-68.8138753513
 20
519.8374897862
 30
0.0
 11
-70.8152335474
 21
519.8374897862
 31
0.0
  0
LINE
  5
21F
  8
FORMAT
  6
CENTERX2
 10
-191.4914754857
 20
307.8374922896
 30
0.0
 11
1.637114967
 21
307.8374922896
 31
0.0
  0
LINE
  5
220
  8
FORMAT
  6
CENTERX2
 62
     7
 10
-94.8138758877
 20
255.5519739083
 30
0.0
 11
-94.8138758877
 21
900.7172416361
 31
0.0
  0
LINE
  5
221
  8
0
  6
CONTINUOUS
 62
     7
 10
429.5047570061
 20
836.8374765539
 30
0.0
 11
429.5047570061
 21
855.8374703551
 31
0.0
  0
LINE
  5
222
  8
0
  6
CONTINUOUS
 62
     7
 10
294.5047516417
 20
855.8374703551
 30
0.0
 11
294.5047516417
 21
836.8374765539
 31
0.0
  0
LINE
  5
223
  8
0
  6
CONTINUOUS
 62
     7
 10
299.5047543239
 20
533.8374883557
 30
0.0
 11
299.5047543239
 21
522.8374958659
 31
0.0
  0
LINE
  5
224
  8
0
  6
CONTINUOUS
 62
     7
 10
424.5047543239
 20
522.8374958659
 30
0.0
 11
424.5047543239
 21
533.8374883557
 31
0.0
  0
LINE
  5
225
  8
0
  6
CONTINUOUS
 62
     7
 10
424.5047543239
 20
533.8374883557
 30
0.0
 11
424.5047543239
 21
563.8375044489
 31
0.0
  0
LINE
  5
226
  8
0
  6
CONTINUOUS
 62
     7
 10
299.5047543239
 20
563.8375044489
 30
0.0
 11
299.5047543239
 21
533.8374883557
 31
0.0
  0
LINE
  5
227
  8
0
  6
CONTINUOUS
 62
     7
 10
298.1183502864
 20
452.8374881172
 30
0.0
 11
297.6500738453
 21
434.9545747662
 31
0.0
  0
LINE
  5
228
  8
0
  6
CONTINUOUS
 62
     7
 10
426.3594348025
 20
434.9545747662
 30
0.0
 11
425.8911583614
 21
452.8374881172
 31
0.0
  0
LINE
  5
229
  8
0
  6
CONTINUOUS
 62
     7
 10
300.0677835238
 20
414.8890063787
 30
0.0
 11
303.1669233036
 21
392.8374931836
 31
0.0
  0
LINE
  5
22A
  8
0
  6
CONTINUOUS
 62
     7
 10
420.8425853443
 20
392.8374931836
 30
0.0
 11
423.9417251241
 21
414.8890063787
 31
0.0
  0
LINE
  5
22B
  8
0
  6
CONTINUOUS
 62
     7
 10
423.8307785284
 20
414.0995875621
 30
0.0
 11
428.4507010173
 21
415.3374940777
 31
0.0
  0
LINE
  5
22C
  8
0
  6
CONTINUOUS
 62
     7
 10
295.5588076305
 20
415.3374940777
 30
0.0
 11
300.1787301194
 21
414.0995875621
 31
0.0
  0
LINE
  5
22D
  8
0
  6
CONTINUOUS
 62
     7
 10
428.4507010173
 20
415.3374940777
 30
0.0
 11
429.5047570061
 21
422.8374943757
 31
0.0
  0
LINE
  5
22E
  8
0
  6
CONTINUOUS
 62
     7
 10
294.5047516417
 20
422.8374943757
 30
0.0
 11
295.5588076305
 21
415.3374940777
 31
0.0
  0
LINE
  5
22F
  8
0
  6
CONTINUOUS
 62
     7
 10
429.5047570061
 20
422.8374943757
 30
0.0
 11
429.1905213189
 21
434.8374963427
 31
0.0
  0
LINE
  5
230
  8
0
  6
CONTINUOUS
 62
     7
 10
294.818987329
 20
434.8374963427
 30
0.0
 11
294.5047516417
 21
422.8374943757
 31
0.0
  0
LINE
  5
231
  8
0
  6
CONTINUOUS
 62
     7
 10
429.1905213189
 20
434.8374963427
 30
0.0
 11
426.3190899086
 21
436.4953101301
 31
0.0
  0
LINE
  5
232
  8
0
  6
CONTINUOUS
 62
     7
 10
297.6904187393
 20
436.4953101301
 30
0.0
 11
294.818987329
 21
434.8374963427
 31
0.0
  0
LINE
  5
233
  8
0
  6
CONTINUOUS
 62
     7
 10
422.2191769671
 20
452.8374881172
 30
0.0
 11
421.719589461
 21
471.916025939
 31
0.0
  0
ARC
  5
234
  8
0
  6
CONTINUOUS
 62
     7
 10
305.2888928583
 20
471.8374922896
 30
0.0
 40
3.000000000000043
 50
170.2235336949
 51
178.5
  0
ARC
  5
235
  8
0
  6
CONTINUOUS
 62
     7
 10
418.7206157896
 20
471.8374922896
 30
0.0
 40
3.000000000000036
 50
1.5
 51
9.7732673449
  0
LINE
  5
236
  8
0
  6
CONTINUOUS
 62
     7
 10
302.2899191868
 20
471.916025939
 30
0.0
 11
301.7903316807
 21
452.8374881172
 31
0.0
  0
ARC
  5
237
  8
0
  6
CONTINUOUS
 62
     7
 10
428.6752981653
 20
473.6000571562
 30
0.0
 40
7.10952637241339
 50
181.1834886894
 51
190.3454930236
  0
LINE
  5
238
  8
0
  6
CONTINUOUS
 62
     7
 10
417.1343233478
 20
474.8371899748
 30
0.0
 11
417.1601731371
 21
474.8367280388
 31
0.0
  0
ARC
  5
239
  8
0
  6
CONTINUOUS
 62
     7
 10
295.0824909091
 20
473.6328248894
 30
0.0
 40
7.363045820926771
 50
349.7875917995
 51
358.7434895767
  0
LINE
  5
23A
  8
0
  6
CONTINUOUS
 62
     7
 10
415.5047547114
 20
383.2960934067
 30
0.0
 11
415.5047547114
 21
392.8374931836
 31
0.0
  0
LINE
  5
23B
  8
0
  6
CONTINUOUS
 62
     7
 10
415.5047547114
 20
349.8693243289
 30
0.0
 11
415.5047547114
 21
368.3361434067
 31
0.0
  0
LINE
  5
23C
  8
0
  6
CONTINUOUS
 62
     7
 10
308.5047539365
 20
392.8374931836
 30
0.0
 11
308.5047539365
 21
383.2960934067
 31
0.0
  0
LINE
  5
23D
  8
0
  6
CONTINUOUS
 62
     7
 10
308.5047539365
 20
368.3361434067
 30
0.0
 11
308.5047539365
 21
349.8693243289
 31
0.0
  0
ARC
  5
23E
  8
0
  6
CONTINUOUS
 62
     7
 10
387.0006673924
 20
884.9749329713
 30
0.0
 40
7.990244663917634
 50
47.1541163762
 51
151.1060877185
  0
LINE
  5
23F
  8
0
  6
CONTINUOUS
 62
     7
 10
299.5047543239
 20
522.8374958659
 30
0.0
 11
299.5047543239
 21
504.8374891901
 31
0.0
  0
LINE
  5
240
  8
0
  6
CONTINUOUS
 62
     7
 10
424.5047543239
 20
504.8374891901
 30
0.0
 11
424.5047543239
 21
522.8374958659
 31
0.0
  0
LINE
  5
241
  8
0
  6
CONTINUOUS
 62
     7
 10
399.0047548008
 20
892.8374708319
 30
0.0
 11
394.0047558438
 21
892.8374708319
 31
0.0
  0
LINE
  5
242
  8
0
  6
CONTINUOUS
 62
     7
 10
394.0047558438
 20
892.8374708319
 30
0.0
 11
392.436887328
 21
890.8374965811
 31
0.0
  0
LINE
  5
243
  8
0
  6
CONTINUOUS
 62
     7
 10
378.0047550839
 20
563.8375044489
 30
0.0
 11
378.0047550839
 21
565.8374786997
 31
0.0
  0
LINE
  5
244
  8
0
  6
CONTINUOUS
 62
     7
 10
346.004753564
 20
565.8374786997
 30
0.0
 11
346.004753564
 21
563.8375044489
 31
0.0
  0
LINE
  5
245
  8
0
  6
CONTINUOUS
 62
     7
 10
380.0047535491
 20
888.8374627257
 30
0.0
 11
318.0047545623
 21
892.3375070715
 31
0.0
  0
LINE
  5
246
  8
0
  6
CONTINUOUS
 62
     7
 10
421.5636003804
 20
473.4959960604
 30
0.0
 11
421.0047546815
 21
494.8374987269
 31
0.0
  0
LINE
  5
247
  8
0
  6
CONTINUOUS
 62
     7
 10
303.0047539663
 20
494.8374987269
 30
0.0
 11
302.4459082675
 21
473.4959960604
 31
0.0
  0
LINE
  5
248
  8
0
  6
CONTINUOUS
 62
     7
 10
421.0047546815
 20
494.8374987269
 30
0.0
 11
423.6842479598
 21
504.8374891901
 31
0.0
  0
LINE
  5
249
  8
0
  6
CONTINUOUS
 62
     7
 10
300.325260688
 20
504.8374891901
 30
0.0
 11
303.0047539663
 21
494.8374987269
 31
0.0
  0
LINE
  5
24A
  8
0
  6
CONTINUOUS
 62
     7
 10
453.0047524762
 20
887.3375118399
 30
0.0
 11
449.0047518205
 21
887.3375118399
 31
0.0
  0
LINE
  5
24B
  8
0
  6
CONTINUOUS
 62
     7
 10
449.0047518205
 20
864.3375099325
 30
0.0
 11
453.0047524762
 21
864.3375099325
 31
0.0
  0
LINE
  5
24C
  8
0
  6
CONTINUOUS
 62
     7
 10
435.5047542643
 20
585.8374894285
 30
0.0
 11
435.5047542643
 21
836.8374765539
 31
0.0
  0
LINE
  5
24D
  8
0
  6
CONTINUOUS
 62
     7
 10
288.5047543835
 20
836.8374765539
 30
0.0
 11
288.5047543835
 21
585.8374894285
 31
0.0
  0
LINE
  5
24E
  8
0
  6
CONTINUOUS
 62
     7
 10
469.0047550988
 20
884.8375142241
 30
0.0
 11
453.0047524762
 21
884.8375142241
 31
0.0
  0
LINE
  5
24F
  8
0
  6
CONTINUOUS
 62
     7
 10
453.0047524762
 20
866.8375075484
 30
0.0
 11
469.0047550988
 21
866.8375075484
 31
0.0
  0
CIRCLE
  5
250
  8
0
  6
CONTINUOUS
 62
     7
 10
362.0047543239
 20
307.8374922896
 30
0.0
 40
42.60000000000002
  0
CIRCLE
  5
251
  8
0
  6
CONTINUOUS
 62
     7
 10
362.0047543239
 20
307.8374922896
 30
0.0
 40
51.39999999999998
  0
CIRCLE
  5
252
  8
0
  6
CONTINUOUS
 62
     7
 10
362.0047543239
 20
307.8374922896
 30
0.0
 40
48.90000000000003
  0
CIRCLE
  5
253
  8
0
  6
CONTINUOUS
 62
     7
 10
362.0047543239
 20
307.8374922896
 30
0.0
 40
59.0
  0
CIRCLE
  5
254
  8
0
  6
CONTINUOUS
 62
     7
 10
362.0047543239
 20
307.8374922896
 30
0.0
 40
62.0
  0
CIRCLE
  5
255
  8
0
  6
CONTINUOUS
 62
     7
 10
362.0047543239
 20
307.8374922896
 30
0.0
 40
40.10000000000002
  0
CIRCLE
  5
256
  8
0
  6
CONTINUOUS
 62
     7
 10
362.0047543239
 20
307.8374922896
 30
0.0
 40
32.5
  0
CIRCLE
  5
257
  8
0
  6
CONTINUOUS
 62
     7
 10
362.0047543239
 20
307.8374922896
 30
0.0
 40
92.5
  0
CIRCLE
  5
258
  8
0
  6
CONTINUOUS
 62
     7
 10
413.2699959599
 20
359.1027339256
 30
0.0
 40
9.5
  0
CIRCLE
  5
259
  8
0
  6
CONTINUOUS
 62
     7
 10
310.7395126879
 20
256.5722506535
 30
0.0
 40
9.5
  0
CIRCLE
  5
25A
  8
0
  6
CONTINUOUS
 62
     7
 10
310.7395126879
 20
359.1027339256
 30
0.0
 40
9.5
  0
CIRCLE
  5
25B
  8
0
  6
CONTINUOUS
 62
     7
 10
413.2699959599
 20
256.5722506535
 30
0.0
 40
9.5
  0
LINE
  5
25C
  8
0
  6
CONTINUOUS
 62
     7
 10
381.0907054734
 20
774.837499919
 30
0.0
 11
381.0907054734
 21
729.8374832297
 31
0.0
  0
LINE
  5
25D
  8
0
  6
CONTINUOUS
 62
     7
 10
379.4530641329
 20
729.8374832297
 30
0.0
 11
379.4530641329
 21
774.837499919
 31
0.0
  0
LINE
  5
25E
  8
0
  6
CONTINUOUS
 62
     7
 10
377.0047539886
 20
570.8375037337
 30
0.0
 11
381.9784738165
 21
570.8375037337
 31
0.0
  0
LINE
  5
25F
  8
0
  6
CONTINUOUS
 62
     7
 10
347.0047546592
 20
570.8375037337
 30
0.0
 11
377.0047539886
 21
570.8375037337
 31
0.0
  0
LINE
  5
260
  8
0
  6
CONTINUOUS
 62
     7
 10
377.0047539886
 20
851.8375218535
 30
0.0
 11
381.9784738165
 21
851.8375218535
 31
0.0
  0
LINE
  5
261
  8
0
  6
CONTINUOUS
 62
     7
 10
377.0047539886
 20
851.8375218535
 30
0.0
 11
347.0047546592
 21
851.8375218535
 31
0.0
  0
LINE
  5
262
  8
0
  6
CONTINUOUS
 62
     7
 10
344.5564352017
 20
774.837499919
 30
0.0
 11
344.5564352017
 21
729.8374832297
 31
0.0
  0
LINE
  5
263
  8
0
  6
CONTINUOUS
 62
     7
 10
342.918810625
 20
729.8374832297
 30
0.0
 11
342.918810625
 21
774.837499919
 31
0.0
  0
LINE
  5
264
  8
0
  6
CONTINUOUS
 62
     7
 10
342.0310348314
 20
570.8375037337
 30
0.0
 11
347.0047546592
 21
570.8375037337
 31
0.0
  0
LINE
  5
265
  8
0
  6
CONTINUOUS
 62
     7
 10
342.0310348314
 20
851.8375218535
 30
0.0
 11
347.0047546592
 21
851.8375218535
 31
0.0
  0
LINE
  5
266
  8
0
  6
CONTINUOUS
 62
     7
 10
340.8275760752
 20
774.837499919
 30
0.0
 11
342.0310348314
 21
774.837499919
 31
0.0
  0
LINE
  5
267
  8
0
  6
CONTINUOUS
 62
     7
 10
340.8275760752
 20
570.8375037337
 30
0.0
 11
342.0310348314
 21
570.8375037337
 31
0.0
  0
LINE
  5
268
  8
0
  6
CONTINUOUS
 62
     7
 10
381.9784738165
 20
585.8374894285
 30
0.0
 11
383.1819325727
 21
585.8374894285
 31
0.0
  0
LINE
  5
269
  8
0
  6
CONTINUOUS
 62
     7
 10
381.9784738165
 20
774.837499919
 30
0.0
 11
383.1819325727
 21
774.837499919
 31
0.0
  0
LINE
  5
26A
  8
0
  6
CONTINUOUS
 62
     7
 10
383.1819325727
 20
851.8375218535
 30
0.0
 11
381.9784738165
 21
851.8375218535
 31
0.0
  0
LINE
  5
26B
  8
0
  6
CONTINUOUS
 62
     7
 10
342.0310348314
 20
851.8375218535
 30
0.0
 11
340.8275760752
 21
851.8375218535
 31
0.0
  0
LINE
  5
26C
  8
0
  6
CONTINUOUS
 62
     7
 10
381.9784738165
 20
570.8375037337
 30
0.0
 11
383.1819325727
 21
570.8375037337
 31
0.0
  0
LINE
  5
26D
  8
0
  6
CONTINUOUS
 62
     7
 10
409.2212591362
 20
228.2959804559
 30
0.0
 11
404.504754771
 21
215.3374910975
 31
0.0
  0
LINE
  5
26E
  8
0
  6
CONTINUOUS
 62
     7
 10
404.504754771
 20
215.3374910975
 30
0.0
 11
362.0047543239
 21
215.3374910975
 31
0.0
  0
LINE
  5
26F
  8
0
  6
CONTINUOUS
 62
     7
 10
314.7882495117
 20
228.2959804559
 30
0.0
 11
319.5047538769
 21
215.3374910975
 31
0.0
  0
LINE
  5
270
  8
0
  6
CONTINUOUS
 62
     7
 10
319.5047538769
 20
215.3374910975
 30
0.0
 11
362.0047543239
 21
215.3374910975
 31
0.0
  0
LINE
  5
271
  8
0
  6
CONTINUOUS
 62
     7
 10
294.5047516417
 20
855.8374703551
 30
0.0
 11
429.5047570061
 21
855.8374703551
 31
0.0
  0
LINE
  5
272
  8
0
  6
CONTINUOUS
 62
     7
 10
429.084730525
 20
774.837499919
 30
0.0
 11
429.084730525
 21
836.8374765539
 31
0.0
  0
LINE
  5
273
  8
0
  6
CONTINUOUS
 62
     7
 10
294.9247632217
 20
774.837499919
 30
0.0
 11
294.9247632217
 21
836.8374765539
 31
0.0
  0
LINE
  5
274
  8
0
  6
CONTINUOUS
 62
     7
 10
429.5047570061
 20
565.8374786997
 30
0.0
 11
429.5047570061
 21
585.8374894285
 31
0.0
  0
LINE
  5
275
  8
0
  6
CONTINUOUS
 62
     7
 10
339.5048242104
 20
565.8374786997
 30
0.0
 11
429.5047570061
 21
565.8374786997
 31
0.0
  0
LINE
  5
276
  8
0
  6
CONTINUOUS
 62
     7
 10
384.504755218
 20
851.8375218535
 30
0.0
 11
383.1819325727
 21
851.8375218535
 31
0.0
  0
LINE
  5
277
  8
0
  6
CONTINUOUS
 62
     7
 10
340.8275760752
 20
851.8375218535
 30
0.0
 11
339.5047534299
 21
851.8375218535
 31
0.0
  0
LINE
  5
278
  8
0
  6
CONTINUOUS
 62
     7
 10
339.5047534299
 20
570.8375037337
 30
0.0
 11
340.8275760752
 21
570.8375037337
 31
0.0
  0
LINE
  5
279
  8
0
  6
CONTINUOUS
 62
     7
 10
383.1819325727
 20
570.8375037337
 30
0.0
 11
384.504755218
 21
570.8375037337
 31
0.0
  0
LINE
  5
27A
  8
0
  6
CONTINUOUS
 62
     7
 10
294.5047516417
 20
565.8374786997
 30
0.0
 11
294.5047516417
 21
585.8374894285
 31
0.0
  0
LINE
  5
27B
  8
0
  6
CONTINUOUS
 62
     7
 10
294.5047516417
 20
565.8374786997
 30
0.0
 11
339.5047534299
 21
565.8374786997
 31
0.0
  0
LINE
  5
27C
  8
0
  6
CONTINUOUS
 62
     7
 10
429.0850359988
 20
774.837499919
 30
0.0
 11
429.0850359988
 21
729.8374832297
 31
0.0
  0
LINE
  5
27D
  8
0
  6
CONTINUOUS
 62
     7
 10
429.0850359988
 20
729.8374832297
 30
0.0
 11
429.0850359988
 21
585.8374894285
 31
0.0
  0
LINE
  5
27E
  8
0
  6
CONTINUOUS
 62
     7
 10
294.9244726491
 20
585.8374894285
 30
0.0
 11
294.9244726491
 21
774.837499919
 31
0.0
  0
LINE
  5
27F
  8
0
  6
CONTINUOUS
 62
     7
 10
423.2380885672
 20
522.8374958659
 30
0.0
 11
424.5047543239
 21
522.8374958659
 31
0.0
  0
LINE
  5
280
  8
0
  6
CONTINUOUS
 62
     7
 10
299.5047543239
 20
522.8374958659
 30
0.0
 11
300.7714200806
 21
522.8374958659
 31
0.0
  0
LINE
  5
281
  8
0
  6
CONTINUOUS
 62
     7
 10
300.7714200806
 20
522.8374958659
 30
0.0
 11
423.2380885672
 21
522.8374958659
 31
0.0
  0
LINE
  5
282
  8
0
  6
CONTINUOUS
 62
     7
 10
299.5047543239
 20
563.8375044489
 30
0.0
 11
424.5047543239
 21
563.8375044489
 31
0.0
  0
POLYLINE
  5
283
  8
0
  6
CONTINUOUS
 62
     7
 66
     1
 10
0.0
 20
0.0
 30
0.0
  0
VERTEX
  5
831
  8
0
  6
CONTINUOUS
 62
     7
 10
403.5194490146
 20
438.6434317255
 30
0.0
  0
VERTEX
  5
832
  8
0
  6
CONTINUOUS
 62
     7
 10
403.619920094
 20
446.7216939354
 30
0.0
  0
VERTEX
  5
833
  8
0
  6
CONTINUOUS
 62
     7
 10
403.6859732163
 20
451.9621939087
 30
0.0
  0
SEQEND
  5
B51
  8
0
  6
CONTINUOUS
 62
     7
  0
POLYLINE
  5
284
  8
0
  6
CONTINUOUS
 62
     7
 66
     1
 10
0.0
 20
0.0
 30
0.0
  0
VERTEX
  5
834
  8
0
  6
CONTINUOUS
 62
     7
 10
403.5194490146
 20
438.6434317255
 30
0.0
  0
VERTEX
  5
835
  8
0
  6
CONTINUOUS
 62
     7
 10
398.1297548902
 20
438.6445195103
 30
0.0
  0
VERTEX
  5
836
  8
0
  6
CONTINUOUS
 62
     7
 10
392.7191693377
 20
438.6454582835
 30
0.0
  0
VERTEX
  5
837
  8
0
  6
CONTINUOUS
 62
     7
 10
387.2919280123
 20
438.6462331438
 30
0.0
  0
VERTEX
  5
838
  8
0
  6
CONTINUOUS
 62
     7
 10
381.8522553932
 20
438.6468589926
 30
0.0
  0
VERTEX
  5
839
  8
0
  6
CONTINUOUS
 62
     7
 10
376.4043796849
 20
438.6473507309
 30
0.0
  0
VERTEX
  5
83A
  8
0
  6
CONTINUOUS
 62
     7
 10
370.9490068298
 20
438.6476785565
 30
0.0
  0
VERTEX
  5
83B
  8
0
  6
CONTINUOUS
 62
     7
 10
365.4868569732
 20
438.6478424692
 30
0.0
  0
VERTEX
  5
83C
  8
0
  6
CONTINUOUS
 62
     7
 10
360.022189286
 20
438.6478722716
 30
0.0
  0
VERTEX
  5
83D
  8
0
  6
CONTINUOUS
 62
     7
 10
354.5592610766
 20
438.6477381611
 30
0.0
  0
VERTEX
  5
83E
  8
0
  6
CONTINUOUS
 62
     7
 10
349.1023296532
 20
438.6474550391
 30
0.0
  0
VERTEX
  5
83F
  8
0
  6
CONTINUOUS
 62
     7
 10
344.3110577803
 20
438.6470676089
 30
0.0
  0
VERTEX
  5
840
  8
0
  6
CONTINUOUS
 62
     7
 10
339.5249780309
 20
438.6465758705
 30
0.0
  0
VERTEX
  5
841
  8
0
  6
CONTINUOUS
 62
     7
 10
334.7469653976
 20
438.6459649229
 30
0.0
  0
VERTEX
  5
842
  8
0
  6
CONTINUOUS
 62
     7
 10
329.9798939418
 20
438.645234766
 30
0.0
  0
VERTEX
  5
843
  8
0
  6
CONTINUOUS
 62
     7
 10
325.2266321373
 20
438.644400301
 30
0.0
  0
VERTEX
  5
844
  8
0
  6
CONTINUOUS
 62
     7
 10
320.4900596332
 20
438.6434317255
 30
0.0
  0
SEQEND
  5
B50
  8
0
  6
CONTINUOUS
 62
     7
  0
POLYLINE
  5
285
  8
0
  6
CONTINUOUS
 62
     7
 66
     1
 10
0.0
 20
0.0
 30
0.0
  0
VERTEX
  5
845
  8
0
  6
CONTINUOUS
 62
     7
 10
320.4900596332
 20
438.6434317255
 30
0.0
  0
VERTEX
  5
846
  8
0
  6
CONTINUOUS
 62
     7
 10
320.3891191673
 20
446.7590511465
 30
0.0
  0
VERTEX
  5
847
  8
0
  6
CONTINUOUS
 62
     7
 10
320.3235354316
 20
451.9621939087
 30
0.0
  0
SEQEND
  5
B4F
  8
0
  6
CONTINUOUS
 62
     7
  0
ARC
  5
286
  8
0
  6
CONTINUOUS
 62
     7
 10
414.5402388961
 20
450.8952833411
 30
0.0
 40
16.47924991077988
 50
228.0279744347
 51
257.0139052717
  0
LINE
  5
287
  8
0
  6
CONTINUOUS
 62
     7
 10
410.8371112537
 20
434.8374963427
 30
0.0
 11
313.1723973941
 21
434.8374963427
 31
0.0
  0
ARC
  5
288
  8
0
  6
CONTINUOUS
 62
     7
 10
309.4692697517
 20
450.8952833411
 30
0.0
 40
16.47924991077991
 50
282.9860947283
 51
311.9720255653
  0
LINE
  5
289
  8
0
  6
CONTINUOUS
 62
     7
 10
416.3237337064
 20
415.3374940777
 30
0.0
 11
307.6857749414
 21
415.3374940777
 31
0.0
  0
LINE
  5
28A
  8
0
  6
CONTINUOUS
 62
     7
 10
416.5537219536
 20
422.8374943757
 30
0.0
 11
362.0047543239
 21
422.8374943757
 31
0.0
  0
LINE
  5
28B
  8
0
  6
CONTINUOUS
 62
     7
 10
362.0047543239
 20
422.8374943757
 30
0.0
 11
307.4557866942
 21
422.8374943757
 31
0.0
  0
LINE
  5
28C
  8
0
  6
CONTINUOUS
 62
     7
 10
307.624005903
 20
452.8374881172
 30
0.0
 11
313.1587479305
 21
452.8374881172
 31
0.0
  0
LINE
  5
28D
  8
0
  6
CONTINUOUS
 62
     7
 10
313.1587479305
 20
452.8374881172
 30
0.0
 11
313.1723973941
 21
434.8374963427
 31
0.0
  0
LINE
  5
28E
  8
0
  6
CONTINUOUS
 62
     7
 10
410.8507607174
 20
452.8374881172
 30
0.0
 11
410.8371112537
 21
434.8374963427
 31
0.0
  0
LINE
  5
28F
  8
0
  6
CONTINUOUS
 62
     7
 10
416.3855027449
 20
452.8374881172
 30
0.0
 11
410.8507607174
 21
452.8374881172
 31
0.0
  0
POLYLINE
  5
290
  8
0
  6
CONTINUOUS
 62
     7
 66
     1
 10
0.0
 20
0.0
 30
0.0
  0
VERTEX
  5
848
  8
0
  6
CONTINUOUS
 62
     7
 10
307.8449118924
 20
415.1420727992
 30
0.0
  0
VERTEX
  5
849
  8
0
  6
CONTINUOUS
 62
     7
 10
308.9114327025
 20
415.1259199405
 30
0.0
  0
VERTEX
  5
84A
  8
0
  6
CONTINUOUS
 62
     7
 10
310.004753251
 20
415.0778413439
 30
0.0
  0
SEQEND
  5
B4E
  8
0
  6
CONTINUOUS
 62
     7
  0
POLYLINE
  5
291
  8
0
  6
CONTINUOUS
 62
     7
 66
     1
 10
0.0
 20
0.0
 30
0.0
  0
VERTEX
  5
84B
  8
0
  6
CONTINUOUS
 62
     7
 10
416.1645967555
 20
415.1420727992
 30
0.0
  0
VERTEX
  5
84C
  8
0
  6
CONTINUOUS
 62
     7
 10
415.0980759453
 20
415.1259199405
 30
0.0
  0
VERTEX
  5
84D
  8
0
  6
CONTINUOUS
 62
     7
 10
414.0047553968
 20
415.0778413439
 30
0.0
  0
SEQEND
  5
B4D
  8
0
  6
CONTINUOUS
 62
     7
  0
POLYLINE
  5
292
  8
0
  6
CONTINUOUS
 62
     7
 66
     1
 10
0.0
 20
0.0
 30
0.0
  0
VERTEX
  5
84E
  8
0
  6
CONTINUOUS
 62
     7
 10
310.004753251
 20
415.0778413439
 30
0.0
  0
VERTEX
  5
84F
  8
0
  6
CONTINUOUS
 62
     7
 10
318.6600405764
 20
414.6133199954
 30
0.0
  0
VERTEX
  5
850
  8
0
  6
CONTINUOUS
 62
     7
 10
327.3195896339
 20
414.2303825045
 30
0.0
  0
VERTEX
  5
851
  8
0
  6
CONTINUOUS
 62
     7
 10
335.9822716605
 20
413.9306754494
 30
0.0
  0
VERTEX
  5
852
  8
0
  6
CONTINUOUS
 62
     7
 10
344.6549821686
 20
413.7155399347
 30
0.0
  0
VERTEX
  5
853
  8
0
  6
CONTINUOUS
 62
     7
 10
353.3296410036
 20
413.5860190416
 30
0.0
  0
VERTEX
  5
854
  8
0
  6
CONTINUOUS
 62
     7
 10
362.0049543239
 20
413.5427162671
 30
0.0
  0
VERTEX
  5
855
  8
0
  6
CONTINUOUS
 62
     7
 10
370.6726713147
 20
413.5859519863
 30
0.0
  0
VERTEX
  5
856
  8
0
  6
CONTINUOUS
 62
     7
 10
379.3397352141
 20
413.7152419114
 30
0.0
  0
VERTEX
  5
857
  8
0
  6
CONTINUOUS
 62
     7
 10
388.0048535806
 20
413.9300123477
 30
0.0
  0
VERTEX
  5
858
  8
0
  6
CONTINUOUS
 62
     7
 10
396.6750029516
 20
414.2297939086
 30
0.0
  0
VERTEX
  5
859
  8
0
  6
CONTINUOUS
 62
     7
 10
405.3420137655
 20
414.612954917
 30
0.0
  0
VERTEX
  5
85A
  8
0
  6
CONTINUOUS
 62
     7
 10
414.0047553968
 20
415.0778413439
 30
0.0
  0
SEQEND
  5
B4C
  8
0
  6
CONTINUOUS
 62
     7
  0
LINE
  5
293
  8
0
  6
CONTINUOUS
 62
     7
 10
403.6970708561
 20
452.8374881172
 30
0.0
 11
403.6859732163
 21
451.9621939087
 31
0.0
  0
LINE
  5
294
  8
0
  6
CONTINUOUS
 62
     7
 10
410.8507607174
 20
452.8374881172
 30
0.0
 11
403.6970708561
 21
452.8374881172
 31
0.0
  0
LINE
  5
295
  8
0
  6
CONTINUOUS
 62
     7
 10
313.1587479305
 20
452.8374881172
 30
0.0
 11
320.3124377918
 21
452.8374881172
 31
0.0
  0
LINE
  5
296
  8
0
  6
CONTINUOUS
 62
     7
 10
320.3124377918
 20
452.8374881172
 30
0.0
 11
320.3235354316
 21
451.9621939087
 31
0.0
  0
LINE
  5
297
  8
0
  6
CONTINUOUS
 62
     7
 10
325.5184564781
 20
392.8374931836
 30
0.0
 11
310.004753251
 21
392.8374931836
 31
0.0
  0
LINE
  5
298
  8
0
  6
CONTINUOUS
 62
     7
 10
398.4910521698
 20
392.8374931836
 30
0.0
 11
414.0047553968
 21
392.8374931836
 31
0.0
  0
LINE
  5
299
  8
0
  6
CONTINUOUS
 62
     7
 10
416.3237337064
 20
415.3374940777
 30
0.0
 11
425.4749838304
 21
415.3374940777
 31
0.0
  0
LINE
  5
29A
  8
0
  6
CONTINUOUS
 62
     7
 10
416.5537219536
 20
422.8374943757
 30
0.0
 11
426.5124399256
 21
422.8374943757
 31
0.0
  0
LINE
  5
29B
  8
0
  6
CONTINUOUS
 62
     7
 10
307.6857749414
 20
415.3374940777
 30
0.0
 11
298.5345248174
 21
415.3374940777
 31
0.0
  0
LINE
  5
29C
  8
0
  6
CONTINUOUS
 62
     7
 10
307.4557866942
 20
422.8374943757
 30
0.0
 11
297.4970687222
 21
422.8374943757
 31
0.0
  0
POLYLINE
  5
29D
  8
0
  6
CONTINUOUS
 62
     7
 66
     1
 10
0.0
 20
0.0
 30
0.0
  0
VERTEX
  5
85B
  8
0
  6
CONTINUOUS
 62
     7
 10
297.6573232603
 20
434.9543810511
 30
0.0
  0
VERTEX
  5
85C
  8
0
  6
CONTINUOUS
 62
     7
 10
297.65244313
 20
434.9247128392
 30
0.0
  0
VERTEX
  5
85D
  8
0
  6
CONTINUOUS
 62
     7
 10
297.7059233975
 20
434.8624706888
 30
0.0
  0
VERTEX
  5
85E
  8
0
  6
CONTINUOUS
 62
     7
 10
297.8537801694
 20
434.8374963427
 30
0.0
  0
SEQEND
  5
B4B
  8
0
  6
CONTINUOUS
 62
     7
  0
LINE
  5
29E
  8
0
  6
CONTINUOUS
 62
     7
 10
298.1183502864
 20
452.8374881172
 30
0.0
 11
307.624005903
 21
452.8374881172
 31
0.0
  0
POLYLINE
  5
29F
  8
0
  6
CONTINUOUS
 62
     7
 66
     1
 10
0.0
 20
0.0
 30
0.0
  0
VERTEX
  5
85F
  8
0
  6
CONTINUOUS
 62
     7
 10
426.3521853876
 20
434.9543810511
 30
0.0
  0
VERTEX
  5
860
  8
0
  6
CONTINUOUS
 62
     7
 10
426.3570655179
 20
434.9247128392
 30
0.0
  0
VERTEX
  5
861
  8
0
  6
CONTINUOUS
 62
     7
 10
426.3035852503
 20
434.8624706888
 30
0.0
  0
VERTEX
  5
862
  8
0
  6
CONTINUOUS
 62
     7
 10
426.1557284784
 20
434.8374963427
 30
0.0
  0
SEQEND
  5
B4A
  8
0
  6
CONTINUOUS
 62
     7
  0
LINE
  5
2A0
  8
0
  6
CONTINUOUS
 62
     7
 10
425.8911583614
 20
452.8374881172
 30
0.0
 11
416.3855027449
 21
452.8374881172
 31
0.0
  0
ARC
  5
2A1
  8
0
  6
CONTINUOUS
 62
     7
 10
305.9785801731
 20
345.9402438139
 30
0.0
 40
69.22699133283508
 50
88.4551417538
 51
94.8849312805
  0
ARC
  5
2A2
  8
0
  6
CONTINUOUS
 62
     7
 10
418.0309284748
 20
345.9402438139
 30
0.0
 40
69.22699133283508
 50
85.1150687195
 51
91.5448582462
  0
LINE
  5
2A3
  8
0
  6
CONTINUOUS
 62
     7
 10
310.004753251
 20
392.8374931836
 30
0.0
 11
303.1669233036
 21
392.8374931836
 31
0.0
  0
LINE
  5
2A4
  8
0
  6
CONTINUOUS
 62
     7
 10
300.0721346628
 20
414.8896173263
 30
0.0
 11
300.0835638535
 21
414.9157837653
 31
0.0
  0
LINE
  5
2A5
  8
0
  6
CONTINUOUS
 62
     7
 10
423.937373985
 20
414.8896173263
 30
0.0
 11
423.9259447944
 21
414.9157837653
 31
0.0
  0
LINE
  5
2A6
  8
0
  6
CONTINUOUS
 62
     7
 10
414.0047553968
 20
392.8374931836
 30
0.0
 11
420.8425853443
 21
392.8374931836
 31
0.0
  0
LINE
  5
2A7
  8
0
  6
CONTINUOUS
 62
     7
 10
390.5602760654
 20
474.837487998
 30
0.0
 11
405.5180002045
 21
474.837487998
 31
0.0
  0
LINE
  5
2A8
  8
0
  6
CONTINUOUS
 62
     7
 10
333.4492325824
 20
474.837487998
 30
0.0
 11
318.4915084433
 21
474.837487998
 31
0.0
  0
LINE
  5
2A9
  8
0
  6
CONTINUOUS
 62
     7
 10
387.4776877504
 20
494.8374987269
 30
0.0
 11
336.5318208974
 21
494.8374987269
 31
0.0
  0
ARC
  5
2AA
  8
0
  6
CONTINUOUS
 62
     7
 10
374.2281335153
 20
506.904233142
 30
0.0
 40
6.971297499617025
 50
41.6218959206
 51
84.0119146901
  0
LINE
  5
2AB
  8
0
  6
CONTINUOUS
 62
     7
 10
382.4035592419
 20
508.6554945135
 30
0.0
 11
379.4394873124
 21
511.5346521759
 31
0.0
  0
ARC
  5
2AC
  8
0
  6
CONTINUOUS
 62
     7
 10
392.1779711845
 20
518.5107135644
 30
0.0
 40
13.88036279661763
 50
225.2358618003
 51
242.1387966042
  0
ARC
  5
2AD
  8
0
  6
CONTINUOUS
 62
     7
 10
355.1524183158
 20
447.1031011714
 30
0.0
 40
66.5560928593349
 50
60.0663469433
 51
62.6874995063
  0
POLYLINE
  5
2AE
  8
0
  6
CONTINUOUS
 62
     7
 66
     1
 10
0.0
 20
0.0
 30
0.0
  0
VERTEX
  5
863
  8
0
  6
CONTINUOUS
 62
     7
 10
387.8534689587
 20
504.8374891901
 30
0.0
  0
VERTEX
  5
864
  8
0
  6
CONTINUOUS
 62
     7
 10
388.0993939977
 20
504.8233777905
 30
0.0
  0
VERTEX
  5
865
  8
0
  6
CONTINUOUS
 62
     7
 10
388.3636977565
 20
504.7808647776
 30
0.0
  0
SEQEND
  5
B49
  8
0
  6
CONTINUOUS
 62
     7
  0
LINE
  5
2AF
  8
0
  6
CONTINUOUS
 62
     7
 10
336.1560396891
 20
504.8374891901
 30
0.0
 11
387.8534689587
 21
504.8374891901
 31
0.0
  0
POLYLINE
  5
2B0
  8
0
  6
CONTINUOUS
 62
     7
 66
     1
 10
0.0
 20
0.0
 30
0.0
  0
VERTEX
  5
866
  8
0
  6
CONTINUOUS
 62
     7
 10
335.6458108914
 20
504.7808647776
 30
0.0
  0
VERTEX
  5
867
  8
0
  6
CONTINUOUS
 62
     7
 10
335.9072294128
 20
504.8230648661
 30
0.0
  0
VERTEX
  5
868
  8
0
  6
CONTINUOUS
 62
     7
 10
336.1560396891
 20
504.8374891901
 30
0.0
  0
SEQEND
  5
B48
  8
0
  6
CONTINUOUS
 62
     7
  0
ARC
  5
2B1
  8
0
  6
CONTINUOUS
 62
     7
 10
368.8548292687
 20
447.1072442835
 30
0.0
 40
66.55137415923741
 50
117.3124075536
 51
119.9337459968
  0
ARC
  5
2B2
  8
0
  6
CONTINUOUS
 62
     7
 10
331.8297021809
 20
518.513210841
 30
0.0
 40
13.88342828693137
 50
297.8630831461
 51
314.7622584494
  0
LINE
  5
2B3
  8
0
  6
CONTINUOUS
 62
     7
 10
344.5700213354
 20
511.5346521759
 30
0.0
 11
341.605949406
 21
508.6554945135
 31
0.0
  0
ARC
  5
2B4
  8
0
  6
CONTINUOUS
 62
     7
 10
349.9043519554
 20
506.6647723625
 30
0.0
 40
7.222936560710585
 50
96.7601359834
 51
137.6060534059
  0
LINE
  5
2B5
  8
0
  6
CONTINUOUS
 62
     7
 10
349.0541178774
 20
513.837492528
 30
0.0
 11
374.9553907704
 21
513.837492528
 31
0.0
  0
LINE
  5
2B6
  8
0
  6
CONTINUOUS
 62
     7
 10
428.4507010173
 20
415.3374940777
 30
0.0
 11
425.4749838304
 21
415.3374940777
 31
0.0
  0
LINE
  5
2B7
  8
0
  6
CONTINUOUS
 62
     7
 10
295.5588076305
 20
415.3374940777
 30
0.0
 11
298.5345248174
 21
415.3374940777
 31
0.0
  0
LINE
  5
2B8
  8
0
  6
CONTINUOUS
 62
     7
 10
429.5047570061
 20
422.8374943757
 30
0.0
 11
426.5124399256
 21
422.8374943757
 31
0.0
  0
LINE
  5
2B9
  8
0
  6
CONTINUOUS
 62
     7
 10
294.5047516417
 20
422.8374943757
 30
0.0
 11
297.4970687222
 21
422.8374943757
 31
0.0
  0
LINE
  5
2BA
  8
0
  6
CONTINUOUS
 62
     7
 10
429.1905213189
 20
434.8374963427
 30
0.0
 11
426.1557284784
 21
434.8374963427
 31
0.0
  0
LINE
  5
2BB
  8
0
  6
CONTINUOUS
 62
     7
 10
297.8537801694
 20
434.8374963427
 30
0.0
 11
294.818987329
 21
434.8374963427
 31
0.0
  0
LINE
  5
2BC
  8
0
  6
CONTINUOUS
 62
     7
 10
405.5180002045
 20
474.837487998
 30
0.0
 11
416.5832560551
 21
474.837487998
 31
0.0
  0
LINE
  5
2BD
  8
0
  6
CONTINUOUS
 62
     7
 10
318.4915084433
 20
474.837487998
 30
0.0
 11
307.4262525928
 21
474.837487998
 31
0.0
  0
LINE
  5
2BE
  8
0
  6
CONTINUOUS
 62
     7
 10
399.0047548008
 20
892.8374708319
 30
0.0
 11
399.0047548008
 21
876.8374980116
 31
0.0
  0
LINE
  5
2BF
  8
0
  6
CONTINUOUS
 62
     7
 10
406.0047540855
 20
892.8374708319
 30
0.0
 11
399.0047548008
 21
892.8374708319
 31
0.0
  0
LINE
  5
2C0
  8
0
  6
CONTINUOUS
 62
     7
 10
406.0047540855
 20
855.8374703551
 30
0.0
 11
406.0047540855
 21
892.8374708319
 31
0.0
  0
LINE
  5
2C1
  8
0
  6
CONTINUOUS
 62
     7
 10
318.0047545623
 20
876.8374980116
 30
0.0
 11
318.0047545623
 21
855.8374703551
 31
0.0
  0
LINE
  5
2C2
  8
0
  6
CONTINUOUS
 62
     7
 10
318.0047545623
 20
876.8374980116
 30
0.0
 11
399.0047548008
 21
876.8374980116
 31
0.0
  0
LINE
  5
2C3
  8
0
  6
CONTINUOUS
 62
     7
 10
420.004752655
 20
866.0340369368
 30
0.0
 11
406.0047540855
 21
866.0340369368
 31
0.0
  0
LINE
  5
2C4
  8
0
  6
CONTINUOUS
 62
     7
 10
420.004752655
 20
866.0340369368
 30
0.0
 11
420.004752655
 21
860.8374655867
 31
0.0
  0
LINE
  5
2C5
  8
0
  6
CONTINUOUS
 62
     7
 10
406.0047540855
 20
860.8374655867
 30
0.0
 11
420.004752655
 21
860.8374655867
 31
0.0
  0
LINE
  5
2C6
  8
0
  6
CONTINUOUS
 62
     7
 10
406.0047540855
 20
879.8375189925
 30
0.0
 11
420.004752655
 21
879.8375189925
 31
0.0
  0
LINE
  5
2C7
  8
0
  6
CONTINUOUS
 62
     7
 10
420.004752655
 20
879.8375189925
 30
0.0
 11
420.004752655
 21
866.0340369368
 31
0.0
  0
LINE
  5
2C8
  8
0
  6
CONTINUOUS
 62
     7
 10
387.4776877504
 20
494.8374987269
 30
0.0
 11
390.237658475
 21
494.8374987269
 31
0.0
  0
LINE
  5
2C9
  8
0
  6
CONTINUOUS
 62
     7
 10
336.5318208974
 20
494.8374987269
 30
0.0
 11
333.7718501728
 21
494.8374987269
 31
0.0
  0
LINE
  5
2CA
  8
0
  6
CONTINUOUS
 62
     7
 10
335.6458108914
 20
504.8374891901
 30
0.0
 11
335.6458108914
 21
504.7808647776
 31
0.0
  0
LINE
  5
2CB
  8
0
  6
CONTINUOUS
 62
     7
 10
312.4754216563
 20
504.8374891901
 30
0.0
 11
335.6458108914
 21
504.8374891901
 31
0.0
  0
LINE
  5
2CC
  8
0
  6
CONTINUOUS
 62
     7
 10
388.3636977565
 20
504.8374891901
 30
0.0
 11
411.5340869915
 21
504.8374891901
 31
0.0
  0
LINE
  5
2CD
  8
0
  6
CONTINUOUS
 62
     7
 10
388.3636977565
 20
504.7808647776
 30
0.0
 11
388.3636977565
 21
504.8374891901
 31
0.0
  0
LINE
  5
2CE
  8
0
  6
CONTINUOUS
 62
     7
 10
306.8712886464
 20
474.837487998
 30
0.0
 11
306.8475548219
 21
474.8373091841
 31
0.0
  0
LINE
  5
2CF
  8
0
  6
CONTINUOUS
 62
     7
 10
307.4262525928
 20
474.837487998
 30
0.0
 11
306.8712886464
 21
474.837487998
 31
0.0
  0
LINE
  5
2D0
  8
0
  6
CONTINUOUS
 62
     7
 10
417.1382200014
 20
474.837487998
 30
0.0
 11
417.1647813212
 21
474.8372793818
 31
0.0
  0
LINE
  5
2D1
  8
0
  6
CONTINUOUS
 62
     7
 10
416.5832560551
 20
474.837487998
 30
0.0
 11
417.1382200014
 21
474.837487998
 31
0.0
  0
LINE
  5
2D2
  8
0
  6
CONTINUOUS
 62
     7
 10
333.7718501728
 20
494.8374987269
 30
0.0
 11
311.6471853149
 21
494.8374987269
 31
0.0
  0
LINE
  5
2D3
  8
0
  6
CONTINUOUS
 62
     7
 10
390.237658475
 20
494.8374987269
 30
0.0
 11
412.362323333
 21
494.8374987269
 31
0.0
  0
POLYLINE
  5
2D4
  8
0
  6
CONTINUOUS
 62
     7
 66
     1
 10
0.0
 20
0.0
 30
0.0
  0
VERTEX
  5
869
  8
0
  6
CONTINUOUS
 62
     7
 10
420.7388807129
 20
504.8374891901
 30
0.0
  0
VERTEX
  5
86A
  8
0
  6
CONTINUOUS
 62
     7
 10
420.3721258831
 20
504.0447474146
 30
0.0
  0
VERTEX
  5
86B
  8
0
  6
CONTINUOUS
 62
     7
 10
419.7268459987
 20
502.7118832493
 30
0.0
  0
VERTEX
  5
86C
  8
0
  6
CONTINUOUS
 62
     7
 10
419.0460454714
 20
501.3996571923
 30
0.0
  0
VERTEX
  5
86D
  8
0
  6
CONTINUOUS
 62
     7
 10
418.3213796508
 20
500.1160115624
 30
0.0
  0
VERTEX
  5
86E
  8
0
  6
CONTINUOUS
 62
     7
 10
417.7295427811
 20
499.1531134272
 30
0.0
  0
VERTEX
  5
86F
  8
0
  6
CONTINUOUS
 62
     7
 10
417.0961018693
 20
498.2190192366
 30
0.0
  0
VERTEX
  5
870
  8
0
  6
CONTINUOUS
 62
     7
 10
416.4105329704
 20
497.3322362328
 30
0.0
  0
VERTEX
  5
871
  8
0
  6
CONTINUOUS
 62
     7
 10
415.6623121392
 20
496.5112120533
 30
0.0
  0
VERTEX
  5
872
  8
0
  6
CONTINUOUS
 62
     7
 10
415.2314636898
 20
496.107301178
 30
0.0
  0
VERTEX
  5
873
  8
0
  6
CONTINUOUS
 62
     7
 10
414.7742588114
 20
495.7379311943
 30
0.0
  0
VERTEX
  5
874
  8
0
  6
CONTINUOUS
 62
     7
 10
414.2898816657
 20
495.4145014906
 30
0.0
  0
VERTEX
  5
875
  8
0
  6
CONTINUOUS
 62
     7
 10
413.8739977073
 20
495.1935619736
 30
0.0
  0
VERTEX
  5
876
  8
0
  6
CONTINUOUS
 62
     7
 10
413.4387943935
 20
495.0185925389
 30
0.0
  0
VERTEX
  5
877
  8
0
  6
CONTINUOUS
 62
     7
 10
412.9897218239
 20
494.8989213133
 30
0.0
  0
VERTEX
  5
878
  8
0
  6
CONTINUOUS
 62
     7
 10
412.362323333
 20
494.8374987269
 30
0.0
  0
SEQEND
  5
B47
  8
0
  6
CONTINUOUS
 62
     7
  0
POLYLINE
  5
2D5
  8
0
  6
CONTINUOUS
 62
     7
 66
     1
 10
0.0
 20
0.0
 30
0.0
  0
VERTEX
  5
879
  8
0
  6
CONTINUOUS
 62
     7
 10
303.2706279349
 20
504.8374891901
 30
0.0
  0
VERTEX
  5
87A
  8
0
  6
CONTINUOUS
 62
     7
 10
303.938438375
 20
503.4118354941
 30
0.0
  0
VERTEX
  5
87B
  8
0
  6
CONTINUOUS
 62
     7
 10
304.6422649216
 20
502.0064175749
 30
0.0
  0
VERTEX
  5
87C
  8
0
  6
CONTINUOUS
 62
     7
 10
305.3907167208
 20
500.6289989376
 30
0.0
  0
VERTEX
  5
87D
  8
0
  6
CONTINUOUS
 62
     7
 10
305.986692388
 20
499.6177316332
 30
0.0
  0
VERTEX
  5
87E
  8
0
  6
CONTINUOUS
 62
     7
 10
306.6229011905
 20
498.6333162213
 30
0.0
  0
VERTEX
  5
87F
  8
0
  6
CONTINUOUS
 62
     7
 10
307.3099117767
 20
497.6923525954
 30
0.0
  0
VERTEX
  5
880
  8
0
  6
CONTINUOUS
 62
     7
 10
308.0582778942
 20
496.811530056
 30
0.0
  0
VERTEX
  5
881
  8
0
  6
CONTINUOUS
 62
     7
 10
308.4969271016
 20
496.3645399237
 30
0.0
  0
VERTEX
  5
882
  8
0
  6
CONTINUOUS
 62
     7
 10
308.9629348409
 20
495.9504366541
 30
0.0
  0
VERTEX
  5
883
  8
0
  6
CONTINUOUS
 62
     7
 10
309.4580855262
 20
495.5805302286
 30
0.0
  0
VERTEX
  5
884
  8
0
  6
CONTINUOUS
 62
     7
 10
309.8887067329
 20
495.3185231114
 30
0.0
  0
VERTEX
  5
885
  8
0
  6
CONTINUOUS
 62
     7
 10
310.3419516277
 20
495.1032311344
 30
0.0
  0
VERTEX
  5
886
  8
0
  6
CONTINUOUS
 62
     7
 10
310.813092817
 20
494.9460238838
 30
0.0
  0
VERTEX
  5
887
  8
0
  6
CONTINUOUS
 62
     7
 10
311.2272370648
 20
494.8652148867
 30
0.0
  0
VERTEX
  5
888
  8
0
  6
CONTINUOUS
 62
     7
 10
311.6471853149
 20
494.8374987269
 30
0.0
  0
SEQEND
  5
B46
  8
0
  6
CONTINUOUS
 62
     7
  0
LINE
  5
2D6
  8
0
  6
CONTINUOUS
 62
     7
 10
406.0047540855
 20
891.8374837065
 30
0.0
 11
420.004752655
 21
891.8374837065
 31
0.0
  0
LINE
  5
2D7
  8
0
  6
CONTINUOUS
 62
     7
 10
420.004752655
 20
891.8374837065
 30
0.0
 11
420.004752655
 21
879.8375189925
 31
0.0
  0
LINE
  5
2D8
  8
0
  6
CONTINUOUS
 62
     7
 10
392.436887328
 20
890.8374965811
 30
0.0
 11
392.436887328
 21
876.8374980116
 31
0.0
  0
LINE
  5
2D9
  8
0
  6
CONTINUOUS
 62
     7
 10
380.0047535491
 20
888.8374627257
 30
0.0
 11
380.0047535491
 21
876.8374980116
 31
0.0
  0
LINE
  5
2DA
  8
0
  6
CONTINUOUS
 62
     7
 10
299.5047543239
 20
504.8374891901
 30
0.0
 11
312.4754216563
 21
504.8374891901
 31
0.0
  0
LINE
  5
2DB
  8
0
  6
CONTINUOUS
 62
     7
 10
411.5340869915
 20
504.8374891901
 30
0.0
 11
424.5047543239
 21
504.8374891901
 31
0.0
  0
LINE
  5
2DC
  8
0
  6
CONTINUOUS
 62
     7
 10
394.0047558438
 20
876.8374980116
 30
0.0
 11
394.0047558438
 21
892.8374708319
 31
0.0
  0
LINE
  5
2DD
  8
0
  6
CONTINUOUS
 62
     7
 10
318.0047545623
 20
892.3375070715
 30
0.0
 11
318.0047545623
 21
876.8374980116
 31
0.0
  0
LINE
  5
2DE
  8
0
  6
CONTINUOUS
 62
     7
 10
420.004752655
 20
886.8374884749
 30
0.0
 11
449.0047518205
 21
886.8374884749
 31
0.0
  0
LINE
  5
2DF
  8
0
  6
CONTINUOUS
 62
     7
 10
420.004752655
 20
864.8374736929
 30
0.0
 11
449.0047518205
 21
864.8374736929
 31
0.0
  0
LINE
  5
2E0
  8
0
  6
CONTINUOUS
 62
     7
 10
449.0047518205
 20
886.8374884749
 30
0.0
 11
449.0047518205
 21
864.8374736929
 31
0.0
  0
LINE
  5
2E1
  8
0
  6
CONTINUOUS
 62
     7
 10
421.0047546815
 20
494.8374987269
 30
0.0
 11
412.362323333
 21
494.8374987269
 31
0.0
  0
LINE
  5
2E2
  8
0
  6
CONTINUOUS
 62
     7
 10
303.0047539663
 20
494.8374987269
 30
0.0
 11
311.6471853149
 21
494.8374987269
 31
0.0
  0
LINE
  5
2E3
  8
0
  6
CONTINUOUS
 62
     7
 10
453.0047524762
 20
887.3375118399
 30
0.0
 11
453.0047524762
 21
864.3375099325
 31
0.0
  0
LINE
  5
2E4
  8
0
  6
CONTINUOUS
 62
     7
 10
449.0047518205
 20
864.8374736929
 30
0.0
 11
449.0047518205
 21
864.3375099325
 31
0.0
  0
LINE
  5
2E5
  8
0
  6
CONTINUOUS
 62
     7
 10
449.0047518205
 20
887.3375118399
 30
0.0
 11
449.0047518205
 21
886.8374884749
 31
0.0
  0
LINE
  5
2E6
  8
0
  6
CONTINUOUS
 62
     7
 10
435.3168059182
 20
774.837499919
 30
0.0
 11
435.3170145344
 21
774.837499919
 31
0.0
  0
LINE
  5
2E7
  8
0
  6
CONTINUOUS
 62
     7
 10
435.3168059182
 20
774.837499919
 30
0.0
 11
435.3168059182
 21
729.8374832297
 31
0.0
  0
LINE
  5
2E8
  8
0
  6
CONTINUOUS
 62
     7
 10
435.3170145344
 20
836.8374765539
 30
0.0
 11
429.084730525
 21
836.8374765539
 31
0.0
  0
LINE
  5
2E9
  8
0
  6
CONTINUOUS
 62
     7
 10
435.3170145344
 20
774.837499919
 30
0.0
 11
435.3170145344
 21
836.8374765539
 31
0.0
  0
LINE
  5
2EA
  8
0
  6
CONTINUOUS
 62
     7
 10
288.6924941134
 20
585.8374894285
 30
0.0
 11
294.9247483205
 21
585.8374894285
 31
0.0
  0
LINE
  5
2EB
  8
0
  6
CONTINUOUS
 62
     7
 10
288.6924941134
 20
585.8374894285
 30
0.0
 11
288.6924941134
 21
774.837499919
 31
0.0
  0
LINE
  5
2EC
  8
0
  6
CONTINUOUS
 62
     7
 10
288.6924941134
 20
774.837499919
 30
0.0
 11
288.6924941134
 21
836.8374765539
 31
0.0
  0
LINE
  5
2ED
  8
0
  6
CONTINUOUS
 62
     7
 10
294.9247632217
 20
836.8374765539
 30
0.0
 11
288.6924941134
 21
836.8374765539
 31
0.0
  0
LINE
  5
2EE
  8
0
  6
CONTINUOUS
 62
     7
 10
435.3170145344
 20
585.8374894285
 30
0.0
 11
435.3170145344
 21
774.837499919
 31
0.0
  0
LINE
  5
2EF
  8
0
  6
CONTINUOUS
 62
     7
 10
429.0848124814
 20
585.8374894285
 30
0.0
 11
435.3170145344
 21
585.8374894285
 31
0.0
  0
LINE
  5
2F0
  8
0
  6
CONTINUOUS
 62
     7
 10
288.588133831
 20
585.8374894285
 30
0.0
 11
288.588133831
 21
836.8374765539
 31
0.0
  0
LINE
  5
2F1
  8
0
  6
CONTINUOUS
 62
     7
 10
288.588133831
 20
836.8374765539
 30
0.0
 11
288.6924941134
 21
836.8374765539
 31
0.0
  0
LINE
  5
2F2
  8
0
  6
CONTINUOUS
 62
     7
 10
288.588133831
 20
585.8374894285
 30
0.0
 11
288.6924941134
 21
585.8374894285
 31
0.0
  0
LINE
  5
2F3
  8
0
  6
CONTINUOUS
 62
     7
 10
435.4213748169
 20
836.8374765539
 30
0.0
 11
435.4213748169
 21
585.8374894285
 31
0.0
  0
LINE
  5
2F4
  8
0
  6
CONTINUOUS
 62
     7
 10
435.3170145344
 20
836.8374765539
 30
0.0
 11
435.4213748169
 21
836.8374765539
 31
0.0
  0
LINE
  5
2F5
  8
0
  6
CONTINUOUS
 62
     7
 10
435.3170145344
 20
585.8374894285
 30
0.0
 11
435.4213748169
 21
585.8374894285
 31
0.0
  0
LINE
  5
2F6
  8
0
  6
CONTINUOUS
 62
     7
 10
288.5319713544
 20
836.8374765539
 30
0.0
 11
288.5319713544
 21
585.8374894285
 31
0.0
  0
LINE
  5
2F7
  8
0
  6
CONTINUOUS
 62
     7
 10
288.5319713544
 20
836.8374765539
 30
0.0
 11
288.588133831
 21
836.8374765539
 31
0.0
  0
LINE
  5
2F8
  8
0
  6
CONTINUOUS
 62
     7
 10
288.588133831
 20
585.8374894285
 30
0.0
 11
288.5319713544
 21
585.8374894285
 31
0.0
  0
LINE
  5
2F9
  8
0
  6
CONTINUOUS
 62
     7
 10
435.4775372934
 20
585.8374894285
 30
0.0
 11
435.4775372934
 21
836.8374765539
 31
0.0
  0
LINE
  5
2FA
  8
0
  6
CONTINUOUS
 62
     7
 10
435.4213748169
 20
836.8374765539
 30
0.0
 11
435.4775372934
 21
836.8374765539
 31
0.0
  0
LINE
  5
2FB
  8
0
  6
CONTINUOUS
 62
     7
 10
435.4775372934
 20
585.8374894285
 30
0.0
 11
435.4213748169
 21
585.8374894285
 31
0.0
  0
LINE
  5
2FC
  8
0
  6
CONTINUOUS
 62
     7
 10
435.4775372934
 20
836.8374765539
 30
0.0
 11
435.5047542643
 21
836.8374765539
 31
0.0
  0
LINE
  5
2FD
  8
0
  6
CONTINUOUS
 62
     7
 10
435.4775372934
 20
585.8374894285
 30
0.0
 11
435.5047542643
 21
585.8374894285
 31
0.0
  0
LINE
  5
2FE
  8
0
  6
CONTINUOUS
 62
     7
 10
288.5047543835
 20
836.8374765539
 30
0.0
 11
288.5319713544
 21
836.8374765539
 31
0.0
  0
LINE
  5
2FF
  8
0
  6
CONTINUOUS
 62
     7
 10
288.5047543835
 20
585.8374894285
 30
0.0
 11
288.5319713544
 21
585.8374894285
 31
0.0
  0
LINE
  5
300
  8
0
  6
CONTINUOUS
 62
     7
 10
469.0047550988
 20
884.8375142241
 30
0.0
 11
469.0047550988
 21
866.8375075484
 31
0.0
  0
CIRCLE
  5
301
  8
0
  6
CONTINUOUS
 62
     8
 10
362.0047543239
 20
307.8374922896
 30
0.0
 40
41.8696152422707
  0
CIRCLE
  5
302
  8
0
  6
CONTINUOUS
 62
     8
 10
362.0047543239
 20
307.8374922896
 30
0.0
 40
50.66961524227065
  0
CIRCLE
  5
303
  8
0
  6
CONTINUOUS
 62
     8
 10
362.0047543239
 20
307.8374922896
 30
0.0
 40
49.6303847577293
  0
CIRCLE
  5
304
  8
0
  6
CONTINUOUS
 62
     8
 10
362.0047543239
 20
307.8374922896
 30
0.0
 40
40.83038475772935
  0
LINE
  5
305
  8
0
  6
CONTINUOUS
 62
     8
 10
381.0907054734
 20
774.837499919
 30
0.0
 11
381.9784738165
 21
774.837499919
 31
0.0
  0
LINE
  5
306
  8
0
  6
CONTINUOUS
 62
     8
 10
381.9784738165
 20
585.8374894285
 30
0.0
 11
381.9784738165
 21
774.837499919
 31
0.0
  0
LINE
  5
307
  8
0
  6
CONTINUOUS
 62
     8
 10
377.0047539886
 20
585.8374894285
 30
0.0
 11
381.9784738165
 21
585.8374894285
 31
0.0
  0
LINE
  5
308
  8
0
  6
CONTINUOUS
 62
     8
 10
377.0047539886
 20
585.8374894285
 30
0.0
 11
377.0047539886
 21
774.837499919
 31
0.0
  0
LINE
  5
309
  8
0
  6
CONTINUOUS
 62
     8
 10
377.0047539886
 20
774.837499919
 30
0.0
 11
379.4530641329
 21
774.837499919
 31
0.0
  0
LINE
  5
30A
  8
0
  6
CONTINUOUS
 62
     8
 10
379.4530641329
 20
729.8374832297
 30
0.0
 11
381.0907054734
 21
729.8374832297
 31
0.0
  0
LINE
  5
30B
  8
0
  6
CONTINUOUS
 62
     8
 10
347.0047546592
 20
585.8374894285
 30
0.0
 11
377.0047539886
 21
585.8374894285
 31
0.0
  0
LINE
  5
30C
  8
0
  6
CONTINUOUS
 62
     8
 10
347.0047546592
 20
585.8374894285
 30
0.0
 11
347.0047546592
 21
774.837499919
 31
0.0
  0
LINE
  5
30D
  8
0
  6
CONTINUOUS
 62
     8
 10
347.0047546592
 20
774.837499919
 30
0.0
 11
377.0047539886
 21
774.837499919
 31
0.0
  0
LINE
  5
30E
  8
0
  6
CONTINUOUS
 62
     8
 10
381.9784738165
 20
570.8375037337
 30
0.0
 11
381.9784738165
 21
585.8374894285
 31
0.0
  0
LINE
  5
30F
  8
0
  6
CONTINUOUS
 62
     8
 10
377.0047539886
 20
570.8375037337
 30
0.0
 11
377.0047539886
 21
585.8374894285
 31
0.0
  0
LINE
  5
310
  8
0
  6
CONTINUOUS
 62
     8
 10
347.0047546592
 20
570.8375037337
 30
0.0
 11
347.0047546592
 21
585.8374894285
 31
0.0
  0
LINE
  5
311
  8
0
  6
CONTINUOUS
 62
     8
 10
381.9784738165
 20
774.837499919
 30
0.0
 11
381.9784738165
 21
851.8375218535
 31
0.0
  0
LINE
  5
312
  8
0
  6
CONTINUOUS
 62
     8
 10
377.0047539886
 20
774.837499919
 30
0.0
 11
377.0047539886
 21
851.8375218535
 31
0.0
  0
LINE
  5
313
  8
0
  6
CONTINUOUS
 62
     8
 10
347.0047546592
 20
774.837499919
 30
0.0
 11
347.0047546592
 21
851.8375218535
 31
0.0
  0
LINE
  5
314
  8
0
  6
CONTINUOUS
 62
     8
 10
344.5564352017
 20
774.837499919
 30
0.0
 11
347.0047546592
 21
774.837499919
 31
0.0
  0
LINE
  5
315
  8
0
  6
CONTINUOUS
 62
     8
 10
342.0310348314
 20
585.8374894285
 30
0.0
 11
347.0047546592
 21
585.8374894285
 31
0.0
  0
LINE
  5
316
  8
0
  6
CONTINUOUS
 62
     8
 10
342.0310348314
 20
585.8374894285
 30
0.0
 11
342.0310348314
 21
774.837499919
 31
0.0
  0
LINE
  5
317
  8
0
  6
CONTINUOUS
 62
     8
 10
342.0310348314
 20
774.837499919
 30
0.0
 11
342.918810625
 21
774.837499919
 31
0.0
  0
LINE
  5
318
  8
0
  6
CONTINUOUS
 62
     8
 10
342.918810625
 20
729.8374832297
 30
0.0
 11
344.5564352017
 21
729.8374832297
 31
0.0
  0
LINE
  5
319
  8
0
  6
CONTINUOUS
 62
     8
 10
342.0310348314
 20
570.8375037337
 30
0.0
 11
342.0310348314
 21
585.8374894285
 31
0.0
  0
LINE
  5
31A
  8
0
  6
CONTINUOUS
 62
     8
 10
342.0310348314
 20
774.837499919
 30
0.0
 11
342.0310348314
 21
851.8375218535
 31
0.0
  0
LINE
  5
31B
  8
0
  6
CONTINUOUS
 62
     8
 10
340.8275760752
 20
774.837499919
 30
0.0
 11
340.8275760752
 21
570.8375037337
 31
0.0
  0
LINE
  5
31C
  8
0
  6
CONTINUOUS
 62
     8
 10
383.1819325727
 20
585.8374894285
 30
0.0
 11
383.1819325727
 21
774.837499919
 31
0.0
  0
LINE
  5
31D
  8
0
  6
CONTINUOUS
 62
     8
 10
383.1819325727
 20
774.837499919
 30
0.0
 11
383.1819325727
 21
851.8375218535
 31
0.0
  0
LINE
  5
31E
  8
0
  6
CONTINUOUS
 62
     8
 10
340.8275760752
 20
851.8375218535
 30
0.0
 11
340.8275760752
 21
774.837499919
 31
0.0
  0
LINE
  5
31F
  8
0
  6
CONTINUOUS
 62
     8
 10
383.1819325727
 20
570.8375037337
 30
0.0
 11
383.1819325727
 21
585.8374894285
 31
0.0
  0
LINE
  5
320
  8
0
  6
CONTINUOUS
 62
     8
 10
384.504755218
 20
774.837499919
 30
0.0
 11
429.0847379756
 21
774.837499919
 31
0.0
  0
LINE
  5
321
  8
0
  6
CONTINUOUS
 62
     8
 10
384.504755218
 20
774.837499919
 30
0.0
 11
384.504755218
 21
851.8375218535
 31
0.0
  0
LINE
  5
322
  8
0
  6
CONTINUOUS
 62
     8
 10
339.5047534299
 20
851.8375218535
 30
0.0
 11
339.5047534299
 21
774.837499919
 31
0.0
  0
LINE
  5
323
  8
0
  6
CONTINUOUS
 62
     8
 10
294.9247557711
 20
774.837499919
 30
0.0
 11
339.5047534299
 21
774.837499919
 31
0.0
  0
LINE
  5
324
  8
0
  6
CONTINUOUS
 62
     8
 10
384.504755218
 20
570.8375037337
 30
0.0
 11
384.504755218
 21
585.8374894285
 31
0.0
  0
LINE
  5
325
  8
0
  6
CONTINUOUS
 62
     8
 10
384.504755218
 20
585.8374894285
 30
0.0
 11
429.0847752285
 21
585.8374894285
 31
0.0
  0
LINE
  5
326
  8
0
  6
CONTINUOUS
 62
     8
 10
339.5047534299
 20
565.8374786997
 30
0.0
 11
339.5047534299
 21
570.8375037337
 31
0.0
  0
LINE
  5
327
  8
0
  6
CONTINUOUS
 62
     8
 10
383.1819325727
 20
774.837499919
 30
0.0
 11
384.504755218
 21
774.837499919
 31
0.0
  0
LINE
  5
328
  8
0
  6
CONTINUOUS
 62
     8
 10
383.1819325727
 20
585.8374894285
 30
0.0
 11
384.504755218
 21
585.8374894285
 31
0.0
  0
LINE
  5
329
  8
0
  6
CONTINUOUS
 62
     8
 10
384.504755218
 20
585.8374894285
 30
0.0
 11
384.504755218
 21
774.837499919
 31
0.0
  0
LINE
  5
32A
  8
0
  6
CONTINUOUS
 62
     8
 10
339.5047534299
 20
774.837499919
 30
0.0
 11
340.8275760752
 21
774.837499919
 31
0.0
  0
LINE
  5
32B
  8
0
  6
CONTINUOUS
 62
     8
 10
339.5047534299
 20
585.8374894285
 30
0.0
 11
339.5047534299
 21
570.8375037337
 31
0.0
  0
LINE
  5
32C
  8
0
  6
CONTINUOUS
 62
     8
 10
339.5047534299
 20
774.837499919
 30
0.0
 11
339.5047534299
 21
585.8374894285
 31
0.0
  0
LINE
  5
32D
  8
0
  6
CONTINUOUS
 62
     8
 10
294.9247483205
 20
585.8374894285
 30
0.0
 11
339.5047534299
 21
585.8374894285
 31
0.0
  0
LINE
  5
32E
  8
0
  6
CONTINUOUS
 62
     8
 10
362.0047543239
 20
533.8374883557
 30
0.0
 11
424.5047543239
 21
533.8374883557
 31
0.0
  0
LINE
  5
32F
  8
0
  6
CONTINUOUS
 62
     8
 10
299.5047543239
 20
533.8374883557
 30
0.0
 11
362.0047543239
 21
533.8374883557
 31
0.0
  0
LINE
  5
330
  8
0
  6
CONTINUOUS
 62
     8
 10
320.3235354316
 20
451.9621939087
 30
0.0
 11
320.2405657661
 21
467.0469076062
 31
0.0
  0
LINE
  5
331
  8
0
  6
CONTINUOUS
 62
     8
 10
320.2405657661
 20
467.0469076062
 30
0.0
 11
403.7689428818
 21
467.0469076062
 31
0.0
  0
LINE
  5
332
  8
0
  6
CONTINUOUS
 62
     8
 10
403.6859732163
 20
451.9621939087
 30
0.0
 11
403.7689428818
 21
467.0469076062
 31
0.0
  0
LINE
  5
333
  8
0
  6
CONTINUOUS
 62
     8
 10
416.3237337064
 20
415.3374940777
 30
0.0
 11
416.5537219536
 21
422.8374943757
 31
0.0
  0
LINE
  5
334
  8
0
  6
CONTINUOUS
 62
     8
 10
307.6857749414
 20
415.3374940777
 30
0.0
 11
307.4557866942
 21
422.8374943757
 31
0.0
  0
LINE
  5
335
  8
0
  6
CONTINUOUS
 62
     8
 10
416.3855027449
 20
452.8374881172
 30
0.0
 11
416.559719671
 21
422.8374943757
 31
0.0
  0
LINE
  5
336
  8
0
  6
CONTINUOUS
 62
     8
 10
307.624005903
 20
452.8374881172
 30
0.0
 11
307.4497889769
 21
422.8374943757
 31
0.0
  0
LINE
  5
337
  8
0
  6
CONTINUOUS
 62
     8
 10
307.8449118924
 20
415.1420727992
 30
0.0
 11
307.6857749414
 21
415.3374940777
 31
0.0
  0
LINE
  5
338
  8
0
  6
CONTINUOUS
 62
     8
 10
416.1645967555
 20
415.1420727992
 30
0.0
 11
416.3237337064
 21
415.3374940777
 31
0.0
  0
LINE
  5
339
  8
0
  6
CONTINUOUS
 62
     8
 10
310.004753251
 20
392.8374931836
 30
0.0
 11
310.004753251
 21
415.0778413439
 31
0.0
  0
LINE
  5
33A
  8
0
  6
CONTINUOUS
 62
     8
 10
414.0047553968
 20
392.8374931836
 30
0.0
 11
414.0047553968
 21
415.0778413439
 31
0.0
  0
LINE
  5
33B
  8
0
  6
CONTINUOUS
 62
     8
 10
425.4749838304
 20
415.3374940777
 30
0.0
 11
426.5124399256
 21
422.8374943757
 31
0.0
  0
LINE
  5
33C
  8
0
  6
CONTINUOUS
 62
     8
 10
298.5345248174
 20
415.3374940777
 30
0.0
 11
297.4970687222
 21
422.8374943757
 31
0.0
  0
LINE
  5
33D
  8
0
  6
CONTINUOUS
 62
     8
 10
297.8537801694
 20
434.8374963427
 30
0.0
 11
297.5446704816
 21
422.8374943757
 31
0.0
  0
LINE
  5
33E
  8
0
  6
CONTINUOUS
 62
     8
 10
426.1557284784
 20
434.8374963427
 30
0.0
 11
426.4648381662
 21
422.8374943757
 31
0.0
  0
LINE
  5
33F
  8
0
  6
CONTINUOUS
 62
     8
 10
300.0835638535
 20
414.9157837653
 30
0.0
 11
298.5345248174
 21
415.3374940777
 31
0.0
  0
LINE
  5
340
  8
0
  6
CONTINUOUS
 62
     8
 10
423.9259447944
 20
414.9157837653
 30
0.0
 11
425.4749838304
 21
415.3374940777
 31
0.0
  0
POLYLINE
  5
341
  8
0
  6
CONTINUOUS
 62
     8
 66
     1
 10
0.0
 20
0.0
 30
0.0
  0
VERTEX
  5
889
  8
0
  6
CONTINUOUS
 62
     8
 10
333.4492325824
 20
474.837487998
 30
0.0
  0
VERTEX
  5
88A
  8
0
  6
CONTINUOUS
 62
     8
 10
335.7023123693
 20
474.8018444205
 30
0.0
  0
VERTEX
  5
88B
  8
0
  6
CONTINUOUS
 62
     8
 10
337.9958972376
 20
474.7077137852
 30
0.0
  0
VERTEX
  5
88C
  8
0
  6
CONTINUOUS
 62
     8
 10
340.3433553916
 20
474.5716512823
 30
0.0
  0
VERTEX
  5
88D
  8
0
  6
CONTINUOUS
 62
     8
 10
342.7211746615
 20
474.4087070847
 30
0.0
  0
VERTEX
  5
88E
  8
0
  6
CONTINUOUS
 62
     8
 10
344.6684416425
 20
474.2660135651
 30
0.0
  0
VERTEX
  5
88F
  8
0
  6
CONTINUOUS
 62
     8
 10
346.6316947755
 20
474.1203249121
 30
0.0
  0
VERTEX
  5
890
  8
0
  6
CONTINUOUS
 62
     8
 10
348.6083375331
 20
473.9774078751
 30
0.0
  0
VERTEX
  5
891
  8
0
  6
CONTINUOUS
 62
     8
 10
350.6138112437
 20
473.8417179013
 30
0.0
  0
VERTEX
  5
892
  8
0
  6
CONTINUOUS
 62
     8
 10
352.6305204299
 20
473.7191707516
 30
0.0
  0
VERTEX
  5
893
  8
0
  6
CONTINUOUS
 62
     8
 10
354.6558145475
 20
473.6143112803
 30
0.0
  0
VERTEX
  5
894
  8
0
  6
CONTINUOUS
 62
     8
 10
356.4847183455
 20
473.538479271
 30
0.0
  0
VERTEX
  5
895
  8
0
  6
CONTINUOUS
 62
     8
 10
358.3181304433
 20
473.482465806
 30
0.0
  0
VERTEX
  5
896
  8
0
  6
CONTINUOUS
 62
     8
 10
360.1606656606
 20
473.4480590248
 30
0.0
  0
VERTEX
  5
897
  8
0
  6
CONTINUOUS
 62
     8
 10
362.0047543239
 20
473.4364063168
 30
0.0
  0
VERTEX
  5
898
  8
0
  6
CONTINUOUS
 62
     8
 10
363.7592772296
 20
473.4469563389
 30
0.0
  0
VERTEX
  5
899
  8
0
  6
CONTINUOUS
 62
     8
 10
365.5124611263
 20
473.4781444693
 30
0.0
  0
VERTEX
  5
89A
  8
0
  6
CONTINUOUS
 62
     8
 10
367.2682900954
 20
473.5294044638
 30
0.0
  0
VERTEX
  5
89B
  8
0
  6
CONTINUOUS
 62
     8
 10
369.0201679286
 20
473.5990822935
 30
0.0
  0
VERTEX
  5
89C
  8
0
  6
CONTINUOUS
 62
     8
 10
371.6593721923
 20
473.7351894999
 30
0.0
  0
VERTEX
  5
89D
  8
0
  6
CONTINUOUS
 62
     8
 10
374.2827933323
 20
473.9002496624
 30
0.0
  0
VERTEX
  5
89E
  8
0
  6
CONTINUOUS
 62
     8
 10
376.9031913992
 20
474.0854561949
 30
0.0
  0
VERTEX
  5
89F
  8
0
  6
CONTINUOUS
 62
     8
 10
379.5000717085
 20
474.277740779
 30
0.0
  0
VERTEX
  5
8A0
  8
0
  6
CONTINUOUS
 62
     8
 10
381.3821852249
 20
474.4155318165
 30
0.0
  0
VERTEX
  5
8A1
  8
0
  6
CONTINUOUS
 62
     8
 10
383.2484252792
 20
474.5444715643
 30
0.0
  0
VERTEX
  5
8A2
  8
0
  6
CONTINUOUS
 62
     8
 10
385.0960146677
 20
474.6583611393
 30
0.0
  0
VERTEX
  5
8A3
  8
0
  6
CONTINUOUS
 62
     8
 10
386.9417525869
 20
474.7515977049
 30
0.0
  0
VERTEX
  5
8A4
  8
0
  6
CONTINUOUS
 62
     8
 10
388.7646954548
 20
474.8144508028
 30
0.0
  0
VERTEX
  5
8A5
  8
0
  6
CONTINUOUS
 62
     8
 10
390.5602760654
 20
474.837487998
 30
0.0
  0
SEQEND
  5
B45
  8
0
  6
CONTINUOUS
 62
     8
  0
POLYLINE
  5
342
  8
0
  6
CONTINUOUS
 62
     8
 66
     1
 10
0.0
 20
0.0
 30
0.0
  0
VERTEX
  5
8A6
  8
0
  6
CONTINUOUS
 62
     8
 10
403.7689428818
 20
467.0469076062
 30
0.0
  0
VERTEX
  5
8A7
  8
0
  6
CONTINUOUS
 62
     8
 10
403.7719901692
 20
467.6659912491
 30
0.0
  0
VERTEX
  5
8A8
  8
0
  6
CONTINUOUS
 62
     8
 10
403.7788372528
 20
468.2797849798
 30
0.0
  0
VERTEX
  5
8A9
  8
0
  6
CONTINUOUS
 62
     8
 10
403.7901397836
 20
468.9003736401
 30
0.0
  0
VERTEX
  5
8AA
  8
0
  6
CONTINUOUS
 62
     8
 10
403.8063112688
 20
469.5070744181
 30
0.0
  0
VERTEX
  5
8AB
  8
0
  6
CONTINUOUS
 62
     8
 10
403.8270983886
 20
470.0739890957
 30
0.0
  0
VERTEX
  5
8AC
  8
0
  6
CONTINUOUS
 62
     8
 10
403.8537602913
 20
470.6207872057
 30
0.0
  0
VERTEX
  5
8AD
  8
0
  6
CONTINUOUS
 62
     8
 10
403.888096292
 20
471.1572737122
 30
0.0
  0
VERTEX
  5
8AE
  8
0
  6
CONTINUOUS
 62
     8
 10
403.9304677438
 20
471.6657311344
 30
0.0
  0
VERTEX
  5
8AF
  8
0
  6
CONTINUOUS
 62
     8
 10
403.9796490264
 20
472.124388876
 30
0.0
  0
VERTEX
  5
8B0
  8
0
  6
CONTINUOUS
 62
     8
 10
404.0380802047
 20
472.5518882895
 30
0.0
  0
VERTEX
  5
8B1
  8
0
  6
CONTINUOUS
 62
     8
 10
404.1084695649
 20
472.9550392056
 30
0.0
  0
VERTEX
  5
8B2
  8
0
  6
CONTINUOUS
 62
     8
 10
404.1903849732
 20
473.3212948466
 30
0.0
  0
VERTEX
  5
8B3
  8
0
  6
CONTINUOUS
 62
     8
 10
404.2835321319
 20
473.6454249049
 30
0.0
  0
VERTEX
  5
8B4
  8
0
  6
CONTINUOUS
 62
     8
 10
404.3894384098
 20
473.930901351
 30
0.0
  0
VERTEX
  5
8B5
  8
0
  6
CONTINUOUS
 62
     8
 10
404.511557151
 20
474.1820008183
 30
0.0
  0
VERTEX
  5
8B6
  8
0
  6
CONTINUOUS
 62
     8
 10
404.6480890405
 20
474.3917495632
 30
0.0
  0
VERTEX
  5
8B7
  8
0
  6
CONTINUOUS
 62
     8
 10
404.8301253509
 20
474.5876998329
 30
0.0
  0
VERTEX
  5
8B8
  8
0
  6
CONTINUOUS
 62
     8
 10
405.0333995413
 20
474.7261614228
 30
0.0
  0
VERTEX
  5
8B9
  8
0
  6
CONTINUOUS
 62
     8
 10
405.2645426285
 20
474.8100847626
 30
0.0
  0
VERTEX
  5
8BA
  8
0
  6
CONTINUOUS
 62
     8
 10
405.5180002045
 20
474.837487998
 30
0.0
  0
SEQEND
  5
B44
  8
0
  6
CONTINUOUS
 62
     8
  0
POLYLINE
  5
343
  8
0
  6
CONTINUOUS
 62
     8
 66
     1
 10
0.0
 20
0.0
 30
0.0
  0
VERTEX
  5
8BB
  8
0
  6
CONTINUOUS
 62
     8
 10
320.2405657661
 20
467.0469076062
 30
0.0
  0
VERTEX
  5
8BC
  8
0
  6
CONTINUOUS
 62
     8
 10
320.2375184786
 20
467.6659912491
 30
0.0
  0
VERTEX
  5
8BD
  8
0
  6
CONTINUOUS
 62
     8
 10
320.230671395
 20
468.2797849798
 30
0.0
  0
VERTEX
  5
8BE
  8
0
  6
CONTINUOUS
 62
     8
 10
320.2193688643
 20
468.9003736401
 30
0.0
  0
VERTEX
  5
8BF
  8
0
  6
CONTINUOUS
 62
     8
 10
320.2031973791
 20
469.5070744181
 30
0.0
  0
VERTEX
  5
8C0
  8
0
  6
CONTINUOUS
 62
     8
 10
320.1824102592
 20
470.0739890957
 30
0.0
  0
VERTEX
  5
8C1
  8
0
  6
CONTINUOUS
 62
     8
 10
320.1557483565
 20
470.6207872057
 30
0.0
  0
VERTEX
  5
8C2
  8
0
  6
CONTINUOUS
 62
     8
 10
320.1214123559
 20
471.1572737122
 30
0.0
  0
VERTEX
  5
8C3
  8
0
  6
CONTINUOUS
 62
     8
 10
320.079040904
 20
471.6657311344
 30
0.0
  0
VERTEX
  5
8C4
  8
0
  6
CONTINUOUS
 62
     8
 10
320.0298596215
 20
472.124388876
 30
0.0
  0
VERTEX
  5
8C5
  8
0
  6
CONTINUOUS
 62
     8
 10
319.9714284432
 20
472.5518882895
 30
0.0
  0
VERTEX
  5
8C6
  8
0
  6
CONTINUOUS
 62
     8
 10
319.901039083
 20
472.9550392056
 30
0.0
  0
VERTEX
  5
8C7
  8
0
  6
CONTINUOUS
 62
     8
 10
319.8191236746
 20
473.3212948466
 30
0.0
  0
VERTEX
  5
8C8
  8
0
  6
CONTINUOUS
 62
     8
 10
319.725976516
 20
473.6454249049
 30
0.0
  0
VERTEX
  5
8C9
  8
0
  6
CONTINUOUS
 62
     8
 10
319.6200702381
 20
473.930901351
 30
0.0
  0
VERTEX
  5
8CA
  8
0
  6
CONTINUOUS
 62
     8
 10
319.4979514968
 20
474.1820008183
 30
0.0
  0
VERTEX
  5
8CB
  8
0
  6
CONTINUOUS
 62
     8
 10
319.3614196074
 20
474.3917495632
 30
0.0
  0
VERTEX
  5
8CC
  8
0
  6
CONTINUOUS
 62
     8
 10
319.1793832969
 20
474.5876998329
 30
0.0
  0
VERTEX
  5
8CD
  8
0
  6
CONTINUOUS
 62
     8
 10
318.9761091065
 20
474.7261614228
 30
0.0
  0
VERTEX
  5
8CE
  8
0
  6
CONTINUOUS
 62
     8
 10
318.7449660194
 20
474.8100847626
 30
0.0
  0
VERTEX
  5
8CF
  8
0
  6
CONTINUOUS
 62
     8
 10
318.4915084433
 20
474.837487998
 30
0.0
  0
SEQEND
  5
B43
  8
0
  6
CONTINUOUS
 62
     8
  0
POLYLINE
  5
344
  8
0
  6
CONTINUOUS
 62
     8
 66
     1
 10
0.0
 20
0.0
 30
0.0
  0
VERTEX
  5
8D0
  8
0
  6
CONTINUOUS
 62
     8
 10
385.288302977
 20
482.6280832911
 30
0.0
  0
VERTEX
  5
8D1
  8
0
  6
CONTINUOUS
 62
     8
 10
385.3094514501
 20
482.0918799067
 30
0.0
  0
VERTEX
  5
8D2
  8
0
  6
CONTINUOUS
 62
     8
 10
385.3542722803
 20
481.5590441847
 30
0.0
  0
VERTEX
  5
8D3
  8
0
  6
CONTINUOUS
 62
     8
 10
385.422564302
 20
481.0319752121
 30
0.0
  0
VERTEX
  5
8D4
  8
0
  6
CONTINUOUS
 62
     8
 10
385.5140183162
 20
480.5130422736
 30
0.0
  0
VERTEX
  5
8D5
  8
0
  6
CONTINUOUS
 62
     8
 10
385.6282245409
 20
480.0045848513
 30
0.0
  0
VERTEX
  5
8D6
  8
0
  6
CONTINUOUS
 62
     8
 10
385.7646651607
 20
479.5088977242
 30
0.0
  0
VERTEX
  5
8D7
  8
0
  6
CONTINUOUS
 62
     8
 10
385.9227273655
 20
479.0282309676
 30
0.0
  0
VERTEX
  5
8D8
  8
0
  6
CONTINUOUS
 62
     8
 10
386.1016958993
 20
478.5647303486
 30
0.0
  0
VERTEX
  5
8D9
  8
0
  6
CONTINUOUS
 62
     8
 10
386.3007660997
 20
478.1204820299
 30
0.0
  0
VERTEX
  5
8DA
  8
0
  6
CONTINUOUS
 62
     8
 10
386.5190401715
 20
477.6975125695
 30
0.0
  0
VERTEX
  5
8DB
  8
0
  6
CONTINUOUS
 62
     8
 10
386.7555327755
 20
477.2977144146
 30
0.0
  0
VERTEX
  5
8DC
  8
0
  6
CONTINUOUS
 62
     8
 10
387.0091803413
 20
476.922890606
 30
0.0
  0
VERTEX
  5
8DD
  8
0
  6
CONTINUOUS
 62
     8
 10
387.2788373422
 20
476.5747398758
 30
0.0
  0
VERTEX
  5
8DE
  8
0
  6
CONTINUOUS
 62
     8
 10
387.5632874709
 20
476.254811945
 30
0.0
  0
VERTEX
  5
8DF
  8
0
  6
CONTINUOUS
 62
     8
 10
387.8612492275
 20
475.9645671273
 30
0.0
  0
VERTEX
  5
8E0
  8
0
  6
CONTINUOUS
 62
     8
 10
388.1713796448
 20
475.7053167248
 30
0.0
  0
VERTEX
  5
8E1
  8
0
  6
CONTINUOUS
 62
     8
 10
388.4922798764
 20
475.4782081271
 30
0.0
  0
VERTEX
  5
8E2
  8
0
  6
CONTINUOUS
 62
     8
 10
388.8225045096
 20
475.2842844153
 30
0.0
  0
VERTEX
  5
8E3
  8
0
  6
CONTINUOUS
 62
     8
 10
389.1605634284
 20
475.1244098568
 30
0.0
  0
VERTEX
  5
8E4
  8
0
  6
CONTINUOUS
 62
     8
 10
389.5049311262
 20
474.9993146086
 30
0.0
  0
VERTEX
  5
8E5
  8
0
  6
CONTINUOUS
 62
     8
 10
389.8540578824
 20
474.9095500136
 30
0.0
  0
VERTEX
  5
8E6
  8
0
  6
CONTINUOUS
 62
     8
 10
390.2063697618
 20
474.8555333042
 30
0.0
  0
VERTEX
  5
8E7
  8
0
  6
CONTINUOUS
 62
     8
 10
390.5602760654
 20
474.837487998
 30
0.0
  0
SEQEND
  5
B42
  8
0
  6
CONTINUOUS
 62
     8
  0
POLYLINE
  5
345
  8
0
  6
CONTINUOUS
 62
     8
 66
     1
 10
0.0
 20
0.0
 30
0.0
  0
VERTEX
  5
8E8
  8
0
  6
CONTINUOUS
 62
     8
 10
338.7212056708
 20
482.6280832911
 30
0.0
  0
VERTEX
  5
8E9
  8
0
  6
CONTINUOUS
 62
     8
 10
338.7000571978
 20
482.0918799067
 30
0.0
  0
VERTEX
  5
8EA
  8
0
  6
CONTINUOUS
 62
     8
 10
338.6552363675
 20
481.5590441847
 30
0.0
  0
VERTEX
  5
8EB
  8
0
  6
CONTINUOUS
 62
     8
 10
338.5869443458
 20
481.0319752121
 30
0.0
  0
VERTEX
  5
8EC
  8
0
  6
CONTINUOUS
 62
     8
 10
338.4954903316
 20
480.5130422736
 30
0.0
  0
VERTEX
  5
8ED
  8
0
  6
CONTINUOUS
 62
     8
 10
338.3812841069
 20
480.0045848513
 30
0.0
  0
VERTEX
  5
8EE
  8
0
  6
CONTINUOUS
 62
     8
 10
338.2448434871
 20
479.5088977242
 30
0.0
  0
VERTEX
  5
8EF
  8
0
  6
CONTINUOUS
 62
     8
 10
338.0867812824
 20
479.0282309676
 30
0.0
  0
VERTEX
  5
8F0
  8
0
  6
CONTINUOUS
 62
     8
 10
337.9078127485
 20
478.5647303486
 30
0.0
  0
VERTEX
  5
8F1
  8
0
  6
CONTINUOUS
 62
     8
 10
337.7087425482
 20
478.1204820299
 30
0.0
  0
VERTEX
  5
8F2
  8
0
  6
CONTINUOUS
 62
     8
 10
337.4904684764
 20
477.6975125695
 30
0.0
  0
VERTEX
  5
8F3
  8
0
  6
CONTINUOUS
 62
     8
 10
337.2539758724
 20
477.2977144146
 30
0.0
  0
VERTEX
  5
8F4
  8
0
  6
CONTINUOUS
 62
     8
 10
337.0003283065
 20
476.922890606
 30
0.0
  0
VERTEX
  5
8F5
  8
0
  6
CONTINUOUS
 62
     8
 10
336.7306713056
 20
476.5747398758
 30
0.0
  0
VERTEX
  5
8F6
  8
0
  6
CONTINUOUS
 62
     8
 10
336.4462211769
 20
476.254811945
 30
0.0
  0
VERTEX
  5
8F7
  8
0
  6
CONTINUOUS
 62
     8
 10
336.1482594204
 20
475.9645671273
 30
0.0
  0
VERTEX
  5
8F8
  8
0
  6
CONTINUOUS
 62
     8
 10
335.838129003
 20
475.7053167248
 30
0.0
  0
VERTEX
  5
8F9
  8
0
  6
CONTINUOUS
 62
     8
 10
335.5172287714
 20
475.4782081271
 30
0.0
  0
VERTEX
  5
8FA
  8
0
  6
CONTINUOUS
 62
     8
 10
335.1870041382
 20
475.2842844153
 30
0.0
  0
VERTEX
  5
8FB
  8
0
  6
CONTINUOUS
 62
     8
 10
334.8489452195
 20
475.1244098568
 30
0.0
  0
VERTEX
  5
8FC
  8
0
  6
CONTINUOUS
 62
     8
 10
334.5045775216
 20
474.9993146086
 30
0.0
  0
VERTEX
  5
8FD
  8
0
  6
CONTINUOUS
 62
     8
 10
334.1554507655
 20
474.9095500136
 30
0.0
  0
VERTEX
  5
8FE
  8
0
  6
CONTINUOUS
 62
     8
 10
333.8031388861
 20
474.8555333042
 30
0.0
  0
VERTEX
  5
8FF
  8
0
  6
CONTINUOUS
 62
     8
 10
333.4492325824
 20
474.837487998
 30
0.0
  0
SEQEND
  5
B41
  8
0
  6
CONTINUOUS
 62
     8
  0
POLYLINE
  5
346
  8
0
  6
CONTINUOUS
 62
     8
 66
     1
 10
0.0
 20
0.0
 30
0.0
  0
VERTEX
  5
900
  8
0
  6
CONTINUOUS
 62
     8
 10
385.288302977
 20
482.6280832911
 30
0.0
  0
VERTEX
  5
901
  8
0
  6
CONTINUOUS
 62
     8
 10
385.2770898532
 20
482.6280683899
 30
0.0
  0
VERTEX
  5
902
  8
0
  6
CONTINUOUS
 62
     8
 10
383.9234869969
 20
482.5846464062
 30
0.0
  0
VERTEX
  5
903
  8
0
  6
CONTINUOUS
 62
     8
 10
382.5150106144
 20
482.4652583027
 30
0.0
  0
VERTEX
  5
904
  8
0
  6
CONTINUOUS
 62
     8
 10
381.0576230329
 20
482.2839409733
 30
0.0
  0
VERTEX
  5
905
  8
0
  6
CONTINUOUS
 62
     8
 10
379.5572921675
 20
482.0547015095
 30
0.0
  0
VERTEX
  5
906
  8
0
  6
CONTINUOUS
 62
     8
 10
378.0199784827
 20
481.7915768051
 30
0.0
  0
VERTEX
  5
907
  8
0
  6
CONTINUOUS
 62
     8
 10
376.4516517561
 20
481.5085888529
 30
0.0
  0
VERTEX
  5
908
  8
0
  6
CONTINUOUS
 62
     8
 10
374.7924447101
 20
481.2072426701
 30
0.0
  0
VERTEX
  5
909
  8
0
  6
CONTINUOUS
 62
     8
 10
373.0954678771
 20
480.9085339928
 30
0.0
  0
VERTEX
  5
90A
  8
0
  6
CONTINUOUS
 62
     8
 10
371.3660270017
 20
480.6247860813
 30
0.0
  0
VERTEX
  5
90B
  8
0
  6
CONTINUOUS
 62
     8
 10
369.6094231721
 20
480.3682625914
 30
0.0
  0
VERTEX
  5
90C
  8
0
  6
CONTINUOUS
 62
     8
 10
367.8309621331
 20
480.1512569809
 30
0.0
  0
VERTEX
  5
90D
  8
0
  6
CONTINUOUS
 62
     8
 10
365.9037444316
 20
479.9750060463
 30
0.0
  0
VERTEX
  5
90E
  8
0
  6
CONTINUOUS
 62
     8
 10
363.9575534774
 20
479.864320221
 30
0.0
  0
VERTEX
  5
90F
  8
0
  6
CONTINUOUS
 62
     8
 10
362.0047543239
 20
479.8259199286
 30
0.0
  0
VERTEX
  5
910
  8
0
  6
CONTINUOUS
 62
     8
 10
360.4697383283
 20
479.8498660946
 30
0.0
  0
VERTEX
  5
911
  8
0
  6
CONTINUOUS
 62
     8
 10
358.9370045387
 20
479.9194098139
 30
0.0
  0
VERTEX
  5
912
  8
0
  6
CONTINUOUS
 62
     8
 10
357.4125042227
 20
480.0311685229
 30
0.0
  0
VERTEX
  5
913
  8
0
  6
CONTINUOUS
 62
     8
 10
355.9021886479
 20
480.1817149544
 30
0.0
  0
VERTEX
  5
914
  8
0
  6
CONTINUOUS
 62
     8
 10
354.2053850409
 20
480.3947866583
 30
0.0
  0
VERTEX
  5
915
  8
0
  6
CONTINUOUS
 62
     8
 10
352.5283310604
 20
480.6431592131
 30
0.0
  0
VERTEX
  5
916
  8
0
  6
CONTINUOUS
 62
     8
 10
350.8754178923
 20
480.9158802653
 30
0.0
  0
VERTEX
  5
917
  8
0
  6
CONTINUOUS
 62
     8
 10
349.2510357913
 20
481.2019825602
 30
0.0
  0
VERTEX
  5
918
  8
0
  6
CONTINUOUS
 62
     8
 10
347.6595759433
 20
481.4905137444
 30
0.0
  0
VERTEX
  5
919
  8
0
  6
CONTINUOUS
 62
     8
 10
346.1054295343
 20
481.7705065632
 30
0.0
  0
VERTEX
  5
91A
  8
0
  6
CONTINUOUS
 62
     8
 10
344.5433072787
 20
482.0387870694
 30
0.0
  0
VERTEX
  5
91B
  8
0
  6
CONTINUOUS
 62
     8
 10
343.0170819205
 20
482.2738528872
 30
0.0
  0
VERTEX
  5
91C
  8
0
  6
CONTINUOUS
 62
     8
 10
341.5334943723
 20
482.4605346346
 30
0.0
  0
VERTEX
  5
91D
  8
0
  6
CONTINUOUS
 62
     8
 10
340.0992892724
 20
482.5836629296
 30
0.0
  0
VERTEX
  5
91E
  8
0
  6
CONTINUOUS
 62
     8
 10
338.7212056708
 20
482.6280832911
 30
0.0
  0
SEQEND
  5
B40
  8
0
  6
CONTINUOUS
 62
     8
  0
LINE
  5
347
  8
0
  6
CONTINUOUS
 62
     8
 10
317.8282801103
 20
466.9683784867
 30
0.0
 11
317.8903508973
 21
452.8374881172
 31
0.0
  0
ARC
  5
348
  8
0
  6
CONTINUOUS
 62
     8
 10
320.0575201523
 20
435.5797759066
 30
0.0
 40
31.46766408702865
 50
89.6667118269
 51
94.0623645404
  0
POLYLINE
  5
349
  8
0
  6
CONTINUOUS
 62
     8
 66
     1
 10
0.0
 20
0.0
 30
0.0
  0
VERTEX
  5
91F
  8
0
  6
CONTINUOUS
 62
     8
 10
315.9784462344
 20
471.8374968195
 30
0.0
  0
VERTEX
  5
920
  8
0
  6
CONTINUOUS
 62
     8
 10
316.2111613941
 20
471.8219698096
 30
0.0
  0
VERTEX
  5
921
  8
0
  6
CONTINUOUS
 62
     8
 10
316.4302121889
 20
471.773570838
 30
0.0
  0
VERTEX
  5
922
  8
0
  6
CONTINUOUS
 62
     8
 10
316.6403520894
 20
471.6862202311
 30
0.0
  0
VERTEX
  5
923
  8
0
  6
CONTINUOUS
 62
     8
 10
316.8330054772
 20
471.5589047098
 30
0.0
  0
VERTEX
  5
924
  8
0
  6
CONTINUOUS
 62
     8
 10
317.0946586918
 20
471.2792546177
 30
0.0
  0
VERTEX
  5
925
  8
0
  6
CONTINUOUS
 62
     8
 10
317.3147823703
 20
470.8898723746
 30
0.0
  0
VERTEX
  5
926
  8
0
  6
CONTINUOUS
 62
     8
 10
317.483694483
 20
470.4180718088
 30
0.0
  0
VERTEX
  5
927
  8
0
  6
CONTINUOUS
 62
     8
 10
317.6141466987
 20
469.8551506424
 30
0.0
  0
VERTEX
  5
928
  8
0
  6
CONTINUOUS
 62
     8
 10
317.7097227466
 20
469.2124337578
 30
0.0
  0
VERTEX
  5
929
  8
0
  6
CONTINUOUS
 62
     8
 10
317.7746880841
 20
468.5059846068
 30
0.0
  0
VERTEX
  5
92A
  8
0
  6
CONTINUOUS
 62
     8
 10
317.8132075858
 20
467.7536398793
 30
0.0
  0
VERTEX
  5
92B
  8
0
  6
CONTINUOUS
 62
     8
 10
317.8282801103
 20
466.9683784867
 30
0.0
  0
SEQEND
  5
B3F
  8
0
  6
CONTINUOUS
 62
     8
  0
ARC
  5
34A
  8
0
  6
CONTINUOUS
 62
     8
 10
318.7585431522
 20
472.0612167665
 30
0.0
 40
2.789083987044278
 50
95.4940739716
 51
184.6007916297
  0
ARC
  5
34B
  8
0
  6
CONTINUOUS
 62
     8
 10
405.2509654957
 20
472.0612167665
 30
0.0
 40
2.78908398704437
 50
355.3992083703
 51
84.5059260284
  0
POLYLINE
  5
34C
  8
0
  6
CONTINUOUS
 62
     8
 66
     1
 10
0.0
 20
0.0
 30
0.0
  0
VERTEX
  5
92C
  8
0
  6
CONTINUOUS
 62
     8
 10
408.0310624134
 20
471.8374968195
 30
0.0
  0
VERTEX
  5
92D
  8
0
  6
CONTINUOUS
 62
     8
 10
407.7195722651
 20
471.8082011366
 30
0.0
  0
VERTEX
  5
92E
  8
0
  6
CONTINUOUS
 62
     8
 10
407.4329260778
 20
471.716991129
 30
0.0
  0
VERTEX
  5
92F
  8
0
  6
CONTINUOUS
 62
     8
 10
407.1765031707
 20
471.5589047098
 30
0.0
  0
VERTEX
  5
930
  8
0
  6
CONTINUOUS
 62
     8
 10
406.9117877674
 20
471.2740839148
 30
0.0
  0
VERTEX
  5
931
  8
0
  6
CONTINUOUS
 62
     8
 10
406.6947262776
 20
470.8898723746
 30
0.0
  0
VERTEX
  5
932
  8
0
  6
CONTINUOUS
 62
     8
 10
406.5240223002
 20
470.4110235596
 30
0.0
  0
VERTEX
  5
933
  8
0
  6
CONTINUOUS
 62
     8
 10
406.3953619492
 20
469.8551506424
 30
0.0
  0
VERTEX
  5
934
  8
0
  6
CONTINUOUS
 62
     8
 10
406.2988881063
 20
469.2047596598
 30
0.0
  0
VERTEX
  5
935
  8
0
  6
CONTINUOUS
 62
     8
 10
406.2348205638
 20
468.5059846068
 30
0.0
  0
VERTEX
  5
936
  8
0
  6
CONTINUOUS
 62
     8
 10
406.1959657859
 20
467.7460104847
 30
0.0
  0
VERTEX
  5
937
  8
0
  6
CONTINUOUS
 62
     8
 10
406.1812285375
 20
466.9683784867
 30
0.0
  0
SEQEND
  5
B3E
  8
0
  6
CONTINUOUS
 62
     8
  0
ARC
  5
34D
  8
0
  6
CONTINUOUS
 62
     8
 10
403.9519884956
 20
435.5797759066
 30
0.0
 40
31.46766408702865
 50
85.9376354596
 51
90.3332881731
  0
LINE
  5
34E
  8
0
  6
CONTINUOUS
 62
     8
 10
406.1812285375
 20
466.9683784867
 30
0.0
 11
406.1191577506
 21
452.8374881172
 31
0.0
  0
LINE
  5
34F
  8
0
  6
CONTINUOUS
 62
     8
 10
336.3375637722
 20
482.6280832911
 30
0.0
 11
336.5318208974
 21
494.8374987269
 31
0.0
  0
LINE
  5
350
  8
0
  6
CONTINUOUS
 62
     8
 10
387.6719448757
 20
482.6280832911
 30
0.0
 11
387.4776877504
 21
494.8374987269
 31
0.0
  0
LINE
  5
351
  8
0
  6
CONTINUOUS
 62
     8
 10
385.288302977
 20
482.6280832911
 30
0.0
 11
387.6719448757
 21
482.6280832911
 31
0.0
  0
LINE
  5
352
  8
0
  6
CONTINUOUS
 62
     8
 10
338.7212056708
 20
482.6280832911
 30
0.0
 11
336.3375637722
 21
482.6280832911
 31
0.0
  0
LINE
  5
353
  8
0
  6
CONTINUOUS
 62
     8
 10
417.0344669413
 20
471.8374968195
 30
0.0
 11
408.0310624134
 21
471.8374968195
 31
0.0
  0
LINE
  5
354
  8
0
  6
CONTINUOUS
 62
     8
 10
417.45689996
 20
452.8374881172
 30
0.0
 11
417.0344669413
 21
471.8374968195
 31
0.0
  0
LINE
  5
355
  8
0
  6
CONTINUOUS
 62
     8
 10
306.5526086878
 20
452.8374881172
 30
0.0
 11
306.9750417065
 21
471.8374968195
 31
0.0
  0
LINE
  5
356
  8
0
  6
CONTINUOUS
 62
     8
 10
306.9750417065
 20
471.8374968195
 30
0.0
 11
315.9784462344
 21
471.8374968195
 31
0.0
  0
LINE
  5
357
  8
0
  6
CONTINUOUS
 62
     8
 10
322.7414835286
 20
391.5909737969
 30
0.0
 11
322.7414835286
 21
392.8374931836
 31
0.0
  0
LINE
  5
358
  8
0
  6
CONTINUOUS
 62
     8
 10
401.2680251193
 20
391.5909737969
 30
0.0
 11
401.2680251193
 21
392.8374931836
 31
0.0
  0
LINE
  5
359
  8
0
  6
CONTINUOUS
 62
     8
 10
387.8534689587
 20
494.8374987269
 30
0.0
 11
387.8534689587
 21
504.8374891901
 31
0.0
  0
LINE
  5
35A
  8
0
  6
CONTINUOUS
 62
     8
 10
336.1560396891
 20
504.8374891901
 30
0.0
 11
336.1560396891
 21
494.8374987269
 31
0.0
  0
LINE
  5
35B
  8
0
  6
CONTINUOUS
 62
     8
 10
309.4932634425
 20
392.8374931836
 30
0.0
 11
309.4932634425
 21
383.9872986698
 31
0.0
  0
LINE
  5
35C
  8
0
  6
CONTINUOUS
 62
     8
 10
309.4932634425
 20
368.5206346834
 30
0.0
 11
309.4932634425
 21
349.6848330522
 31
0.0
  0
LINE
  5
35D
  8
0
  6
CONTINUOUS
 62
     8
 10
414.5162452054
 20
392.8374931836
 30
0.0
 11
414.5162452054
 21
383.9872986698
 31
0.0
  0
LINE
  5
35E
  8
0
  6
CONTINUOUS
 62
     8
 10
414.5162452054
 20
368.5206346834
 30
0.0
 11
414.5162452054
 21
349.6848330522
 31
0.0
  0
POLYLINE
  5
35F
  8
0
  6
CONTINUOUS
 62
     8
 66
     1
 10
0.0
 20
0.0
 30
0.0
  0
VERTEX
  5
938
  8
0
  6
CONTINUOUS
 62
     8
 10
330.5258762133
 20
474.837487998
 30
0.0
  0
VERTEX
  5
939
  8
0
  6
CONTINUOUS
 62
     8
 10
330.9160128277
 20
474.8555333042
 30
0.0
  0
VERTEX
  5
93A
  8
0
  6
CONTINUOUS
 62
     8
 10
331.3043911051
 20
474.9095500136
 30
0.0
  0
VERTEX
  5
93B
  8
0
  6
CONTINUOUS
 62
     8
 10
331.6892582965
 20
474.9993146086
 30
0.0
  0
VERTEX
  5
93C
  8
0
  6
CONTINUOUS
 62
     8
 10
332.0688821417
 20
475.1244098568
 30
0.0
  0
VERTEX
  5
93D
  8
0
  6
CONTINUOUS
 62
     8
 10
332.4415490073
 20
475.2842844153
 30
0.0
  0
VERTEX
  5
93E
  8
0
  6
CONTINUOUS
 62
     8
 10
332.8055806499
 20
475.4782081271
 30
0.0
  0
VERTEX
  5
93F
  8
0
  6
CONTINUOUS
 62
     8
 10
333.159332354
 20
475.7053167248
 30
0.0
  0
VERTEX
  5
940
  8
0
  6
CONTINUOUS
 62
     8
 10
333.5012115579
 20
475.9645671273
 30
0.0
  0
VERTEX
  5
941
  8
0
  6
CONTINUOUS
 62
     8
 10
333.8296778541
 20
476.254811945
 30
0.0
  0
VERTEX
  5
942
  8
0
  6
CONTINUOUS
 62
     8
 10
334.1432485771
 20
476.5747398758
 30
0.0
  0
VERTEX
  5
943
  8
0
  6
CONTINUOUS
 62
     8
 10
334.4405118417
 20
476.922890606
 30
0.0
  0
VERTEX
  5
944
  8
0
  6
CONTINUOUS
 62
     8
 10
334.720124681
 20
477.2977144146
 30
0.0
  0
VERTEX
  5
945
  8
0
  6
CONTINUOUS
 62
     8
 10
334.9808298093
 20
477.6975125695
 30
0.0
  0
VERTEX
  5
946
  8
0
  6
CONTINUOUS
 62
     8
 10
335.2214500349
 20
478.1204820299
 30
0.0
  0
VERTEX
  5
947
  8
0
  6
CONTINUOUS
 62
     8
 10
335.4408994358
 20
478.5647303486
 30
0.0
  0
VERTEX
  5
948
  8
0
  6
CONTINUOUS
 62
     8
 10
335.63819081
 20
479.0282309676
 30
0.0
  0
VERTEX
  5
949
  8
0
  6
CONTINUOUS
 62
     8
 10
335.8124338132
 20
479.5088977242
 30
0.0
  0
VERTEX
  5
94A
  8
0
  6
CONTINUOUS
 62
     8
 10
335.962842409
 20
480.0045848513
 30
0.0
  0
VERTEX
  5
94B
  8
0
  6
CONTINUOUS
 62
     8
 10
336.0887404573
 20
480.5130422736
 30
0.0
  0
VERTEX
  5
94C
  8
0
  6
CONTINUOUS
 62
     8
 10
336.189556126
 20
481.0319752121
 30
0.0
  0
VERTEX
  5
94D
  8
0
  6
CONTINUOUS
 62
     8
 10
336.2648405176
 20
481.5590441847
 30
0.0
  0
VERTEX
  5
94E
  8
0
  6
CONTINUOUS
 62
     8
 10
336.3142490428
 20
482.0918799067
 30
0.0
  0
VERTEX
  5
94F
  8
0
  6
CONTINUOUS
 62
     8
 10
336.3375637722
 20
482.6280832911
 30
0.0
  0
SEQEND
  5
B3D
  8
0
  6
CONTINUOUS
 62
     8
  0
POLYLINE
  5
360
  8
0
  6
CONTINUOUS
 62
     8
 66
     1
 10
0.0
 20
0.0
 30
0.0
  0
VERTEX
  5
950
  8
0
  6
CONTINUOUS
 62
     8
 10
393.4836324346
 20
474.837487998
 30
0.0
  0
VERTEX
  5
951
  8
0
  6
CONTINUOUS
 62
     8
 10
393.0934958201
 20
474.8555333042
 30
0.0
  0
VERTEX
  5
952
  8
0
  6
CONTINUOUS
 62
     8
 10
392.7051175427
 20
474.9095500136
 30
0.0
  0
VERTEX
  5
953
  8
0
  6
CONTINUOUS
 62
     8
 10
392.3202503514
 20
474.9993146086
 30
0.0
  0
VERTEX
  5
954
  8
0
  6
CONTINUOUS
 62
     8
 10
391.9406265062
 20
475.1244098568
 30
0.0
  0
VERTEX
  5
955
  8
0
  6
CONTINUOUS
 62
     8
 10
391.5679596406
 20
475.2842844153
 30
0.0
  0
VERTEX
  5
956
  8
0
  6
CONTINUOUS
 62
     8
 10
391.2039279979
 20
475.4782081271
 30
0.0
  0
VERTEX
  5
957
  8
0
  6
CONTINUOUS
 62
     8
 10
390.8501762938
 20
475.7053167248
 30
0.0
  0
VERTEX
  5
958
  8
0
  6
CONTINUOUS
 62
     8
 10
390.5082970899
 20
475.9645671273
 30
0.0
  0
VERTEX
  5
959
  8
0
  6
CONTINUOUS
 62
     8
 10
390.1798307937
 20
476.254811945
 30
0.0
  0
VERTEX
  5
95A
  8
0
  6
CONTINUOUS
 62
     8
 10
389.8662600708
 20
476.5747398758
 30
0.0
  0
VERTEX
  5
95B
  8
0
  6
CONTINUOUS
 62
     8
 10
389.5689968061
 20
476.922890606
 30
0.0
  0
VERTEX
  5
95C
  8
0
  6
CONTINUOUS
 62
     8
 10
389.2893839669
 20
477.2977144146
 30
0.0
  0
VERTEX
  5
95D
  8
0
  6
CONTINUOUS
 62
     8
 10
389.0286788386
 20
477.6975125695
 30
0.0
  0
VERTEX
  5
95E
  8
0
  6
CONTINUOUS
 62
     8
 10
388.7880586129
 20
478.1204820299
 30
0.0
  0
VERTEX
  5
95F
  8
0
  6
CONTINUOUS
 62
     8
 10
388.568609212
 20
478.5647303486
 30
0.0
  0
VERTEX
  5
960
  8
0
  6
CONTINUOUS
 62
     8
 10
388.3713178378
 20
479.0282309676
 30
0.0
  0
VERTEX
  5
961
  8
0
  6
CONTINUOUS
 62
     8
 10
388.1970748347
 20
479.5088977242
 30
0.0
  0
VERTEX
  5
962
  8
0
  6
CONTINUOUS
 62
     8
 10
388.0466662389
 20
480.0045848513
 30
0.0
  0
VERTEX
  5
963
  8
0
  6
CONTINUOUS
 62
     8
 10
387.9207681906
 20
480.5130422736
 30
0.0
  0
VERTEX
  5
964
  8
0
  6
CONTINUOUS
 62
     8
 10
387.8199525219
 20
481.0319752121
 30
0.0
  0
VERTEX
  5
965
  8
0
  6
CONTINUOUS
 62
     8
 10
387.7446681302
 20
481.5590441847
 30
0.0
  0
VERTEX
  5
966
  8
0
  6
CONTINUOUS
 62
     8
 10
387.695259605
 20
482.0918799067
 30
0.0
  0
VERTEX
  5
967
  8
0
  6
CONTINUOUS
 62
     8
 10
387.6719448757
 20
482.6280832911
 30
0.0
  0
SEQEND
  5
B3C
  8
0
  6
CONTINUOUS
 62
     8
  0
ARC
  5
361
  8
0
  6
CONTINUOUS
 62
     8
 10
411.7095787801
 20
472.5705395287
 30
0.0
 40
5.375107956446321
 50
352.1617299973
 51
24.9450827678
  0
ARC
  5
362
  8
0
  6
CONTINUOUS
 62
     8
 10
312.2999298678
 20
472.5705395287
 30
0.0
 40
5.375107956446265
 50
155.0549172322
 51
187.8382700027
  0
POLYLINE
  5
363
  8
0
  6
CONTINUOUS
 62
     8
 66
     1
 10
0.0
 20
0.0
 30
0.0
  0
VERTEX
  5
968
  8
0
  6
CONTINUOUS
 62
     8
 10
390.4232151848
 20
482.6280832911
 30
0.0
  0
VERTEX
  5
969
  8
0
  6
CONTINUOUS
 62
     8
 10
390.4354918789
 20
482.0918799067
 30
0.0
  0
VERTEX
  5
96A
  8
0
  6
CONTINUOUS
 62
     8
 10
390.461511169
 20
481.5590441847
 30
0.0
  0
VERTEX
  5
96B
  8
0
  6
CONTINUOUS
 62
     8
 10
390.5011557084
 20
481.0319752121
 30
0.0
  0
VERTEX
  5
96C
  8
0
  6
CONTINUOUS
 62
     8
 10
390.5542448204
 20
480.5130422736
 30
0.0
  0
VERTEX
  5
96D
  8
0
  6
CONTINUOUS
 62
     8
 10
390.6205419492
 20
480.0045848513
 30
0.0
  0
VERTEX
  5
96E
  8
0
  6
CONTINUOUS
 62
     8
 10
390.6997472089
 20
479.5088977242
 30
0.0
  0
VERTEX
  5
96F
  8
0
  6
CONTINUOUS
 62
     8
 10
390.7915029716
 20
479.0282309676
 30
0.0
  0
VERTEX
  5
970
  8
0
  6
CONTINUOUS
 62
     8
 10
390.8953957301
 20
478.5647303486
 30
0.0
  0
VERTEX
  5
971
  8
0
  6
CONTINUOUS
 62
     8
 10
391.0109579604
 20
478.1204820299
 30
0.0
  0
VERTEX
  5
972
  8
0
  6
CONTINUOUS
 62
     8
 10
391.1376662594
 20
477.6975125695
 30
0.0
  0
VERTEX
  5
973
  8
0
  6
CONTINUOUS
 62
     8
 10
391.2749525201
 20
477.2977144146
 30
0.0
  0
VERTEX
  5
974
  8
0
  6
CONTINUOUS
 62
     8
 10
391.4221964818
 20
476.922890606
 30
0.0
  0
VERTEX
  5
975
  8
0
  6
CONTINUOUS
 62
     8
 10
391.5787350428
 20
476.5747398758
 30
0.0
  0
VERTEX
  5
976
  8
0
  6
CONTINUOUS
 62
     8
 10
391.7438603979
 20
476.254811945
 30
0.0
  0
VERTEX
  5
977
  8
0
  6
CONTINUOUS
 62
     8
 10
391.9168293517
 20
475.9645671273
 30
0.0
  0
VERTEX
  5
978
  8
0
  6
CONTINUOUS
 62
     8
 10
392.0968633186
 20
475.7053167248
 30
0.0
  0
VERTEX
  5
979
  8
0
  6
CONTINUOUS
 62
     8
 10
392.2831483227
 20
475.4782081271
 30
0.0
  0
VERTEX
  5
97A
  8
0
  6
CONTINUOUS
 62
     8
 10
392.4748443108
 20
475.2842844153
 30
0.0
  0
VERTEX
  5
97B
  8
0
  6
CONTINUOUS
 62
     8
 10
392.6710907411
 20
475.1244098568
 30
0.0
  0
VERTEX
  5
97C
  8
0
  6
CONTINUOUS
 62
     8
 10
392.8709991318
 20
474.9993146086
 30
0.0
  0
VERTEX
  5
97D
  8
0
  6
CONTINUOUS
 62
     8
 10
393.0736698252
 20
474.9095500136
 30
0.0
  0
VERTEX
  5
97E
  8
0
  6
CONTINUOUS
 62
     8
 10
393.2781901252
 20
474.8555333042
 30
0.0
  0
VERTEX
  5
97F
  8
0
  6
CONTINUOUS
 62
     8
 10
393.4836324346
 20
474.837487998
 30
0.0
  0
SEQEND
  5
B3B
  8
0
  6
CONTINUOUS
 62
     8
  0
ARC
  5
364
  8
0
  6
CONTINUOUS
 62
     8
 10
389.0475800302
 20
681.4177779552
 30
0.0
 40
198.7944543409541
 50
269.6035165175
 51
270.3964834825
  0
POLYLINE
  5
365
  8
0
  6
CONTINUOUS
 62
     8
 66
     1
 10
0.0
 20
0.0
 30
0.0
  0
VERTEX
  5
980
  8
0
  6
CONTINUOUS
 62
     8
 10
412.4846730423
 20
482.6280832911
 30
0.0
  0
VERTEX
  5
981
  8
0
  6
CONTINUOUS
 62
     8
 10
412.4969478738
 20
482.0918799067
 30
0.0
  0
VERTEX
  5
982
  8
0
  6
CONTINUOUS
 62
     8
 10
412.5229690265
 20
481.5590441847
 30
0.0
  0
VERTEX
  5
983
  8
0
  6
CONTINUOUS
 62
     8
 10
412.5626098406
 20
481.0319752121
 30
0.0
  0
VERTEX
  5
984
  8
0
  6
CONTINUOUS
 62
     8
 10
412.6157026779
 20
480.5130422736
 30
0.0
  0
VERTEX
  5
985
  8
0
  6
CONTINUOUS
 62
     8
 10
412.6819979441
 20
480.0045848513
 30
0.0
  0
VERTEX
  5
986
  8
0
  6
CONTINUOUS
 62
     8
 10
412.7612050664
 20
479.5088977242
 30
0.0
  0
VERTEX
  5
987
  8
0
  6
CONTINUOUS
 62
     8
 10
412.8529589665
 20
479.0282309676
 30
0.0
  0
VERTEX
  5
988
  8
0
  6
CONTINUOUS
 62
     8
 10
412.9568535876
 20
478.5647303486
 30
0.0
  0
VERTEX
  5
989
  8
0
  6
CONTINUOUS
 62
     8
 10
413.0724158179
 20
478.1204820299
 30
0.0
  0
VERTEX
  5
98A
  8
0
  6
CONTINUOUS
 62
     8
 10
413.1991241169
 20
477.6975125695
 30
0.0
  0
VERTEX
  5
98B
  8
0
  6
CONTINUOUS
 62
     8
 10
413.3364085149
 20
477.2977144146
 30
0.0
  0
VERTEX
  5
98C
  8
0
  6
CONTINUOUS
 62
     8
 10
413.4836543393
 20
476.922890606
 30
0.0
  0
VERTEX
  5
98D
  8
0
  6
CONTINUOUS
 62
     8
 10
413.6401910376
 20
476.5747398758
 30
0.0
  0
VERTEX
  5
98E
  8
0
  6
CONTINUOUS
 62
     8
 10
413.8053182554
 20
476.254811945
 30
0.0
  0
VERTEX
  5
98F
  8
0
  6
CONTINUOUS
 62
     8
 10
413.9782872092
 20
475.9645671273
 30
0.0
  0
VERTEX
  5
990
  8
0
  6
CONTINUOUS
 62
     8
 10
414.1583193135
 20
475.7053167248
 30
0.0
  0
VERTEX
  5
991
  8
0
  6
CONTINUOUS
 62
     8
 10
414.3446024549
 20
475.4782081271
 30
0.0
  0
VERTEX
  5
992
  8
0
  6
CONTINUOUS
 62
     8
 10
414.5363021683
 20
475.2842844153
 30
0.0
  0
VERTEX
  5
993
  8
0
  6
CONTINUOUS
 62
     8
 10
414.732546736
 20
475.1244098568
 30
0.0
  0
VERTEX
  5
994
  8
0
  6
CONTINUOUS
 62
     8
 10
414.9324569892
 20
474.9993146086
 30
0.0
  0
VERTEX
  5
995
  8
0
  6
CONTINUOUS
 62
     8
 10
415.1351276826
 20
474.9095500136
 30
0.0
  0
VERTEX
  5
996
  8
0
  6
CONTINUOUS
 62
     8
 10
415.33964612
 20
474.8555333042
 30
0.0
  0
VERTEX
  5
997
  8
0
  6
CONTINUOUS
 62
     8
 10
415.5450921547
 20
474.837487998
 30
0.0
  0
SEQEND
  5
B3A
  8
0
  6
CONTINUOUS
 62
     8
  0
LINE
  5
366
  8
0
  6
CONTINUOUS
 62
     8
 10
390.4232151848
 20
482.6280832911
 30
0.0
 11
412.4846730423
 21
482.6280832911
 31
0.0
  0
POLYLINE
  5
367
  8
0
  6
CONTINUOUS
 62
     8
 66
     1
 10
0.0
 20
0.0
 30
0.0
  0
VERTEX
  5
998
  8
0
  6
CONTINUOUS
 62
     8
 10
333.5862934631
 20
482.6280832911
 30
0.0
  0
VERTEX
  5
999
  8
0
  6
CONTINUOUS
 62
     8
 10
333.5740167689
 20
482.0918799067
 30
0.0
  0
VERTEX
  5
99A
  8
0
  6
CONTINUOUS
 62
     8
 10
333.5479974788
 20
481.5590441847
 30
0.0
  0
VERTEX
  5
99B
  8
0
  6
CONTINUOUS
 62
     8
 10
333.5083529394
 20
481.0319752121
 30
0.0
  0
VERTEX
  5
99C
  8
0
  6
CONTINUOUS
 62
     8
 10
333.4552638274
 20
480.5130422736
 30
0.0
  0
VERTEX
  5
99D
  8
0
  6
CONTINUOUS
 62
     8
 10
333.3889666986
 20
480.0045848513
 30
0.0
  0
VERTEX
  5
99E
  8
0
  6
CONTINUOUS
 62
     8
 10
333.3097614389
 20
479.5088977242
 30
0.0
  0
VERTEX
  5
99F
  8
0
  6
CONTINUOUS
 62
     8
 10
333.2180056762
 20
479.0282309676
 30
0.0
  0
VERTEX
  5
9A0
  8
0
  6
CONTINUOUS
 62
     8
 10
333.1141129177
 20
478.5647303486
 30
0.0
  0
VERTEX
  5
9A1
  8
0
  6
CONTINUOUS
 62
     8
 10
332.9985506874
 20
478.1204820299
 30
0.0
  0
VERTEX
  5
9A2
  8
0
  6
CONTINUOUS
 62
     8
 10
332.8718423885
 20
477.6975125695
 30
0.0
  0
VERTEX
  5
9A3
  8
0
  6
CONTINUOUS
 62
     8
 10
332.7345561277
 20
477.2977144146
 30
0.0
  0
VERTEX
  5
9A4
  8
0
  6
CONTINUOUS
 62
     8
 10
332.5873121661
 20
476.922890606
 30
0.0
  0
VERTEX
  5
9A5
  8
0
  6
CONTINUOUS
 62
     8
 10
332.4307736051
 20
476.5747398758
 30
0.0
  0
VERTEX
  5
9A6
  8
0
  6
CONTINUOUS
 62
     8
 10
332.2656482499
 20
476.254811945
 30
0.0
  0
VERTEX
  5
9A7
  8
0
  6
CONTINUOUS
 62
     8
 10
332.0926792961
 20
475.9645671273
 30
0.0
  0
VERTEX
  5
9A8
  8
0
  6
CONTINUOUS
 62
     8
 10
331.9126453292
 20
475.7053167248
 30
0.0
  0
VERTEX
  5
9A9
  8
0
  6
CONTINUOUS
 62
     8
 10
331.7263603252
 20
475.4782081271
 30
0.0
  0
VERTEX
  5
9AA
  8
0
  6
CONTINUOUS
 62
     8
 10
331.534664337
 20
475.2842844153
 30
0.0
  0
VERTEX
  5
9AB
  8
0
  6
CONTINUOUS
 62
     8
 10
331.3384179067
 20
475.1244098568
 30
0.0
  0
VERTEX
  5
9AC
  8
0
  6
CONTINUOUS
 62
     8
 10
331.1385095161
 20
474.9993146086
 30
0.0
  0
VERTEX
  5
9AD
  8
0
  6
CONTINUOUS
 62
     8
 10
330.9358388227
 20
474.9095500136
 30
0.0
  0
VERTEX
  5
9AE
  8
0
  6
CONTINUOUS
 62
     8
 10
330.7313185227
 20
474.8555333042
 30
0.0
  0
VERTEX
  5
9AF
  8
0
  6
CONTINUOUS
 62
     8
 10
330.5258762133
 20
474.837487998
 30
0.0
  0
SEQEND
  5
B39
  8
0
  6
CONTINUOUS
 62
     8
  0
ARC
  5
368
  8
0
  6
CONTINUOUS
 62
     8
 10
334.9619286176
 20
681.4177779552
 30
0.0
 40
198.7944543409541
 50
269.6035165175
 51
270.3964834825
  0
POLYLINE
  5
369
  8
0
  6
CONTINUOUS
 62
     8
 66
     1
 10
0.0
 20
0.0
 30
0.0
  0
VERTEX
  5
9B0
  8
0
  6
CONTINUOUS
 62
     8
 10
311.5248356056
 20
482.6280832911
 30
0.0
  0
VERTEX
  5
9B1
  8
0
  6
CONTINUOUS
 62
     8
 10
311.512560774
 20
482.0918799067
 30
0.0
  0
VERTEX
  5
9B2
  8
0
  6
CONTINUOUS
 62
     8
 10
311.4865396213
 20
481.5590441847
 30
0.0
  0
VERTEX
  5
9B3
  8
0
  6
CONTINUOUS
 62
     8
 10
311.4468988072
 20
481.0319752121
 30
0.0
  0
VERTEX
  5
9B4
  8
0
  6
CONTINUOUS
 62
     8
 10
311.3938059699
 20
480.5130422736
 30
0.0
  0
VERTEX
  5
9B5
  8
0
  6
CONTINUOUS
 62
     8
 10
311.3275107038
 20
480.0045848513
 30
0.0
  0
VERTEX
  5
9B6
  8
0
  6
CONTINUOUS
 62
     8
 10
311.2483035814
 20
479.5088977242
 30
0.0
  0
VERTEX
  5
9B7
  8
0
  6
CONTINUOUS
 62
     8
 10
311.1565496814
 20
479.0282309676
 30
0.0
  0
VERTEX
  5
9B8
  8
0
  6
CONTINUOUS
 62
     8
 10
311.0526550603
 20
478.5647303486
 30
0.0
  0
VERTEX
  5
9B9
  8
0
  6
CONTINUOUS
 62
     8
 10
310.9370928299
 20
478.1204820299
 30
0.0
  0
VERTEX
  5
9BA
  8
0
  6
CONTINUOUS
 62
     8
 10
310.810384531
 20
477.6975125695
 30
0.0
  0
VERTEX
  5
9BB
  8
0
  6
CONTINUOUS
 62
     8
 10
310.6731001329
 20
477.2977144146
 30
0.0
  0
VERTEX
  5
9BC
  8
0
  6
CONTINUOUS
 62
     8
 10
310.5258543086
 20
476.922890606
 30
0.0
  0
VERTEX
  5
9BD
  8
0
  6
CONTINUOUS
 62
     8
 10
310.3693176102
 20
476.5747398758
 30
0.0
  0
VERTEX
  5
9BE
  8
0
  6
CONTINUOUS
 62
     8
 10
310.2041903925
 20
476.254811945
 30
0.0
  0
VERTEX
  5
9BF
  8
0
  6
CONTINUOUS
 62
     8
 10
310.0312214386
 20
475.9645671273
 30
0.0
  0
VERTEX
  5
9C0
  8
0
  6
CONTINUOUS
 62
     8
 10
309.8511893344
 20
475.7053167248
 30
0.0
  0
VERTEX
  5
9C1
  8
0
  6
CONTINUOUS
 62
     8
 10
309.664906193
 20
475.4782081271
 30
0.0
  0
VERTEX
  5
9C2
  8
0
  6
CONTINUOUS
 62
     8
 10
309.4732064795
 20
475.2842844153
 30
0.0
  0
VERTEX
  5
9C3
  8
0
  6
CONTINUOUS
 62
     8
 10
309.2769619119
 20
475.1244098568
 30
0.0
  0
VERTEX
  5
9C4
  8
0
  6
CONTINUOUS
 62
     8
 10
309.0770516586
 20
474.9993146086
 30
0.0
  0
VERTEX
  5
9C5
  8
0
  6
CONTINUOUS
 62
     8
 10
308.8743809652
 20
474.9095500136
 30
0.0
  0
VERTEX
  5
9C6
  8
0
  6
CONTINUOUS
 62
     8
 10
308.6698625278
 20
474.8555333042
 30
0.0
  0
VERTEX
  5
9C7
  8
0
  6
CONTINUOUS
 62
     8
 10
308.4644164931
 20
474.837487998
 30
0.0
  0
SEQEND
  5
B38
  8
0
  6
CONTINUOUS
 62
     8
  0
LINE
  5
36A
  8
0
  6
CONTINUOUS
 62
     8
 10
333.5862934631
 20
482.6280832911
 30
0.0
 11
311.5248356056
 21
482.6280832911
 31
0.0
  0
POLYLINE
  5
36B
  8
0
  6
CONTINUOUS
 62
     8
 66
     1
 10
0.0
 20
0.0
 30
0.0
  0
VERTEX
  5
9C8
  8
0
  6
CONTINUOUS
 62
     8
 10
376.4496950474
 20
522.8374958659
 30
0.0
  0
VERTEX
  5
9C9
  8
0
  6
CONTINUOUS
 62
     8
 10
376.2823857408
 20
522.8186309958
 30
0.0
  0
VERTEX
  5
9CA
  8
0
  6
CONTINUOUS
 62
     8
 10
376.1171812233
 20
522.7622748041
 30
0.0
  0
VERTEX
  5
9CB
  8
0
  6
CONTINUOUS
 62
     8
 10
375.9561574128
 20
522.6691425467
 30
0.0
  0
VERTEX
  5
9CC
  8
0
  6
CONTINUOUS
 62
     8
 10
375.8013408672
 20
522.540396514
 30
0.0
  0
VERTEX
  5
9CD
  8
0
  6
CONTINUOUS
 62
     8
 10
375.6546771195
 20
522.3776609326
 30
0.0
  0
VERTEX
  5
9CE
  8
0
  6
CONTINUOUS
 62
     8
 10
375.5180111196
 20
522.1829921627
 30
0.0
  0
VERTEX
  5
9CF
  8
0
  6
CONTINUOUS
 62
     8
 10
375.393062089
 20
521.9588190937
 30
0.0
  0
VERTEX
  5
9D0
  8
0
  6
CONTINUOUS
 62
     8
 10
375.281401169
 20
521.707958045
 30
0.0
  0
VERTEX
  5
9D1
  8
0
  6
CONTINUOUS
 62
     8
 10
375.1844318625
 20
521.433582964
 30
0.0
  0
VERTEX
  5
9D2
  8
0
  6
CONTINUOUS
 62
     8
 10
375.1033732709
 20
521.1391509199
 30
0.0
  0
VERTEX
  5
9D3
  8
0
  6
CONTINUOUS
 62
     8
 10
375.0392461237
 20
520.8283275986
 30
0.0
  0
VERTEX
  5
9D4
  8
0
  6
CONTINUOUS
 62
     8
 10
374.9928560149
 20
520.5050618077
 30
0.0
  0
VERTEX
  5
9D5
  8
0
  6
CONTINUOUS
 62
     8
 10
374.9647868839
 20
520.1733917618
 30
0.0
  0
VERTEX
  5
9D6
  8
0
  6
CONTINUOUS
 62
     8
 10
374.9553907704
 20
519.8374897862
 30
0.0
  0
SEQEND
  5
B37
  8
0
  6
CONTINUOUS
 62
     8
  0
LINE
  5
36C
  8
0
  6
CONTINUOUS
 62
     8
 10
374.9553907704
 20
519.8374897862
 30
0.0
 11
349.0541178774
 21
519.8374897862
 31
0.0
  0
POLYLINE
  5
36D
  8
0
  6
CONTINUOUS
 62
     8
 66
     1
 10
0.0
 20
0.0
 30
0.0
  0
VERTEX
  5
9D7
  8
0
  6
CONTINUOUS
 62
     8
 10
347.5598136004
 20
522.8374958659
 30
0.0
  0
VERTEX
  5
9D8
  8
0
  6
CONTINUOUS
 62
     8
 10
347.727122907
 20
522.8186309958
 30
0.0
  0
VERTEX
  5
9D9
  8
0
  6
CONTINUOUS
 62
     8
 10
347.8923274245
 20
522.7622748041
 30
0.0
  0
VERTEX
  5
9DA
  8
0
  6
CONTINUOUS
 62
     8
 10
348.0533512351
 20
522.6691425467
 30
0.0
  0
VERTEX
  5
9DB
  8
0
  6
CONTINUOUS
 62
     8
 10
348.2081677806
 20
522.540396514
 30
0.0
  0
VERTEX
  5
9DC
  8
0
  6
CONTINUOUS
 62
     8
 10
348.3548315283
 20
522.3776609326
 30
0.0
  0
VERTEX
  5
9DD
  8
0
  6
CONTINUOUS
 62
     8
 10
348.4914975282
 20
522.1829921627
 30
0.0
  0
VERTEX
  5
9DE
  8
0
  6
CONTINUOUS
 62
     8
 10
348.6164465588
 20
521.9588190937
 30
0.0
  0
VERTEX
  5
9DF
  8
0
  6
CONTINUOUS
 62
     8
 10
348.7281074789
 20
521.707958045
 30
0.0
  0
VERTEX
  5
9E0
  8
0
  6
CONTINUOUS
 62
     8
 10
348.8250767853
 20
521.433582964
 30
0.0
  0
VERTEX
  5
9E1
  8
0
  6
CONTINUOUS
 62
     8
 10
348.906135377
 20
521.1391509199
 30
0.0
  0
VERTEX
  5
9E2
  8
0
  6
CONTINUOUS
 62
     8
 10
348.9702625241
 20
520.8283275986
 30
0.0
  0
VERTEX
  5
9E3
  8
0
  6
CONTINUOUS
 62
     8
 10
349.0166526329
 20
520.5050618077
 30
0.0
  0
VERTEX
  5
9E4
  8
0
  6
CONTINUOUS
 62
     8
 10
349.044721764
 20
520.1733917618
 30
0.0
  0
VERTEX
  5
9E5
  8
0
  6
CONTINUOUS
 62
     8
 10
349.0541178774
 20
519.8374897862
 30
0.0
  0
SEQEND
  5
B36
  8
0
  6
CONTINUOUS
 62
     8
  0
POLYLINE
  5
36E
  8
0
  6
CONTINUOUS
 62
     8
 66
     1
 10
0.0
 20
0.0
 30
0.0
  0
VERTEX
  5
9E6
  8
0
  6
CONTINUOUS
 62
     8
 10
342.8021028679
 20
522.8374958659
 30
0.0
  0
VERTEX
  5
9E7
  8
0
  6
CONTINUOUS
 62
     8
 10
342.668176819
 20
522.8186309958
 30
0.0
  0
VERTEX
  5
9E8
  8
0
  6
CONTINUOUS
 62
     8
 10
342.5359346014
 20
522.7622748041
 30
0.0
  0
VERTEX
  5
9E9
  8
0
  6
CONTINUOUS
 62
     8
 10
342.4070376944
 20
522.6691425467
 30
0.0
  0
VERTEX
  5
9EA
  8
0
  6
CONTINUOUS
 62
     8
 10
342.2831121873
 20
522.540396514
 30
0.0
  0
VERTEX
  5
9EB
  8
0
  6
CONTINUOUS
 62
     8
 10
342.1657115262
 20
522.3776609326
 30
0.0
  0
VERTEX
  5
9EC
  8
0
  6
CONTINUOUS
 62
     8
 10
342.0563127887
 20
522.1829921627
 30
0.0
  0
VERTEX
  5
9ED
  8
0
  6
CONTINUOUS
 62
     8
 10
341.9562943321
 20
521.9588190937
 30
0.0
  0
VERTEX
  5
9EE
  8
0
  6
CONTINUOUS
 62
     8
 10
341.8669115793
 20
521.707958045
 30
0.0
  0
VERTEX
  5
9EF
  8
0
  6
CONTINUOUS
 62
     8
 10
341.7892914307
 20
521.433582964
 30
0.0
  0
VERTEX
  5
9F0
  8
0
  6
CONTINUOUS
 62
     8
 10
341.7244061869
 20
521.1391509199
 30
0.0
  0
VERTEX
  5
9F1
  8
0
  6
CONTINUOUS
 62
     8
 10
341.6730735492
 20
520.8283275986
 30
0.0
  0
VERTEX
  5
9F2
  8
0
  6
CONTINUOUS
 62
     8
 10
341.6359398555
 20
520.5050618077
 30
0.0
  0
VERTEX
  5
9F3
  8
0
  6
CONTINUOUS
 62
     8
 10
341.6134707671
 20
520.1733917618
 30
0.0
  0
VERTEX
  5
9F4
  8
0
  6
CONTINUOUS
 62
     8
 10
341.605949406
 20
519.8374897862
 30
0.0
  0
SEQEND
  5
B35
  8
0
  6
CONTINUOUS
 62
     8
  0
LINE
  5
36F
  8
0
  6
CONTINUOUS
 62
     8
 10
341.605949406
 20
519.8374897862
 30
0.0
 11
338.3182652336
 21
519.8374897862
 31
0.0
  0
POLYLINE
  5
370
  8
0
  6
CONTINUOUS
 62
     8
 66
     1
 10
0.0
 20
0.0
 30
0.0
  0
VERTEX
  5
9F5
  8
0
  6
CONTINUOUS
 62
     8
 10
337.541806702
 20
522.8374958659
 30
0.0
  0
VERTEX
  5
9F6
  8
0
  6
CONTINUOUS
 62
     8
 10
337.628741939
 20
522.8186309958
 30
0.0
  0
VERTEX
  5
9F7
  8
0
  6
CONTINUOUS
 62
     8
 10
337.714585666
 20
522.7622748041
 30
0.0
  0
VERTEX
  5
9F8
  8
0
  6
CONTINUOUS
 62
     8
 10
337.7982538235
 20
522.6691425467
 30
0.0
  0
VERTEX
  5
9F9
  8
0
  6
CONTINUOUS
 62
     8
 10
337.8786996048
 20
522.540396514
 30
0.0
  0
VERTEX
  5
9FA
  8
0
  6
CONTINUOUS
 62
     8
 10
337.9549078685
 20
522.3776609326
 30
0.0
  0
VERTEX
  5
9FB
  8
0
  6
CONTINUOUS
 62
     8
 10
338.0259212148
 20
522.1829921627
 30
0.0
  0
VERTEX
  5
9FC
  8
0
  6
CONTINUOUS
 62
     8
 10
338.0908455741
 20
521.9588190937
 30
0.0
  0
VERTEX
  5
9FD
  8
0
  6
CONTINUOUS
 62
     8
 10
338.1488651079
 20
521.707958045
 30
0.0
  0
VERTEX
  5
9FE
  8
0
  6
CONTINUOUS
 62
     8
 10
338.1992515218
 20
521.433582964
 30
0.0
  0
VERTEX
  5
9FF
  8
0
  6
CONTINUOUS
 62
     8
 10
338.2413715165
 20
521.1391509199
 30
0.0
  0
VERTEX
  5
A00
  8
0
  6
CONTINUOUS
 62
     8
 10
338.2746923756
 20
520.8283275986
 30
0.0
  0
VERTEX
  5
A01
  8
0
  6
CONTINUOUS
 62
     8
 10
338.2987968665
 20
520.5050618077
 30
0.0
  0
VERTEX
  5
A02
  8
0
  6
CONTINUOUS
 62
     8
 10
338.313381378
 20
520.1733917618
 30
0.0
  0
VERTEX
  5
A03
  8
0
  6
CONTINUOUS
 62
     8
 10
338.3182652336
 20
519.8374897862
 30
0.0
  0
SEQEND
  5
B34
  8
0
  6
CONTINUOUS
 62
     8
  0
POLYLINE
  5
371
  8
0
  6
CONTINUOUS
 62
     8
 66
     1
 10
0.0
 20
0.0
 30
0.0
  0
VERTEX
  5
A04
  8
0
  6
CONTINUOUS
 62
     8
 10
386.4677019459
 20
522.8374958659
 30
0.0
  0
VERTEX
  5
A05
  8
0
  6
CONTINUOUS
 62
     8
 10
386.3807667088
 20
522.8186309958
 30
0.0
  0
VERTEX
  5
A06
  8
0
  6
CONTINUOUS
 62
     8
 10
386.2949229818
 20
522.7622748041
 30
0.0
  0
VERTEX
  5
A07
  8
0
  6
CONTINUOUS
 62
     8
 10
386.2112548244
 20
522.6691425467
 30
0.0
  0
VERTEX
  5
A08
  8
0
  6
CONTINUOUS
 62
     8
 10
386.130809043
 20
522.540396514
 30
0.0
  0
VERTEX
  5
A09
  8
0
  6
CONTINUOUS
 62
     8
 10
386.0546007794
 20
522.3776609326
 30
0.0
  0
VERTEX
  5
A0A
  8
0
  6
CONTINUOUS
 62
     8
 10
385.9835874331
 20
522.1829921627
 30
0.0
  0
VERTEX
  5
A0B
  8
0
  6
CONTINUOUS
 62
     8
 10
385.9186630737
 20
521.9588190937
 30
0.0
  0
VERTEX
  5
A0C
  8
0
  6
CONTINUOUS
 62
     8
 10
385.86064354
 20
521.707958045
 30
0.0
  0
VERTEX
  5
A0D
  8
0
  6
CONTINUOUS
 62
     8
 10
385.8102571261
 20
521.433582964
 30
0.0
  0
VERTEX
  5
A0E
  8
0
  6
CONTINUOUS
 62
     8
 10
385.7681371313
 20
521.1391509199
 30
0.0
  0
VERTEX
  5
A0F
  8
0
  6
CONTINUOUS
 62
     8
 10
385.7348162722
 20
520.8283275986
 30
0.0
  0
VERTEX
  5
A10
  8
0
  6
CONTINUOUS
 62
     8
 10
385.7107117813
 20
520.5050618077
 30
0.0
  0
VERTEX
  5
A11
  8
0
  6
CONTINUOUS
 62
     8
 10
385.6961272698
 20
520.1733917618
 30
0.0
  0
VERTEX
  5
A12
  8
0
  6
CONTINUOUS
 62
     8
 10
385.6912434142
 20
519.8374897862
 30
0.0
  0
SEQEND
  5
B33
  8
0
  6
CONTINUOUS
 62
     8
  0
LINE
  5
372
  8
0
  6
CONTINUOUS
 62
     8
 10
385.6912434142
 20
519.8374897862
 30
0.0
 11
382.4035592419
 21
519.8374897862
 31
0.0
  0
POLYLINE
  5
373
  8
0
  6
CONTINUOUS
 62
     8
 66
     1
 10
0.0
 20
0.0
 30
0.0
  0
VERTEX
  5
A13
  8
0
  6
CONTINUOUS
 62
     8
 10
381.2074057799
 20
522.8374958659
 30
0.0
  0
VERTEX
  5
A14
  8
0
  6
CONTINUOUS
 62
     8
 10
381.3413318288
 20
522.8186309958
 30
0.0
  0
VERTEX
  5
A15
  8
0
  6
CONTINUOUS
 62
     8
 10
381.4735740465
 20
522.7622748041
 30
0.0
  0
VERTEX
  5
A16
  8
0
  6
CONTINUOUS
 62
     8
 10
381.6024709534
 20
522.6691425467
 30
0.0
  0
VERTEX
  5
A17
  8
0
  6
CONTINUOUS
 62
     8
 10
381.7263964605
 20
522.540396514
 30
0.0
  0
VERTEX
  5
A18
  8
0
  6
CONTINUOUS
 62
     8
 10
381.8437971216
 20
522.3776609326
 30
0.0
  0
VERTEX
  5
A19
  8
0
  6
CONTINUOUS
 62
     8
 10
381.9531958592
 20
522.1829921627
 30
0.0
  0
VERTEX
  5
A1A
  8
0
  6
CONTINUOUS
 62
     8
 10
382.0532143157
 20
521.9588190937
 30
0.0
  0
VERTEX
  5
A1B
  8
0
  6
CONTINUOUS
 62
     8
 10
382.1425970685
 20
521.707958045
 30
0.0
  0
VERTEX
  5
A1C
  8
0
  6
CONTINUOUS
 62
     8
 10
382.2202172172
 20
521.433582964
 30
0.0
  0
VERTEX
  5
A1D
  8
0
  6
CONTINUOUS
 62
     8
 10
382.2851024609
 20
521.1391509199
 30
0.0
  0
VERTEX
  5
A1E
  8
0
  6
CONTINUOUS
 62
     8
 10
382.3364350986
 20
520.8283275986
 30
0.0
  0
VERTEX
  5
A1F
  8
0
  6
CONTINUOUS
 62
     8
 10
382.3735687923
 20
520.5050618077
 30
0.0
  0
VERTEX
  5
A20
  8
0
  6
CONTINUOUS
 62
     8
 10
382.3960378807
 20
520.1733917618
 30
0.0
  0
VERTEX
  5
A21
  8
0
  6
CONTINUOUS
 62
     8
 10
382.4035592419
 20
519.8374897862
 30
0.0
  0
SEQEND
  5
B32
  8
0
  6
CONTINUOUS
 62
     8
  0
LINE
  5
374
  8
0
  6
CONTINUOUS
 62
     8
 10
338.3182652336
 20
519.8374897862
 30
0.0
 11
312.4754216563
 21
519.8374897862
 31
0.0
  0
POLYLINE
  5
375
  8
0
  6
CONTINUOUS
 62
     8
 66
     1
 10
0.0
 20
0.0
 30
0.0
  0
VERTEX
  5
A22
  8
0
  6
CONTINUOUS
 62
     8
 10
311.6989631247
 20
522.8374958659
 30
0.0
  0
VERTEX
  5
A23
  8
0
  6
CONTINUOUS
 62
     8
 10
311.7859002244
 20
522.8186309958
 30
0.0
  0
VERTEX
  5
A24
  8
0
  6
CONTINUOUS
 62
     8
 10
311.8717420888
 20
522.7622748041
 30
0.0
  0
VERTEX
  5
A25
  8
0
  6
CONTINUOUS
 62
     8
 10
311.9554121089
 20
522.6691425467
 30
0.0
  0
VERTEX
  5
A26
  8
0
  6
CONTINUOUS
 62
     8
 10
312.0358560276
 20
522.540396514
 30
0.0
  0
VERTEX
  5
A27
  8
0
  6
CONTINUOUS
 62
     8
 10
312.1120642912
 20
522.3776609326
 30
0.0
  0
VERTEX
  5
A28
  8
0
  6
CONTINUOUS
 62
     8
 10
312.1830757749
 20
522.1829921627
 30
0.0
  0
VERTEX
  5
A29
  8
0
  6
CONTINUOUS
 62
     8
 10
312.2480038595
 20
521.9588190937
 30
0.0
  0
VERTEX
  5
A2A
  8
0
  6
CONTINUOUS
 62
     8
 10
312.3060215306
 20
521.707958045
 30
0.0
  0
VERTEX
  5
A2B
  8
0
  6
CONTINUOUS
 62
     8
 10
312.3564098072
 20
521.433582964
 30
0.0
  0
VERTEX
  5
A2C
  8
0
  6
CONTINUOUS
 62
     8
 10
312.3985279393
 20
521.1391509199
 30
0.0
  0
VERTEX
  5
A2D
  8
0
  6
CONTINUOUS
 62
     8
 10
312.431850661
 20
520.8283275986
 30
0.0
  0
VERTEX
  5
A2E
  8
0
  6
CONTINUOUS
 62
     8
 10
312.4559532892
 20
520.5050618077
 30
0.0
  0
VERTEX
  5
A2F
  8
0
  6
CONTINUOUS
 62
     8
 10
312.4705378008
 20
520.1733917618
 30
0.0
  0
VERTEX
  5
A30
  8
0
  6
CONTINUOUS
 62
     8
 10
312.4754216563
 20
519.8374897862
 30
0.0
  0
SEQEND
  5
B31
  8
0
  6
CONTINUOUS
 62
     8
  0
POLYLINE
  5
376
  8
0
  6
CONTINUOUS
 62
     8
 66
     1
 10
0.0
 20
0.0
 30
0.0
  0
VERTEX
  5
A31
  8
0
  6
CONTINUOUS
 62
     8
 10
412.3105455231
 20
522.8374958659
 30
0.0
  0
VERTEX
  5
A32
  8
0
  6
CONTINUOUS
 62
     8
 10
412.2236084234
 20
522.8186309958
 30
0.0
  0
VERTEX
  5
A33
  8
0
  6
CONTINUOUS
 62
     8
 10
412.1377665591
 20
522.7622748041
 30
0.0
  0
VERTEX
  5
A34
  8
0
  6
CONTINUOUS
 62
     8
 10
412.054096539
 20
522.6691425467
 30
0.0
  0
VERTEX
  5
A35
  8
0
  6
CONTINUOUS
 62
     8
 10
411.9736526203
 20
522.540396514
 30
0.0
  0
VERTEX
  5
A36
  8
0
  6
CONTINUOUS
 62
     8
 10
411.8974443566
 20
522.3776609326
 30
0.0
  0
VERTEX
  5
A37
  8
0
  6
CONTINUOUS
 62
     8
 10
411.826432873
 20
522.1829921627
 30
0.0
  0
VERTEX
  5
A38
  8
0
  6
CONTINUOUS
 62
     8
 10
411.7615047884
 20
521.9588190937
 30
0.0
  0
VERTEX
  5
A39
  8
0
  6
CONTINUOUS
 62
     8
 10
411.7034871173
 20
521.707958045
 30
0.0
  0
VERTEX
  5
A3A
  8
0
  6
CONTINUOUS
 62
     8
 10
411.6530988407
 20
521.433582964
 30
0.0
  0
VERTEX
  5
A3B
  8
0
  6
CONTINUOUS
 62
     8
 10
411.6109807086
 20
521.1391509199
 30
0.0
  0
VERTEX
  5
A3C
  8
0
  6
CONTINUOUS
 62
     8
 10
411.5776579868
 20
520.8283275986
 30
0.0
  0
VERTEX
  5
A3D
  8
0
  6
CONTINUOUS
 62
     8
 10
411.5535553586
 20
520.5050618077
 30
0.0
  0
VERTEX
  5
A3E
  8
0
  6
CONTINUOUS
 62
     8
 10
411.5389708471
 20
520.1733917618
 30
0.0
  0
VERTEX
  5
A3F
  8
0
  6
CONTINUOUS
 62
     8
 10
411.5340869915
 20
519.8374897862
 30
0.0
  0
SEQEND
  5
B30
  8
0
  6
CONTINUOUS
 62
     8
  0
LINE
  5
377
  8
0
  6
CONTINUOUS
 62
     8
 10
411.5340869915
 20
519.8374897862
 30
0.0
 11
385.6912434142
 21
519.8374897862
 31
0.0
  0
POLYLINE
  5
378
  8
0
  6
CONTINUOUS
 62
     8
 66
     1
 10
0.0
 20
0.0
 30
0.0
  0
VERTEX
  5
A40
  8
0
  6
CONTINUOUS
 62
     8
 10
345.7661747974
 20
522.8374958659
 30
0.0
  0
VERTEX
  5
A41
  8
0
  6
CONTINUOUS
 62
     8
 10
345.6322487485
 20
522.8186309958
 30
0.0
  0
VERTEX
  5
A42
  8
0
  6
CONTINUOUS
 62
     8
 10
345.5000065308
 20
522.7622748041
 30
0.0
  0
VERTEX
  5
A43
  8
0
  6
CONTINUOUS
 62
     8
 10
345.3711096239
 20
522.6691425467
 30
0.0
  0
VERTEX
  5
A44
  8
0
  6
CONTINUOUS
 62
     8
 10
345.2471841168
 20
522.540396514
 30
0.0
  0
VERTEX
  5
A45
  8
0
  6
CONTINUOUS
 62
     8
 10
345.1297834557
 20
522.3776609326
 30
0.0
  0
VERTEX
  5
A46
  8
0
  6
CONTINUOUS
 62
     8
 10
345.0203847181
 20
522.1829921627
 30
0.0
  0
VERTEX
  5
A47
  8
0
  6
CONTINUOUS
 62
     8
 10
344.9203662616
 20
521.9588190937
 30
0.0
  0
VERTEX
  5
A48
  8
0
  6
CONTINUOUS
 62
     8
 10
344.8309835088
 20
521.707958045
 30
0.0
  0
VERTEX
  5
A49
  8
0
  6
CONTINUOUS
 62
     8
 10
344.7533633601
 20
521.433582964
 30
0.0
  0
VERTEX
  5
A4A
  8
0
  6
CONTINUOUS
 62
     8
 10
344.6884781164
 20
521.1391509199
 30
0.0
  0
VERTEX
  5
A4B
  8
0
  6
CONTINUOUS
 62
     8
 10
344.6371454787
 20
520.8283275986
 30
0.0
  0
VERTEX
  5
A4C
  8
0
  6
CONTINUOUS
 62
     8
 10
344.600011785
 20
520.5050618077
 30
0.0
  0
VERTEX
  5
A4D
  8
0
  6
CONTINUOUS
 62
     8
 10
344.5775426966
 20
520.1733917618
 30
0.0
  0
VERTEX
  5
A4E
  8
0
  6
CONTINUOUS
 62
     8
 10
344.5700213354
 20
519.8374897862
 30
0.0
  0
SEQEND
  5
B2F
  8
0
  6
CONTINUOUS
 62
     8
  0
LINE
  5
379
  8
0
  6
CONTINUOUS
 62
     8
 10
344.5700213354
 20
519.8374897862
 30
0.0
 11
341.605949406
 21
519.8374897862
 31
0.0
  0
LINE
  5
37A
  8
0
  6
CONTINUOUS
 62
     8
 10
382.4035592419
 20
519.8374897862
 30
0.0
 11
379.4394873124
 21
519.8374897862
 31
0.0
  0
POLYLINE
  5
37B
  8
0
  6
CONTINUOUS
 62
     8
 66
     1
 10
0.0
 20
0.0
 30
0.0
  0
VERTEX
  5
A4F
  8
0
  6
CONTINUOUS
 62
     8
 10
378.2433338505
 20
522.8374958659
 30
0.0
  0
VERTEX
  5
A50
  8
0
  6
CONTINUOUS
 62
     8
 10
378.3772598993
 20
522.8186309958
 30
0.0
  0
VERTEX
  5
A51
  8
0
  6
CONTINUOUS
 62
     8
 10
378.509502117
 20
522.7622748041
 30
0.0
  0
VERTEX
  5
A52
  8
0
  6
CONTINUOUS
 62
     8
 10
378.638399024
 20
522.6691425467
 30
0.0
  0
VERTEX
  5
A53
  8
0
  6
CONTINUOUS
 62
     8
 10
378.762324531
 20
522.540396514
 30
0.0
  0
VERTEX
  5
A54
  8
0
  6
CONTINUOUS
 62
     8
 10
378.8797251922
 20
522.3776609326
 30
0.0
  0
VERTEX
  5
A55
  8
0
  6
CONTINUOUS
 62
     8
 10
378.9891239297
 20
522.1829921627
 30
0.0
  0
VERTEX
  5
A56
  8
0
  6
CONTINUOUS
 62
     8
 10
379.0891423863
 20
521.9588190937
 30
0.0
  0
VERTEX
  5
A57
  8
0
  6
CONTINUOUS
 62
     8
 10
379.1785251391
 20
521.707958045
 30
0.0
  0
VERTEX
  5
A58
  8
0
  6
CONTINUOUS
 62
     8
 10
379.2561452877
 20
521.433582964
 30
0.0
  0
VERTEX
  5
A59
  8
0
  6
CONTINUOUS
 62
     8
 10
379.3210305315
 20
521.1391509199
 30
0.0
  0
VERTEX
  5
A5A
  8
0
  6
CONTINUOUS
 62
     8
 10
379.3723631692
 20
520.8283275986
 30
0.0
  0
VERTEX
  5
A5B
  8
0
  6
CONTINUOUS
 62
     8
 10
379.4094968628
 20
520.5050618077
 30
0.0
  0
VERTEX
  5
A5C
  8
0
  6
CONTINUOUS
 62
     8
 10
379.4319659513
 20
520.1733917618
 30
0.0
  0
VERTEX
  5
A5D
  8
0
  6
CONTINUOUS
 62
     8
 10
379.4394873124
 20
519.8374897862
 30
0.0
  0
SEQEND
  5
B2E
  8
0
  6
CONTINUOUS
 62
     8
  0
ARC
  5
37C
  8
0
  6
CONTINUOUS
 62
     8
 10
411.8361795015
 20
676.844024117
 30
0.0
 40
205.0724223947763
 50
271.4525202017
 51
272.1504507532
  0
LINE
  5
37D
  8
0
  6
CONTINUOUS
 62
     8
 10
419.531242181
 20
471.916025939
 30
0.0
 11
420.0532708358
 21
452.8374881172
 31
0.0
  0
ARC
  5
37E
  8
0
  6
CONTINUOUS
 62
     8
 10
312.1733291463
 20
676.844024117
 30
0.0
 40
205.0724223947763
 50
267.8495492468
 51
268.5474797983
  0
LINE
  5
37F
  8
0
  6
CONTINUOUS
 62
     8
 10
304.4782664668
 20
471.916025939
 30
0.0
 11
303.956237812
 21
452.8374881172
 31
0.0
  0
ARC
  5
380
  8
0
  6
CONTINUOUS
 62
     8
 10
416.5584375747
 20
471.8643376573
 30
0.0
 40
2.973253925550363
 50
0.9961038175
 51
89.5217325097
  0
ARC
  5
381
  8
0
  6
CONTINUOUS
 62
     8
 10
307.4510710731
 20
471.8643376573
 30
0.0
 40
2.973253925550348
 50
90.4782674903
 51
179.0038961825
  0
LINE
  5
382
  8
0
  6
CONTINUOUS
 62
     8
 10
349.0541178774
 20
519.8374897862
 30
0.0
 11
349.0541178774
 21
513.837492528
 31
0.0
  0
LINE
  5
383
  8
0
  6
CONTINUOUS
 62
     8
 10
374.9553907704
 20
513.837492528
 30
0.0
 11
374.9553907704
 21
519.8374897862
 31
0.0
  0
LINE
  5
384
  8
0
  6
CONTINUOUS
 62
     8
 10
349.0541178774
 20
519.8374897862
 30
0.0
 11
344.5700213354
 21
519.8374897862
 31
0.0
  0
LINE
  5
385
  8
0
  6
CONTINUOUS
 62
     8
 10
379.4394873124
 20
519.8374897862
 30
0.0
 11
374.9553907704
 21
519.8374897862
 31
0.0
  0
POLYLINE
  5
386
  8
0
  6
CONTINUOUS
 62
     8
 66
     1
 10
0.0
 20
0.0
 30
0.0
  0
VERTEX
  5
A5E
  8
0
  6
CONTINUOUS
 62
     8
 10
390.237658475
 20
494.8374987269
 30
0.0
  0
VERTEX
  5
A5F
  8
0
  6
CONTINUOUS
 62
     8
 10
390.3303064447
 20
488.7433708334
 30
0.0
  0
VERTEX
  5
A60
  8
0
  6
CONTINUOUS
 62
     8
 10
390.4232151848
 20
482.6280832911
 30
0.0
  0
SEQEND
  5
B2D
  8
0
  6
CONTINUOUS
 62
     8
  0
POLYLINE
  5
387
  8
0
  6
CONTINUOUS
 62
     8
 66
     1
 10
0.0
 20
0.0
 30
0.0
  0
VERTEX
  5
A61
  8
0
  6
CONTINUOUS
 62
     8
 10
333.7718501728
 20
494.8374987269
 30
0.0
  0
VERTEX
  5
A62
  8
0
  6
CONTINUOUS
 62
     8
 10
333.6792022031
 20
488.7433708334
 30
0.0
  0
VERTEX
  5
A63
  8
0
  6
CONTINUOUS
 62
     8
 10
333.5862934631
 20
482.6280832911
 30
0.0
  0
SEQEND
  5
B2C
  8
0
  6
CONTINUOUS
 62
     8
  0
LINE
  5
388
  8
0
  6
CONTINUOUS
 62
     8
 10
338.3182652336
 20
506.2393308306
 30
0.0
 11
338.3182652336
 21
519.8374897862
 31
0.0
  0
LINE
  5
389
  8
0
  6
CONTINUOUS
 62
     8
 10
341.605949406
 20
519.8374897862
 30
0.0
 11
341.605949406
 21
508.6554945135
 31
0.0
  0
LINE
  5
38A
  8
0
  6
CONTINUOUS
 62
     8
 10
382.4035592419
 20
508.6554945135
 30
0.0
 11
382.4035592419
 21
519.8374897862
 31
0.0
  0
LINE
  5
38B
  8
0
  6
CONTINUOUS
 62
     8
 10
385.6912434142
 20
519.8374897862
 30
0.0
 11
385.6912434142
 21
506.2393308306
 31
0.0
  0
LINE
  5
38C
  8
0
  6
CONTINUOUS
 62
     8
 10
312.4754216563
 20
519.8374897862
 30
0.0
 11
312.4754216563
 21
504.8374891901
 31
0.0
  0
LINE
  5
38D
  8
0
  6
CONTINUOUS
 62
     8
 10
411.5340869915
 20
519.8374897862
 30
0.0
 11
411.5340869915
 21
504.8374891901
 31
0.0
  0
LINE
  5
38E
  8
0
  6
CONTINUOUS
 62
     8
 10
419.531242181
 20
471.916025939
 30
0.0
 11
421.719589461
 21
471.916025939
 31
0.0
  0
ARC
  5
38F
  8
0
  6
CONTINUOUS
 62
     8
 10
306.4176957154
 20
470.2785025266
 30
0.0
 40
4.579027952762192
 50
84.6133913986
 51
153.1461644578
  0
LINE
  5
390
  8
0
  6
CONTINUOUS
 62
     8
 10
304.4782664668
 20
471.916025939
 30
0.0
 11
302.2899191868
 21
471.916025939
 31
0.0
  0
ARC
  5
391
  8
0
  6
CONTINUOUS
 62
     8
 10
417.5923639595
 20
470.2789599271
 30
0.0
 40
4.578329735098155
 50
26.8518436306
 51
95.3588177839
  0
LINE
  5
392
  8
0
  6
CONTINUOUS
 62
     8
 10
334.3767833006
 20
494.8374987269
 30
0.0
 11
334.3767833006
 21
504.8374891901
 31
0.0
  0
LINE
  5
393
  8
0
  6
CONTINUOUS
 62
     8
 10
389.6327253472
 20
504.8374891901
 30
0.0
 11
389.6327253472
 21
494.8374987269
 31
0.0
  0
LINE
  5
394
  8
0
  6
CONTINUOUS
 62
     8
 10
344.5700213354
 20
511.5346521759
 30
0.0
 11
344.5700213354
 21
519.8374897862
 31
0.0
  0
LINE
  5
395
  8
0
  6
CONTINUOUS
 62
     8
 10
379.4394873124
 20
519.8374897862
 30
0.0
 11
379.4394873124
 21
511.5346521759
 31
0.0
  0
LINE
  5
396
  8
0
  6
CONTINUOUS
 62
     8
 10
311.5248356056
 20
482.6280832911
 30
0.0
 11
311.6471853149
 21
494.8374987269
 31
0.0
  0
LINE
  5
397
  8
0
  6
CONTINUOUS
 62
     8
 10
412.4846730423
 20
482.6280832911
 30
0.0
 11
412.362323333
 21
494.8374987269
 31
0.0
  0
LINE
  5
398
  8
0
  6
CONTINUOUS
 62
     8
 10
412.4846730423
 20
482.6280832911
 30
0.0
 11
413.5069076013
 21
482.6280832911
 31
0.0
  0
POLYLINE
  5
399
  8
0
  6
CONTINUOUS
 62
     8
 66
     1
 10
0.0
 20
0.0
 30
0.0
  0
VERTEX
  5
A64
  8
0
  6
CONTINUOUS
 62
     8
 10
413.5069076013
 20
482.6280832911
 30
0.0
  0
VERTEX
  5
A65
  8
0
  6
CONTINUOUS
 62
     8
 10
413.5214734864
 20
482.0918799067
 30
0.0
  0
VERTEX
  5
A66
  8
0
  6
CONTINUOUS
 62
     8
 10
413.5523449671
 20
481.5590441847
 30
0.0
  0
VERTEX
  5
A67
  8
0
  6
CONTINUOUS
 62
     8
 10
413.5993842077
 20
481.0319752121
 30
0.0
  0
VERTEX
  5
A68
  8
0
  6
CONTINUOUS
 62
     8
 10
413.6623788666
 20
480.5130422736
 30
0.0
  0
VERTEX
  5
A69
  8
0
  6
CONTINUOUS
 62
     8
 10
413.7410420966
 20
480.0045848513
 30
0.0
  0
VERTEX
  5
A6A
  8
0
  6
CONTINUOUS
 62
     8
 10
413.8350237202
 20
479.5088977242
 30
0.0
  0
VERTEX
  5
A6B
  8
0
  6
CONTINUOUS
 62
     8
 10
413.9438953292
 20
479.0282309676
 30
0.0
  0
VERTEX
  5
A6C
  8
0
  6
CONTINUOUS
 62
     8
 10
414.0671689105
 20
478.5647303486
 30
0.0
  0
VERTEX
  5
A6D
  8
0
  6
CONTINUOUS
 62
     8
 10
414.2042856705
 20
478.1204820299
 30
0.0
  0
VERTEX
  5
A6E
  8
0
  6
CONTINUOUS
 62
     8
 10
414.3546346616
 20
477.6975125695
 30
0.0
  0
VERTEX
  5
A6F
  8
0
  6
CONTINUOUS
 62
     8
 10
414.5175304305
 20
477.2977144146
 30
0.0
  0
VERTEX
  5
A70
  8
0
  6
CONTINUOUS
 62
     8
 10
414.6922390949
 20
476.922890606
 30
0.0
  0
VERTEX
  5
A71
  8
0
  6
CONTINUOUS
 62
     8
 10
414.8779783439
 20
476.5747398758
 30
0.0
  0
VERTEX
  5
A72
  8
0
  6
CONTINUOUS
 62
     8
 10
415.0739062619
 20
476.254811945
 30
0.0
  0
VERTEX
  5
A73
  8
0
  6
CONTINUOUS
 62
     8
 10
415.2791436803
 20
475.9645671273
 30
0.0
  0
VERTEX
  5
A74
  8
0
  6
CONTINUOUS
 62
     8
 10
415.4927592766
 20
475.7053167248
 30
0.0
  0
VERTEX
  5
A75
  8
0
  6
CONTINUOUS
 62
     8
 10
415.7137956512
 20
475.4782081271
 30
0.0
  0
VERTEX
  5
A76
  8
0
  6
CONTINUOUS
 62
     8
 10
415.9412507009
 20
475.2842844153
 30
0.0
  0
VERTEX
  5
A77
  8
0
  6
CONTINUOUS
 62
     8
 10
416.1741036963
 20
475.1244098568
 30
0.0
  0
VERTEX
  5
A78
  8
0
  6
CONTINUOUS
 62
     8
 10
416.4113041055
 20
474.9993146086
 30
0.0
  0
VERTEX
  5
A79
  8
0
  6
CONTINUOUS
 62
     8
 10
416.6517827701
 20
474.9095500136
 30
0.0
  0
VERTEX
  5
A7A
  8
0
  6
CONTINUOUS
 62
     8
 10
416.8944519055
 20
474.8555333042
 30
0.0
  0
VERTEX
  5
A7B
  8
0
  6
CONTINUOUS
 62
     8
 10
417.1382200014
 20
474.837487998
 30
0.0
  0
SEQEND
  5
B2B
  8
0
  6
CONTINUOUS
 62
     8
  0
POLYLINE
  5
39A
  8
0
  6
CONTINUOUS
 62
     8
 66
     1
 10
0.0
 20
0.0
 30
0.0
  0
VERTEX
  5
A7C
  8
0
  6
CONTINUOUS
 62
     8
 10
310.5026010465
 20
482.6280832911
 30
0.0
  0
VERTEX
  5
A7D
  8
0
  6
CONTINUOUS
 62
     8
 10
310.4880351615
 20
482.0918799067
 30
0.0
  0
VERTEX
  5
A7E
  8
0
  6
CONTINUOUS
 62
     8
 10
310.4571636808
 20
481.5590441847
 30
0.0
  0
VERTEX
  5
A7F
  8
0
  6
CONTINUOUS
 62
     8
 10
310.4101244402
 20
481.0319752121
 30
0.0
  0
VERTEX
  5
A80
  8
0
  6
CONTINUOUS
 62
     8
 10
310.3471297812
 20
480.5130422736
 30
0.0
  0
VERTEX
  5
A81
  8
0
  6
CONTINUOUS
 62
     8
 10
310.2684665513
 20
480.0045848513
 30
0.0
  0
VERTEX
  5
A82
  8
0
  6
CONTINUOUS
 62
     8
 10
310.1744849276
 20
479.5088977242
 30
0.0
  0
VERTEX
  5
A83
  8
0
  6
CONTINUOUS
 62
     8
 10
310.0656133186
 20
479.0282309676
 30
0.0
  0
VERTEX
  5
A84
  8
0
  6
CONTINUOUS
 62
     8
 10
309.9423397374
 20
478.5647303486
 30
0.0
  0
VERTEX
  5
A85
  8
0
  6
CONTINUOUS
 62
     8
 10
309.8052229774
 20
478.1204820299
 30
0.0
  0
VERTEX
  5
A86
  8
0
  6
CONTINUOUS
 62
     8
 10
309.6548739862
 20
477.6975125695
 30
0.0
  0
VERTEX
  5
A87
  8
0
  6
CONTINUOUS
 62
     8
 10
309.4919782173
 20
477.2977144146
 30
0.0
  0
VERTEX
  5
A88
  8
0
  6
CONTINUOUS
 62
     8
 10
309.3172695529
 20
476.922890606
 30
0.0
  0
VERTEX
  5
A89
  8
0
  6
CONTINUOUS
 62
     8
 10
309.1315303039
 20
476.5747398758
 30
0.0
  0
VERTEX
  5
A8A
  8
0
  6
CONTINUOUS
 62
     8
 10
308.935602386
 20
476.254811945
 30
0.0
  0
VERTEX
  5
A8B
  8
0
  6
CONTINUOUS
 62
     8
 10
308.7303649675
 20
475.9645671273
 30
0.0
  0
VERTEX
  5
A8C
  8
0
  6
CONTINUOUS
 62
     8
 10
308.5167493713
 20
475.7053167248
 30
0.0
  0
VERTEX
  5
A8D
  8
0
  6
CONTINUOUS
 62
     8
 10
308.2957129967
 20
475.4782081271
 30
0.0
  0
VERTEX
  5
A8E
  8
0
  6
CONTINUOUS
 62
     8
 10
308.0682579469
 20
475.2842844153
 30
0.0
  0
VERTEX
  5
A8F
  8
0
  6
CONTINUOUS
 62
     8
 10
307.8354049515
 20
475.1244098568
 30
0.0
  0
VERTEX
  5
A90
  8
0
  6
CONTINUOUS
 62
     8
 10
307.5982045424
 20
474.9993146086
 30
0.0
  0
VERTEX
  5
A91
  8
0
  6
CONTINUOUS
 62
     8
 10
307.3577258777
 20
474.9095500136
 30
0.0
  0
VERTEX
  5
A92
  8
0
  6
CONTINUOUS
 62
     8
 10
307.1150567424
 20
474.8555333042
 30
0.0
  0
VERTEX
  5
A93
  8
0
  6
CONTINUOUS
 62
     8
 10
306.8712886464
 20
474.837487998
 30
0.0
  0
SEQEND
  5
B2A
  8
0
  6
CONTINUOUS
 62
     8
  0
LINE
  5
39B
  8
0
  6
CONTINUOUS
 62
     8
 10
311.5248356056
 20
482.6280832911
 30
0.0
 11
310.5026010465
 21
482.6280832911
 31
0.0
  0
POLYLINE
  5
39C
  8
0
  6
CONTINUOUS
 62
     8
 66
     1
 10
0.0
 20
0.0
 30
0.0
  0
VERTEX
  5
A94
  8
0
  6
CONTINUOUS
 62
     8
 10
421.5636003804
 20
473.4959960604
 30
0.0
  0
VERTEX
  5
A95
  8
0
  6
CONTINUOUS
 62
     8
 10
421.5636003804
 20
473.4959960604
 30
0.0
  0
VERTEX
  5
A96
  8
0
  6
CONTINUOUS
 62
     8
 10
421.5588133823
 20
473.5302389288
 30
0.0
  0
VERTEX
  5
A97
  8
0
  6
CONTINUOUS
 62
     8
 10
421.5453874361
 20
473.6226410294
 30
0.0
  0
VERTEX
  5
A98
  8
0
  6
CONTINUOUS
 62
     8
 10
421.5322334361
 20
473.7093806887
 30
0.0
  0
VERTEX
  5
A99
  8
0
  6
CONTINUOUS
 62
     8
 10
421.4798148763
 20
474.0215600157
 30
0.0
  0
VERTEX
  5
A9A
  8
0
  6
CONTINUOUS
 62
     8
 10
421.4081998956
 20
474.3940443421
 30
0.0
  0
VERTEX
  5
A9B
  8
0
  6
CONTINUOUS
 62
     8
 10
421.3198434603
 20
474.7945726538
 30
0.0
  0
VERTEX
  5
A9C
  8
0
  6
CONTINUOUS
 62
     8
 10
421.0669819307
 20
475.7106513405
 30
0.0
  0
VERTEX
  5
A9D
  8
0
  6
CONTINUOUS
 62
     8
 10
420.7341533196
 20
476.6451329613
 30
0.0
  0
VERTEX
  5
A9E
  8
0
  6
CONTINUOUS
 62
     8
 10
420.3183848452
 20
477.5787354136
 30
0.0
  0
VERTEX
  5
A9F
  8
0
  6
CONTINUOUS
 62
     8
 10
419.8166962754
 20
478.4921914959
 30
0.0
  0
VERTEX
  5
AA0
  8
0
  6
CONTINUOUS
 62
     8
 10
419.2261148285
 20
479.3662191058
 30
0.0
  0
VERTEX
  5
AA1
  8
0
  6
CONTINUOUS
 62
     8
 10
418.7686305534
 20
479.93411726
 30
0.0
  0
VERTEX
  5
AA2
  8
0
  6
CONTINUOUS
 62
     8
 10
418.2616520714
 20
480.4763556147
 30
0.0
  0
VERTEX
  5
AA3
  8
0
  6
CONTINUOUS
 62
     8
 10
417.7038792562
 20
480.9830099964
 30
0.0
  0
VERTEX
  5
AA4
  8
0
  6
CONTINUOUS
 62
     8
 10
417.0940231573
 20
481.4442158366
 30
0.0
  0
VERTEX
  5
AA5
  8
0
  6
CONTINUOUS
 62
     8
 10
416.4307836485
 20
481.8500936652
 30
0.0
  0
VERTEX
  5
AA6
  8
0
  6
CONTINUOUS
 62
     8
 10
415.774055947
 20
482.1633905793
 30
0.0
  0
VERTEX
  5
AA7
  8
0
  6
CONTINUOUS
 62
     8
 10
415.0686200749
 20
482.4081868553
 30
0.0
  0
VERTEX
  5
AA8
  8
0
  6
CONTINUOUS
 62
     8
 10
414.3213827204
 20
482.5682551289
 30
0.0
  0
VERTEX
  5
AA9
  8
0
  6
CONTINUOUS
 62
     8
 10
413.6808004272
 20
482.6253414774
 30
0.0
  0
VERTEX
  5
AAA
  8
0
  6
CONTINUOUS
 62
     8
 10
413.5069076013
 20
482.6280832911
 30
0.0
  0
SEQEND
  5
B29
  8
0
  6
CONTINUOUS
 62
     8
  0
POLYLINE
  5
39D
  8
0
  6
CONTINUOUS
 62
     8
 66
     1
 10
0.0
 20
0.0
 30
0.0
  0
VERTEX
  5
AAB
  8
0
  6
CONTINUOUS
 62
     8
 10
302.4459082675
 20
473.4959960604
 30
0.0
  0
VERTEX
  5
AAC
  8
0
  6
CONTINUOUS
 62
     8
 10
302.4459082675
 20
473.4959960604
 30
0.0
  0
VERTEX
  5
AAD
  8
0
  6
CONTINUOUS
 62
     8
 10
302.4504829239
 20
473.5285848999
 30
0.0
  0
VERTEX
  5
AAE
  8
0
  6
CONTINUOUS
 62
     8
 10
302.4641212117
 20
473.6226410294
 30
0.0
  0
VERTEX
  5
AAF
  8
0
  6
CONTINUOUS
 62
     8
 10
302.4772752118
 20
473.7093806887
 30
0.0
  0
VERTEX
  5
AB0
  8
0
  6
CONTINUOUS
 62
     8
 10
302.5145430159
 20
473.937279048
 30
0.0
  0
VERTEX
  5
AB1
  8
0
  6
CONTINUOUS
 62
     8
 10
302.5626253378
 20
474.2021918917
 30
0.0
  0
VERTEX
  5
AB2
  8
0
  6
CONTINUOUS
 62
     8
 10
302.6896651876
 20
474.7945726538
 30
0.0
  0
VERTEX
  5
AB3
  8
0
  6
CONTINUOUS
 62
     8
 10
302.8931330931
 20
475.551968875
 30
0.0
  0
VERTEX
  5
AB4
  8
0
  6
CONTINUOUS
 62
     8
 10
303.1505022239
 20
476.3248921061
 30
0.0
  0
VERTEX
  5
AB5
  8
0
  6
CONTINUOUS
 62
     8
 10
303.4624058795
 20
477.0967424536
 30
0.0
  0
VERTEX
  5
AB6
  8
0
  6
CONTINUOUS
 62
     8
 10
303.8397032809
 20
477.8739721203
 30
0.0
  0
VERTEX
  5
AB7
  8
0
  6
CONTINUOUS
 62
     8
 10
304.2791497004
 20
478.6333948994
 30
0.0
  0
VERTEX
  5
AB8
  8
0
  6
CONTINUOUS
 62
     8
 10
304.7833938193
 20
479.3662191058
 30
0.0
  0
VERTEX
  5
AB9
  8
0
  6
CONTINUOUS
 62
     8
 10
305.3552184295
 20
480.0630868101
 30
0.0
  0
VERTEX
  5
ABA
  8
0
  6
CONTINUOUS
 62
     8
 10
306.000461061
 20
480.7148636008
 30
0.0
  0
VERTEX
  5
ABB
  8
0
  6
CONTINUOUS
 62
     8
 10
306.4874533605
 20
481.1286092425
 30
0.0
  0
VERTEX
  5
ABC
  8
0
  6
CONTINUOUS
 62
     8
 10
307.0134494495
 20
481.5095872307
 30
0.0
  0
VERTEX
  5
ABD
  8
0
  6
CONTINUOUS
 62
     8
 10
307.5787249994
 20
481.8500936652
 30
0.0
  0
VERTEX
  5
ABE
  8
0
  6
CONTINUOUS
 62
     8
 10
308.0608595204
 20
482.0885420466
 30
0.0
  0
VERTEX
  5
ABF
  8
0
  6
CONTINUOUS
 62
     8
 10
308.5691865575
 20
482.2909892226
 30
0.0
  0
VERTEX
  5
AC0
  8
0
  6
CONTINUOUS
 62
     8
 10
309.1162305367
 20
482.454931798
 30
0.0
  0
VERTEX
  5
AC1
  8
0
  6
CONTINUOUS
 62
     8
 10
309.6881259274
 20
482.5682551289
 30
0.0
  0
VERTEX
  5
AC2
  8
0
  6
CONTINUOUS
 62
     8
 10
310.3287082207
 20
482.6253414774
 30
0.0
  0
VERTEX
  5
AC3
  8
0
  6
CONTINUOUS
 62
     8
 10
310.5026010465
 20
482.6280832911
 30
0.0
  0
SEQEND
  5
B28
  8
0
  6
CONTINUOUS
 62
     8
  0
LINE
  5
39E
  8
0
  6
CONTINUOUS
 62
     8
 10
312.4754216563
 20
519.8374897862
 30
0.0
 11
303.1470302534
 21
519.8374897862
 31
0.0
  0
ARC
  5
39F
  8
0
  6
CONTINUOUS
 62
     8
 10
300.4181972917
 20
520.1172014667
 30
0.0
 40
2.743131049856288
 50
354.1474900684
 51
82.6016936512
  0
ARC
  5
3A0
  8
0
  6
CONTINUOUS
 62
     8
 10
423.5913113561
 20
520.1172014667
 30
0.0
 40
2.743131049856175
 50
97.3983063488
 51
185.8525099316
  0
LINE
  5
3A1
  8
0
  6
CONTINUOUS
 62
     8
 10
420.8624783945
 20
519.8374897862
 30
0.0
 11
411.5340869915
 21
519.8374897862
 31
0.0
  0
ARC
  5
3A2
  8
0
  6
CONTINUOUS
 62
     8
 10
302.874350526
 20
523.217459738
 30
0.0
 40
3.39095135752219
 50
186.4336347796
 51
274.6123588727
  0
ARC
  5
3A3
  8
0
  6
CONTINUOUS
 62
     8
 10
421.1373494222
 20
523.2147993032
 30
0.0
 40
3.388476598110289
 50
265.347090955
 51
353.6069153927
  0
LINE
  5
3A4
  8
0
  6
CONTINUOUS
 62
     8
 10
429.0850359988
 20
729.8374832297
 30
0.0
 11
435.3168059182
 21
729.8374832297
 31
0.0
  0
LINE
  5
3A5
  8
0
  6
CONTINUOUS
 62
     8
 10
294.9244726491
 20
774.837499919
 30
0.0
 11
288.6924941134
 21
774.837499919
 31
0.0
  0
INSERT
  5
3B1
  8
FORMAT
 62
     7
  2
SW_CENTERMARKSYMBOL_0
 10
362.0047543239
 20
307.8374922896
 30
0.0
  0
LINE
  5
3B2
  8
0
  6
CONTINUOUS
 62
     7
 10
-18.3138773182
 20
-122.4063647931
 30
0.0
 11
-83.5374836216
 21
-122.4063647931
 31
0.0
  0
LINE
  5
3B3
  8
0
  6
CONTINUOUS
 62
     7
 10
-68.3138762006
 20
-141.4063641822
 30
0.0
 11
-18.3138773182
 21
-141.4063641822
 31
0.0
  0
LINE
  5
3B4
  8
0
  6
CONTINUOUS
 62
     7
 10
-83.3138758654
 20
-197.9063631987
 30
0.0
 11
-83.3138758654
 21
-193.906362543
 31
0.0
  0
LINE
  5
3B5
  8
0
  6
CONTINUOUS
 62
     7
 10
-106.3138759101
 20
-193.906362543
 30
0.0
 11
-106.3138759101
 21
-197.9063631987
 31
0.0
  0
LINE
  5
3B6
  8
0
  6
CONTINUOUS
 62
     7
 10
-46.3138744572
 20
-213.9063658213
 30
0.0
 11
-46.3138744572
 21
-193.906362543
 31
0.0
  0
LINE
  5
3B7
  8
0
  6
CONTINUOUS
 62
     7
 10
-64.313875545
 20
-193.906362543
 30
0.0
 11
-64.313875545
 21
-213.9063658213
 31
0.0
  0
LINE
  5
3B8
  8
0
  6
CONTINUOUS
 62
     7
 10
-51.3138771394
 20
-101.9063651582
 30
0.0
 11
-56.3138760963
 21
-101.9063651582
 31
0.0
  0
LINE
  5
3B9
  8
0
  6
CONTINUOUS
 62
     7
 10
-56.3138760963
 20
-115.906364659
 30
0.0
 11
-51.3138771394
 21
-115.906364659
 31
0.0
  0
LINE
  5
3BA
  8
0
  6
CONTINUOUS
 62
     7
 10
-18.3138773182
 20
-74.4063662385
 30
0.0
 11
-68.3138762006
 21
-74.4063662385
 31
0.0
  0
LINE
  5
3BB
  8
0
  6
CONTINUOUS
 62
     7
 10
-68.3138762006
 20
-93.4063646963
 30
0.0
 11
-18.3138773182
 21
-93.4063646963
 31
0.0
  0
LINE
  5
3BC
  8
0
  6
CONTINUOUS
 62
     7
 10
-160.8138755301
 20
-14.4063638543
 30
0.0
 11
-176.8138781527
 21
-14.4063638543
 31
0.0
  0
LINE
  5
3BD
  8
0
  6
CONTINUOUS
 62
     7
 10
-176.8138781527
 20
-199.4063662385
 30
0.0
 11
-160.8138755301
 21
-199.4063662385
 31
0.0
  0
LINE
  5
3BE
  8
0
  6
CONTINUOUS
 62
     7
 10
-28.8138762453
 20
-199.4063662385
 30
0.0
 11
-12.8138736227
 21
-199.4063662385
 31
0.0
  0
LINE
  5
3BF
  8
0
  6
CONTINUOUS
 62
     7
 10
-12.8138736227
 20
-14.4063638543
 30
0.0
 11
-28.8138762453
 21
-14.4063638543
 31
0.0
  0
LINE
  5
3C0
  8
0
  6
CONTINUOUS
 62
     7
 10
-12.8138736227
 20
-168.9063640332
 30
0.0
 11
-9.8138749936
 21
-165.9063654041
 31
0.0
  0
LINE
  5
3C1
  8
0
  6
CONTINUOUS
 62
     7
 10
-9.8138749936
 20
-47.9063646888
 30
0.0
 11
-12.8138736227
 21
-44.9063660597
 31
0.0
  0
LINE
  5
3C2
  8
0
  6
CONTINUOUS
 62
     7
 10
-176.8138781527
 20
-44.9063660597
 30
0.0
 11
-179.8138767818
 21
-47.9063646888
 31
0.0
  0
LINE
  5
3C3
  8
0
  6
CONTINUOUS
 62
     7
 10
-179.8138767818
 20
-165.9063654041
 30
0.0
 11
-176.8138781527
 21
-168.9063640332
 31
0.0
  0
LINE
  5
3C4
  8
0
  6
CONTINUOUS
 62
     7
 10
-28.8138762453
 20
-62.9063652849
 30
0.0
 11
-41.5912792423
 21
-65.3900424039
 31
0.0
  0
LINE
  5
3C5
  8
0
  6
CONTINUOUS
 62
     7
 10
-148.0364725331
 20
-65.3900424039
 30
0.0
 11
-160.8138755301
 21
-62.9063652849
 31
0.0
  0
LINE
  5
3C6
  8
0
  6
CONTINUOUS
 62
     7
 10
-41.5912792423
 20
-148.422687689
 30
0.0
 11
-28.8138762453
 21
-150.906364808
 31
0.0
  0
LINE
  5
3C7
  8
0
  6
CONTINUOUS
 62
     7
 10
-160.8138755301
 20
-150.906364808
 30
0.0
 11
-148.0364725331
 21
-148.422687689
 31
0.0
  0
LINE
  5
3C8
  8
0
  6
CONTINUOUS
 62
     7
 10
-88.1157666782
 20
-137.3384980505
 30
0.0
 11
-108.8138763198
 21
-137.3384980505
 31
0.0
  0
ARC
  5
3C9
  8
0
  6
CONTINUOUS
 62
     7
 10
-102.9407858937
 20
-131.9063820335
 30
0.0
 40
8.000067223229639
 50
118.9556317676
 51
222.7662353774
  0
LINE
  5
3CA
  8
0
  6
CONTINUOUS
 62
     7
 10
-89.8443232627
 20
-124.9063642716
 30
0.0
 11
-106.813875992
 21
-124.9063642716
 31
0.0
  0
ARC
  5
3CB
  8
0
  6
CONTINUOUS
 62
     7
 10
-91.8735160554
 20
-128.8827688885
 30
0.0
 40
4.464237568459673
 50
31.6270005037
 51
62.9643961351
  0
ARC
  5
3CC
  8
0
  6
CONTINUOUS
 62
     7
 10
-101.770340626
 20
-131.906365419
 30
0.0
 40
14.71104661500446
 50
338.6131082107
 51
21.3868917893
  0
LINE
  5
3CD
  8
0
  6
CONTINUOUS
 62
     7
 10
-88.1157666782
 20
-137.3384980505
 30
0.0
 11
-88.0723074415
 21
-137.2709510868
 31
0.0
  0
LINE
  5
3CE
  8
0
  6
CONTINUOUS
 62
     7
 10
-68.3138762006
 20
-143.9063655233
 30
0.0
 11
-94.813875888
 21
-143.9063655233
 31
0.0
  0
LINE
  5
3CF
  8
0
  6
CONTINUOUS
 62
     7
 10
-68.3138762006
 20
-150.906364808
 30
0.0
 11
-121.3138755748
 21
-150.906364808
 31
0.0
  0
LINE
  5
3D0
  8
0
  6
CONTINUOUS
 62
     7
 10
-121.3138755748
 20
-143.9063655233
 30
0.0
 11
-94.813875888
 21
-143.9063655233
 31
0.0
  0
LINE
  5
3D1
  8
0
  6
CONTINUOUS
 62
     7
 10
-68.3138762006
 20
-150.906364808
 30
0.0
 11
-68.3138762006
 21
-143.9063655233
 31
0.0
  0
LINE
  5
3D2
  8
0
  6
CONTINUOUS
 62
     7
 10
-121.3138755748
 20
-150.906364808
 30
0.0
 11
-121.3138755748
 21
-143.9063655233
 31
0.0
  0
ARC
  5
3D3
  8
0
  6
CONTINUOUS
 62
     7
 10
-70.3817291833
 20
-126.0986502841
 30
0.0
 40
18.06532371318294
 50
225.1509203166
 51
233.1176084053
  0
LINE
  5
3D4
  8
0
  6
CONTINUOUS
 62
     7
 10
-81.2240746209
 20
-143.9063655233
 30
0.0
 11
-81.2240746209
 21
-140.5485453104
 31
0.0
  0
LINE
  5
3D5
  8
0
  6
CONTINUOUS
 62
     7
 10
-110.8138766477
 20
-143.9063655233
 30
0.0
 11
-110.8138766477
 21
-138.9063665664
 31
0.0
  0
LINE
  5
3D6
  8
0
  6
CONTINUOUS
 62
     7
 10
-110.8138766477
 20
-138.9063665664
 30
0.0
 11
-87.1430673042
 21
-138.9063665664
 31
0.0
  0
LINE
  5
3D7
  8
0
  6
CONTINUOUS
 62
     7
 10
-87.1430673042
 20
-138.9063665664
 30
0.0
 11
-83.1221500749
 21
-138.9063665664
 31
0.0
  0
LINE
  5
3D8
  8
0
  6
CONTINUOUS
 62
     7
 10
-88.1157666782
 20
-137.3384980505
 30
0.0
 11
-88.0993754009
 21
-137.3426554745
 31
0.0
  0
LINE
  5
3D9
  8
0
  6
CONTINUOUS
 62
     7
 10
-87.1430673042
 20
-138.9063665664
 30
0.0
 11
-88.0993754009
 21
-137.3426554745
 31
0.0
  0
LINE
  5
3DA
  8
0
  6
CONTINUOUS
 62
     7
 10
-108.8138763198
 20
-137.3384980505
 30
0.0
 11
-110.8138766477
 21
-138.9063665664
 31
0.0
  0
LINE
  5
3DB
  8
0
  6
CONTINUOUS
 62
     7
 10
-110.3138756344
 20
-62.9063652849
 30
0.0
 11
-106.813875992
 21
-124.9063642716
 31
0.0
  0
LINE
  5
3DC
  8
0
  6
CONTINUOUS
 62
     7
 10
-80.0433578307
 20
-75.8286187446
 30
0.0
 11
-79.313876141
 21
-62.9063652849
 31
0.0
  0
POLYLINE
  5
3DD
  8
0
  6
CONTINUOUS
 62
     7
 66
     1
 10
0.0
 20
0.0
 30
0.0
  0
VERTEX
  5
AC4
  8
0
  6
CONTINUOUS
 62
     7
 10
-80.9553619811
 20
-91.9841121902
 30
0.0
  0
VERTEX
  5
AC5
  8
0
  6
CONTINUOUS
 62
     7
 10
-80.9457088226
 20
-91.5497582426
 30
0.0
  0
VERTEX
  5
AC6
  8
0
  6
CONTINUOUS
 62
     7
 10
-80.9593461791
 20
-91.0646798109
 30
0.0
  0
VERTEX
  5
AC7
  8
0
  6
CONTINUOUS
 62
     7
 10
-80.9923364186
 20
-90.5152851736
 30
0.0
  0
VERTEX
  5
AC8
  8
0
  6
CONTINUOUS
 62
     7
 10
-81.0385933483
 20
-89.9198366349
 30
0.0
  0
VERTEX
  5
AC9
  8
0
  6
CONTINUOUS
 62
     7
 10
-81.0904624277
 20
-89.3023045754
 30
0.0
  0
VERTEX
  5
ACA
  8
0
  6
CONTINUOUS
 62
     7
 10
-81.1438290739
 20
-88.6492220705
 30
0.0
  0
VERTEX
  5
ACB
  8
0
  6
CONTINUOUS
 62
     7
 10
-81.1947714874
 20
-87.9451235777
 30
0.0
  0
VERTEX
  5
ACC
  8
0
  6
CONTINUOUS
 62
     7
 10
-81.236732226
 20
-87.2123738771
 30
0.0
  0
VERTEX
  5
ACD
  8
0
  6
CONTINUOUS
 62
     7
 10
-81.2648590991
 20
-86.4610666429
 30
0.0
  0
VERTEX
  5
ACE
  8
0
  6
CONTINUOUS
 62
     7
 10
-81.2759697774
 20
-85.6917420422
 30
0.0
  0
VERTEX
  5
ACF
  8
0
  6
CONTINUOUS
 62
     7
 10
-81.266513128
 20
-84.8851477748
 30
0.0
  0
VERTEX
  5
AD0
  8
0
  6
CONTINUOUS
 62
     7
 10
-81.2344486231
 20
-84.0719429796
 30
0.0
  0
VERTEX
  5
AD1
  8
0
  6
CONTINUOUS
 62
     7
 10
-81.1838182026
 20
-83.315310443
 30
0.0
  0
VERTEX
  5
AD2
  8
0
  6
CONTINUOUS
 62
     7
 10
-81.1142530629
 20
-82.5638951754
 30
0.0
  0
VERTEX
  5
AD3
  8
0
  6
CONTINUOUS
 62
     7
 10
-81.0247250238
 20
-81.8018088137
 30
0.0
  0
VERTEX
  5
AD4
  8
0
  6
CONTINUOUS
 62
     7
 10
-80.9200751001
 20
-81.055486018
 30
0.0
  0
VERTEX
  5
AD5
  8
0
  6
CONTINUOUS
 62
     7
 10
-80.8057077566
 20
-80.3404836004
 30
0.0
  0
VERTEX
  5
AD6
  8
0
  6
CONTINUOUS
 62
     7
 10
-80.6843284854
 20
-79.6492131447
 30
0.0
  0
VERTEX
  5
AD7
  8
0
  6
CONTINUOUS
 62
     7
 10
-80.5571228603
 20
-78.9685094749
 30
0.0
  0
VERTEX
  5
AD8
  8
0
  6
CONTINUOUS
 62
     7
 10
-80.4324047977
 20
-78.3205678707
 30
0.0
  0
VERTEX
  5
AD9
  8
0
  6
CONTINUOUS
 62
     7
 10
-80.3129067981
 20
-77.6951586848
 30
0.0
  0
VERTEX
  5
ADA
  8
0
  6
CONTINUOUS
 62
     7
 10
-80.2075937727
 20
-77.1121768301
 30
0.0
  0
VERTEX
  5
ADB
  8
0
  6
CONTINUOUS
 62
     7
 10
-80.1202124322
 20
-76.5596268719
 30
0.0
  0
VERTEX
  5
ADC
  8
0
  6
CONTINUOUS
 62
     7
 10
-80.060843412
 20
-76.0614605641
 30
0.0
  0
VERTEX
  5
ADD
  8
0
  6
CONTINUOUS
 62
     7
 10
-80.0433578307
 20
-75.8286187446
 30
0.0
  0
SEQEND
  5
B27
  8
0
  6
CONTINUOUS
 62
     7
  0
LINE
  5
3DE
  8
0
  6
CONTINUOUS
 62
     7
 10
-81.386379
 20
-99.6192771962
 30
0.0
 11
-80.9553619811
 21
-91.9841121902
 31
0.0
  0
POLYLINE
  5
3DF
  8
0
  6
CONTINUOUS
 62
     7
 66
     1
 10
0.0
 20
0.0
 30
0.0
  0
VERTEX
  5
ADE
  8
0
  6
CONTINUOUS
 62
     7
 10
-83.109819364
 20
-115.9176373875
 30
0.0
  0
VERTEX
  5
ADF
  8
0
  6
CONTINUOUS
 62
     7
 10
-83.3012517879
 20
-115.364041554
 30
0.0
  0
VERTEX
  5
AE0
  8
0
  6
CONTINUOUS
 62
     7
 10
-83.4970577026
 20
-114.7671662291
 30
0.0
  0
VERTEX
  5
AE1
  8
0
  6
CONTINUOUS
 62
     7
 10
-83.6949488485
 20
-114.1118024496
 30
0.0
  0
VERTEX
  5
AE2
  8
0
  6
CONTINUOUS
 62
     7
 10
-83.8811798358
 20
-113.4165613001
 30
0.0
  0
VERTEX
  5
AE3
  8
0
  6
CONTINUOUS
 62
     7
 10
-84.0430893341
 20
-112.7036320066
 30
0.0
  0
VERTEX
  5
AE4
  8
0
  6
CONTINUOUS
 62
     7
 10
-84.1775695199
 20
-111.9595658054
 30
0.0
  0
VERTEX
  5
AE5
  8
0
  6
CONTINUOUS
 62
     7
 10
-84.2794794926
 20
-111.1600304974
 30
0.0
  0
VERTEX
  5
AE6
  8
0
  6
CONTINUOUS
 62
     7
 10
-84.3362491915
 20
-110.3391236646
 30
0.0
  0
VERTEX
  5
AE7
  8
0
  6
CONTINUOUS
 62
     7
 10
-84.3445537949
 20
-109.6282742472
 30
0.0
  0
VERTEX
  5
AE8
  8
0
  6
CONTINUOUS
 62
     7
 10
-84.3147198075
 20
-108.9139244539
 30
0.0
  0
VERTEX
  5
AE9
  8
0
  6
CONTINUOUS
 62
     7
 10
-84.2436543071
 20
-108.1769407281
 30
0.0
  0
VERTEX
  5
AEA
  8
0
  6
CONTINUOUS
 62
     7
 10
-84.1345647687
 20
-107.4488764533
 30
0.0
  0
VERTEX
  5
AEB
  8
0
  6
CONTINUOUS
 62
     7
 10
-84.0096352959
 20
-106.818068405
 30
0.0
  0
VERTEX
  5
AEC
  8
0
  6
CONTINUOUS
 62
     7
 10
-83.8616686279
 20
-106.2014439047
 30
0.0
  0
VERTEX
  5
AED
  8
0
  6
CONTINUOUS
 62
     7
 10
-83.690634031
 20
-105.5886431385
 30
0.0
  0
VERTEX
  5
AEE
  8
0
  6
CONTINUOUS
 62
     7
 10
-83.5038069973
 20
-104.9951343119
 30
0.0
  0
VERTEX
  5
AEF
  8
0
  6
CONTINUOUS
 62
     7
 10
-83.2780721003
 20
-104.3472703567
 30
0.0
  0
VERTEX
  5
AF0
  8
0
  6
CONTINUOUS
 62
     7
 10
-83.0433899874
 20
-103.7282239666
 30
0.0
  0
VERTEX
  5
AF1
  8
0
  6
CONTINUOUS
 62
     7
 10
-82.800290581
 20
-103.1273108927
 30
0.0
  0
VERTEX
  5
AF2
  8
0
  6
CONTINUOUS
 62
     7
 10
-82.5596740806
 20
-102.5604497662
 30
0.0
  0
VERTEX
  5
AF3
  8
0
  6
CONTINUOUS
 62
     7
 10
-82.3005223984
 20
-101.969599167
 30
0.0
  0
VERTEX
  5
AF4
  8
0
  6
CONTINUOUS
 62
     7
 10
-82.05938622
 20
-101.427973157
 30
0.0
  0
VERTEX
  5
AF5
  8
0
  6
CONTINUOUS
 62
     7
 10
-81.8372937256
 20
-100.9244033156
 30
0.0
  0
VERTEX
  5
AF6
  8
0
  6
CONTINUOUS
 62
     7
 10
-81.6510785708
 20
-100.4835426828
 30
0.0
  0
VERTEX
  5
AF7
  8
0
  6
CONTINUOUS
 62
     7
 10
-81.5455355087
 20
-100.2127415521
 30
0.0
  0
VERTEX
  5
AF8
  8
0
  6
CONTINUOUS
 62
     7
 10
-81.4647181296
 20
-99.9783085679
 30
0.0
  0
VERTEX
  5
AF9
  8
0
  6
CONTINUOUS
 62
     7
 10
-81.4101752231
 20
-99.7777920237
 30
0.0
  0
VERTEX
  5
AFA
  8
0
  6
CONTINUOUS
 62
     7
 10
-81.386379
 20
-99.6192771962
 30
0.0
  0
SEQEND
  5
B26
  8
0
  6
CONTINUOUS
 62
     7
  0
LINE
  5
3E0
  8
0
  6
CONTINUOUS
 62
     7
 10
-83.5021296853
 20
-122.4067885449
 30
0.0
 11
-83.109819364
 21
-115.9176373875
 31
0.0
  0
POLYLINE
  5
3E1
  8
0
  6
CONTINUOUS
 62
     7
 66
     1
 10
0.0
 20
0.0
 30
0.0
  0
VERTEX
  5
AFB
  8
0
  6
CONTINUOUS
 62
     7
 10
-89.8443232627
 20
-124.9063642716
 30
0.0
  0
VERTEX
  5
AFC
  8
0
  6
CONTINUOUS
 62
     7
 10
-89.0519256109
 20
-124.5795911198
 30
0.0
  0
VERTEX
  5
AFD
  8
0
  6
CONTINUOUS
 62
     7
 10
-88.0727116355
 20
-124.146408776
 30
0.0
  0
VERTEX
  5
AFE
  8
0
  6
CONTINUOUS
 62
     7
 10
-87.1451259928
 20
-123.7191030776
 30
0.0
  0
VERTEX
  5
AFF
  8
0
  6
CONTINUOUS
 62
     7
 10
-86.2789647991
 20
-123.3192788457
 30
0.0
  0
VERTEX
  5
B00
  8
0
  6
CONTINUOUS
 62
     7
 10
-85.4840241709
 20
-122.9685483521
 30
0.0
  0
VERTEX
  5
B01
  8
0
  6
CONTINUOUS
 62
     7
 10
-84.8704297432
 20
-122.724040786
 30
0.0
  0
VERTEX
  5
B02
  8
0
  6
CONTINUOUS
 62
     7
 10
-84.3179859558
 20
-122.5402331
 30
0.0
  0
VERTEX
  5
B03
  8
0
  6
CONTINUOUS
 62
     7
 10
-83.8383362034
 20
-122.4312758093
 30
0.0
  0
VERTEX
  5
B04
  8
0
  6
CONTINUOUS
 62
     7
 10
-83.5374836216
 20
-122.4063647931
 30
0.0
  0
SEQEND
  5
B25
  8
0
  6
CONTINUOUS
 62
     7
  0
LINE
  5
3E2
  8
0
  6
CONTINUOUS
 62
     7
 10
-79.313876141
 20
-62.9063652849
 30
0.0
 11
-110.3138756344
 21
-62.9063652849
 31
0.0
  0
ARC
  5
3E3
  8
0
  6
CONTINUOUS
 62
     7
 10
-98.2485115763
 20
-131.906365419
 30
0.0
 40
11.50364768149608
 50
332.2031638964
 51
27.7968361036
  0
LINE
  5
3E4
  8
0
  6
CONTINUOUS
 62
     7
 10
-109.3138754705
 20
-150.906364808
 30
0.0
 11
-109.3138754705
 21
-164.9063633775
 31
0.0
  0
LINE
  5
3E5
  8
0
  6
CONTINUOUS
 62
     7
 10
-109.3138754705
 20
-164.9063633775
 30
0.0
 11
-115.3138764539
 21
-164.9063633775
 31
0.0
  0
LINE
  5
3E6
  8
0
  6
CONTINUOUS
 62
     7
 10
-115.3138764539
 20
-150.906364808
 30
0.0
 11
-115.3138764539
 21
-164.9063633775
 31
0.0
  0
LINE
  5
3E7
  8
0
  6
CONTINUOUS
 62
     7
 10
-71.3138766924
 20
-150.906364808
 30
0.0
 11
-71.3138766924
 21
-164.9063633775
 31
0.0
  0
LINE
  5
3E8
  8
0
  6
CONTINUOUS
 62
     7
 10
-71.3138766924
 20
-164.9063633775
 30
0.0
 11
-109.3138754705
 21
-164.9063633775
 31
0.0
  0
ARC
  5
3E9
  8
0
  6
CONTINUOUS
 62
     7
 10
-101.612402936
 20
-189.0570453394
 30
0.0
 40
53.45072527355573
 50
69.7613735822
 51
75.3559781375
  0
LINE
  5
3EA
  8
0
  6
CONTINUOUS
 62
     7
 10
-18.3138773182
 20
-131.906365419
 30
0.0
 11
-18.3138773182
 21
-141.4063641822
 31
0.0
  0
LINE
  5
3EB
  8
0
  6
CONTINUOUS
 62
     7
 10
-18.3138773182
 20
-122.4063647931
 30
0.0
 11
-18.3138773182
 21
-131.906365419
 31
0.0
  0
LINE
  5
3EC
  8
0
  6
CONTINUOUS
 62
     7
 10
-81.2240746209
 20
-140.5485453104
 30
0.0
 11
-68.3138762006
 21
-140.5485453104
 31
0.0
  0
LINE
  5
3ED
  8
0
  6
CONTINUOUS
 62
     7
 10
-83.3138758654
 20
-197.9063631987
 30
0.0
 11
-106.3138759101
 21
-197.9063631987
 31
0.0
  0
LINE
  5
3EE
  8
0
  6
CONTINUOUS
 62
     7
 10
-91.4597739802
 20
-193.906362543
 30
0.0
 11
-98.1679777952
 21
-193.906362543
 31
0.0
  0
LINE
  5
3EF
  8
0
  6
CONTINUOUS
 62
     7
 10
-48.313874785
 20
-164.9063633775
 30
0.0
 11
-48.313874785
 21
-193.906362543
 31
0.0
  0
LINE
  5
3F0
  8
0
  6
CONTINUOUS
 62
     7
 10
-48.313874785
 20
-193.906362543
 30
0.0
 11
-91.4597739802
 21
-193.906362543
 31
0.0
  0
LINE
  5
3F1
  8
0
  6
CONTINUOUS
 62
     7
 10
-98.1679777952
 20
-193.906362543
 30
0.0
 11
-109.3138754705
 21
-193.906362543
 31
0.0
  0
LINE
  5
3F2
  8
0
  6
CONTINUOUS
 62
     7
 10
-109.3138754705
 20
-164.9063633775
 30
0.0
 11
-109.3138754705
 21
-193.906362543
 31
0.0
  0
LINE
  5
3F3
  8
0
  6
CONTINUOUS
 62
     7
 10
-48.313874785
 20
-164.9063633775
 30
0.0
 11
-71.3138766924
 21
-164.9063633775
 31
0.0
  0
LINE
  5
3F4
  8
0
  6
CONTINUOUS
 62
     7
 10
-68.3138762006
 20
-143.9063655233
 30
0.0
 11
-68.3138762006
 21
-140.5485453104
 31
0.0
  0
LINE
  5
3F5
  8
0
  6
CONTINUOUS
 62
     7
 10
-46.3138744572
 20
-193.906362543
 30
0.0
 11
-48.313874785
 21
-193.906362543
 31
0.0
  0
LINE
  5
3F6
  8
0
  6
CONTINUOUS
 62
     7
 10
-46.3138744572
 20
-213.9063658213
 30
0.0
 11
-64.313875545
 21
-213.9063658213
 31
0.0
  0
LINE
  5
3F7
  8
0
  6
CONTINUOUS
 62
     7
 10
-68.3138762006
 20
-115.9176373875
 30
0.0
 11
-83.109819364
 21
-115.9176373875
 31
0.0
  0
LINE
  5
3F8
  8
0
  6
CONTINUOUS
 62
     7
 10
-68.3138762006
 20
-99.6192771962
 30
0.0
 11
-81.386379
 21
-99.6192771962
 31
0.0
  0
LINE
  5
3F9
  8
0
  6
CONTINUOUS
 62
     7
 10
-68.3138762006
 20
-115.9176373875
 30
0.0
 11
-68.3138762006
 21
-99.6192771962
 31
0.0
  0
LINE
  5
3FA
  8
0
  6
CONTINUOUS
 62
     7
 10
-56.3138760963
 20
-101.1603981277
 30
0.0
 11
-68.3138762006
 21
-101.1603981277
 31
0.0
  0
LINE
  5
3FB
  8
0
  6
CONTINUOUS
 62
     7
 10
-56.3138760963
 20
-104.0968901032
 30
0.0
 11
-56.3138760963
 21
-101.1603981277
 31
0.0
  0
LINE
  5
3FC
  8
0
  6
CONTINUOUS
 62
     7
 10
-56.3138760963
 20
-107.0333817004
 30
0.0
 11
-68.3138762006
 21
-107.0333817004
 31
0.0
  0
LINE
  5
3FD
  8
0
  6
CONTINUOUS
 62
     7
 10
-56.3138760963
 20
-107.0333817004
 30
0.0
 11
-56.3138760963
 21
-104.0968901032
 31
0.0
  0
LINE
  5
3FE
  8
0
  6
CONTINUOUS
 62
     7
 10
-56.3138760963
 20
-114.7793479284
 30
0.0
 11
-56.3138760963
 21
-110.9063652364
 31
0.0
  0
LINE
  5
3FF
  8
0
  6
CONTINUOUS
 62
     7
 10
-56.3138760963
 20
-114.7793479284
 30
0.0
 11
-68.3138762006
 21
-114.7793479284
 31
0.0
  0
LINE
  5
400
  8
0
  6
CONTINUOUS
 62
     7
 10
-56.3138760963
 20
-110.9063652364
 30
0.0
 11
-56.3138760963
 21
-107.0333817004
 31
0.0
  0
LINE
  5
401
  8
0
  6
CONTINUOUS
 62
     7
 10
-51.3138771394
 20
-108.9063651414
 30
0.0
 11
-51.3138771394
 21
-115.906364659
 31
0.0
  0
LINE
  5
402
  8
0
  6
CONTINUOUS
 62
     7
 10
-51.3138771394
 20
-101.9063651582
 30
0.0
 11
-51.3138771394
 21
-108.9063651414
 31
0.0
  0
LINE
  5
403
  8
0
  6
CONTINUOUS
 62
     7
 10
-18.3138773182
 20
-83.9063650017
 30
0.0
 11
-18.3138773182
 21
-93.4063646963
 31
0.0
  0
LINE
  5
404
  8
0
  6
CONTINUOUS
 62
     7
 10
-18.3138773182
 20
-74.4063662385
 30
0.0
 11
-18.3138773182
 21
-83.9063650017
 31
0.0
  0
LINE
  5
405
  8
0
  6
CONTINUOUS
 62
     7
 10
-68.3138762006
 20
-75.8286187446
 30
0.0
 11
-80.0433578307
 21
-75.8286187446
 31
0.0
  0
LINE
  5
406
  8
0
  6
CONTINUOUS
 62
     7
 10
-68.3138762006
 20
-91.9841121902
 30
0.0
 11
-80.9553619811
 21
-91.9841121902
 31
0.0
  0
LINE
  5
407
  8
0
  6
CONTINUOUS
 62
     7
 10
-68.3138762006
 20
-122.4063647931
 30
0.0
 11
-68.3138762006
 21
-115.9176373875
 31
0.0
  0
LINE
  5
408
  8
0
  6
CONTINUOUS
 62
     7
 10
-56.3138760963
 20
-116.6523316895
 30
0.0
 11
-56.3138760963
 21
-115.7158402746
 31
0.0
  0
LINE
  5
409
  8
0
  6
CONTINUOUS
 62
     7
 10
-56.3138760963
 20
-116.6523316895
 30
0.0
 11
-68.3138762006
 21
-116.6523316895
 31
0.0
  0
LINE
  5
40A
  8
0
  6
CONTINUOUS
 62
     7
 10
-56.3138760963
 20
-115.7158402746
 30
0.0
 11
-56.3138760963
 21
-114.7793479284
 31
0.0
  0
LINE
  5
40B
  8
0
  6
CONTINUOUS
 62
     7
 10
-120.3138754109
 20
-150.906364808
 30
0.0
 11
-120.3138754109
 21
-164.9063633775
 31
0.0
  0
LINE
  5
40C
  8
0
  6
CONTINUOUS
 62
     7
 10
-115.3138764539
 20
-164.9063633775
 30
0.0
 11
-120.3138754109
 21
-164.9063633775
 31
0.0
  0
LINE
  5
40D
  8
0
  6
CONTINUOUS
 62
     7
 10
-110.3138756344
 20
-62.9063652849
 30
0.0
 11
-121.3138755748
 21
-62.9063652849
 31
0.0
  0
LINE
  5
40E
  8
0
  6
CONTINUOUS
 62
     7
 10
-121.3138755748
 20
-62.9063652849
 30
0.0
 11
-121.3138755748
 21
-143.9063655233
 31
0.0
  0
LINE
  5
40F
  8
0
  6
CONTINUOUS
 62
     7
 10
-68.3138762006
 20
-62.9063652849
 30
0.0
 11
-79.313876141
 21
-62.9063652849
 31
0.0
  0
LINE
  5
410
  8
0
  6
CONTINUOUS
 62
     7
 10
-68.3138762006
 20
-75.8286187446
 30
0.0
 11
-68.3138762006
 21
-62.9063652849
 31
0.0
  0
LINE
  5
411
  8
0
  6
CONTINUOUS
 62
     7
 10
-68.3138762006
 20
-99.6192771962
 30
0.0
 11
-68.3138762006
 21
-91.9841121902
 31
0.0
  0
ARC
  5
412
  8
0
  6
CONTINUOUS
 62
     7
 10
-94.8138758877
 20
-106.9063650464
 30
0.0
 40
67.5
 50
90.0
 51
257.5953368724
  0
ARC
  5
413
  8
0
  6
CONTINUOUS
 62
     7
 10
-94.8138758877
 20
-106.9063650464
 30
0.0
 40
67.5
 50
300.7664859734
 51
329.2621313279
  0
ARC
  5
414
  8
0
  6
CONTINUOUS
 62
     7
 10
-94.8138758877
 20
-106.9063650464
 30
0.0
 40
67.5
 50
346.7247325167
 51
11.5369590328
  0
ARC
  5
415
  8
0
  6
CONTINUOUS
 62
     7
 10
-94.8138758877
 20
-106.9063650464
 30
0.0
 40
67.5
 50
28.7822046806
 51
90.0
  0
LINE
  5
416
  8
0
  6
CONTINUOUS
 62
     7
 10
-160.1343155244
 20
-128.0835432952
 30
0.0
 11
-171.8258411029
 21
-126.880084539
 31
0.0
  0
ARC
  5
417
  8
0
  6
CONTINUOUS
 62
     7
 10
-160.3391042777
 20
-130.0730317164
 30
0.0
 40
2.000000004210835
 50
19.4712206371
 51
84.1229982411
  0
LINE
  5
418
  8
0
  6
CONTINUOUS
 62
     7
 10
-176.3138771394
 20
-121.9063647112
 30
0.0
 11
-176.3138771394
 21
-91.9063653817
 31
0.0
  0
ARC
  5
419
  8
0
  6
CONTINUOUS
 62
     7
 10
-171.3138758877
 20
-121.9063650464
 30
0.0
 40
5.000000003290923
 50
180.0
 51
264.1229982353
  0
ARC
  5
41A
  8
0
  6
CONTINUOUS
 62
     7
 10
-160.3391042777
 20
-83.7396983764
 30
0.0
 40
2.000000001678679
 50
275.8770017589
 51
340.5287793041
  0
ARC
  5
41B
  8
0
  6
CONTINUOUS
 62
     7
 10
-171.3138758877
 20
-91.9063650464
 30
0.0
 40
5.000000000781538
 50
95.8770017647
 51
180.0
  0
LINE
  5
41C
  8
0
  6
CONTINUOUS
 62
     7
 10
-171.8258411029
 20
-86.9326455539
 30
0.0
 11
-160.1343155244
 21
-85.7291867977
 31
0.0
  0
LINE
  5
41D
  8
0
  6
CONTINUOUS
 62
     7
 10
-17.8019106725
 20
-126.880084539
 30
0.0
 11
-18.3138773182
 21
-126.9327843582
 31
0.0
  0
LINE
  5
41E
  8
0
  6
CONTINUOUS
 62
     7
 10
-13.313874636
 20
-91.9063653817
 30
0.0
 11
-13.313874636
 21
-121.9063647112
 31
0.0
  0
ARC
  5
41F
  8
0
  6
CONTINUOUS
 62
     7
 10
-18.3138758877
 20
-121.9063650464
 30
0.0
 40
5.000000002427009
 50
275.8770017647
 51
0.0
  0
ARC
  5
420
  8
0
  6
CONTINUOUS
 62
     7
 10
-18.3138758877
 20
-91.9063650464
 30
0.0
 40
5.000000001563079
 50
0.0
 51
84.1229982353
  0
LINE
  5
421
  8
0
  6
CONTINUOUS
 62
     7
 10
-18.3138773182
 20
-86.8799457347
 30
0.0
 11
-17.8019106725
 21
-86.9326455539
 31
0.0
  0
LINE
  5
422
  8
0
  6
CONTINUOUS
 62
     7
 10
-90.3138760814
 20
-35.4897486066
 30
0.0
 11
-93.8138758402
 21
-35.4897486066
 31
0.0
  0
ARC
  5
423
  8
0
  6
CONTINUOUS
 62
     7
 10
-94.8138758877
 20
-106.9063650464
 30
0.0
 40
73.50000000317212
 50
88.4407387081
 51
91.5592612918
  0
LINE
  5
424
  8
0
  6
CONTINUOUS
 62
     7
 10
-95.8138759352
 20
-35.4897486066
 30
0.0
 11
-99.313875694
 21
-35.4897486066
 31
0.0
  0
ARC
  5
425
  8
0
  6
CONTINUOUS
 62
     7
 10
-94.8138758877
 20
-106.9063650464
 30
0.0
 40
73.50000000047557
 50
92.7294026368
 51
94.0960437591
  0
LINE
  5
426
  8
0
  6
CONTINUOUS
 62
     7
 10
-99.313875694
 20
-35.4897486066
 30
0.0
 11
-99.313875694
 21
-34.4897465801
 31
0.0
  0
LINE
  5
427
  8
0
  6
CONTINUOUS
 62
     7
 10
-93.8138758402
 20
-34.4897465801
 30
0.0
 11
-92.8138757927
 21
-34.4897465801
 31
0.0
  0
LINE
  5
428
  8
0
  6
CONTINUOUS
 62
     7
 10
-102.3321692237
 20
-39.8263739442
 30
0.0
 11
-100.0638758169
 21
-33.5941048359
 31
0.0
  0
LINE
  5
429
  8
0
  6
CONTINUOUS
 62
     7
 10
-93.8138758402
 20
-34.4897465801
 30
0.0
 11
-93.8138758402
 21
-35.4897486066
 31
0.0
  0
LINE
  5
42A
  8
0
  6
CONTINUOUS
 62
     7
 10
-92.8138757927
 20
-33.433582077
 30
0.0
 11
-92.8138757927
 21
-34.4897465801
 31
0.0
  0
LINE
  5
42B
  8
0
  6
CONTINUOUS
 62
     7
 10
-99.313875694
 20
-34.4897465801
 30
0.0
 11
-98.3138759957
 21
-34.4897465801
 31
0.0
  0
LINE
  5
42C
  8
0
  6
CONTINUOUS
 62
     7
 10
-96.8138759827
 20
-33.433582077
 30
0.0
 11
-96.8138759827
 21
-34.4897465801
 31
0.0
  0
ARC
  5
42D
  8
0
  6
CONTINUOUS
 62
     7
 10
-94.8138758877
 20
-106.9063650464
 30
0.0
 40
73.49999999809157
 50
85.9039562409
 51
87.2705973632
  0
LINE
  5
42E
  8
0
  6
CONTINUOUS
 62
     7
 10
-96.8138759827
 20
-34.4897465801
 30
0.0
 11
-95.8138759352
 21
-34.4897465801
 31
0.0
  0
LINE
  5
42F
  8
0
  6
CONTINUOUS
 62
     7
 10
-98.3138759957
 20
-34.4897465801
 30
0.0
 11
-98.3138759957
 21
-33.4897445535
 31
0.0
  0
LINE
  5
430
  8
0
  6
CONTINUOUS
 62
     7
 10
-90.3138760814
 20
-35.4897486066
 30
0.0
 11
-90.3138760814
 21
-34.4897465801
 31
0.0
  0
LINE
  5
431
  8
0
  6
CONTINUOUS
 62
     7
 10
-89.5638759585
 20
-33.5941048359
 30
0.0
 11
-87.2955825517
 21
-39.8263739442
 31
0.0
  0
LINE
  5
432
  8
0
  6
CONTINUOUS
 62
     7
 10
-91.3138757797
 20
-34.4897465801
 30
0.0
 11
-90.3138760814
 21
-34.4897465801
 31
0.0
  0
LINE
  5
433
  8
0
  6
CONTINUOUS
 62
     7
 10
-91.3138757797
 20
-34.4897465801
 30
0.0
 11
-91.3138757797
 21
-33.4897445535
 31
0.0
  0
LINE
  5
434
  8
0
  6
CONTINUOUS
 62
     7
 10
-95.8138759352
 20
-34.4897465801
 30
0.0
 11
-95.8138759352
 21
-35.4897486066
 31
0.0
  0
ARC
  5
435
  8
0
  6
CONTINUOUS
 62
     7
 10
-126.044297838
 20
-55.0612819342
 30
0.0
 40
12.50968838852816
 50
78.5961876208
 51
100.3563092964
  0
LINE
  5
436
  8
0
  6
CONTINUOUS
 62
     7
 10
-123.6831006
 20
-43.2440521216
 30
0.0
 11
-123.5708501527
 21
-42.7985595559
 31
0.0
  0
ARC
  5
437
  8
0
  6
CONTINUOUS
 62
     7
 10
-126.0120417629
 20
-55.2343859578
 30
0.0
 40
12.21442235292446
 50
79.0080275184
 51
167.187093761
  0
ARC
  5
438
  8
0
  6
CONTINUOUS
 62
     7
 10
-126.0120417629
 20
-55.2343859578
 30
0.0
 40
13.00000000000005
 50
100.3590726844
 51
167.187093761
  0
ARC
  5
439
  8
0
  6
CONTINUOUS
 62
     7
 10
-63.6157100125
 20
-55.2343859578
 30
0.0
 40
12.21442235292445
 50
12.812906239
 51
100.9919724816
  0
LINE
  5
43A
  8
0
  6
CONTINUOUS
 62
     7
 10
-65.9446511755
 20
-43.2440521216
 30
0.0
 11
-66.0569016227
 21
-42.7985595559
 31
0.0
  0
ARC
  5
43B
  8
0
  6
CONTINUOUS
 62
     7
 10
-63.5834539374
 20
-55.0612819342
 30
0.0
 40
12.50968838852812
 50
79.6436907036
 51
101.4038123792
  0
ARC
  5
43C
  8
0
  6
CONTINUOUS
 62
     7
 10
-63.6157100125
 20
-55.2343859578
 30
0.0
 40
13.00000000000007
 50
12.812906239
 51
79.6409273156
  0
ARC
  5
43D
  8
0
  6
CONTINUOUS
 62
     7
 10
101.1861241123
 20
-106.9063650464
 30
0.0
 40
245.2144223529244
 50
167.187093761
 51
167.9039096708
  0
ARC
  5
43E
  8
0
  6
CONTINUOUS
 62
     7
 10
-127.3138758877
 20
-54.9063650464
 30
0.0
 40
12.2144223529244
 50
57.5860542424
 51
72.7073028197
  0
ARC
  5
43F
  8
0
  6
CONTINUOUS
 62
     7
 10
-127.2471946155
 20
-54.4902004613
 30
0.0
 40
12.25601793687492
 50
55.3256555346
 51
72.5446556552
  0
ARC
  5
440
  8
0
  6
CONTINUOUS
 62
     7
 10
-62.3138758877
 20
-54.9063650464
 30
0.0
 40
12.2144223529244
 50
107.2926971803
 51
122.4139457576
  0
ARC
  5
441
  8
0
  6
CONTINUOUS
 62
     7
 10
-62.3842177283
 20
-54.4815501816
 30
0.0
 40
12.24666799366965
 50
107.4511466057
 51
124.6599720931
  0
ARC
  5
442
  8
0
  6
CONTINUOUS
 62
     7
 10
-290.8138758877
 20
-106.9063650464
 30
0.0
 40
245.2144223529244
 50
12.0960903292
 51
12.812906239
  0
ARC
  5
443
  8
0
  6
CONTINUOUS
 62
     7
 10
-290.8138758877
 20
-106.9063650464
 30
0.0
 40
245.2144223529244
 50
347.187093761
 51
347.9039096708
  0
POLYLINE
  5
444
  8
0
  6
CONTINUOUS
 62
     7
 66
     1
 10
0.0
 20
0.0
 30
0.0
  0
VERTEX
  5
B05
  8
0
  6
CONTINUOUS
 62
     7
 10
-50.9394184092
 20
-52.3513996994
 30
0.0
  0
VERTEX
  5
B06
  8
0
  6
CONTINUOUS
 62
     7
 10
-50.2801686862
 20
-55.3356738781
 30
0.0
  0
VERTEX
  5
B07
  8
0
  6
CONTINUOUS
 62
     7
 10
-50.0594117084
 20
-56.3762964701
 30
0.0
  0
SEQEND
  5
B24
  8
0
  6
CONTINUOUS
 62
     7
  0
POLYLINE
  5
445
  8
0
  6
CONTINUOUS
 62
     7
 66
     1
 10
0.0
 20
0.0
 30
0.0
  0
VERTEX
  5
B08
  8
0
  6
CONTINUOUS
 62
     7
 10
-50.0594117084
 20
-157.4364336228
 30
0.0
  0
VERTEX
  5
B09
  8
0
  6
CONTINUOUS
 62
     7
 10
-50.2801686862
 20
-158.4770562147
 30
0.0
  0
VERTEX
  5
B0A
  8
0
  6
CONTINUOUS
 62
     7
 10
-50.9394184092
 20
-161.4613303935
 30
0.0
  0
SEQEND
  5
B23
  8
0
  6
CONTINUOUS
 62
     7
  0
ARC
  5
446
  8
0
  6
CONTINUOUS
 62
     7
 10
101.1861241123
 20
-106.9063650464
 30
0.0
 40
245.2144223529244
 50
192.0960903292
 51
192.812906239
  0
POLYLINE
  5
447
  8
0
  6
CONTINUOUS
 62
     7
 66
     1
 10
0.0
 20
0.0
 30
0.0
  0
VERTEX
  5
B0B
  8
0
  6
CONTINUOUS
 62
     7
 10
-138.6883333662
 20
-161.4613303935
 30
0.0
  0
VERTEX
  5
B0C
  8
0
  6
CONTINUOUS
 62
     7
 10
-139.3475830892
 20
-158.4770562147
 30
0.0
  0
VERTEX
  5
B0D
  8
0
  6
CONTINUOUS
 62
     7
 10
-139.568340067
 20
-157.4364336228
 30
0.0
  0
SEQEND
  5
B22
  8
0
  6
CONTINUOUS
 62
     7
  0
POLYLINE
  5
448
  8
0
  6
CONTINUOUS
 62
     7
 66
     1
 10
0.0
 20
0.0
 30
0.0
  0
VERTEX
  5
B0E
  8
0
  6
CONTINUOUS
 62
     7
 10
-139.568340067
 20
-56.3762964701
 30
0.0
  0
VERTEX
  5
B0F
  8
0
  6
CONTINUOUS
 62
     7
 10
-139.3475830892
 20
-55.3356738781
 30
0.0
  0
VERTEX
  5
B10
  8
0
  6
CONTINUOUS
 62
     7
 10
-138.6883333662
 20
-52.3513996994
 30
0.0
  0
SEQEND
  5
B21
  8
0
  6
CONTINUOUS
 62
     7
  0
ARC
  5
449
  8
0
  6
CONTINUOUS
 62
     7
 10
-127.3138758877
 20
-158.9063650464
 30
0.0
 40
12.2144223529244
 50
287.2926971803
 51
302.4139457576
  0
ARC
  5
44A
  8
0
  6
CONTINUOUS
 62
     7
 10
-126.0120417629
 20
-158.578344135
 30
0.0
 40
12.21442235292446
 50
192.812906239
 51
280.9919724816
  0
ARC
  5
44B
  8
0
  6
CONTINUOUS
 62
     7
 10
-63.6157100125
 20
-158.578344135
 30
0.0
 40
12.21442235292447
 50
328.7965985957
 51
347.187093761
  0
LINE
  5
44C
  8
0
  6
CONTINUOUS
 62
     7
 10
-123.6831006
 20
-170.5686779713
 30
0.0
 11
-123.5708501527
 21
-171.0141705369
 31
0.0
  0
ARC
  5
44D
  8
0
  6
CONTINUOUS
 62
     7
 10
-127.2396485942
 20
-159.3403593828
 30
0.0
 40
12.23674584467893
 50
287.4466808296
 51
304.6448266132
  0
ARC
  5
44E
  8
0
  6
CONTINUOUS
 62
     7
 10
-126.044297838
 20
-158.7514481587
 30
0.0
 40
12.50968838852819
 50
259.6436907036
 51
281.4038123792
  0
ARC
  5
44F
  8
0
  6
CONTINUOUS
 62
     7
 10
-126.0120417629
 20
-158.578344135
 30
0.0
 40
13.00000000000004
 50
192.812906239
 51
259.6409273156
  0
ARC
  5
450
  8
0
  6
CONTINUOUS
 62
     7
 10
-63.6157100125
 20
-158.578344135
 30
0.0
 40
13.0000000000001
 50
330.8714417331
 51
347.187093761
  0
ARC
  5
451
  8
0
  6
CONTINUOUS
 62
     7
 10
-94.8138758877
 20
-225.9063650464
 30
0.0
 40
186.1857689411698
 50
92.5043550027
 51
100.3590726844
  0
ARC
  5
452
  8
0
  6
CONTINUOUS
 62
     7
 10
-94.8138758877
 20
-225.9063650464
 30
0.0
 40
186.1857689411698
 50
79.6409273156
 51
87.4956449973
  0
ARC
  5
453
  8
0
  6
CONTINUOUS
 62
     7
 10
-94.8138758877
 20
12.0936349536
 30
0.0
 40
186.1857689411698
 50
259.6409273156
 51
265.5333271669
  0
ARC
  5
454
  8
0
  6
CONTINUOUS
 62
     7
 10
-94.8138758877
 20
-225.9063650464
 30
0.0
 40
186.5
 50
79.6409273156
 51
87.7201144128
  0
ARC
  5
455
  8
0
  6
CONTINUOUS
 62
     7
 10
-94.8138758877
 20
-225.9063650464
 30
0.0
 40
186.5
 50
92.2798855876
 51
100.3590726844
  0
ARC
  5
456
  8
0
  6
CONTINUOUS
 62
     7
 10
-94.8138758877
 20
12.0936349536
 30
0.0
 40
186.5
 50
259.6409273156
 51
265.5408682415
  0
ARC
  5
457
  8
0
  6
CONTINUOUS
 62
     7
 10
-63.5243920251
 20
-55.1939424136
 30
0.0
 40
12.99999999999997
 50
12.6030901855
 51
79.8179297043
  0
POLYLINE
  5
458
  8
0
  6
CONTINUOUS
 62
     7
 66
     1
 10
0.0
 20
0.0
 30
0.0
  0
VERTEX
  5
B11
  8
0
  6
CONTINUOUS
 62
     7
 10
-49.954500083
 20
-56.4694101011
 30
0.0
  0
VERTEX
  5
B12
  8
0
  6
CONTINUOUS
 62
     7
 10
-50.1892567018
 20
-55.3428562378
 30
0.0
  0
VERTEX
  5
B13
  8
0
  6
CONTINUOUS
 62
     7
 10
-50.8376285771
 20
-52.3573974168
 30
0.0
  0
SEQEND
  5
B20
  8
0
  6
CONTINUOUS
 62
     7
  0
ARC
  5
459
  8
0
  6
CONTINUOUS
 62
     7
 10
-94.8138758877
 20
-229.4063650464
 30
0.0
 40
190.0
 50
79.8179297043
 51
87.7624371218
  0
POLYLINE
  5
45A
  8
0
  6
CONTINUOUS
 62
     7
 66
     1
 10
0.0
 20
0.0
 30
0.0
  0
VERTEX
  5
B14
  8
0
  6
CONTINUOUS
 62
     7
 10
-139.6732516924
 20
-56.4694101011
 30
0.0
  0
VERTEX
  5
B15
  8
0
  6
CONTINUOUS
 62
     7
 10
-139.4384950736
 20
-55.3428562378
 30
0.0
  0
VERTEX
  5
B16
  8
0
  6
CONTINUOUS
 62
     7
 10
-138.7901231983
 20
-52.3573974168
 30
0.0
  0
SEQEND
  5
B1F
  8
0
  6
CONTINUOUS
 62
     7
  0
ARC
  5
45B
  8
0
  6
CONTINUOUS
 62
     7
 10
-126.1033597503
 20
-55.1939424136
 30
0.0
 40
12.99999999999998
 50
100.1820702957
 51
167.3969098145
  0
ARC
  5
45C
  8
0
  6
CONTINUOUS
 62
     7
 10
-94.8138758877
 20
-229.4063650464
 30
0.0
 40
190.0
 50
92.2375628785
 51
100.1820702957
  0
ARC
  5
45D
  8
0
  6
CONTINUOUS
 62
     7
 10
-63.5243920251
 20
-158.6187876793
 30
0.0
 40
12.99999999999998
 50
331.0752967533
 51
347.3969098145
  0
POLYLINE
  5
45E
  8
0
  6
CONTINUOUS
 62
     7
 66
     1
 10
0.0
 20
0.0
 30
0.0
  0
VERTEX
  5
B17
  8
0
  6
CONTINUOUS
 62
     7
 10
-50.8376285771
 20
-161.4553326761
 30
0.0
  0
VERTEX
  5
B18
  8
0
  6
CONTINUOUS
 62
     7
 10
-50.1892567018
 20
-158.4698738551
 30
0.0
  0
VERTEX
  5
B19
  8
0
  6
CONTINUOUS
 62
     7
 10
-49.954500083
 20
-157.3433199918
 30
0.0
  0
SEQEND
  5
B1E
  8
0
  6
CONTINUOUS
 62
     7
  0
ARC
  5
45F
  8
0
  6
CONTINUOUS
 62
     7
 10
-126.1033597503
 20
-158.6187876793
 30
0.0
 40
12.99999999999998
 50
192.6030901855
 51
259.8179297043
  0
ARC
  5
460
  8
0
  6
CONTINUOUS
 62
     7
 10
-94.8138758877
 20
15.5936349536
 30
0.0
 40
190.0
 50
259.8179297043
 51
265.6231718072
  0
POLYLINE
  5
461
  8
0
  6
CONTINUOUS
 62
     7
 66
     1
 10
0.0
 20
0.0
 30
0.0
  0
VERTEX
  5
B1A
  8
0
  6
CONTINUOUS
 62
     7
 10
-138.7901231983
 20
-161.4553326761
 30
0.0
  0
VERTEX
  5
B1B
  8
0
  6
CONTINUOUS
 62
     7
 10
-139.4384950736
 20
-158.4698738551
 30
0.0
  0
VERTEX
  5
B1C
  8
0
  6
CONTINUOUS
 62
     7
 10
-139.6732516924
 20
-157.3433199918
 30
0.0
  0
SEQEND
  5
B1D
  8
0
  6
CONTINUOUS
 62
     7
  0
LINE
  5
462
  8
0
  6
CONTINUOUS
 62
     7
 10
-160.8138755301
 20
-128.0135935193
 30
0.0
 11
-160.8138755301
 21
-199.4063662385
 31
0.0
  0
LINE
  5
463
  8
0
  6
CONTINUOUS
 62
     7
 10
-160.8138755301
 20
-85.7991365736
 30
0.0
 11
-160.8138755301
 21
-14.4063638543
 31
0.0
  0
LINE
  5
464
  8
0
  6
CONTINUOUS
 62
     7
 10
-176.8138781527
 20
-199.4063662385
 30
0.0
 11
-176.8138781527
 21
-14.4063638543
 31
0.0
  0
LINE
  5
465
  8
0
  6
CONTINUOUS
 62
     7
 10
-28.8138762453
 20
-141.4063641822
 30
0.0
 11
-28.8138762453
 21
-199.4063662385
 31
0.0
  0
LINE
  5
466
  8
0
  6
CONTINUOUS
 62
     7
 10
-28.8138762453
 20
-74.4063662385
 30
0.0
 11
-28.8138762453
 21
-14.4063638543
 31
0.0
  0
LINE
  5
467
  8
0
  6
CONTINUOUS
 62
     7
 10
-12.8138736227
 20
-199.4063662385
 30
0.0
 11
-12.8138736227
 21
-14.4063638543
 31
0.0
  0
LINE
  5
468
  8
0
  6
CONTINUOUS
 62
     7
 10
-9.8138749936
 20
-165.9063654041
 30
0.0
 11
-9.8138749936
 21
-47.9063646888
 31
0.0
  0
LINE
  5
469
  8
0
  6
CONTINUOUS
 62
     7
 10
-179.8138767818
 20
-165.9063654041
 30
0.0
 11
-179.8138767818
 21
-47.9063646888
 31
0.0
  0
LINE
  5
46A
  8
0
  6
CONTINUOUS
 62
     8
 10
-128.2931529322
 20
-42.755390892
 30
0.0
 11
-128.3496581355
 21
-42.4462812042
 31
0.0
  0
LINE
  5
46B
  8
0
  6
CONTINUOUS
 62
     8
 10
-137.9223168233
 20
-52.5256166255
 30
0.0
 11
-138.6883333662
 21
-52.3513996994
 31
0.0
  0
LINE
  5
46C
  8
0
  6
CONTINUOUS
 62
     8
 10
-51.7054349521
 20
-52.5256166255
 30
0.0
 11
-50.9394184092
 21
-52.3513996994
 31
0.0
  0
LINE
  5
46D
  8
0
  6
CONTINUOUS
 62
     8
 10
-61.3345988432
 20
-42.755390892
 30
0.0
 11
-61.2780936399
 21
-42.4462812042
 31
0.0
  0
LINE
  5
46E
  8
0
  6
CONTINUOUS
 62
     8
 10
-51.7054349521
 20
-161.2871134674
 30
0.0
 11
-50.9394184092
 21
-161.4613303935
 31
0.0
  0
LINE
  5
46F
  8
0
  6
CONTINUOUS
 62
     8
 10
-137.9223168233
 20
-161.2871134674
 30
0.0
 11
-138.6883333662
 21
-161.4613303935
 31
0.0
  0
LINE
  5
470
  8
0
  6
CONTINUOUS
 62
     8
 10
-128.2931529322
 20
-171.0573392009
 30
0.0
 11
-128.3496581355
 21
-171.3664488887
 31
0.0
  0
INSERT
  5
47C
  8
FORMAT
 62
     7
  2
SW_CENTERMARKSYMBOL_1
 10
-94.8138758877
 20
-106.9063650464
 30
0.0
  0
ENDSEC
  0
EOF
