  0
SECTION
  2
HEADER
  9
$ACADVER
  1
AC1015
  9
$ACADMAINTVER
 70
     6
  9
$DWGCODEPAGE
  3
ANSI_1252
  9
$INSBASE
 10
0.0
 20
0.0
 30
0.0
  9
$EXTMIN
 10
0.0
 20
0.0
 30
0.0
  9
$EXTMAX
 10
594.0
 20
420.0
 30
0.0
  9
$LIMMIN
 10
0.0
 20
0.0
  9
$LIMMAX
 10
594.0
 20
420.0
  9
$ORTHOMODE
 70
     0
  9
$REGENMODE
 70
     1
  9
$FILLMODE
 70
     1
  9
$QTEXTMODE
 70
     0
  9
$MIRRTEXT
 70
     1
  9
$LTSCALE
 40
1.0
  9
$ATTMODE
 70
     1
  9
$TEXTSIZE
 40
3.5
  9
$TRACEWID
 40
1.0
  9
$TEXTSTYLE
  7
Standard
  9
$CLAYER
  8
0
  9
$CELTYPE
  6
ByLayer
  9
$CECOLOR
 62
   256
  9
$CELTSCALE
 40
1.0
  9
$DISPSILH
 70
     0
  9
$DIMSCALE
 40
1.0
  9
$DIMASZ
 40
3.302
  9
$DIMEXO
 40
1.0
  9
$DIMDLI
 40
3.75
  9
$DIMRND
 40
0.0
  9
$DIMDLE
 40
0.0
  9
$DIMEXE
 40
1.0
  9
$DIMTP
 40
0.0
  9
$DIMTM
 40
0.0
  9
$DIMTXT
 40
3.5
  9
$DIMCEN
 40
2.5
  9
$DIMTSZ
 40
0.0
  9
$DIMTOL
 70
     0
  9
$DIMLIM
 70
     0
  9
$DIMTIH
 70
     1
  9
$DIMTOH
 70
     1
  9
$DIMSE1
 70
     0
  9
$DIMSE2
 70
     0
  9
$DIMTAD
 70
     1
  9
$DIMZIN
 70
     0
  9
$DIMBLK
  1

  9
$DIMASO
 70
     1
  9
$DIMSHO
 70
     1
  9
$DIMPOST
  1

  9
$DIMAPOST
  1

  9
$DIMALT
 70
     0
  9
$DIMALTD
 70
     3
  9
$DIMALTF
 40
0.0393700787
  9
$DIMLFAC
 40
2.0
  9
$DIMTOFL
 70
     1
  9
$DIMTVP
 40
0.0
  9
$DIMTIX
 70
     0
  9
$DIMSOXD
 70
     0
  9
$DIMSAH
 70
     0
  9
$DIMBLK1
  1

  9
$DIMBLK2
  1

  9
$DIMSTYLE
  2
ISO-25
  9
$DIMCLRD
 70
     0
  9
$DIMCLRE
 70
     0
  9
$DIMCLRT
 70
     0
  9
$DIMTFAC
 40
1.0
  9
$DIMGAP
 40
1.524
  9
$DIMJUST
 70
     0
  9
$DIMSD1
 70
     0
  9
$DIMSD2
 70
     0
  9
$DIMTOLJ
 70
     0
  9
$DIMTZIN
 70
     0
  9
$DIMALTZ
 70
     0
  9
$DIMALTTZ
 70
     0
  9
$DIMUPT
 70
     0
  9
$DIMDEC
 70
     2
  9
$DIMTDEC
 70
     2
  9
$DIMALTU
 70
     2
  9
$DIMALTTD
 70
     3
  9
$DIMTXSTY
  7
Standard
  9
$DIMAUNIT
 70
     0
  9
$DIMADEC
 70
     2
  9
$DIMALTRND
 40
0.0
  9
$DIMAZIN
 70
     0
  9
$DIMDSEP
 70
    44
  9
$DIMATFIT
 70
     3
  9
$DIMFRAC
 70
     0
  9
$DIMLDRBLK
  1

  9
$DIMLUNIT
 70
     2
  9
$DIMLWD
 70
    -2
  9
$DIMLWE
 70
    -2
  9
$DIMTMOVE
 70
     0
  9
$LUNITS
 70
     2
  9
$LUPREC
 70
     2
  9
$SKETCHINC
 40
1.0
  9
$FILLETRAD
 40
10.0
  9
$AUNITS
 70
     0
  9
$AUPREC
 70
     2
  9
$MENU
  1
.
  9
$ELEVATION
 40
0.0
  9
$PELEVATION
 40
0.0
  9
$THICKNESS
 40
0.0
  9
$LIMCHECK
 70
     0
  9
$CHAMFERA
 40
10.0
  9
$CHAMFERB
 40
10.0
  9
$CHAMFERC
 40
20.0
  9
$CHAMFERD
 40
0.0
  9
$SKPOLY
 70
     0
  9
$TDCREATE
 40
2456807.433521817
  9
$TDUCREATE
 40
2456807.100188484
  9
$TDUPDATE
 40
2456807.433523079
  9
$TDUUPDATE
 40
2456807.100189745
  9
$TDINDWG
 40
0.0000000116
  9
$TDUSRTIMER
 40
0.0000000116
  9
$USRTIMER
 70
     1
  9
$ANGBASE
 50
0.0
  9
$ANGDIR
 70
     0
  9
$PDMODE
 70
     0
  9
$PDSIZE
 40
-1.0
  9
$PLINEWID
 40
0.0
  9
$SPLFRAME
 70
     0
  9
$SPLINETYPE
 70
     6
  9
$SPLINESEGS
 70
     8
  9
$HANDSEED
  5
3AF
  9
$SURFTAB1
 70
     6
  9
$SURFTAB2
 70
     6
  9
$SURFTYPE
 70
     6
  9
$SURFU
 70
     6
  9
$SURFV
 70
     6
  9
$UCSBASE
  2

  9
$UCSNAME
  2

  9
$UCSORG
 10
0.0
 20
0.0
 30
0.0
  9
$UCSXDIR
 10
1.0
 20
0.0
 30
0.0
  9
$UCSYDIR
 10
0.0
 20
1.0
 30
0.0
  9
$UCSORTHOREF
  2

  9
$UCSORTHOVIEW
 70
     0
  9
$UCSORGTOP
 10
0.0
 20
0.0
 30
0.0
  9
$UCSORGBOTTOM
 10
0.0
 20
0.0
 30
0.0
  9
$UCSORGLEFT
 10
0.0
 20
0.0
 30
0.0
  9
$UCSORGRIGHT
 10
0.0
 20
0.0
 30
0.0
  9
$UCSORGFRONT
 10
0.0
 20
0.0
 30
0.0
  9
$UCSORGBACK
 10
0.0
 20
0.0
 30
0.0
  9
$PUCSBASE
  2

  9
$PUCSNAME
  2

  9
$PUCSORG
 10
0.0
 20
0.0
 30
0.0
  9
$PUCSXDIR
 10
1.0
 20
0.0
 30
0.0
  9
$PUCSYDIR
 10
0.0
 20
1.0
 30
0.0
  9
$PUCSORTHOREF
  2

  9
$PUCSORTHOVIEW
 70
     0
  9
$PUCSORGTOP
 10
0.0
 20
0.0
 30
0.0
  9
$PUCSORGBOTTOM
 10
0.0
 20
0.0
 30
0.0
  9
$PUCSORGLEFT
 10
0.0
 20
0.0
 30
0.0
  9
$PUCSORGRIGHT
 10
0.0
 20
0.0
 30
0.0
  9
$PUCSORGFRONT
 10
0.0
 20
0.0
 30
0.0
  9
$PUCSORGBACK
 10
0.0
 20
0.0
 30
0.0
  9
$USERI1
 70
     0
  9
$USERI2
 70
     0
  9
$USERI3
 70
     0
  9
$USERI4
 70
     0
  9
$USERI5
 70
     0
  9
$USERR1
 40
0.0
  9
$USERR2
 40
0.0
  9
$USERR3
 40
0.0
  9
$USERR4
 40
0.0
  9
$USERR5
 40
0.0
  9
$WORLDVIEW
 70
     1
  9
$SHADEDGE
 70
     3
  9
$SHADEDIF
 70
    70
  9
$TILEMODE
 70
     1
  9
$MAXACTVP
 70
    64
  9
$PINSBASE
 10
0.0
 20
0.0
 30
0.0
  9
$PLIMCHECK
 70
     0
  9
$PEXTMIN
 10
1.0000000000E+20
 20
1.0000000000E+20
 30
1.0000000000E+20
  9
$PEXTMAX
 10
-1.0000000000E+20
 20
-1.0000000000E+20
 30
-1.0000000000E+20
  9
$PLIMMIN
 10
0.0
 20
0.0
  9
$PLIMMAX
 10
420.0
 20
297.0
  9
$UNITMODE
 70
     0
  9
$VISRETAIN
 70
     1
  9
$PLINEGEN
 70
     0
  9
$PSLTSCALE
 70
     1
  9
$TREEDEPTH
 70
  3020
  9
$CMLSTYLE
  2
Standard
  9
$CMLJUST
 70
     0
  9
$CMLSCALE
 40
20.0
  9
$PROXYGRAPHICS
 70
     1
  9
$MEASUREMENT
 70
     1
  9
$CELWEIGHT
370
    -1
  9
$ENDCAPS
280
     0
  9
$JOINSTYLE
280
     0
  9
$LWDISPLAY
290
     1
  9
$INSUNITS
 70
     4
  9
$HYPERLINKBASE
  1

  9
$STYLESHEET
  1

  9
$XEDIT
290
     1
  9
$CEPSNTYPE
380
     0
  9
$PSTYLEMODE
290
     1
  9
$FINGERPRINTGUID
  2
{CB0D211B-7132-4637-9E4D-86FF8F8E0798}
  9
$VERSIONGUID
  2
{FAEB1C32-E019-11D5-929B-00C0DF256EC4}
  9
$EXTNAMES
290
     1
  9
$PSVPSCALE
 40
0.0
  9
$OLESTARTUP
290
     0
  0
ENDSEC
  0
SECTION
  2
CLASSES
  0
CLASS
  1
ACDBDICTIONARYWDFLT
  2
AcDbDictionaryWithDefault
  3
ObjectDBX Classes
 90
        0
280
     0
281
     0
  0
CLASS
  1
VISUALSTYLE
  2
AcDbVisualStyle
  3
ObjectDBX Classes
 90
     4095
280
     0
281
     0
  0
CLASS
  1
MATERIAL
  2
AcDbMaterial
  3
ObjectDBX Classes
 90
     1153
280
     0
281
     0
  0
CLASS
  1
ACDBPLACEHOLDER
  2
AcDbPlaceHolder
  3
ObjectDBX Classes
 90
        0
280
     0
281
     0
  0
CLASS
  1
LAYOUT
  2
AcDbLayout
  3
ObjectDBX Classes
 90
        0
280
     0
281
     0
  0
ENDSEC
  0
SECTION
  2
TABLES
  0
TABLE
  2
VPORT
  5
8
330
0
100
AcDbSymbolTable
 70
     1
  0
VPORT
  5
29
330
8
100
AcDbSymbolTableRecord
100
AcDbViewportTableRecord
  2
*Active
 70
     0
 10
0.0
 20
0.0
 11
1.0
 21
1.0
 12
297.0
 22
210.0
 13
0.0
 23
0.0
 14
10.0
 24
10.0
 15
10.0
 25
10.0
 16
0.0
 26
0.0
 36
1.0
 17
0.0
 27
0.0
 37
0.0
 40
420.0
 41
1.4142857143
 42
50.0
 43
0.0
 44
0.0
 50
0.0
 51
0.0
 71
     0
 72
  2000
 73
     1
 74
     3
 75
     0
 76
     0
 77
     0
 78
     0
281
     0
 65
     1
110
0.0
120
0.0
130
0.0
111
1.0
121
0.0
131
0.0
112
0.0
122
1.0
132
0.0
 79
     0
146
0.0
  0
ENDTAB
  0
TABLE
  2
LTYPE
  5
5
330
0
100
AcDbSymbolTable
 70
     6
  0
LTYPE
  5
14
330
5
100
AcDbSymbolTableRecord
100
AcDbLinetypeTableRecord
  2
ByBlock
 70
     0
  3

 72
    65
 73
     0
 40
0.0
  0
LTYPE
  5
15
330
5
100
AcDbSymbolTableRecord
100
AcDbLinetypeTableRecord
  2
ByLayer
 70
     0
  3

 72
    65
 73
     0
 40
0.0
  0
LTYPE
  5
16
330
5
100
AcDbSymbolTableRecord
100
AcDbLinetypeTableRecord
  2
Continuous
 70
     0
  3
Solid line
 72
    65
 73
     0
 40
0.0
  0
LTYPE
  5
3F
330
5
100
AcDbSymbolTableRecord
100
AcDbLinetypeTableRecord
  2
HIDDEN
 70
     0
  3
Hidden __ __ __ __ __ __ __ __ __ __ __ __ __ __
 72
    65
 73
     2
 40
1.905
 49
1.27
 74
     0
 49
-0.635
 74
     0
  0
LTYPE
  5
40
330
5
100
AcDbSymbolTableRecord
100
AcDbLinetypeTableRecord
  2
PHANTOM
 70
     0
  3
Phantom ______  __  __  ______  __  __  ______
 72
    65
 73
     6
 40
12.7
 49
6.35
 74
     0
 49
-1.27
 74
     0
 49
1.27
 74
     0
 49
-1.27
 74
     0
 49
1.27
 74
     0
 49
-1.27
 74
     0
  0
LTYPE
  5
41
330
5
100
AcDbSymbolTableRecord
100
AcDbLinetypeTableRecord
  2
CENTER
 70
     0
  3
Center ____ _ ____ _ ____ _ ____ _ ____ _ ____
 72
    65
 73
     4
 40
10.16
 49
6.35
 74
     0
 49
-1.27
 74
     0
 49
1.27
 74
     0
 49
-1.27
 74
     0
  0
LTYPE
  5
42
330
5
100
AcDbSymbolTableRecord
100
AcDbLinetypeTableRecord
  2
CENTERX2
 70
     0
  3
Center (2x) ________  __  ________  __  _____
 72
    65
 73
     4
 40
20.32
 49
12.7
 74
     0
 49
-2.54
 74
     0
 49
2.54
 74
     0
 49
-2.54
 74
     0
  0
LTYPE
  5
43
330
5
100
AcDbSymbolTableRecord
100
AcDbLinetypeTableRecord
  2
DOT2
 70
     0
  3
Dot (.5x) ........................................
 72
    65
 73
     2
 40
0.635
 49
0.0
 74
     0
 49
-0.635
 74
     0
  0
ENDTAB
  0
TABLE
  2
LAYER
  5
2
330
0
100
AcDbSymbolTable
 70
     3
  0
LAYER
  5
10
330
2
100
AcDbSymbolTableRecord
100
AcDbLayerTableRecord
  2
0
 70
     0
 62
     7
  6
Continuous
370
    -3
390
F
  0
LAYER
  5
44
330
2
100
AcDbSymbolTableRecord
100
AcDbLayerTableRecord
  2
FORMAT
 70
     0
 62
     7
  6
Continuous
370
    -3
390
F
  0
LAYER
  5
45
330
2
100
AcDbSymbolTableRecord
100
AcDbLayerTableRecord
  2
PROTOTYPE
 70
     0
 62
    -7
  6
Continuous
370
    -3
390
F
  0
ENDTAB
  0
TABLE
  2
STYLE
  5
3
330
0
100
AcDbSymbolTable
 70
     2
  0
STYLE
  5
11
330
3
100
AcDbSymbolTableRecord
100
AcDbTextStyleTableRecord
  2
Standard
 70
     0
 40
0.0
 41
1.0
 50
0.0
 71
     0
 42
3.5
  3
txt
  4

  0
STYLE
  5
78
330
3
100
AcDbSymbolTableRecord
100
AcDbTextStyleTableRecord
  2
SLDTEXTSTYLE0
 70
     0
 40
0.0
 41
0.605
 50
0.0
 71
     0
 42
0.2
  3
TXT
  4

  0
ENDTAB
  0
TABLE
  2
VIEW
  5
6
330
0
100
AcDbSymbolTable
 70
     0
  0
ENDTAB
  0
TABLE
  2
UCS
  5
7
330
0
100
AcDbSymbolTable
 70
     0
  0
ENDTAB
  0
TABLE
  2
APPID
  5
9
330
0
100
AcDbSymbolTable
 70
     1
  0
APPID
  5
12
330
9
100
AcDbSymbolTableRecord
100
AcDbRegAppTableRecord
  2
ACAD
 70
     0
  0
ENDTAB
  0
TABLE
  2
DIMSTYLE
  5
A
330
0
100
AcDbSymbolTable
 70
     1
100
AcDbDimStyleTable
  0
DIMSTYLE
105
27
330
A
100
AcDbSymbolTableRecord
100
AcDbDimStyleTableRecord
  2
ISO-25
 70
     0
 41
2.5
 42
0.625
 43
3.75
 44
1.25
 73
     0
 74
     0
 77
     1
 78
     8
140
2.5
141
2.5
143
0.0393700787
147
0.625
171
     3
172
     1
178
     0
271
     2
272
     2
274
     3
278
    44
283
     0
284
     8
340
11
  0
ENDTAB
  0
TABLE
  2
BLOCK_RECORD
  5
1
330
0
100
AcDbSymbolTable
 70
     3
  0
BLOCK_RECORD
  5
1F
330
1
100
AcDbSymbolTableRecord
100
AcDbBlockTableRecord
  2
*Model_Space
340
22
  0
BLOCK_RECORD
  5
1B
330
1
100
AcDbSymbolTableRecord
100
AcDbBlockTableRecord
  2
*Paper_Space
340
1E
  0
BLOCK_RECORD
  5
23
330
1
100
AcDbSymbolTableRecord
100
AcDbBlockTableRecord
  2
*Paper_Space0
340
26
  0
BLOCK_RECORD
  5
2F7
330
1
100
AcDbSymbolTableRecord
100
AcDbBlockTableRecord
  2
SW_CENTERMARKSYMBOL_0
340
0
102
{BLKREFS
331
302
102
}
  0
BLOCK_RECORD
  5
3A3
330
1
100
AcDbSymbolTableRecord
100
AcDbBlockTableRecord
  2
SW_CENTERMARKSYMBOL_1
340
0
102
{BLKREFS
331
3AE
102
}
  0
ENDTAB
  0
ENDSEC
  0
SECTION
  2
BLOCKS
  0
BLOCK
  5
20
330
1F
100
AcDbEntity
  8
0
100
AcDbBlockBegin
  2
*Model_Space
 70
     0
 10
0.0
 20
0.0
 30
0.0
  3
*Model_Space
  1

  0
ENDBLK
  5
21
330
1F
100
AcDbEntity
  8
0
100
AcDbBlockEnd
  0
BLOCK
  5
1C
330
1B
100
AcDbEntity
 67
     1
  8
0
100
AcDbBlockBegin
  2
*Paper_Space
 70
     0
 10
0.0
 20
0.0
 30
0.0
  3
*Paper_Space
  1

  0
ENDBLK
  5
1D
330
1B
100
AcDbEntity
 67
     1
  8
0
100
AcDbBlockEnd
  0
BLOCK
  5
24
330
23
100
AcDbEntity
  8
0
100
AcDbBlockBegin
  2
*Paper_Space0
 70
     0
 10
0.0
 20
0.0
 30
0.0
  3
*Paper_Space0
  1

  0
ENDBLK
  5
25
330
23
100
AcDbEntity
  8
0
100
AcDbBlockEnd
  0
BLOCK
  5
2F8
330
2F7
100
AcDbEntity
  8
0
100
AcDbBlockBegin
  2
SW_CENTERMARKSYMBOL_0
 70
     0
 10
0.0
 20
0.0
 30
0.0
  3
SW_CENTERMARKSYMBOL_0
  1

  0
LINE
  5
2FA
330
2F7
100
AcDbEntity
  8
FORMAT
 62
     0
100
AcDbLine
 10
0.0
 20
0.0
 30
0.0
 11
0.0
 21
1.25
 31
0.0
  0
LINE
  5
2FB
330
2F7
100
AcDbEntity
  8
FORMAT
 62
     0
100
AcDbLine
 10
0.0
 20
0.0
 30
0.0
 11
-1.25
 21
0.0
 31
0.0
  0
LINE
  5
2FC
330
2F7
100
AcDbEntity
  8
FORMAT
 62
     0
100
AcDbLine
 10
0.0
 20
0.0
 30
0.0
 11
0.0
 21
-1.25
 31
0.0
  0
LINE
  5
2FD
330
2F7
100
AcDbEntity
  8
FORMAT
 62
     0
100
AcDbLine
 10
0.0
 20
0.0
 30
0.0
 11
1.25
 21
0.0
 31
0.0
  0
LINE
  5
2FE
330
2F7
100
AcDbEntity
  8
FORMAT
 62
     0
100
AcDbLine
 10
0.0
 20
2.5
 30
0.0
 11
0.0
 21
165.9286345275
 31
0.0
  0
LINE
  5
2FF
330
2F7
100
AcDbEntity
  8
FORMAT
 62
     0
100
AcDbLine
 10
-2.5
 20
0.0
 30
0.0
 11
-42.5
 21
0.0
 31
0.0
  0
LINE
  5
300
330
2F7
100
AcDbEntity
  8
FORMAT
 62
     0
100
AcDbLine
 10
0.0
 20
-2.5
 30
0.0
 11
0.0
 21
-42.5
 31
0.0
  0
LINE
  5
301
330
2F7
100
AcDbEntity
  8
FORMAT
 62
     0
100
AcDbLine
 10
2.5
 20
0.0
 30
0.0
 11
42.5
 21
0.0
 31
0.0
  0
ENDBLK
  5
2F9
330
2F7
100
AcDbEntity
  8
0
100
AcDbBlockEnd
  0
BLOCK
  5
3A4
330
3A3
100
AcDbEntity
  8
0
100
AcDbBlockBegin
  2
SW_CENTERMARKSYMBOL_1
 70
     0
 10
0.0
 20
0.0
 30
0.0
  3
SW_CENTERMARKSYMBOL_1
  1

  0
LINE
  5
3A6
330
3A3
100
AcDbEntity
  8
FORMAT
 62
     0
100
AcDbLine
 10
0.0
 20
0.0
 30
0.0
 11
0.0
 21
1.25
 31
0.0
  0
LINE
  5
3A7
330
3A3
100
AcDbEntity
  8
FORMAT
 62
     0
100
AcDbLine
 10
0.0
 20
0.0
 30
0.0
 11
-1.25
 21
0.0
 31
0.0
  0
LINE
  5
3A8
330
3A3
100
AcDbEntity
  8
FORMAT
 62
     0
100
AcDbLine
 10
0.0
 20
0.0
 30
0.0
 11
0.0
 21
-1.25
 31
0.0
  0
LINE
  5
3A9
330
3A3
100
AcDbEntity
  8
FORMAT
 62
     0
100
AcDbLine
 10
0.0
 20
0.0
 30
0.0
 11
1.25
 21
0.0
 31
0.0
  0
LINE
  5
3AA
330
3A3
100
AcDbEntity
  8
FORMAT
 62
     0
100
AcDbLine
 10
0.0
 20
2.5
 30
0.0
 11
0.0
 21
45.8942262712
 31
0.0
  0
LINE
  5
3AB
330
3A3
100
AcDbEntity
  8
FORMAT
 62
     0
100
AcDbLine
 10
-2.5
 20
0.0
 30
0.0
 11
-45.8942262712
 21
0.0
 31
0.0
  0
LINE
  5
3AC
330
3A3
100
AcDbEntity
  8
FORMAT
 62
     0
100
AcDbLine
 10
0.0
 20
-2.5
 30
0.0
 11
0.0
 21
-45.8942262712
 31
0.0
  0
LINE
  5
3AD
330
3A3
100
AcDbEntity
  8
FORMAT
 62
     0
100
AcDbLine
 10
2.5
 20
0.0
 30
0.0
 11
45.8942262712
 21
0.0
 31
0.0
  0
ENDBLK
  5
3A5
330
3A3
100
AcDbEntity
  8
0
100
AcDbBlockEnd
  0
ENDSEC
  0
SECTION
  2
ENTITIES
  0
LINE
  5
46
330
1F
100
AcDbEntity
  8
FORMAT
370
    30
100
AcDbLine
 10
13.0
 20
12.8671069427
 30
0.0
 11
581.0
 21
12.8671069427
 31
0.0
  0
LINE
  5
47
330
1F
100
AcDbEntity
  8
FORMAT
370
    30
100
AcDbLine
 10
13.0
 20
12.8671069427
 30
0.0
 11
13.0
 21
406.8671069427
 31
0.0
  0
LINE
  5
48
330
1F
100
AcDbEntity
  8
0
  6
Continuous
 62
     7
370
    30
100
AcDbLine
 10
322.84
 20
412.8671069427
 30
0.0
 11
322.84
 21
406.8671069427
 31
0.0
  0
LINE
  5
49
330
1F
100
AcDbEntity
  8
FORMAT
370
    30
100
AcDbLine
 10
581.0
 20
12.8671069427
 30
0.0
 11
581.0
 21
412.8671069427
 31
0.0
  0
LINE
  5
4A
330
1F
100
AcDbEntity
  8
FORMAT
370
    30
100
AcDbLine
 10
581.0
 20
12.8671069427
 30
0.0
 11
581.0
 21
6.8671069427
 31
0.0
  0
LINE
  5
4B
330
1F
100
AcDbEntity
  8
0
  6
Continuous
 62
     7
370
    30
100
AcDbLine
 10
116.28
 20
12.8671069427
 30
0.0
 11
116.28
 21
6.8671069427
 31
0.0
  0
LINE
  5
4C
330
1F
100
AcDbEntity
  8
0
  6
Continuous
 62
     7
370
    30
100
AcDbLine
 10
271.2
 20
412.8671069427
 30
0.0
 11
271.2
 21
406.8671069427
 31
0.0
  0
LINE
  5
4D
330
1F
100
AcDbEntity
  8
0
  6
Continuous
 62
     7
370
    30
100
AcDbLine
 10
477.76
 20
412.8671069427
 30
0.0
 11
477.76
 21
406.8671069427
 31
0.0
  0
LINE
  5
4E
330
1F
100
AcDbEntity
  8
0
  6
Continuous
 62
     7
370
    30
100
AcDbLine
 10
116.28
 20
412.8671069427
 30
0.0
 11
116.28
 21
406.8671069427
 31
0.0
  0
LINE
  5
4F
330
1F
100
AcDbEntity
  8
0
  6
Continuous
 62
     7
370
    30
100
AcDbLine
 10
374.48
 20
412.8671069427
 30
0.0
 11
374.48
 21
406.8671069427
 31
0.0
  0
LINE
  5
50
330
1F
100
AcDbEntity
  8
0
  6
Continuous
 62
     7
370
    30
100
AcDbLine
 10
167.92
 20
12.8671069427
 30
0.0
 11
167.92
 21
6.8671069427
 31
0.0
  0
LINE
  5
51
330
1F
100
AcDbEntity
  8
0
  6
Continuous
 62
     7
370
    30
100
AcDbLine
 10
219.56
 20
12.8671069427
 30
0.0
 11
219.56
 21
6.8671069427
 31
0.0
  0
LINE
  5
52
330
1F
100
AcDbEntity
  8
0
  6
Continuous
 62
     7
370
    30
100
AcDbLine
 10
271.2
 20
12.8671069427
 30
0.0
 11
271.2
 21
6.8671069427
 31
0.0
  0
LINE
  5
53
330
1F
100
AcDbEntity
  8
0
  6
Continuous
 62
     7
370
    30
100
AcDbLine
 10
322.84
 20
12.8671069427
 30
0.0
 11
322.84
 21
6.8671069427
 31
0.0
  0
LINE
  5
54
330
1F
100
AcDbEntity
  8
0
  6
Continuous
 62
     7
370
    30
100
AcDbLine
 10
7.0
 20
62.1171069427
 30
0.0
 11
13.0
 21
62.1171069427
 31
0.0
  0
LINE
  5
55
330
1F
100
AcDbEntity
  8
0
  6
Continuous
 62
     7
370
    30
100
AcDbLine
 10
374.48
 20
12.8671069427
 30
0.0
 11
374.48
 21
6.8671069427
 31
0.0
  0
LINE
  5
56
330
1F
100
AcDbEntity
  8
0
  6
Continuous
 62
     7
370
    30
100
AcDbLine
 10
167.92
 20
412.8671069427
 30
0.0
 11
167.92
 21
406.8671069427
 31
0.0
  0
LINE
  5
57
330
1F
100
AcDbEntity
  8
0
  6
Continuous
 62
     7
370
    30
100
AcDbLine
 10
529.4
 20
412.8671069427
 30
0.0
 11
529.4
 21
406.8671069427
 31
0.0
  0
LINE
  5
58
330
1F
100
AcDbEntity
  8
0
  6
Continuous
 62
     7
370
    30
100
AcDbLine
 10
64.64
 20
412.8671069427
 30
0.0
 11
64.64
 21
406.8671069427
 31
0.0
  0
LINE
  5
59
330
1F
100
AcDbEntity
  8
0
  6
Continuous
 62
     7
370
    30
100
AcDbLine
 10
426.12
 20
412.8671069427
 30
0.0
 11
426.12
 21
406.8671069427
 31
0.0
  0
LINE
  5
5A
330
1F
100
AcDbEntity
  8
0
  6
Continuous
 62
     7
370
    30
100
AcDbLine
 10
426.12
 20
12.8671069427
 30
0.0
 11
426.12
 21
6.8671069427
 31
0.0
  0
LINE
  5
5B
330
1F
100
AcDbEntity
  8
0
  6
Continuous
 62
     7
370
    30
100
AcDbLine
 10
219.56
 20
412.8671069427
 30
0.0
 11
219.56
 21
406.8671069427
 31
0.0
  0
LINE
  5
5C
330
1F
100
AcDbEntity
  8
0
  6
Continuous
 62
     7
370
    30
100
AcDbLine
 10
7.0
 20
308.3671069427
 30
0.0
 11
13.0
 21
308.3671069427
 31
0.0
  0
LINE
  5
5D
330
1F
100
AcDbEntity
  8
0
  6
Continuous
 62
     7
370
    30
100
AcDbLine
 10
64.64
 20
12.8671069427
 30
0.0
 11
64.64
 21
6.8671069427
 31
0.0
  0
LINE
  5
5E
330
1F
100
AcDbEntity
  8
0
  6
Continuous
 62
     7
370
    30
100
AcDbLine
 10
477.76
 20
12.8671069427
 30
0.0
 11
477.76
 21
6.8671069427
 31
0.0
  0
LINE
  5
5F
330
1F
100
AcDbEntity
  8
0
  6
Continuous
 62
     7
370
    30
100
AcDbLine
 10
13.0
 20
12.8671069427
 30
0.0
 11
13.0
 21
6.8671069427
 31
0.0
  0
LINE
  5
60
330
1F
100
AcDbEntity
  8
FORMAT
  6
Continuous
 62
     7
370
    30
100
AcDbLine
 10
581.0
 20
12.8671069427
 30
0.0
 11
587.0
 21
12.8671069427
 31
0.0
  0
LINE
  5
61
330
1F
100
AcDbEntity
  8
0
  6
Continuous
 62
     7
370
    30
100
AcDbLine
 10
529.4
 20
12.8671069427
 30
0.0
 11
529.4
 21
6.8671069427
 31
0.0
  0
LINE
  5
62
330
1F
100
AcDbEntity
  8
0
  6
Continuous
 62
     7
370
    30
100
AcDbLine
 10
7.0
 20
357.6171069427
 30
0.0
 11
13.0
 21
357.6171069427
 31
0.0
  0
LINE
  5
63
330
1F
100
AcDbEntity
  8
0
  6
Continuous
 62
     7
370
    30
100
AcDbLine
 10
581.0
 20
111.3671069427
 30
0.0
 11
587.0
 21
111.3671069427
 31
0.0
  0
LINE
  5
64
330
1F
100
AcDbEntity
  8
0
  6
Continuous
 62
     7
370
    30
100
AcDbLine
 10
581.0
 20
62.1171069427
 30
0.0
 11
587.0
 21
62.1171069427
 31
0.0
  0
LINE
  5
65
330
1F
100
AcDbEntity
  8
0
  6
Continuous
 62
     7
370
    30
100
AcDbLine
 10
7.0
 20
12.8671069427
 30
0.0
 11
13.0
 21
12.8671069427
 31
0.0
  0
LINE
  5
66
330
1F
100
AcDbEntity
  8
0
  6
Continuous
 62
     7
370
    30
100
AcDbLine
 10
581.0
 20
160.6171069427
 30
0.0
 11
587.0
 21
160.6171069427
 31
0.0
  0
LINE
  5
67
330
1F
100
AcDbEntity
  8
0
  6
Continuous
 62
     7
370
    30
100
AcDbLine
 10
581.0
 20
209.8671069427
 30
0.0
 11
587.0
 21
209.8671069427
 31
0.0
  0
LINE
  5
68
330
1F
100
AcDbEntity
  8
0
  6
Continuous
 62
     7
370
    30
100
AcDbLine
 10
7.0
 20
259.1171069427
 30
0.0
 11
13.0
 21
259.1171069427
 31
0.0
  0
LINE
  5
69
330
1F
100
AcDbEntity
  8
0
  6
Continuous
 62
     7
370
    30
100
AcDbLine
 10
7.0
 20
160.6171069427
 30
0.0
 11
13.0
 21
160.6171069427
 31
0.0
  0
LINE
  5
6A
330
1F
100
AcDbEntity
  8
0
  6
Continuous
 62
     7
370
    30
100
AcDbLine
 10
7.0
 20
209.8671069427
 30
0.0
 11
13.0
 21
209.8671069427
 31
0.0
  0
LINE
  5
6B
330
1F
100
AcDbEntity
  8
0
  6
Continuous
 62
     7
370
    30
100
AcDbLine
 10
7.0
 20
111.3671069427
 30
0.0
 11
13.0
 21
111.3671069427
 31
0.0
  0
LINE
  5
6C
330
1F
100
AcDbEntity
  8
0
  6
Continuous
 62
     7
370
    30
100
AcDbLine
 10
7.0
 20
406.8671069427
 30
0.0
 11
581.0
 21
406.8671069427
 31
0.0
  0
LINE
  5
6D
330
1F
100
AcDbEntity
  8
0
  6
Continuous
 62
     7
370
    30
100
AcDbLine
 10
13.0
 20
412.8671069427
 30
0.0
 11
13.0
 21
406.8671069427
 31
0.0
  0
LINE
  5
6E
330
1F
100
AcDbEntity
  8
0
  6
Continuous
 62
     7
370
     0
100
AcDbLine
 10
581.0
 20
296.8671069427
 30
0.0
 11
589.0
 21
296.8671069427
 31
0.0
  0
LINE
  5
6F
330
1F
100
AcDbEntity
  8
0
  6
Continuous
 62
     7
370
     0
100
AcDbLine
 10
383.75
 20
12.8671069427
 30
0.0
 11
383.75
 21
4.8671069427
 31
0.0
  0
LINE
  5
70
330
1F
100
AcDbEntity
  8
0
  6
Continuous
 62
     7
370
     0
100
AcDbLine
 10
186.5
 20
12.8671069427
 30
0.0
 11
186.5
 21
4.8671069427
 31
0.0
  0
LINE
  5
71
330
1F
100
AcDbEntity
  8
0
  6
Continuous
 62
     7
370
     0
100
AcDbLine
 10
383.75
 20
414.8671069427
 30
0.0
 11
383.75
 21
406.8671069427
 31
0.0
  0
LINE
  5
72
330
1F
100
AcDbEntity
  8
0
  6
Continuous
 62
     7
370
     0
100
AcDbLine
 10
186.5
 20
414.8671069427
 30
0.0
 11
186.5
 21
406.8671069427
 31
0.0
  0
LINE
  5
73
330
1F
100
AcDbEntity
  8
0
  6
Continuous
 62
     7
370
    30
100
AcDbLine
 10
581.0
 20
259.1171069427
 30
0.0
 11
587.0
 21
259.1171069427
 31
0.0
  0
LINE
  5
74
330
1F
100
AcDbEntity
  8
0
  6
Continuous
 62
     7
370
    30
100
AcDbLine
 10
581.0
 20
308.3671069427
 30
0.0
 11
587.0
 21
308.3671069427
 31
0.0
  0
LINE
  5
75
330
1F
100
AcDbEntity
  8
0
  6
Continuous
 62
     7
370
    30
100
AcDbLine
 10
581.0
 20
357.6171069427
 30
0.0
 11
587.0
 21
357.6171069427
 31
0.0
  0
LINE
  5
76
330
1F
100
AcDbEntity
  8
0
  6
Continuous
 62
     7
370
    30
100
AcDbLine
 10
581.0
 20
406.8671069427
 30
0.0
 11
587.0
 21
406.8671069427
 31
0.0
  0
LINE
  5
77
330
1F
100
AcDbEntity
  8
0
  6
Continuous
 62
     7
370
     0
100
AcDbLine
 10
5.0
 20
296.8671069427
 30
0.0
 11
13.0
 21
296.8671069427
 31
0.0
  0
MTEXT
  5
79
330
1F
100
AcDbEntity
  8
FORMAT
100
AcDbMText
 10
37.9004191961
 20
10.6375696681
 30
0.0
 40
2.0
 41
0.0
 71
     1
 72
     1
  1
A
  7
SLDTEXTSTYLE0
 73
     1
 44
1.0
  0
MTEXT
  5
7A
330
1F
100
AcDbEntity
  8
FORMAT
100
AcDbMText
 10
582.9767730496
 20
38.8659487504
 30
0.0
 40
2.0
 41
0.0
 71
     1
 72
     1
  1
8
  7
SLDTEXTSTYLE0
 73
     1
 44
1.0
  0
MTEXT
  5
7B
330
1F
100
AcDbEntity
  8
FORMAT
100
AcDbMText
 10
89.5404191961
 20
10.6375696681
 30
0.0
 40
2.0
 41
0.0
 71
     1
 72
     1
  1
B
  7
SLDTEXTSTYLE0
 73
     1
 44
1.0
  0
MTEXT
  5
7C
330
1F
100
AcDbEntity
  8
FORMAT
100
AcDbMText
 10
141.1804191961
 20
10.6375696681
 30
0.0
 40
2.0
 41
0.0
 71
     1
 72
     1
  1
C
  7
SLDTEXTSTYLE0
 73
     1
 44
1.0
  0
MTEXT
  5
7D
330
1F
100
AcDbEntity
  8
FORMAT
100
AcDbMText
 10
192.8204191961
 20
10.6375696681
 30
0.0
 40
2.0
 41
0.0
 71
     1
 72
     1
  1
D
  7
SLDTEXTSTYLE0
 73
     1
 44
1.0
  0
MTEXT
  5
7E
330
1F
100
AcDbEntity
  8
FORMAT
100
AcDbMText
 10
244.4604191961
 20
10.6375696681
 30
0.0
 40
2.0
 41
0.0
 71
     1
 72
     1
  1
E
  7
SLDTEXTSTYLE0
 73
     1
 44
1.0
  0
MTEXT
  5
7F
330
1F
100
AcDbEntity
  8
FORMAT
100
AcDbMText
 10
296.1004191961
 20
10.6375696681
 30
0.0
 40
2.0
 41
0.0
 71
     1
 72
     1
  1
F
  7
SLDTEXTSTYLE0
 73
     1
 44
1.0
  0
MTEXT
  5
80
330
1F
100
AcDbEntity
  8
FORMAT
100
AcDbMText
 10
347.7404191961
 20
10.6375696681
 30
0.0
 40
2.0
 41
0.0
 71
     1
 72
     1
  1
G
  7
SLDTEXTSTYLE0
 73
     1
 44
1.0
  0
MTEXT
  5
81
330
1F
100
AcDbEntity
  8
FORMAT
100
AcDbMText
 10
397.7250046897
 20
10.6375696681
 30
0.0
 40
2.0
 41
0.0
 71
     1
 72
     1
  1
H
  7
SLDTEXTSTYLE0
 73
     1
 44
1.0
  0
MTEXT
  5
82
330
1F
100
AcDbEntity
  8
FORMAT
100
AcDbMText
 10
451.0204191961
 20
10.6375696681
 30
0.0
 40
2.0
 41
0.0
 71
     1
 72
     1
  1
I
  7
SLDTEXTSTYLE0
 73
     1
 44
1.0
  0
MTEXT
  5
83
330
1F
100
AcDbEntity
  8
FORMAT
100
AcDbMText
 10
502.6604191961
 20
10.6375696681
 30
0.0
 40
2.0
 41
0.0
 71
     1
 72
     1
  1
J
  7
SLDTEXTSTYLE0
 73
     1
 44
1.0
  0
MTEXT
  5
84
330
1F
100
AcDbEntity
  8
FORMAT
100
AcDbMText
 10
554.3004191961
 20
10.6375696681
 30
0.0
 40
2.0
 41
0.0
 71
     1
 72
     1
  1
K
  7
SLDTEXTSTYLE0
 73
     1
 44
1.0
  0
MTEXT
  5
85
330
1F
100
AcDbEntity
  8
FORMAT
100
AcDbMText
 10
582.9767730496
 20
88.1159487504
 30
0.0
 40
2.0
 41
0.0
 71
     1
 72
     1
  1
7
  7
SLDTEXTSTYLE0
 73
     1
 44
1.0
  0
MTEXT
  5
86
330
1F
100
AcDbEntity
  8
FORMAT
100
AcDbMText
 10
582.9767730496
 20
137.3659487504
 30
0.0
 40
2.0
 41
0.0
 71
     1
 72
     1
  1
6
  7
SLDTEXTSTYLE0
 73
     1
 44
1.0
  0
MTEXT
  5
87
330
1F
100
AcDbEntity
  8
FORMAT
100
AcDbMText
 10
582.9767730496
 20
186.6159487504
 30
0.0
 40
2.0
 41
0.0
 71
     1
 72
     1
  1
5
  7
SLDTEXTSTYLE0
 73
     1
 44
1.0
  0
MTEXT
  5
88
330
1F
100
AcDbEntity
  8
FORMAT
100
AcDbMText
 10
582.9767730496
 20
235.8659487504
 30
0.0
 40
2.0
 41
0.0
 71
     1
 72
     1
  1
4
  7
SLDTEXTSTYLE0
 73
     1
 44
1.0
  0
MTEXT
  5
89
330
1F
100
AcDbEntity
  8
FORMAT
100
AcDbMText
 10
582.9767730496
 20
285.1159487504
 30
0.0
 40
2.0
 41
0.0
 71
     1
 72
     1
  1
3
  7
SLDTEXTSTYLE0
 73
     1
 44
1.0
  0
MTEXT
  5
8A
330
1F
100
AcDbEntity
  8
FORMAT
100
AcDbMText
 10
582.9767730496
 20
334.3659487504
 30
0.0
 40
2.0
 41
0.0
 71
     1
 72
     1
  1
2
  7
SLDTEXTSTYLE0
 73
     1
 44
1.0
  0
MTEXT
  5
8B
330
1F
100
AcDbEntity
  8
FORMAT
100
AcDbMText
 10
582.9767730496
 20
383.6159487504
 30
0.0
 40
2.0
 41
0.0
 71
     1
 72
     1
  1
1
  7
SLDTEXTSTYLE0
 73
     1
 44
1.0
  0
MTEXT
  5
8C
330
1F
100
AcDbEntity
  8
FORMAT
100
AcDbMText
 10
399.3804191961
 20
410.6375696681
 30
0.0
 40
2.0
 41
0.0
 71
     1
 72
     1
  1
H
  7
SLDTEXTSTYLE0
 73
     1
 44
1.0
  0
MTEXT
  5
8D
330
1F
100
AcDbEntity
  8
FORMAT
100
AcDbMText
 10
244.4604191961
 20
410.6375696681
 30
0.0
 40
2.0
 41
0.0
 71
     1
 72
     1
  1
E
  7
SLDTEXTSTYLE0
 73
     1
 44
1.0
  0
MTEXT
  5
8E
330
1F
100
AcDbEntity
  8
FORMAT
100
AcDbMText
 10
37.9004191961
 20
410.6375696681
 30
0.0
 40
2.0
 41
0.0
 71
     1
 72
     1
  1
A
  7
SLDTEXTSTYLE0
 73
     1
 44
1.0
  0
MTEXT
  5
8F
330
1F
100
AcDbEntity
  8
FORMAT
100
AcDbMText
 10
89.5404191961
 20
410.6375696681
 30
0.0
 40
2.0
 41
0.0
 71
     1
 72
     1
  1
B
  7
SLDTEXTSTYLE0
 73
     1
 44
1.0
  0
MTEXT
  5
90
330
1F
100
AcDbEntity
  8
FORMAT
100
AcDbMText
 10
451.0204191961
 20
410.6375696681
 30
0.0
 40
2.0
 41
0.0
 71
     1
 72
     1
  1
I
  7
SLDTEXTSTYLE0
 73
     1
 44
1.0
  0
MTEXT
  5
91
330
1F
100
AcDbEntity
  8
FORMAT
100
AcDbMText
 10
141.1804191961
 20
410.6375696681
 30
0.0
 40
2.0
 41
0.0
 71
     1
 72
     1
  1
C
  7
SLDTEXTSTYLE0
 73
     1
 44
1.0
  0
MTEXT
  5
92
330
1F
100
AcDbEntity
  8
FORMAT
100
AcDbMText
 10
296.1004191961
 20
410.6375696681
 30
0.0
 40
2.0
 41
0.0
 71
     1
 72
     1
  1
F
  7
SLDTEXTSTYLE0
 73
     1
 44
1.0
  0
MTEXT
  5
93
330
1F
100
AcDbEntity
  8
FORMAT
100
AcDbMText
 10
554.3004191961
 20
410.6375696681
 30
0.0
 40
2.0
 41
0.0
 71
     1
 72
     1
  1
K
  7
SLDTEXTSTYLE0
 73
     1
 44
1.0
  0
MTEXT
  5
94
330
1F
100
AcDbEntity
  8
FORMAT
100
AcDbMText
 10
502.6604191961
 20
410.6375696681
 30
0.0
 40
2.0
 41
0.0
 71
     1
 72
     1
  1
J
  7
SLDTEXTSTYLE0
 73
     1
 44
1.0
  0
MTEXT
  5
95
330
1F
100
AcDbEntity
  8
FORMAT
100
AcDbMText
 10
347.7404191961
 20
410.6375696681
 30
0.0
 40
2.0
 41
0.0
 71
     1
 72
     1
  1
G
  7
SLDTEXTSTYLE0
 73
     1
 44
1.0
  0
MTEXT
  5
96
330
1F
100
AcDbEntity
  8
FORMAT
100
AcDbMText
 10
192.8204191961
 20
410.6375696681
 30
0.0
 40
2.0
 41
0.0
 71
     1
 72
     1
  1
D
  7
SLDTEXTSTYLE0
 73
     1
 44
1.0
  0
MTEXT
  5
97
330
1F
100
AcDbEntity
  8
FORMAT
100
AcDbMText
 10
8.9767730496
 20
334.3659487504
 30
0.0
 40
2.0
 41
0.0
 71
     1
 72
     1
  1
2
  7
SLDTEXTSTYLE0
 73
     1
 44
1.0
  0
MTEXT
  5
98
330
1F
100
AcDbEntity
  8
FORMAT
100
AcDbMText
 10
8.9767730496
 20
186.6159487504
 30
0.0
 40
2.0
 41
0.0
 71
     1
 72
     1
  1
5
  7
SLDTEXTSTYLE0
 73
     1
 44
1.0
  0
MTEXT
  5
99
330
1F
100
AcDbEntity
  8
FORMAT
100
AcDbMText
 10
8.9767730496
 20
285.1159487504
 30
0.0
 40
2.0
 41
0.0
 71
     1
 72
     1
  1
3
  7
SLDTEXTSTYLE0
 73
     1
 44
1.0
  0
MTEXT
  5
9A
330
1F
100
AcDbEntity
  8
FORMAT
100
AcDbMText
 10
8.9767730496
 20
235.8659487504
 30
0.0
 40
2.0
 41
0.0
 71
     1
 72
     1
  1
4
  7
SLDTEXTSTYLE0
 73
     1
 44
1.0
  0
MTEXT
  5
9B
330
1F
100
AcDbEntity
  8
FORMAT
100
AcDbMText
 10
8.9767730496
 20
88.1159487504
 30
0.0
 40
2.0
 41
0.0
 71
     1
 72
     1
  1
7
  7
SLDTEXTSTYLE0
 73
     1
 44
1.0
  0
MTEXT
  5
9C
330
1F
100
AcDbEntity
  8
FORMAT
100
AcDbMText
 10
8.9767730496
 20
137.3659487504
 30
0.0
 40
2.0
 41
0.0
 71
     1
 72
     1
  1
6
  7
SLDTEXTSTYLE0
 73
     1
 44
1.0
  0
MTEXT
  5
9D
330
1F
100
AcDbEntity
  8
FORMAT
100
AcDbMText
 10
8.9767730496
 20
383.6159487504
 30
0.0
 40
2.0
 41
0.0
 71
     1
 72
     1
  1
1
  7
SLDTEXTSTYLE0
 73
     1
 44
1.0
  0
MTEXT
  5
9E
330
1F
100
AcDbEntity
  8
FORMAT
100
AcDbMText
 10
8.9767730496
 20
38.8659487504
 30
0.0
 40
2.0
 41
0.0
 71
     1
 72
     1
  1
8
  7
SLDTEXTSTYLE0
 73
     1
 44
1.0
  0
ARC
  5
9F
330
1F
100
AcDbEntity
  8
0
  6
Continuous
 62
     7
370
    15
100
AcDbCircle
 10
241.9433135417
 20
373.5790380048
 30
0.0
 40
1.000000000000015
100
AcDbArc
 50
270.0
 51
5.0
  0
ARC
  5
A0
330
1F
100
AcDbEntity
  8
0
  6
Continuous
 62
     7
370
    15
100
AcDbCircle
 10
154.1259305438
 20
373.5790380048
 30
0.0
 40
1.000000000000015
100
AcDbArc
 50
175.0
 51
270.0
  0
LINE
  5
A1
330
1F
100
AcDbEntity
  8
0
  6
Continuous
 62
     7
370
    15
100
AcDbLine
 10
242.9395082398
 20
373.6661937475
 30
0.0
 11
242.678848314
 21
376.6455503326
 31
0.0
  0
LINE
  5
A2
330
1F
100
AcDbEntity
  8
0
  6
Continuous
 62
     7
370
    15
100
AcDbLine
 10
153.3903957715
 20
376.6455503326
 30
0.0
 11
153.1297358457
 21
373.6661937475
 31
0.0
  0
ARC
  5
A3
330
1F
100
AcDbEntity
  8
0
  6
Continuous
 62
     7
370
    15
100
AcDbCircle
 10
236.2035827764
 20
376.0790380048
 30
0.0
 40
6.500000000000037
100
AcDbArc
 50
5.0
 51
90.0
  0
ARC
  5
A4
330
1F
100
AcDbEntity
  8
0
  6
Continuous
 62
     7
370
    15
100
AcDbCircle
 10
159.8656613091
 20
376.0790380048
 30
0.0
 40
6.500000000000009
100
AcDbArc
 50
90.0
 51
175.0
  0
LINE
  5
A5
330
1F
100
AcDbEntity
  8
0
  6
Continuous
 62
     7
370
    15
100
AcDbLine
 10
236.2035827764
 20
382.5790380048
 30
0.0
 11
159.8656613091
 21
382.5790380048
 31
0.0
  0
LINE
  5
A6
330
1F
100
AcDbEntity
  8
0
  6
Continuous
 62
     7
370
    15
100
AcDbLine
 10
234.0346220427
 20
259.3290380048
 30
0.0
 11
218.7967826606
 21
259.3290380048
 31
0.0
  0
LINE
  5
A7
330
1F
100
AcDbEntity
  8
0
  6
Continuous
 62
     7
370
    15
100
AcDbLine
 10
231.0346220427
 20
176.8290380048
 30
0.0
 11
234.0346220427
 21
176.8290380048
 31
0.0
  0
LINE
  5
A8
330
1F
100
AcDbEntity
  8
0
  6
Continuous
 62
     7
370
    15
100
AcDbLine
 10
162.0346220427
 20
176.8290380048
 30
0.0
 11
165.0346220427
 21
176.8290380048
 31
0.0
  0
LINE
  5
A9
330
1F
100
AcDbEntity
  8
0
  6
Continuous
 62
     7
370
    15
100
AcDbLine
 10
177.2724614249
 20
259.3290380048
 30
0.0
 11
162.0346220427
 21
259.3290380048
 31
0.0
  0
LINE
  5
AA
330
1F
100
AcDbEntity
  8
0
  6
Continuous
 62
     7
370
    15
100
AcDbLine
 10
208.0346220427
 20
283.3290380048
 30
0.0
 11
208.0346220427
 21
280.0171817454
 31
0.0
  0
LINE
  5
AB
330
1F
100
AcDbEntity
  8
0
  6
Continuous
 62
     7
370
    15
100
AcDbLine
 10
188.0346220427
 20
280.0655595861
 30
0.0
 11
188.0346220427
 21
283.3290380048
 31
0.0
  0
LINE
  5
AC
330
1F
100
AcDbEntity
  8
0
  6
Continuous
 62
     7
370
    15
100
AcDbLine
 10
162.0346220427
 20
244.0790380048
 30
0.0
 11
160.5346220427
 21
242.5790380048
 31
0.0
  0
LINE
  5
AD
330
1F
100
AcDbEntity
  8
0
  6
Continuous
 62
     7
370
    15
100
AcDbLine
 10
160.5346220427
 20
193.5790380048
 30
0.0
 11
162.0346220427
 21
192.0790380048
 31
0.0
  0
LINE
  5
AE
330
1F
100
AcDbEntity
  8
0
  6
Continuous
 62
     7
370
    15
100
AcDbLine
 10
234.0346220427
 20
192.0790380048
 30
0.0
 11
235.5346220427
 21
193.5790380048
 31
0.0
  0
LINE
  5
AF
330
1F
100
AcDbEntity
  8
0
  6
Continuous
 62
     7
370
    15
100
AcDbLine
 10
235.5346220427
 20
242.5790380048
 30
0.0
 11
234.0346220427
 21
244.0790380048
 31
0.0
  0
LINE
  5
B0
330
1F
100
AcDbEntity
  8
0
  6
Continuous
 62
     7
370
    15
100
AcDbLine
 10
173.0346220427
 20
268.3290380048
 30
0.0
 11
173.5616501729
 21
264.5790380048
 31
0.0
  0
LINE
  5
B1
330
1F
100
AcDbEntity
  8
0
  6
Continuous
 62
     7
370
    15
100
AcDbLine
 10
222.5075939126
 20
264.5790380048
 30
0.0
 11
223.0346220427
 21
268.3290380048
 31
0.0
  0
LINE
  5
B2
330
1F
100
AcDbEntity
  8
0
  6
Continuous
 62
     7
370
    15
100
AcDbLine
 10
219.4182860816
 20
263.7512604663
 30
0.0
 11
222.5075939126
 21
264.5790380048
 31
0.0
  0
LINE
  5
B3
330
1F
100
AcDbEntity
  8
0
  6
Continuous
 62
     7
370
    15
100
AcDbLine
 10
173.5616501729
 20
264.5790380048
 30
0.0
 11
176.6509580039
 21
263.7512604663
 31
0.0
  0
LINE
  5
B4
330
1F
100
AcDbEntity
  8
0
  6
Continuous
 62
     7
370
    15
100
AcDbLine
 10
175.1346151345
 20
274.018796514
 30
0.0
 11
173.0738929478
 21
272.8290380048
 31
0.0
  0
LINE
  5
B5
330
1F
100
AcDbEntity
  8
0
  6
Continuous
 62
     7
370
    15
100
AcDbLine
 10
222.9953511377
 20
272.8290380048
 30
0.0
 11
220.934628951
 21
274.018796514
 31
0.0
  0
LINE
  5
B6
330
1F
100
AcDbEntity
  8
0
  6
Continuous
 62
     7
370
    15
100
AcDbLine
 10
223.0346220427
 20
268.3290380048
 30
0.0
 11
222.9953511377
 21
272.8290380048
 31
0.0
  0
LINE
  5
B7
330
1F
100
AcDbEntity
  8
0
  6
Continuous
 62
     7
370
    15
100
AcDbLine
 10
173.0738929478
 20
272.8290380048
 30
0.0
 11
173.0346220427
 21
268.3290380048
 31
0.0
  0
LINE
  5
B8
330
1F
100
AcDbEntity
  8
0
  6
Continuous
 62
     7
370
    15
100
AcDbLine
 10
180.5346220427
 20
292.8290380048
 30
0.0
 11
180.5346220427
 21
285.8282197704
 31
0.0
  0
LINE
  5
B9
330
1F
100
AcDbEntity
  8
0
  6
Continuous
 62
     7
370
    15
100
AcDbLine
 10
215.5346220427
 20
285.8282197704
 30
0.0
 11
215.5346220427
 21
292.8290380048
 31
0.0
  0
ARC
  5
BA
330
1F
100
AcDbEntity
  8
0
  6
Continuous
 62
     7
370
    15
100
AcDbCircle
 10
182.0346220427
 20
292.8290380048
 30
0.0
 40
1.5
100
AcDbArc
 50
90.0
 51
180.0
  0
ARC
  5
BB
330
1F
100
AcDbEntity
  8
0
  6
Continuous
 62
     7
370
    15
100
AcDbCircle
 10
214.0346220427
 20
292.8290380048
 30
0.0
 40
1.5
100
AcDbArc
 50
0.0
 51
90.0
  0
ARC
  5
BC
330
1F
100
AcDbEntity
  8
0
  6
Continuous
 62
     7
370
    15
100
AcDbCircle
 10
182.1173231492
 20
297.3290380048
 30
0.0
 40
3.000000000000057
100
AcDbArc
 50
270.0
 51
350.0
  0
ARC
  5
BD
330
1F
100
AcDbEntity
  8
0
  6
Continuous
 62
     7
370
    15
100
AcDbCircle
 10
213.9519209363
 20
297.3290380048
 30
0.0
 40
3.000000000000057
100
AcDbArc
 50
190.0
 51
270.0
  0
ARC
  5
BE
330
1F
100
AcDbEntity
  8
0
  6
Continuous
 62
     7
370
    15
100
AcDbCircle
 10
209.1668193671
 20
282.3290380048
 30
0.0
 40
7.000000000000016
100
AcDbArc
 50
8.2132107017
 51
20.4701551445
  0
ARC
  5
BF
330
1F
100
AcDbEntity
  8
0
  6
Continuous
 62
     7
370
    15
100
AcDbCircle
 10
186.9024247184
 20
282.3290380048
 30
0.0
 40
6.999999999999996
100
AcDbArc
 50
159.5238993261
 51
171.7867892983
  0
LINE
  5
C0
330
1F
100
AcDbEntity
  8
0
  6
Continuous
 62
     7
370
    15
100
AcDbLine
 10
210.9974976772
 20
296.8080934717
 30
0.0
 11
209.6602010453
 21
304.3922795479
 31
0.0
  0
LINE
  5
C1
330
1F
100
AcDbEntity
  8
0
  6
Continuous
 62
     7
370
    15
100
AcDbLine
 10
186.4090430402
 20
304.3922795479
 30
0.0
 11
185.0717464082
 21
296.8080934717
 31
0.0
  0
LINE
  5
C2
330
1F
100
AcDbEntity
  8
0
  6
Continuous
 62
     7
370
    15
100
AcDbLine
 10
195.5346220427
 20
319.5790380048
 30
0.0
 11
195.5346220427
 21
319.3290380048
 31
0.0
  0
LINE
  5
C3
330
1F
100
AcDbEntity
  8
0
  6
Continuous
 62
     7
370
    15
100
AcDbLine
 10
200.5346220427
 20
319.3290380048
 30
0.0
 11
200.5346220427
 21
319.5790380048
 31
0.0
  0
LINE
  5
C4
330
1F
100
AcDbEntity
  8
0
  6
Continuous
 62
     7
370
    15
100
AcDbLine
 10
209.6602010453
 20
304.3922795479
 30
0.0
 11
209.1091194948
 21
314.9075419391
 31
0.0
  0
LINE
  5
C5
330
1F
100
AcDbEntity
  8
0
  6
Continuous
 62
     7
370
    15
100
AcDbLine
 10
186.9601245907
 20
314.9075419391
 30
0.0
 11
186.4090430402
 21
304.3922795479
 31
0.0
  0
ARC
  5
C6
330
1F
100
AcDbEntity
  8
0
  6
Continuous
 62
     7
370
    15
100
AcDbCircle
 10
218.5346220427
 20
285.8282197705
 30
0.0
 40
3.000000000004974
100
AcDbArc
 50
180.0279364693
 51
200.4989214176
  0
ARC
  5
C7
330
1F
100
AcDbEntity
  8
0
  6
Continuous
 62
     7
370
    15
100
AcDbCircle
 10
177.5346220428
 20
285.8282197705
 30
0.0
 40
3.000000000004995
100
AcDbArc
 50
339.487048691
 51
359.9713718859
  0
LINE
  5
C8
330
1F
100
AcDbEntity
  8
0
  6
Continuous
 62
     7
370
    15
100
AcDbLine
 10
186.7846220427
 20
371.5790380048
 30
0.0
 11
186.7846220427
 21
370.4360571506
 31
0.0
  0
LINE
  5
C9
330
1F
100
AcDbEntity
  8
0
  6
Continuous
 62
     7
370
    15
100
AcDbLine
 10
209.2846220427
 20
370.4360571506
 30
0.0
 11
209.2846220427
 21
371.5790380048
 31
0.0
  0
ARC
  5
CA
330
1F
100
AcDbEntity
  8
0
  6
Continuous
 62
     7
370
    15
100
AcDbCircle
 10
207.6111751927
 20
314.8290380048
 30
0.0
 40
1.500000000000022
100
AcDbArc
 50
3.0
 51
90.0
  0
ARC
  5
CB
330
1F
100
AcDbEntity
  8
0
  6
Continuous
 62
     7
370
    15
100
AcDbCircle
 10
188.4580688928
 20
314.8290380048
 30
0.0
 40
1.5
100
AcDbArc
 50
90.0
 51
177.0
  0
LINE
  5
CC
330
1F
100
AcDbEntity
  8
0
  6
Continuous
 62
     7
370
    15
100
AcDbLine
 10
195.5346220427
 20
321.9290380048
 30
0.0
 11
195.3367127182
 21
321.8147750029
 31
0.0
  0
LINE
  5
CD
330
1F
100
AcDbEntity
  8
0
  6
Continuous
 62
     7
370
    15
100
AcDbLine
 10
196.5346220427
 20
333.8290380048
 30
0.0
 11
196.5346220427
 21
321.9290380048
 31
0.0
  0
LINE
  5
CE
330
1F
100
AcDbEntity
  8
0
  6
Continuous
 62
     7
370
    15
100
AcDbLine
 10
199.5346220427
 20
321.9290380048
 30
0.0
 11
199.5346220427
 21
333.8290380048
 31
0.0
  0
ARC
  5
CF
330
1F
100
AcDbEntity
  8
0
  6
Continuous
 62
     7
370
    15
100
AcDbCircle
 10
195.9756050484
 20
334.3290380048
 30
0.0
 40
0.7500000000000072
100
AcDbArc
 50
318.1896851042
 51
41.8103148958
  0
ARC
  5
D0
330
1F
100
AcDbEntity
  8
0
  6
Continuous
 62
     7
370
    15
100
AcDbCircle
 10
200.0936390371
 20
334.3290380048
 30
0.0
 40
0.7499999999999861
100
AcDbArc
 50
138.1896851042
 51
221.8103148958
  0
LINE
  5
D1
330
1F
100
AcDbEntity
  8
0
  6
Continuous
 62
     7
370
    15
100
AcDbLine
 10
196.5346220427
 20
347.5790380048
 30
0.0
 11
196.5346220427
 21
343.3290380048
 31
0.0
  0
LINE
  5
D2
330
1F
100
AcDbEntity
  8
0
  6
Continuous
 62
     7
370
    15
100
AcDbLine
 10
199.5346220427
 20
343.3290380048
 30
0.0
 11
199.5346220427
 21
347.5790380048
 31
0.0
  0
LINE
  5
D3
330
1F
100
AcDbEntity
  8
0
  6
Continuous
 62
     7
370
    15
100
AcDbLine
 10
196.5346220427
 20
339.3290380048
 30
0.0
 11
196.5346220427
 21
334.8290380048
 31
0.0
  0
LINE
  5
D4
330
1F
100
AcDbEntity
  8
0
  6
Continuous
 62
     7
370
    15
100
AcDbLine
 10
199.5346220427
 20
334.8290380048
 30
0.0
 11
199.5346220427
 21
339.3290380048
 31
0.0
  0
ARC
  5
D5
330
1F
100
AcDbEntity
  8
0
  6
Continuous
 62
     7
370
    15
100
AcDbCircle
 10
195.9756050484
 20
348.0790380048
 30
0.0
 40
0.7500000000000072
100
AcDbArc
 50
318.1896851042
 51
41.8103148958
  0
ARC
  5
D6
330
1F
100
AcDbEntity
  8
0
  6
Continuous
 62
     7
370
    15
100
AcDbCircle
 10
200.0936390371
 20
348.0790380048
 30
0.0
 40
0.7499999999999861
100
AcDbArc
 50
138.1896851042
 51
221.8103148958
  0
LINE
  5
D7
330
1F
100
AcDbEntity
  8
0
  6
Continuous
 62
     7
370
    15
100
AcDbLine
 10
196.5346220427
 20
351.6771142161
 30
0.0
 11
196.5346220427
 21
348.5790380048
 31
0.0
  0
LINE
  5
D8
330
1F
100
AcDbEntity
  8
0
  6
Continuous
 62
     7
370
    15
100
AcDbLine
 10
199.5346220427
 20
348.5790380048
 30
0.0
 11
199.5346220427
 21
351.6771142161
 31
0.0
  0
ARC
  5
D9
330
1F
100
AcDbEntity
  8
0
  6
Continuous
 62
     7
370
    15
100
AcDbCircle
 10
198.0346220427
 20
349.0790380048
 30
0.0
 40
3.0
100
AcDbArc
 50
60.0
 51
120.0
  0
LINE
  5
DA
330
1F
100
AcDbEntity
  8
0
  6
Continuous
 62
     7
370
    15
100
AcDbLine
 10
200.7325313673
 20
321.8147750029
 30
0.0
 11
200.5346220427
 21
321.9290380048
 31
0.0
  0
LINE
  5
DB
330
1F
100
AcDbEntity
  8
0
  6
Continuous
 62
     7
370
    15
100
AcDbLine
 10
207.0346220427
 20
316.3290380048
 30
0.0
 11
207.0346220427
 21
319.3290380048
 31
0.0
  0
LINE
  5
DC
330
1F
100
AcDbEntity
  8
0
  6
Continuous
 62
     7
370
    15
100
AcDbLine
 10
189.0346220427
 20
319.3290380048
 30
0.0
 11
189.0346220427
 21
316.3290380048
 31
0.0
  0
LINE
  5
DD
330
1F
100
AcDbEntity
  8
0
  6
Continuous
 62
     7
370
    15
100
AcDbLine
 10
193.0346220427
 20
339.3290380048
 30
0.0
 11
193.0346220427
 21
319.3290380048
 31
0.0
  0
LINE
  5
DE
330
1F
100
AcDbEntity
  8
0
  6
Continuous
 62
     7
370
    15
100
AcDbLine
 10
203.0346220427
 20
319.3290380048
 30
0.0
 11
203.0346220427
 21
339.3290380048
 31
0.0
  0
LINE
  5
DF
330
1F
100
AcDbEntity
  8
0
  6
Continuous
 62
     7
370
    15
100
AcDbLine
 10
193.0346220427
 20
352.2776130913
 30
0.0
 11
193.0346220427
 21
343.3290380048
 31
0.0
  0
LINE
  5
E0
330
1F
100
AcDbEntity
  8
0
  6
Continuous
 62
     7
370
    15
100
AcDbLine
 10
203.0346220427
 20
343.3290380048
 30
0.0
 11
203.0346220427
 21
352.2776130913
 31
0.0
  0
LINE
  5
E1
330
1F
100
AcDbEntity
  8
0
  6
Continuous
 62
     7
370
    15
100
AcDbLine
 10
241.9433135417
 20
372.5790380048
 30
0.0
 11
154.1259305438
 21
372.5790380048
 31
0.0
  0
LINE
  5
E2
330
1F
100
AcDbEntity
  8
0
  6
Continuous
 62
     7
370
    15
100
AcDbLine
 10
231.0346220427
 20
183.4463812863
 30
0.0
 11
226.0346220427
 21
183.4463812863
 31
0.0
  0
LINE
  5
E3
330
1F
100
AcDbEntity
  8
0
  6
Continuous
 62
     7
370
    15
100
AcDbLine
 10
218.781430606
 20
259.2198024605
 30
0.0
 11
226.0346220427
 21
259.2198024605
 31
0.0
  0
LINE
  5
E4
330
1F
100
AcDbEntity
  8
0
  6
Continuous
 62
     7
370
    15
100
AcDbLine
 10
234.0346220427
 20
218.0790380048
 30
0.0
 11
234.0346220427
 21
259.3290380048
 31
0.0
  0
LINE
  5
E5
330
1F
100
AcDbEntity
  8
0
  6
Continuous
 62
     7
370
    15
100
AcDbLine
 10
234.0346220427
 20
176.8290380048
 30
0.0
 11
234.0346220427
 21
218.0790380048
 31
0.0
  0
LINE
  5
E6
330
1F
100
AcDbEntity
  8
0
  6
Continuous
 62
     7
370
    15
100
AcDbLine
 10
226.0346220427
 20
259.2198024605
 30
0.0
 11
226.0346220427
 21
183.4463812863
 31
0.0
  0
LINE
  5
E7
330
1F
100
AcDbEntity
  8
0
  6
Continuous
 62
     7
370
    15
100
AcDbLine
 10
177.2878134795
 20
259.2198024605
 30
0.0
 11
170.0346220427
 21
259.2198024605
 31
0.0
  0
LINE
  5
E8
330
1F
100
AcDbEntity
  8
0
  6
Continuous
 62
     7
370
    15
100
AcDbLine
 10
170.0346220427
 20
259.2198024605
 30
0.0
 11
170.0346220427
 21
183.4463812863
 31
0.0
  0
LINE
  5
E9
330
1F
100
AcDbEntity
  8
0
  6
Continuous
 62
     7
370
    15
100
AcDbLine
 10
165.0346220427
 20
183.4463812863
 30
0.0
 11
170.0346220427
 21
183.4463812863
 31
0.0
  0
LINE
  5
EA
330
1F
100
AcDbEntity
  8
0
  6
Continuous
 62
     7
370
    15
100
AcDbLine
 10
162.0346220427
 20
218.0790380048
 30
0.0
 11
162.0346220427
 21
259.3290380048
 31
0.0
  0
LINE
  5
EB
330
1F
100
AcDbEntity
  8
0
  6
Continuous
 62
     7
370
    15
100
AcDbLine
 10
162.0346220427
 20
176.8290380048
 30
0.0
 11
162.0346220427
 21
218.0790380048
 31
0.0
  0
LINE
  5
EC
330
1F
100
AcDbEntity
  8
0
  6
Continuous
 62
     7
370
    15
100
AcDbLine
 10
215.6812998775
 20
272.8290380048
 30
0.0
 11
180.387944208
 21
272.8290380048
 31
0.0
  0
LINE
  5
ED
330
1F
100
AcDbEntity
  8
0
  6
Continuous
 62
     7
370
    15
100
AcDbLine
 10
215.6900211794
 20
268.3290380048
 30
0.0
 11
180.3792229061
 21
268.3290380048
 31
0.0
  0
LINE
  5
EE
330
1F
100
AcDbEntity
  8
0
  6
Continuous
 62
     7
370
    15
100
AcDbLine
 10
215.5729785128
 20
264.5790380048
 30
0.0
 11
180.4962655726
 21
264.5790380048
 31
0.0
  0
SPLINE
  5
EF
330
1F
100
AcDbEntity
  8
0
  6
Continuous
 62
     7
370
    15
100
AcDbSpline
210
0.0
220
0.0
230
1.0
 70
     8
 71
     3
 72
    28
 73
    24
 74
     0
 42
0.00000001
 43
0.00000001
 12
1.0
 22
0.0
 32
0.0
 13
1.0
 23
0.0
 33
0.0
 40
0.0
 40
0.0
 40
0.0
 40
0.0
 40
0.1250000000000009
 40
0.1250000000000009
 40
0.187500000000001
 40
0.187500000000001
 40
0.2500000000000011
 40
0.2500000000000011
 40
0.3750000000000013
 40
0.3750000000000013
 40
0.4375000000000014
 40
0.4375000000000014
 40
0.5000000000000017
 40
0.5000000000000017
 40
0.6250000000000013
 40
0.6250000000000013
 40
0.6875000000000012
 40
0.6875000000000012
 40
0.750000000000001
 40
0.750000000000001
 40
0.8750000000000004
 40
0.8750000000000004
 40
1.0
 40
1.0
 40
1.0
 40
1.0
 10
187.9647632527517
 20
276.7602549986417
 30
0.0
 10
187.905805460795
 20
276.5274625271124
 30
0.0
 10
187.8102128692338
 20
276.2954663492811
 30
0.0
 10
187.6098709448193
 20
275.9485878125334
 30
0.0
 10
187.5332369929884
 20
275.8328644427957
 30
0.0
 10
187.3632655616398
 20
275.605999939609
 30
0.0
 10
187.2696895990848
 20
275.4943554912169
 30
0.0
 10
186.9632259180718
 20
275.1646875384984
 30
0.0
 10
186.7248581572291
 20
274.9518864920673
 30
0.0
 10
186.3121365839361
 20
274.6434862733526
 30
0.0
 10
186.164380087774
 20
274.5419547749597
 30
0.0
 10
185.8550947531263
 20
274.3465331501829
 30
0.0
 10
185.6933914545029
 20
274.2524011583465
 30
0.0
 10
185.1869732744245
 20
273.9806533139667
 30
0.0
 10
184.8212015905259
 20
273.8135661849302
 30
0.0
 10
184.2258324461339
 20
273.5856190910462
 30
0.0
 10
184.0182019816732
 20
273.5130859278086
 30
0.0
 10
183.5969606206387
 20
273.379679111513
 30
0.0
 10
183.3825084598986
 20
273.3184013395494
 30
0.0
 10
182.7275935500941
 20
273.1508060125391
 30
0.0
 10
182.2750999873319
 20
273.0604087158614
 30
0.0
 10
181.3385042176555
 20
272.9273955685672
 30
0.0
 10
180.8712560645678
 20
272.8871223886553
 30
0.0
 10
180.4051073237759
 20
272.8736575452781
 30
0.0
  0
LINE
  5
F0
330
1F
100
AcDbEntity
  8
0
  6
Continuous
 62
     7
370
    15
100
AcDbLine
 10
187.9647632528
 20
276.7602549986
 30
0.0
 11
208.1044808327
 21
276.7602549986
 31
0.0
  0
SPLINE
  5
F1
330
1F
100
AcDbEntity
  8
0
  6
Continuous
 62
     7
370
    15
100
AcDbSpline
210
0.0
220
0.0
230
1.0
 70
     8
 71
     3
 72
    28
 73
    24
 74
     0
 42
0.00000001
 43
0.00000001
 12
1.0
 22
0.0
 32
0.0
 13
1.0
 23
0.0
 33
0.0
 40
0.0
 40
0.0
 40
0.0
 40
0.0
 40
0.1250000000000009
 40
0.1250000000000009
 40
0.187500000000001
 40
0.187500000000001
 40
0.2500000000000011
 40
0.2500000000000011
 40
0.3750000000000013
 40
0.3750000000000013
 40
0.4375000000000014
 40
0.4375000000000014
 40
0.5000000000000017
 40
0.5000000000000017
 40
0.6250000000000013
 40
0.6250000000000013
 40
0.6875000000000012
 40
0.6875000000000012
 40
0.750000000000001
 40
0.750000000000001
 40
0.8750000000000004
 40
0.8750000000000004
 40
1.0
 40
1.0
 40
1.0
 40
1.0
 10
208.1044808327355
 20
276.7602549986417
 30
0.0
 10
208.1634386246922
 20
276.5274625271124
 30
0.0
 10
208.2590312162533
 20
276.2954663492811
 30
0.0
 10
208.4593731406678
 20
275.9485878125334
 30
0.0
 10
208.5360070924987
 20
275.8328644427957
 30
0.0
 10
208.7059785238474
 20
275.605999939609
 30
0.0
 10
208.7995544864023
 20
275.4943554912169
 30
0.0
 10
209.1060181674153
 20
275.1646875384984
 30
0.0
 10
209.3443859282581
 20
274.9518864920673
 30
0.0
 10
209.757107501551
 20
274.6434862733526
 30
0.0
 10
209.9048639977132
 20
274.5419547749597
 30
0.0
 10
210.2141493323609
 20
274.3465331501829
 30
0.0
 10
210.3758526309842
 20
274.2524011583465
 30
0.0
 10
210.8822708110627
 20
273.9806533139667
 30
0.0
 10
211.2480424949613
 20
273.8135661849302
 30
0.0
 10
211.8434116393533
 20
273.5856190910462
 30
0.0
 10
212.051042103814
 20
273.5130859278086
 30
0.0
 10
212.4722834648485
 20
273.379679111513
 30
0.0
 10
212.6867356255886
 20
273.3184013395494
 30
0.0
 10
213.3416505353931
 20
273.1508060125391
 30
0.0
 10
213.7941440981552
 20
273.0604087158614
 30
0.0
 10
214.7307398678316
 20
272.9273955685672
 30
0.0
 10
215.1979880209194
 20
272.8871223886553
 30
0.0
 10
215.6641367617113
 20
272.8736575452781
 30
0.0
  0
LINE
  5
F2
330
1F
100
AcDbEntity
  8
0
  6
Continuous
 62
     7
370
    15
100
AcDbLine
 10
206.2192185011
 20
262.8446104196
 30
0.0
 11
189.8500255844
 21
262.8446104196
 31
0.0
  0
SPLINE
  5
F3
330
1F
100
AcDbEntity
  8
0
  6
Continuous
 62
     7
370
    15
100
AcDbSpline
210
0.0
220
0.0
230
1.0
 70
     8
 71
     3
 72
    12
 73
     8
 74
     0
 42
0.00000001
 43
0.00000001
 12
1.0
 22
0.0
 32
0.0
 13
1.0
 23
0.0
 33
0.0
 40
0.0
 40
0.0
 40
0.0
 40
0.0
 40
0.5000000000000008
 40
0.5000000000000008
 40
0.7500000000000003
 40
0.7500000000000003
 40
1.0
 40
1.0
 40
1.0
 40
1.0
 10
189.8500255843875
 20
262.8446104195908
 30
0.0
 10
189.2185893105178
 20
262.8446104195908
 30
0.0
 10
188.6044048795596
 20
262.830759330105
 30
0.0
 10
187.7078653538046
 20
262.7899984330893
 30
0.0
 10
187.413170497633
 20
262.7730551708867
 30
0.0
 10
186.8322322772418
 20
262.7322845866128
 30
0.0
 10
186.5448733014073
 20
262.7083172844123
 30
0.0
 10
186.2675748808551
 20
262.6813272894717
 30
0.0
  0
SPLINE
  5
F4
330
1F
100
AcDbEntity
  8
0
  6
Continuous
 62
     7
370
    15
100
AcDbSpline
210
0.0
220
0.0
230
1.0
 70
     8
 71
     3
 72
    31
 73
    27
 74
     0
 42
0.00000001
 43
0.00000001
 12
1.0
 22
0.0
 32
0.0
 13
1.0
 23
0.0
 33
0.0
 40
0.0
 40
0.0
 40
0.0
 40
0.0
 40
0.1249999999999984
 40
0.1249999999999984
 40
0.1874999999999985
 40
0.1874999999999985
 40
0.2499999999999987
 40
0.2499999999999987
 40
0.3749999999999989
 40
0.3749999999999989
 40
0.4374999999999993
 40
0.4374999999999993
 40
0.4999999999999996
 40
0.4999999999999996
 40
0.5624999999999999
 40
0.5624999999999999
 40
0.6250000000000001
 40
0.6250000000000001
 40
0.7500000000000012
 40
0.7500000000000012
 40
0.8125000000000014
 40
0.8125000000000014
 40
0.875000000000001
 40
0.9375000000000004
 40
0.9375000000000004
 40
1.0
 40
1.0
 40
1.0
 40
1.0
 10
186.2725893084079
 20
262.7170067954561
 30
0.0
 10
186.2812559714303
 20
262.8082776162618
 30
0.0
 10
186.2524462459665
 20
262.8998141298802
 30
0.0
 10
186.1550379861404
 20
263.0374562221998
 30
0.0
 10
186.1134568482964
 20
263.0833950186138
 30
0.0
 10
186.0114345117463
 20
263.175400951744
 30
0.0
 10
185.9514405752992
 20
263.2210006661915
 30
0.0
 10
185.747166019534
 20
263.3551188316463
 30
0.0
 10
185.5781702602081
 20
263.4416319789208
 30
0.0
 10
185.2739226435174
 20
263.5671017779829
 30
0.0
 10
185.163773833226
 20
263.6082136014146
 30
0.0
 10
184.9315658406639
 20
263.6870048593704
 30
0.0
 10
184.8089076805591
 20
263.7249498704408
 30
0.0
 10
184.5505665952711
 20
263.7980005614781
 30
0.0
 10
184.4148845743795
 20
263.8331063417152
 30
0.0
 10
184.1301125612407
 20
263.9004414646351
 30
0.0
 10
183.9800822604938
 20
263.9328350766195
 30
0.0
 10
183.5195477706108
 20
264.0234407741335
 30
0.0
 10
183.1969236729192
 20
264.0757273744495
 30
0.0
 10
182.6893575994164
 20
264.1421189483567
 30
0.0
 10
182.5150051827954
 20
264.1623354498251
 30
0.0
 10
182.1648404089111
 20
264.1978360848784
 30
0.0
 10
181.813439485772
 20
264.2284688687488
 30
0.0
 10
181.4596196970495
 20
264.2496211975506
 30
0.0
 10
181.1045713239254
 20
264.2659744564712
 30
0.0
 10
180.9256784428864
 20
264.2717605463409
 30
0.0
 10
180.7482643764734
 20
264.274991146397
 30
0.0
  0
SPLINE
  5
F5
330
1F
100
AcDbEntity
  8
0
  6
Continuous
 62
     7
370
    15
100
AcDbSpline
210
0.0
220
0.0
230
1.0
 70
     8
 71
     3
 72
    31
 73
    27
 74
     0
 42
0.00000001
 43
0.00000001
 12
1.0
 22
0.0
 32
0.0
 13
1.0
 23
0.0
 33
0.0
 40
0.0
 40
0.0
 40
0.0
 40
0.0
 40
0.1249999999999984
 40
0.1249999999999984
 40
0.1874999999999985
 40
0.1874999999999985
 40
0.2499999999999987
 40
0.2499999999999987
 40
0.3749999999999989
 40
0.3749999999999989
 40
0.4374999999999993
 40
0.4374999999999993
 40
0.4999999999999996
 40
0.4999999999999996
 40
0.5624999999999999
 40
0.5624999999999999
 40
0.6250000000000001
 40
0.6250000000000001
 40
0.7500000000000012
 40
0.7500000000000012
 40
0.8125000000000014
 40
0.8125000000000014
 40
0.875000000000001
 40
0.9375000000000004
 40
0.9375000000000004
 40
1.0
 40
1.0
 40
1.0
 40
1.0
 10
209.7966547770793
 20
262.7170067954561
 30
0.0
 10
209.7879881140569
 20
262.8082776162618
 30
0.0
 10
209.8167978395207
 20
262.8998141298802
 30
0.0
 10
209.9142060993468
 20
263.0374562221998
 30
0.0
 10
209.9557872371908
 20
263.0833950186138
 30
0.0
 10
210.0578095737409
 20
263.175400951744
 30
0.0
 10
210.1178035101879
 20
263.2210006661915
 30
0.0
 10
210.3220780659531
 20
263.3551188316463
 30
0.0
 10
210.491073825279
 20
263.4416319789208
 30
0.0
 10
210.7953214419697
 20
263.5671017779829
 30
0.0
 10
210.9054702522612
 20
263.6082136014146
 30
0.0
 10
211.1376782448232
 20
263.6870048593704
 30
0.0
 10
211.260336404928
 20
263.7249498704408
 30
0.0
 10
211.518677490216
 20
263.7980005614781
 30
0.0
 10
211.6543595111077
 20
263.8331063417152
 30
0.0
 10
211.9391315242464
 20
263.9004414646351
 30
0.0
 10
212.0891618249934
 20
263.9328350766195
 30
0.0
 10
212.5496963148764
 20
264.0234407741335
 30
0.0
 10
212.872320412568
 20
264.0757273744495
 30
0.0
 10
213.3798864860708
 20
264.1421189483567
 30
0.0
 10
213.5542389026917
 20
264.1623354498251
 30
0.0
 10
213.904403676576
 20
264.1978360848784
 30
0.0
 10
214.2558045997151
 20
264.2284688687488
 30
0.0
 10
214.6096243884377
 20
264.2496211975506
 30
0.0
 10
214.9646727615618
 20
264.2659744564712
 30
0.0
 10
215.1435656426007
 20
264.2717605463409
 30
0.0
 10
215.3209797090138
 20
264.274991146397
 30
0.0
  0
SPLINE
  5
F6
330
1F
100
AcDbEntity
  8
0
  6
Continuous
 62
     7
370
    15
100
AcDbSpline
210
0.0
220
0.0
230
1.0
 70
     8
 71
     3
 72
    12
 73
     8
 74
     0
 42
0.00000001
 43
0.00000001
 12
1.0
 22
0.0
 32
0.0
 13
1.0
 23
0.0
 33
0.0
 40
0.0
 40
0.0
 40
0.0
 40
0.0
 40
0.5000000000000008
 40
0.5000000000000008
 40
0.7500000000000003
 40
0.7500000000000003
 40
1.0
 40
1.0
 40
1.0
 40
1.0
 10
206.2192185010997
 20
262.8446104195908
 30
0.0
 10
206.8506547749694
 20
262.8446104195908
 30
0.0
 10
207.4648392059276
 20
262.830759330105
 30
0.0
 10
208.3613787316826
 20
262.7899984330893
 30
0.0
 10
208.6560735878541
 20
262.7730551708867
 30
0.0
 10
209.2370118082453
 20
262.7322845866128
 30
0.0
 10
209.5243707840799
 20
262.7083172844123
 30
0.0
 10
209.8016692046321
 20
262.6813272894717
 30
0.0
  0
LINE
  5
F7
330
1F
100
AcDbEntity
  8
0
  6
Continuous
 62
     7
370
    15
100
AcDbLine
 10
219.6658853268
 20
264.5790380048
 30
0.0
 11
215.5729785128
 21
264.5790380048
 31
0.0
  0
LINE
  5
F8
330
1F
100
AcDbEntity
  8
0
  6
Continuous
 62
     7
370
    15
100
AcDbLine
 10
217.4168024642
 20
268.3290380048
 30
0.0
 11
215.6900211794
 21
268.3290380048
 31
0.0
  0
LINE
  5
F9
330
1F
100
AcDbEntity
  8
0
  6
Continuous
 62
     7
370
    15
100
AcDbLine
 10
220.177060665
 20
268.3290380048
 30
0.0
 11
217.4168024642
 21
268.3290380048
 31
0.0
  0
LINE
  5
FA
330
1F
100
AcDbEntity
  8
0
  6
Continuous
 62
     7
370
    15
100
AcDbLine
 10
178.6524416212
 20
268.3290380048
 30
0.0
 11
180.3792229061
 21
268.3290380048
 31
0.0
  0
LINE
  5
FB
330
1F
100
AcDbEntity
  8
0
  6
Continuous
 62
     7
370
    15
100
AcDbLine
 10
176.4033587587
 20
264.5790380048
 30
0.0
 11
180.4962655726
 21
264.5790380048
 31
0.0
  0
LINE
  5
FC
330
1F
100
AcDbEntity
  8
0
  6
Continuous
 62
     7
370
    15
100
AcDbLine
 10
175.8921834205
 20
268.3290380048
 30
0.0
 11
178.6524416212
 21
268.3290380048
 31
0.0
  0
SPLINE
  5
FD
330
1F
100
AcDbEntity
  8
0
  6
Continuous
 62
     7
370
    15
100
AcDbSpline
210
0.0
220
0.0
230
1.0
 70
     8
 71
     3
 72
     8
 73
     4
 74
     0
 42
0.00000001
 43
0.00000001
 12
1.0
 22
0.0
 32
0.0
 13
1.0
 23
0.0
 33
0.0
 40
0.0
 40
0.0
 40
0.0
 40
0.0
 40
1.0
 40
1.0
 40
1.0
 40
1.0
 10
179.1501365514246
 20
272.8290380047508
 30
0.0
 10
178.9725904372442
 20
271.3301507735351
 30
0.0
 10
178.807810762326
 20
269.8300420645508
 30
0.0
 10
178.6524416212402
 20
268.3290380047508
 30
0.0
  0
LINE
  5
FE
330
1F
100
AcDbEntity
  8
0
  6
Continuous
 62
     7
370
    15
100
AcDbLine
 10
179.1501365514
 20
272.8290380048
 30
0.0
 11
180.387944208
 21
272.8290380048
 31
0.0
  0
SPLINE
  5
FF
330
1F
100
AcDbEntity
  8
0
  6
Continuous
 62
     7
370
    15
100
AcDbSpline
210
0.0
220
0.0
230
1.0
 70
     8
 71
     3
 72
     8
 73
     4
 74
     0
 42
0.00000001
 43
0.00000001
 12
1.0
 22
0.0
 32
0.0
 13
1.0
 23
0.0
 33
0.0
 40
0.0
 40
0.0
 40
0.0
 40
0.0
 40
1.0
 40
1.0
 40
1.0
 40
1.0
 10
216.9191075340626
 20
272.8290380047508
 30
0.0
 10
217.0966536482429
 20
271.3301507735351
 30
0.0
 10
217.2614333231611
 20
269.8300420645508
 30
0.0
 10
217.4168024642469
 20
268.3290380047508
 30
0.0
  0
LINE
  5
100
330
1F
100
AcDbEntity
  8
0
  6
Continuous
 62
     7
370
    15
100
AcDbLine
 10
216.9191075341
 20
272.8290380048
 30
0.0
 11
215.6812998775
 21
272.8290380048
 31
0.0
  0
SPLINE
  5
101
330
1F
100
AcDbEntity
  8
0
  6
Continuous
 62
     7
370
    15
100
AcDbSpline
210
0.0
220
0.0
230
1.0
 70
     8
 71
     3
 72
     8
 73
     4
 74
     0
 42
0.00000001
 43
0.00000001
 12
1.0
 22
0.0
 32
0.0
 13
1.0
 23
0.0
 33
0.0
 40
0.0
 40
0.0
 40
0.0
 40
0.0
 40
1.0
 40
1.0
 40
1.0
 40
1.0
 10
215.6641367617113
 20
272.8736575452781
 30
0.0
 10
216.0925143034212
 20
272.8612837340873
 30
0.0
 10
216.5109242414419
 20
272.846400445717
 30
0.0
 10
216.9191075340626
 20
272.8290380047508
 30
0.0
  0
SPLINE
  5
102
330
1F
100
AcDbEntity
  8
0
  6
Continuous
 62
     7
370
    15
100
AcDbSpline
210
0.0
220
0.0
230
1.0
 70
     8
 71
     3
 72
     9
 73
     5
 74
     0
 42
0.00000001
 43
0.00000001
 12
1.0
 22
0.0
 32
0.0
 13
1.0
 23
0.0
 33
0.0
 40
0.0
 40
0.0
 40
0.0
 40
0.0
 40
0.4130423374049317
 40
1.0
 40
1.0
 40
1.0
 40
1.0
 10
208.042191510286
 20
280.0171817454267
 30
0.0
 10
208.0444127565117
 20
279.5833052198524
 30
0.0
 10
208.0497905253856
 20
278.5328644144369
 30
0.0
 10
208.0842528860641
 20
277.4158784622745
 30
0.0
 10
208.1044808327355
 20
276.7602549986418
 30
0.0
  0
LINE
  5
103
330
1F
100
AcDbEntity
  8
0
  6
Continuous
 62
     7
370
    15
100
AcDbLine
 10
217.4168024642
 20
268.3290380048
 30
0.0
 11
217.4168024642
 21
283.3290380048
 31
0.0
  0
LINE
  5
104
330
1F
100
AcDbEntity
  8
0
  6
Continuous
 62
     7
370
    15
100
AcDbLine
 10
217.4168024642
 20
283.3290380048
 30
0.0
 11
208.0346220427
 21
283.3290380048
 31
0.0
  0
SPLINE
  5
105
330
1F
100
AcDbEntity
  8
0
  6
Continuous
 62
     7
370
    15
100
AcDbSpline
210
0.0
220
0.0
230
1.0
 70
     8
 71
     3
 72
    11
 73
     7
 74
     0
 42
0.00000001
 43
0.00000001
 12
1.0
 22
0.0
 32
0.0
 13
1.0
 23
0.0
 33
0.0
 40
0.0
 40
0.0
 40
0.0
 40
0.0
 40
0.1358714681488023
 40
0.4207518220591579
 40
0.7097167566620022
 40
1.0
 40
1.0
 40
1.0
 40
1.0
 10
188.0318723403103
 20
280.0655595861251
 30
0.0
 10
188.0323688014784
 20
279.9221166691144
 30
0.0
 10
188.0339061878327
 20
279.4779184167804
 30
0.0
 10
188.0159357311553
 20
278.7019040738629
 30
0.0
 10
187.9903144725245
 20
277.7437892396429
 30
0.0
 10
187.9732932388631
 20
277.088596795643
 30
0.0
 10
187.9647632527517
 20
276.7602549986418
 30
0.0
  0
SPLINE
  5
106
330
1F
100
AcDbEntity
  8
0
  6
Continuous
 62
     7
370
    15
100
AcDbSpline
210
0.0
220
0.0
230
1.0
 70
     8
 71
     3
 72
     8
 73
     4
 74
     0
 42
0.00000001
 43
0.00000001
 12
1.0
 22
0.0
 32
0.0
 13
1.0
 23
0.0
 33
0.0
 40
0.0
 40
0.0
 40
0.0
 40
0.0
 40
1.0
 40
1.0
 40
1.0
 40
1.0
 10
180.4051073237759
 20
272.8736575452781
 30
0.0
 10
179.976729782066
 20
272.8612837340873
 30
0.0
 10
179.5583198440453
 20
272.846400445717
 30
0.0
 10
179.1501365514246
 20
272.8290380047508
 30
0.0
  0
LINE
  5
107
330
1F
100
AcDbEntity
  8
0
  6
Continuous
 62
     7
370
    15
100
AcDbLine
 10
178.6524416212
 20
268.3290380048
 30
0.0
 11
178.6524416212
 21
283.3290380048
 31
0.0
  0
LINE
  5
108
330
1F
100
AcDbEntity
  8
0
  6
Continuous
 62
     7
370
    15
100
AcDbLine
 10
178.6524416212
 20
283.3290380048
 30
0.0
 11
188.0346220427
 21
283.3290380048
 31
0.0
  0
SPLINE
  5
109
330
1F
100
AcDbEntity
  8
0
  6
Continuous
 62
     7
370
    15
100
AcDbSpline
210
0.0
220
0.0
230
1.0
 70
     8
 71
     3
 72
    20
 73
    16
 74
     0
 42
0.00000001
 43
0.00000001
 12
1.0
 22
0.0
 32
0.0
 13
1.0
 23
0.0
 33
0.0
 40
0.0
 40
0.0
 40
0.0
 40
0.0
 40
0.1249999999999997
 40
0.1249999999999997
 40
0.2499999999999994
 40
0.2499999999999994
 40
0.3749999999999992
 40
0.3749999999999992
 40
0.4999999999999989
 40
0.4999999999999989
 40
0.7499999999999986
 40
0.7499999999999986
 40
0.8749999999999992
 40
0.8749999999999992
 40
1.0
 40
1.0
 40
1.0
 40
1.0
 10
180.7482643764734
 20
264.274991146397
 30
0.0
 10
180.5391321794593
 20
264.2787993139287
 30
0.0
 10
180.3317693700266
 20
264.2831394555773
 30
0.0
 10
179.9207057106186
 20
264.292884917272
 30
0.0
 10
179.7196109244387
 20
264.298233327421
 30
0.0
 10
179.3313853805424
 20
264.3096728477966
 30
0.0
 10
179.143374444409
 20
264.3157847473819
 30
0.0
 10
178.7795927226136
 20
264.3287588989908
 30
0.0
 10
178.6026864761375
 20
264.3356712397286
 30
0.0
 10
178.1001649048564
 20
264.3571544646506
 30
0.0
 10
177.8045353465425
 20
264.3723182733229
 30
0.0
 10
177.4197494672945
 20
264.3961807455648
 30
0.0
 10
177.3013313025976
 20
264.4043442669358
 30
0.0
 10
177.0912178386615
 20
264.4205782175641
 30
0.0
 10
176.9985276926115
 20
264.428705451159
 30
0.0
 10
176.9180805280502
 20
264.4368415095625
 30
0.0
  0
SPLINE
  5
10A
330
1F
100
AcDbEntity
  8
0
  6
Continuous
 62
     7
370
    15
100
AcDbSpline
210
0.0
220
0.0
230
1.0
 70
     8
 71
     3
 72
    20
 73
    16
 74
     0
 42
0.00000001
 43
0.00000001
 12
1.0
 22
0.0
 32
0.0
 13
1.0
 23
0.0
 33
0.0
 40
0.0
 40
0.0
 40
0.0
 40
0.0
 40
0.1249999999999997
 40
0.1249999999999997
 40
0.2499999999999994
 40
0.2499999999999994
 40
0.3749999999999992
 40
0.3749999999999992
 40
0.4999999999999989
 40
0.4999999999999989
 40
0.7499999999999986
 40
0.7499999999999986
 40
0.8749999999999992
 40
0.8749999999999992
 40
1.0
 40
1.0
 40
1.0
 40
1.0
 10
215.3209797090138
 20
264.274991146397
 30
0.0
 10
215.5301119060279
 20
264.2787993139287
 30
0.0
 10
215.7374747154606
 20
264.2831394555773
 30
0.0
 10
216.1485383748685
 20
264.292884917272
 30
0.0
 10
216.3496331610485
 20
264.298233327421
 30
0.0
 10
216.7378587049448
 20
264.3096728477966
 30
0.0
 10
216.9258696410782
 20
264.3157847473819
 30
0.0
 10
217.2896513628736
 20
264.3287588989908
 30
0.0
 10
217.4665576093497
 20
264.3356712397286
 30
0.0
 10
217.9690791806307
 20
264.3571544646506
 30
0.0
 10
218.2647087389446
 20
264.3723182733229
 30
0.0
 10
218.6494946181926
 20
264.3961807455648
 30
0.0
 10
218.7679127828896
 20
264.4043442669358
 30
0.0
 10
218.9780262468257
 20
264.4205782175641
 30
0.0
 10
219.0707163928757
 20
264.428705451159
 30
0.0
 10
219.1511635574369
 20
264.4368415095625
 30
0.0
  0
LINE
  5
10B
330
1F
100
AcDbEntity
  8
0
  6
Continuous
 62
     7
370
    15
100
AcDbLine
 10
217.4168024642
 20
283.3290380048
 30
0.0
 11
220.177060665
 21
283.3290380048
 31
0.0
  0
LINE
  5
10C
330
1F
100
AcDbEntity
  8
0
  6
Continuous
 62
     7
370
    15
100
AcDbLine
 10
178.6524416212
 20
283.3290380048
 30
0.0
 11
175.8921834205
 21
283.3290380048
 31
0.0
  0
SPLINE
  5
10D
330
1F
100
AcDbEntity
  8
0
  6
Continuous
 62
     7
370
    15
100
AcDbSpline
210
0.0
220
0.0
230
1.0
 70
     8
 71
     3
 72
    10
 73
     6
 74
     0
 42
0.00000001
 43
0.00000001
 12
1.0
 22
0.0
 32
0.0
 13
1.0
 23
0.0
 33
0.0
 40
0.0
 40
0.0
 40
0.0
 40
0.0
 40
0.5
 40
0.5
 40
1.0
 40
1.0
 40
1.0
 40
1.0
 10
219.1511635574369
 20
264.4368415095626
 30
0.0
 10
219.2728008589038
 20
264.4491433500833
 30
0.0
 10
219.3635280181045
 20
264.4533119750075
 30
0.0
 10
219.484407371534
 20
264.4457345136832
 30
0.0
 10
219.5142079377532
 20
264.4337841001923
 30
0.0
 10
219.5113986540573
 20
264.4137950080411
 30
0.0
  0
LINE
  5
10E
330
1F
100
AcDbEntity
  8
0
  6
Continuous
 62
     7
370
    15
100
AcDbLine
 10
217.6373207743
 20
251.0790380048
 30
0.0
 11
219.5113986541
 21
264.413795008
 31
0.0
  0
LINE
  5
10F
330
1F
100
AcDbEntity
  8
0
  6
Continuous
 62
     7
370
    15
100
AcDbLine
 10
217.6373207743
 20
251.0790380048
 30
0.0
 11
211.4322646252
 21
251.0790380048
 31
0.0
  0
LINE
  5
110
330
1F
100
AcDbEntity
  8
0
  6
Continuous
 62
     7
370
    15
100
AcDbLine
 10
211.4322646252
 20
251.0790380048
 30
0.0
 11
209.7966547771
 21
262.7170067955
 31
0.0
  0
LINE
  5
111
330
1F
100
AcDbEntity
  8
0
  6
Continuous
 62
     7
370
    15
100
AcDbLine
 10
184.6369794603
 20
251.0790380048
 30
0.0
 11
186.2725893084
 21
262.7170067955
 31
0.0
  0
LINE
  5
112
330
1F
100
AcDbEntity
  8
0
  6
Continuous
 62
     7
370
    15
100
AcDbLine
 10
178.4319233112
 20
251.0790380048
 30
0.0
 11
184.6369794603
 21
251.0790380048
 31
0.0
  0
LINE
  5
113
330
1F
100
AcDbEntity
  8
0
  6
Continuous
 62
     7
370
    15
100
AcDbLine
 10
178.4319233112
 20
251.0790380048
 30
0.0
 11
176.5578454314
 21
264.413795008
 31
0.0
  0
SPLINE
  5
114
330
1F
100
AcDbEntity
  8
0
  6
Continuous
 62
     7
370
    15
100
AcDbSpline
210
0.0
220
0.0
230
1.0
 70
     8
 71
     3
 72
    10
 73
     6
 74
     0
 42
0.00000001
 43
0.00000001
 12
1.0
 22
0.0
 32
0.0
 13
1.0
 23
0.0
 33
0.0
 40
0.0
 40
0.0
 40
0.0
 40
0.0
 40
0.5
 40
0.5
 40
1.0
 40
1.0
 40
1.0
 40
1.0
 10
176.9180805280502
 20
264.4368415095626
 30
0.0
 10
176.7964432265833
 20
264.4491433500833
 30
0.0
 10
176.7057160673826
 20
264.4533119750075
 30
0.0
 10
176.5848367139531
 20
264.4457345136832
 30
0.0
 10
176.555036147734
 20
264.4337841001923
 30
0.0
 10
176.5578454314299
 20
264.4137950080411
 30
0.0
  0
LINE
  5
115
330
1F
100
AcDbEntity
  8
0
  6
Continuous
 62
     7
370
    15
100
AcDbLine
 10
160.5346220427
 20
218.0790380048
 30
0.0
 11
160.5346220427
 21
242.5790380048
 31
0.0
  0
LINE
  5
116
330
1F
100
AcDbEntity
  8
0
  6
Continuous
 62
     7
370
    15
100
AcDbLine
 10
160.5346220427
 20
193.5790380048
 30
0.0
 11
160.5346220427
 21
218.0790380048
 31
0.0
  0
LINE
  5
117
330
1F
100
AcDbEntity
  8
0
  6
Continuous
 62
     7
370
    15
100
AcDbLine
 10
235.5346220427
 20
218.0790380048
 30
0.0
 11
235.5346220427
 21
242.5790380048
 31
0.0
  0
LINE
  5
118
330
1F
100
AcDbEntity
  8
0
  6
Continuous
 62
     7
370
    15
100
AcDbLine
 10
235.5346220427
 20
193.5790380048
 30
0.0
 11
235.5346220427
 21
218.0790380048
 31
0.0
  0
SPLINE
  5
119
330
1F
100
AcDbEntity
  8
0
  6
Continuous
 62
     7
370
    15
100
AcDbSpline
210
0.0
220
0.0
230
1.0
 70
    24
 71
     3
 72
    28
 73
    24
 74
     0
 42
0.00000001
 43
0.00000001
 12
1.0
 22
0.0
 32
0.0
 13
1.0
 23
0.0
 33
0.0
 40
0.0
 40
0.0
 40
0.0
 40
0.0
 40
0.0009765625000019
 40
0.0009765625000019
 40
0.0019531250000037
 40
0.0019531250000037
 40
0.0039062500000035
 40
0.0039062500000035
 40
0.0078125000000039
 40
0.0078125000000039
 40
0.0156250000000047
 40
0.0156250000000047
 40
0.0312500000000047
 40
0.0312500000000047
 40
0.062500000000005
 40
0.062500000000005
 40
0.125000000000005
 40
0.125000000000005
 40
0.2500000000000027
 40
0.2500000000000027
 40
0.5000000000000018
 40
0.5000000000000018
 40
1.0
 40
1.0
 40
1.0
 40
1.0
 10
181.5344513857738
 20
249.2877925857421
 30
0.0
 10
181.5344513857738
 20
249.2877925857421
 30
0.0
 10
181.5361597408896
 20
249.2887789050281
 30
0.0
 10
181.5381341885066
 20
249.2899188528913
 30
0.0
 10
181.5391338037426
 20
249.2904959810169
 30
0.0
 10
181.5421321481708
 20
249.2922270759796
 30
0.0
 10
181.5441391999508
 20
249.2933858478651
 30
0.0
 10
181.550167912593
 20
249.2968665267319
 30
0.0
 10
181.554198306819
 20
249.2991934759232
 30
0.0
 10
181.5662893337995
 20
249.3061742336052
 30
0.0
 10
181.5743577881836
 20
249.3108325579158
 30
0.0
 10
181.5985705259679
 20
249.3248117885934
 30
0.0
 10
181.6147232191627
 20
249.3341375503576
 30
0.0
 10
181.6631812686081
 20
249.3621148182492
 30
0.0
 10
181.6954942788036
 20
249.380770743384
 30
0.0
 10
181.7924406269122
 20
249.4367427435614
 30
0.0
 10
181.857082271295
 20
249.4740636143466
 30
0.0
 10
182.0510072159034
 20
249.5860262333189
 30
0.0
 10
182.1802981170451
 20
249.6606723698968
 30
0.0
 10
182.568178120751
 20
249.8846149944497
 30
0.0
 10
182.8267755022515
 20
250.0339162622708
 30
0.0
 10
183.6025688115511
 20
250.4818207382304
 30
0.0
 10
184.1197727853393
 20
250.780428591723
 30
0.0
 10
184.6369794603214
 20
251.0790380047506
 30
0.0
  0
LINE
  5
11A
330
1F
100
AcDbEntity
  8
0
  6
Continuous
 62
     7
370
    15
100
AcDbLine
 10
181.5344513858
 20
249.2877925857
 30
0.0
 11
178.4319233112
 21
251.0790380048
 31
0.0
  0
SPLINE
  5
11B
330
1F
100
AcDbEntity
  8
0
  6
Continuous
 62
     7
370
    15
100
AcDbSpline
210
0.0
220
0.0
230
1.0
 70
    24
 71
     3
 72
    28
 73
    24
 74
     0
 42
0.00000001
 43
0.00000001
 12
1.0
 22
0.0
 32
0.0
 13
1.0
 23
0.0
 33
0.0
 40
0.0
 40
0.0
 40
0.0
 40
0.0
 40
0.0009765625000019
 40
0.0009765625000019
 40
0.0019531250000037
 40
0.0019531250000037
 40
0.0039062500000035
 40
0.0039062500000035
 40
0.0078125000000039
 40
0.0078125000000039
 40
0.0156250000000047
 40
0.0156250000000047
 40
0.0312500000000047
 40
0.0312500000000047
 40
0.062500000000005
 40
0.062500000000005
 40
0.125000000000005
 40
0.125000000000005
 40
0.2500000000000027
 40
0.2500000000000027
 40
0.5000000000000018
 40
0.5000000000000018
 40
1.0
 40
1.0
 40
1.0
 40
1.0
 10
214.5347926997133
 20
249.2877925857421
 30
0.0
 10
214.5347926997133
 20
249.2877925857421
 30
0.0
 10
214.5330843445976
 20
249.2887789050281
 30
0.0
 10
214.5311098969806
 20
249.2899188528913
 30
0.0
 10
214.5301102817445
 20
249.2904959810169
 30
0.0
 10
214.5271119373163
 20
249.2922270759796
 30
0.0
 10
214.5251048855363
 20
249.2933858478651
 30
0.0
 10
214.5190761728942
 20
249.2968665267319
 30
0.0
 10
214.5150457786682
 20
249.2991934759232
 30
0.0
 10
214.5029547516876
 20
249.3061742336052
 30
0.0
 10
214.4948862973035
 20
249.3108325579158
 30
0.0
 10
214.4706735595193
 20
249.3248117885934
 30
0.0
 10
214.4545208663245
 20
249.3341375503576
 30
0.0
 10
214.4060628168791
 20
249.3621148182492
 30
0.0
 10
214.3737498066835
 20
249.380770743384
 30
0.0
 10
214.2768034585749
 20
249.4367427435614
 30
0.0
 10
214.2121618141922
 20
249.4740636143466
 30
0.0
 10
214.0182368695837
 20
249.5860262333189
 30
0.0
 10
213.8889459684421
 20
249.6606723698968
 30
0.0
 10
213.5010659647362
 20
249.8846149944497
 30
0.0
 10
213.2424685832356
 20
250.0339162622708
 30
0.0
 10
212.4666752739361
 20
250.4818207382304
 30
0.0
 10
211.9494713001478
 20
250.780428591723
 30
0.0
 10
211.4322646251658
 20
251.0790380047506
 30
0.0
  0
LINE
  5
11C
330
1F
100
AcDbEntity
  8
0
  6
Continuous
 62
     7
370
    15
100
AcDbLine
 10
214.5347926997
 20
249.2877925857
 30
0.0
 11
217.6373207743
 21
251.0790380048
 31
0.0
  0
LINE
  5
11D
330
1F
100
AcDbEntity
  8
0
  6
Continuous
 62
     7
370
    15
100
AcDbLine
 10
220.934628951
 20
283.3290380048
 30
0.0
 11
220.934628951
 21
268.3290380048
 31
0.0
  0
LINE
  5
11E
330
1F
100
AcDbEntity
  8
0
  6
Continuous
 62
     7
370
    15
100
AcDbLine
 10
220.934628951
 20
268.3290380048
 30
0.0
 11
220.177060665
 21
268.3290380048
 31
0.0
  0
LINE
  5
11F
330
1F
100
AcDbEntity
  8
0
  6
Continuous
 62
     7
370
    15
100
AcDbLine
 10
220.177060665
 20
283.3290380048
 30
0.0
 11
220.934628951
 21
283.3290380048
 31
0.0
  0
LINE
  5
120
330
1F
100
AcDbEntity
  8
0
  6
Continuous
 62
     7
370
    15
100
AcDbLine
 10
175.1346151345
 20
268.3290380048
 30
0.0
 11
175.8921834205
 21
268.3290380048
 31
0.0
  0
LINE
  5
121
330
1F
100
AcDbEntity
  8
0
  6
Continuous
 62
     7
370
    15
100
AcDbLine
 10
175.1346151345
 20
283.3290380048
 30
0.0
 11
175.1346151345
 21
268.3290380048
 31
0.0
  0
LINE
  5
122
330
1F
100
AcDbEntity
  8
0
  6
Continuous
 62
     7
370
    15
100
AcDbLine
 10
175.8921834205
 20
283.3290380048
 30
0.0
 11
175.1346151345
 21
283.3290380048
 31
0.0
  0
LINE
  5
123
330
1F
100
AcDbEntity
  8
0
  6
Continuous
 62
     7
370
    15
100
AcDbLine
 10
176.4033587587
 20
264.5790380048
 30
0.0
 11
173.5616501729
 21
264.5790380048
 31
0.0
  0
LINE
  5
124
330
1F
100
AcDbEntity
  8
0
  6
Continuous
 62
     7
370
    15
100
AcDbLine
 10
175.1346151345
 20
268.3290380048
 30
0.0
 11
173.0346220427
 21
268.3290380048
 31
0.0
  0
LINE
  5
125
330
1F
100
AcDbEntity
  8
0
  6
Continuous
 62
     7
370
    15
100
AcDbLine
 10
220.934628951
 20
268.3290380048
 30
0.0
 11
223.0346220427
 21
268.3290380048
 31
0.0
  0
LINE
  5
126
330
1F
100
AcDbEntity
  8
0
  6
Continuous
 62
     7
370
    15
100
AcDbLine
 10
219.6658853268
 20
264.5790380048
 30
0.0
 11
222.5075939126
 21
264.5790380048
 31
0.0
  0
SPLINE
  5
127
330
1F
100
AcDbEntity
  8
0
  6
Continuous
 62
     7
370
    15
100
AcDbSpline
210
0.0
220
0.0
230
1.0
 70
     8
 71
     3
 72
    18
 73
    14
 74
     0
 42
0.00000001
 43
0.00000001
 12
1.0
 22
0.0
 32
0.0
 13
1.0
 23
0.0
 33
0.0
 40
0.0
 40
0.0
 40
0.0
 40
0.0
 40
0.2499999999999951
 40
0.2499999999999951
 40
0.3749999999999961
 40
0.3749999999999961
 40
0.4999999999999971
 40
0.4999999999999971
 40
0.6249999999999981
 40
0.6249999999999981
 40
0.7499999999999991
 40
0.7499999999999991
 40
1.0
 40
1.0
 40
1.0
 40
1.0
 10
186.6226473050762
 20
283.3290380047507
 30
0.0
 10
186.5209443755434
 20
283.632797797982
 30
0.0
 10
186.3945122548953
 20
283.919199740645
 30
0.0
 10
186.1531309322284
 20
284.3204183852977
 30
0.0
 10
186.0643984527413
 20
284.4485003743336
 30
0.0
 10
185.8709416743966
 20
284.6897936519066
 30
0.0
 10
185.7659107946682
 20
284.8035478755962
 30
0.0
 10
185.5372658077364
 20
285.0170745064354
 30
0.0
 10
185.4136648096297
 20
285.1168534551307
 30
0.0
 10
185.1451995864383
 20
285.3018584087113
 30
0.0
 10
185.0026533773642
 20
285.3853957899225
 30
0.0
 10
184.5526394251717
 20
285.6081467380149
 30
0.0
 10
184.2216187392606
 20
285.7210345818885
 30
0.0
 10
183.8545698841395
 20
285.7968038183978
 30
0.0
  0
SPLINE
  5
128
330
1F
100
AcDbEntity
  8
0
  6
Continuous
 62
     7
370
    15
100
AcDbSpline
210
0.0
220
0.0
230
1.0
 70
     8
 71
     3
 72
    18
 73
    14
 74
     0
 42
0.00000001
 43
0.00000001
 12
1.0
 22
0.0
 32
0.0
 13
1.0
 23
0.0
 33
0.0
 40
0.0
 40
0.0
 40
0.0
 40
0.0
 40
0.2499999999999951
 40
0.2499999999999951
 40
0.3749999999999961
 40
0.3749999999999961
 40
0.4999999999999971
 40
0.4999999999999971
 40
0.6249999999999981
 40
0.6249999999999981
 40
0.7499999999999991
 40
0.7499999999999991
 40
1.0
 40
1.0
 40
1.0
 40
1.0
 10
209.446596780411
 20
283.3290380047507
 30
0.0
 10
209.5482997099437
 20
283.632797797982
 30
0.0
 10
209.6747318305918
 20
283.919199740645
 30
0.0
 10
209.9161131532588
 20
284.3204183852977
 30
0.0
 10
210.0048456327459
 20
284.4485003743336
 30
0.0
 10
210.1983024110906
 20
284.6897936519066
 30
0.0
 10
210.3033332908189
 20
284.8035478755962
 30
0.0
 10
210.5319782777508
 20
285.0170745064354
 30
0.0
 10
210.6555792758574
 20
285.1168534551307
 30
0.0
 10
210.9240444990488
 20
285.3018584087113
 30
0.0
 10
211.066590708123
 20
285.3853957899225
 30
0.0
 10
211.5166046603155
 20
285.6081467380149
 30
0.0
 10
211.8476253462266
 20
285.7210345818885
 30
0.0
 10
212.2146742013476
 20
285.7968038183978
 30
0.0
  0
LINE
  5
129
330
1F
100
AcDbEntity
  8
0
  6
Continuous
 62
     7
370
    15
100
AcDbLine
 10
231.0346220427
 20
183.4463812863
 30
0.0
 11
231.0346220427
 21
176.8290380048
 31
0.0
  0
LINE
  5
12A
330
1F
100
AcDbEntity
  8
0
  6
Continuous
 62
     7
370
    15
100
AcDbLine
 10
231.0346220427
 20
176.8290380048
 30
0.0
 11
226.0346220427
 21
176.8290380048
 31
0.0
  0
LINE
  5
12B
330
1F
100
AcDbEntity
  8
0
  6
Continuous
 62
     7
370
    15
100
AcDbLine
 10
226.0346220427
 20
183.4463812863
 30
0.0
 11
226.0346220427
 21
176.8290380048
 31
0.0
  0
LINE
  5
12C
330
1F
100
AcDbEntity
  8
0
  6
Continuous
 62
     7
370
    15
100
AcDbLine
 10
165.0346220427
 20
176.8290380048
 30
0.0
 11
170.0346220427
 21
176.8290380048
 31
0.0
  0
LINE
  5
12D
330
1F
100
AcDbEntity
  8
0
  6
Continuous
 62
     7
370
    15
100
AcDbLine
 10
165.0346220427
 20
183.4463812863
 30
0.0
 11
165.0346220427
 21
176.8290380048
 31
0.0
  0
LINE
  5
12E
330
1F
100
AcDbEntity
  8
0
  6
Continuous
 62
     7
370
    15
100
AcDbLine
 10
170.0346220427
 20
183.4463812863
 30
0.0
 11
170.0346220427
 21
176.8290380048
 31
0.0
  0
LINE
  5
12F
330
1F
100
AcDbEntity
  8
0
  6
Continuous
 62
     7
370
    15
100
AcDbLine
 10
190.4994967035
 20
360.5790380048
 30
0.0
 11
191.1138547931
 21
360.5790380048
 31
0.0
  0
LINE
  5
130
330
1F
100
AcDbEntity
  8
0
  6
Continuous
 62
     7
370
    15
100
AcDbLine
 10
173.1717370198
 20
372.5790380048
 30
0.0
 11
190.4994967035
 21
360.5790380048
 31
0.0
  0
LINE
  5
131
330
1F
100
AcDbEntity
  8
0
  6
Continuous
 62
     7
370
    15
100
AcDbLine
 10
183.1412985084
 20
372.5790380048
 30
0.0
 11
191.8069720154
 21
367.4819412911
 31
0.0
  0
ELLIPSE
  5
132
330
1F
100
AcDbEntity
  8
0
  6
Continuous
 62
     7
370
    15
100
AcDbEllipse
 10
198.0346220427
 20
298.2106429527
 30
0.0
 11
5.258935605407657
 21
144.4232168286792
 31
0.0
210
0.0
220
0.0
230
1.0
 40
0.0688611889
 41
1.073059956943189
 42
1.123132368958197
  0
LINE
  5
133
330
1F
100
AcDbEntity
  8
0
  6
Continuous
 62
     7
370
    15
100
AcDbLine
 10
191.1138547931
 20
360.5790380048
 30
0.0
 11
191.3458431875
 21
361.0522536663
 31
0.0
  0
LINE
  5
134
330
1F
100
AcDbEntity
  8
0
  6
Continuous
 62
     7
370
    15
100
AcDbLine
 10
205.569747382
 20
360.5790380048
 30
0.0
 11
222.8975070657
 21
372.5790380048
 31
0.0
  0
LINE
  5
135
330
1F
100
AcDbEntity
  8
0
  6
Continuous
 62
     7
370
    15
100
AcDbLine
 10
204.9553892924
 20
360.5790380048
 30
0.0
 11
205.569747382
 21
360.5790380048
 31
0.0
  0
LINE
  5
136
330
1F
100
AcDbEntity
  8
0
  6
Continuous
 62
     7
370
    15
100
AcDbLine
 10
204.723400898
 20
361.0522536663
 30
0.0
 11
204.9553892924
 21
360.5790380048
 31
0.0
  0
ELLIPSE
  5
137
330
1F
100
AcDbEntity
  8
0
  6
Continuous
 62
     7
370
    15
100
AcDbEllipse
 10
198.0346220427
 20
298.2106429527
 30
0.0
 11
-5.258935605407544
 21
144.4232168286788
 31
0.0
210
0.0
220
0.0
230
1.0
 40
0.0688611889
 41
5.160052938221426
 42
5.210125350236445
  0
LINE
  5
138
330
1F
100
AcDbEntity
  8
0
  6
Continuous
 62
     7
370
    15
100
AcDbLine
 10
212.9279455771
 20
372.5790380048
 30
0.0
 11
204.2622720701
 21
367.4819412911
 31
0.0
  0
LINE
  5
139
330
1F
100
AcDbEntity
  8
0
  6
Continuous
 62
     7
370
    15
100
AcDbLine
 10
175.1346151345
 20
272.8290380048
 30
0.0
 11
173.0738929478
 21
272.8290380048
 31
0.0
  0
LINE
  5
13A
330
1F
100
AcDbEntity
  8
0
  6
Continuous
 62
     7
370
    15
100
AcDbLine
 10
220.934628951
 20
272.8290380048
 30
0.0
 11
222.9953511377
 21
272.8290380048
 31
0.0
  0
SPLINE
  5
13B
330
1F
100
AcDbEntity
  8
0
  6
Continuous
 62
     7
370
    15
100
AcDbSpline
210
0.0
220
0.0
230
1.0
 70
     8
 71
     3
 72
    20
 73
    16
 74
     0
 42
0.00000001
 43
0.00000001
 12
1.0
 22
0.0
 32
0.0
 13
1.0
 23
0.0
 33
0.0
 40
0.0
 40
0.0
 40
0.0
 40
0.0
 40
0.2500000000000013
 40
0.2500000000000013
 40
0.3750000000000011
 40
0.3750000000000011
 40
0.5000000000000009
 40
0.5000000000000009
 40
0.6250000000000007
 40
0.6250000000000007
 40
0.7500000000000004
 40
0.7500000000000004
 40
0.8750000000000002
 40
0.8750000000000002
 40
1.0
 40
1.0
 40
1.0
 40
1.0
 10
215.752161355804
 20
233.7965870911954
 30
0.0
 10
215.5000979635298
 20
233.9681440281894
 30
0.0
 10
215.2804651797531
 20
234.1733033045001
 30
0.0
 10
214.9980870741019
 20
234.5298139855127
 30
0.0
 10
214.9126425506149
 20
234.6563703721339
 30
0.0
 10
214.7631915569859
 20
234.9176822492702
 30
0.0
 10
214.6984212077179
 20
235.0533612256517
 30
0.0
 10
214.5888379978898
 20
235.334789066377
 30
0.0
 10
214.5439847338609
 20
235.4814000905297
 30
0.0
 10
214.4772481588936
 20
235.7756821776522
 30
0.0
 10
214.4548666194948
 20
235.9243122933861
 30
0.0
 10
214.4318536098546
 20
236.224520387359
 30
0.0
 10
214.4313142977606
 20
236.3770418493368
 30
0.0
 10
214.4527780107738
 20
236.6801857015785
 30
0.0
 10
214.4745841308432
 20
236.8303676974469
 30
0.0
 10
214.5075676674151
 20
236.9791468163427
 30
0.0
  0
SPLINE
  5
13C
330
1F
100
AcDbEntity
  8
0
  6
Continuous
 62
     7
370
    15
100
AcDbSpline
210
0.0
220
0.0
230
1.0
 70
     8
 71
     3
 72
    38
 73
    34
 74
     0
 42
0.00000001
 43
0.00000001
 12
1.0
 22
0.0
 32
0.0
 13
1.0
 23
0.0
 33
0.0
 40
0.0
 40
0.0
 40
0.0
 40
0.0
 40
0.0312500000000001
 40
0.0312500000000001
 40
0.0625000000000003
 40
0.0625000000000003
 40
0.1250000000000006
 40
0.1250000000000006
 40
0.1875000000000008
 40
0.1875000000000008
 40
0.2500000000000011
 40
0.2500000000000011
 40
0.3750000000000014
 40
0.3750000000000014
 40
0.4062500000000015
 40
0.4062500000000015
 40
0.4375000000000016
 40
0.4375000000000016
 40
0.5000000000000016
 40
0.5000000000000016
 40
0.6250000000000018
 40
0.6250000000000018
 40
0.6562500000000018
 40
0.6562500000000018
 40
0.6875000000000017
 40
0.6875000000000017
 40
0.7500000000000012
 40
0.7500000000000012
 40
0.8750000000000007
 40
0.8750000000000007
 40
0.9375000000000003
 40
0.9375000000000003
 40
1.0
 40
1.0
 40
1.0
 40
1.0
 10
213.1732370028178
 20
217.7815633687325
 30
0.0
 10
213.1732370028178
 20
218.0159016818991
 30
0.0
 10
213.182008385594
 20
218.2489255182789
 30
0.0
 10
213.2077580268996
 20
218.7131261978745
 30
0.0
 10
213.2250031598702
 20
218.9442813825934
 30
0.0
 10
213.2846532724469
 20
219.6353582348451
 30
0.0
 10
213.3348214874927
 20
220.0929069375747
 30
0.0
 10
213.4453288183704
 20
221.0025761259467
 30
0.0
 10
213.5059364828514
 20
221.4546748290286
 30
0.0
 10
213.6335948793096
 20
222.3536830844097
 30
0.0
 10
213.7008796592503
 20
222.8015447359351
 30
0.0
 10
213.9057231984908
 20
224.1153893983653
 30
0.0
 10
214.0470668235082
 20
224.9589673235979
 30
0.0
 10
214.22360914028
 20
225.9737907880349
 30
0.0
 10
214.2589282493501
 20
226.1747567876587
 30
0.0
 10
214.3294886319033
 20
226.5726454172632
 30
0.0
 10
214.3648099906761
 20
226.7700095380891
 30
0.0
 10
214.469876910789
 20
227.3523500714399
 30
0.0
 10
214.5385973557901
 20
227.726943881117
 30
0.0
 10
214.7400608343614
 20
228.8109516696466
 30
0.0
 10
214.8681162879195
 20
229.4809019142995
 30
0.0
 10
215.0182627763853
 20
230.2513751053391
 30
0.0
 10
215.0477955172915
 20
230.4020966087981
 30
0.0
 10
215.1058102322889
 20
230.6966628988175
 30
0.0
 10
215.1343550660715
 20
230.8408211865983
 30
0.0
 10
215.2175562610131
 20
231.2588924838293
 30
0.0
 10
215.2699626222401
 20
231.5193603433287
 30
0.0
 10
215.4178670352761
 20
232.2473180756681
 30
0.0
 10
215.504112234422
 20
232.6617864998882
 30
0.0
 10
215.6134601152901
 20
233.1746371337202
 30
0.0
 10
215.6466529017293
 20
233.3277586082646
 30
0.0
 10
215.7052144567645
 20
233.5927218521679
 30
0.0
 10
215.7306491508805
 20
233.7048925594631
 30
0.0
 10
215.752161355808
 20
233.796587091196
 30
0.0
  0
SPLINE
  5
13D
330
1F
100
AcDbEntity
  8
0
  6
Continuous
 62
     7
370
    15
100
AcDbSpline
210
0.0
220
0.0
230
1.0
 70
     8
 71
     3
 72
    38
 73
    34
 74
     0
 42
0.00000001
 43
0.00000001
 12
1.0
 22
0.0
 32
0.0
 13
1.0
 23
0.0
 33
0.0
 40
0.0
 40
0.0
 40
0.0
 40
0.0
 40
0.0312500000000001
 40
0.0312500000000001
 40
0.0625000000000003
 40
0.0625000000000003
 40
0.1250000000000006
 40
0.1250000000000006
 40
0.1875000000000008
 40
0.1875000000000008
 40
0.2500000000000011
 40
0.2500000000000011
 40
0.3750000000000014
 40
0.3750000000000014
 40
0.4062500000000015
 40
0.4062500000000015
 40
0.4375000000000016
 40
0.4375000000000016
 40
0.5000000000000016
 40
0.5000000000000016
 40
0.6250000000000018
 40
0.6250000000000018
 40
0.6562500000000018
 40
0.6562500000000018
 40
0.6875000000000017
 40
0.6875000000000017
 40
0.7500000000000012
 40
0.7500000000000012
 40
0.8750000000000007
 40
0.8750000000000007
 40
0.9375000000000003
 40
0.9375000000000003
 40
1.0
 40
1.0
 40
1.0
 40
1.0
 10
182.8960070826693
 20
217.7815633687325
 30
0.0
 10
182.8960070826693
 20
218.0159016818991
 30
0.0
 10
182.8872356998932
 20
218.2489255182789
 30
0.0
 10
182.8614860585876
 20
218.7131261978745
 30
0.0
 10
182.844240925617
 20
218.9442813825934
 30
0.0
 10
182.7845908130402
 20
219.6353582348451
 30
0.0
 10
182.7344225979944
 20
220.0929069375747
 30
0.0
 10
182.6239152671168
 20
221.0025761259467
 30
0.0
 10
182.5633076026357
 20
221.4546748290286
 30
0.0
 10
182.4356492061775
 20
222.3536830844097
 30
0.0
 10
182.3683644262368
 20
222.8015447359351
 30
0.0
 10
182.1635208869963
 20
224.1153893983653
 30
0.0
 10
182.022177261979
 20
224.9589673235979
 30
0.0
 10
181.8456349452072
 20
225.9737907880349
 30
0.0
 10
181.810315836137
 20
226.1747567876587
 30
0.0
 10
181.7397554535839
 20
226.5726454172632
 30
0.0
 10
181.704434094811
 20
226.7700095380891
 30
0.0
 10
181.5993671746982
 20
227.3523500714399
 30
0.0
 10
181.530646729697
 20
227.726943881117
 30
0.0
 10
181.3291832511258
 20
228.8109516696466
 30
0.0
 10
181.2011277975677
 20
229.4809019142995
 30
0.0
 10
181.0509813091019
 20
230.2513751053391
 30
0.0
 10
181.0214485681957
 20
230.4020966087981
 30
0.0
 10
180.9634338531983
 20
230.6966628988175
 30
0.0
 10
180.9348890194157
 20
230.8408211865983
 30
0.0
 10
180.851687824474
 20
231.2588924838293
 30
0.0
 10
180.7992814632471
 20
231.5193603433287
 30
0.0
 10
180.651377050211
 20
232.2473180756681
 30
0.0
 10
180.5651318510652
 20
232.6617864998882
 30
0.0
 10
180.4557839701971
 20
233.1746371337202
 30
0.0
 10
180.4225911837579
 20
233.3277586082646
 30
0.0
 10
180.3640296287226
 20
233.5927218521679
 30
0.0
 10
180.3385949346066
 20
233.7048925594631
 30
0.0
 10
180.3170827296792
 20
233.796587091196
 30
0.0
  0
SPLINE
  5
13E
330
1F
100
AcDbEntity
  8
0
  6
Continuous
 62
     7
370
    15
100
AcDbSpline
210
0.0
220
0.0
230
1.0
 70
     8
 71
     3
 72
    20
 73
    16
 74
     0
 42
0.00000001
 43
0.00000001
 12
1.0
 22
0.0
 32
0.0
 13
1.0
 23
0.0
 33
0.0
 40
0.0
 40
0.0
 40
0.0
 40
0.0
 40
0.2500000000000013
 40
0.2500000000000013
 40
0.3750000000000011
 40
0.3750000000000011
 40
0.5000000000000009
 40
0.5000000000000009
 40
0.6250000000000007
 40
0.6250000000000007
 40
0.7500000000000004
 40
0.7500000000000004
 40
0.8750000000000002
 40
0.8750000000000002
 40
1.0
 40
1.0
 40
1.0
 40
1.0
 10
180.3170827296832
 20
233.7965870911954
 30
0.0
 10
180.5691461219574
 20
233.9681440281894
 30
0.0
 10
180.788778905734
 20
234.1733033045001
 30
0.0
 10
181.0711570113853
 20
234.5298139855127
 30
0.0
 10
181.1566015348722
 20
234.6563703721339
 30
0.0
 10
181.3060525285012
 20
234.9176822492702
 30
0.0
 10
181.3708228777693
 20
235.0533612256517
 30
0.0
 10
181.4804060875974
 20
235.334789066377
 30
0.0
 10
181.5252593516263
 20
235.4814000905297
 30
0.0
 10
181.5919959265936
 20
235.7756821776522
 30
0.0
 10
181.6143774659924
 20
235.9243122933861
 30
0.0
 10
181.6373904756326
 20
236.224520387359
 30
0.0
 10
181.6379297877266
 20
236.3770418493368
 30
0.0
 10
181.6164660747134
 20
236.6801857015785
 30
0.0
 10
181.594659954644
 20
236.8303676974469
 30
0.0
 10
181.5616764180721
 20
236.9791468163427
 30
0.0
  0
LINE
  5
13F
330
1F
100
AcDbEntity
  8
0
  6
Continuous
 62
     7
370
    15
100
AcDbLine
 10
189.4514448307
 20
360.5790380048
 30
0.0
 11
172.013527422
 21
372.5790380048
 31
0.0
  0
LINE
  5
140
330
1F
100
AcDbEntity
  8
0
  6
Continuous
 62
     7
370
    15
100
AcDbLine
 10
190.4994967035
 20
360.5790380048
 30
0.0
 11
189.4514448307
 21
360.5790380048
 31
0.0
  0
LINE
  5
141
330
1F
100
AcDbEntity
  8
0
  6
Continuous
 62
     7
370
    15
100
AcDbLine
 10
224.0557166635
 20
372.5790380048
 30
0.0
 11
206.6177992547
 21
360.5790380048
 31
0.0
  0
LINE
  5
142
330
1F
100
AcDbEntity
  8
0
  6
Continuous
 62
     7
370
    15
100
AcDbLine
 10
206.6177992547
 20
360.5790380048
 30
0.0
 11
205.569747382
 21
360.5790380048
 31
0.0
  0
SPLINE
  5
143
330
1F
100
AcDbEntity
  8
0
  6
Continuous
 62
     7
370
    15
100
AcDbSpline
210
0.0
220
0.0
230
1.0
 70
     8
 71
     3
 72
    24
 73
    20
 74
     0
 42
0.00000001
 43
0.00000001
 12
1.0
 22
0.0
 32
0.0
 13
1.0
 23
0.0
 33
0.0
 40
0.0
 40
0.0
 40
0.0
 40
0.0
 40
0.2500000000000007
 40
0.2500000000000007
 40
0.375000000000001
 40
0.375000000000001
 40
0.5000000000000013
 40
0.5000000000000013
 40
0.6250000000000017
 40
0.6250000000000017
 40
0.6875000000000012
 40
0.6875000000000012
 40
0.7500000000000007
 40
0.7500000000000007
 40
0.8125
 40
0.8125
 40
0.8749999999999994
 40
0.8749999999999994
 40
1.0
 40
1.0
 40
1.0
 40
1.0
 10
181.3534625274557
 20
283.329038004752
 30
0.0
 10
181.4090299250382
 20
283.6539045697525
 30
0.0
 10
181.4994069004815
 20
283.9687886802956
 30
0.0
 10
181.6968698567238
 20
284.4233702063232
 30
0.0
 10
181.7738307171867
 20
284.5726871430757
 30
0.0
 10
181.9474587562418
 20
284.8546775460166
 30
0.0
 10
182.0443868254088
 20
284.9884117338557
 30
0.0
 10
182.262482249304
 20
285.2383054998189
 30
0.0
 10
182.3834671788925
 20
285.353697127404
 30
0.0
 10
182.5789502776117
 20
285.5025369813533
 30
0.0
 10
182.6467199948669
 20
285.5483992138103
 30
0.0
 10
182.7880953864854
 20
285.6316306884399
 30
0.0
 10
182.8614937761986
 20
285.6687622280935
 30
0.0
 10
183.0100324330996
 20
285.7315063612882
 30
0.0
 10
183.0856742791039
 20
285.7574344005303
 30
0.0
 10
183.2397740258806
 20
285.797777852348
 30
0.0
 10
183.3188558446814
 20
285.8121813574012
 30
0.0
 10
183.5523615547626
 20
285.8362132334226
 30
0.0
 10
183.7049716702653
 20
285.8276851092403
 30
0.0
 10
183.8545698841409
 20
285.7968038183975
 30
0.0
  0
SPLINE
  5
144
330
1F
100
AcDbEntity
  8
0
  6
Continuous
 62
     7
370
    15
100
AcDbSpline
210
0.0
220
0.0
230
1.0
 70
     8
 71
     3
 72
    24
 73
    20
 74
     0
 42
0.00000001
 43
0.00000001
 12
1.0
 22
0.0
 32
0.0
 13
1.0
 23
0.0
 33
0.0
 40
0.0
 40
0.0
 40
0.0
 40
0.0
 40
0.2500000000000007
 40
0.2500000000000007
 40
0.375000000000001
 40
0.375000000000001
 40
0.5000000000000013
 40
0.5000000000000013
 40
0.6250000000000017
 40
0.6250000000000017
 40
0.6875000000000012
 40
0.6875000000000012
 40
0.7500000000000007
 40
0.7500000000000007
 40
0.8125
 40
0.8125
 40
0.8749999999999994
 40
0.8749999999999994
 40
1.0
 40
1.0
 40
1.0
 40
1.0
 10
214.7157815580315
 20
283.329038004752
 30
0.0
 10
214.660214160449
 20
283.6539045697525
 30
0.0
 10
214.5698371850057
 20
283.9687886802956
 30
0.0
 10
214.3723742287634
 20
284.4233702063232
 30
0.0
 10
214.2954133683005
 20
284.5726871430757
 30
0.0
 10
214.1217853292454
 20
284.8546775460166
 30
0.0
 10
214.0248572600783
 20
284.9884117338557
 30
0.0
 10
213.8067618361831
 20
285.2383054998189
 30
0.0
 10
213.6857769065947
 20
285.353697127404
 30
0.0
 10
213.4902938078754
 20
285.5025369813533
 30
0.0
 10
213.4225240906202
 20
285.5483992138103
 30
0.0
 10
213.2811486990018
 20
285.6316306884399
 30
0.0
 10
213.2077503092886
 20
285.6687622280935
 30
0.0
 10
213.0592116523876
 20
285.7315063612882
 30
0.0
 10
212.9835698063833
 20
285.7574344005303
 30
0.0
 10
212.8294700596065
 20
285.797777852348
 30
0.0
 10
212.7503882408058
 20
285.8121813574012
 30
0.0
 10
212.5168825307246
 20
285.8362132334226
 30
0.0
 10
212.3642724152218
 20
285.8276851092403
 30
0.0
 10
212.2146742013463
 20
285.7968038183975
 30
0.0
  0
SPLINE
  5
145
330
1F
100
AcDbEntity
  8
0
  6
Continuous
 62
     7
370
    15
100
AcDbSpline
210
0.0
220
0.0
230
1.0
 70
     8
 71
     3
 72
     8
 73
     4
 74
     0
 42
0.00000001
 43
0.00000001
 12
1.0
 22
0.0
 32
0.0
 13
1.0
 23
0.0
 33
0.0
 40
0.0
 40
0.0
 40
0.0
 40
0.0
 40
1.0
 40
1.0
 40
1.0
 40
1.0
 10
170.0346220427436
 20
200.4225944217412
 30
0.0
 10
174.322270477365
 20
201.2722456913749
 30
0.0
 10
178.6094883961146
 20
202.1240636347515
 30
0.0
 10
182.8960070826693
 20
202.9793691342093
 30
0.0
  0
SPLINE
  5
146
330
1F
100
AcDbEntity
  8
0
  6
Continuous
 62
     7
370
    15
100
AcDbSpline
210
0.0
220
0.0
230
1.0
 70
     8
 71
     3
 72
     8
 73
     4
 74
     0
 42
0.00000001
 43
0.00000001
 12
1.0
 22
0.0
 32
0.0
 13
1.0
 23
0.0
 33
0.0
 40
0.0
 40
0.0
 40
0.0
 40
0.0
 40
1.0
 40
1.0
 40
1.0
 40
1.0
 10
170.0346220427436
 20
235.8272773540496
 30
0.0
 10
173.4623395290639
 20
235.1515453060832
 30
0.0
 10
176.8898568423249
 20
234.4747987110517
 30
0.0
 10
180.3170827296832
 20
233.7965870911954
 30
0.0
  0
LINE
  5
147
330
1F
100
AcDbEntity
  8
0
  6
Continuous
 62
     7
370
    15
100
AcDbLine
 10
182.8960070827
 20
217.7815633687
 30
0.0
 11
182.8960070827
 21
202.9793691342
 31
0.0
  0
SPLINE
  5
148
330
1F
100
AcDbEntity
  8
0
  6
Continuous
 62
     7
370
    15
100
AcDbSpline
210
0.0
220
0.0
230
1.0
 70
     8
 71
     3
 72
     8
 73
     4
 74
     0
 42
0.00000001
 43
0.00000001
 12
1.0
 22
0.0
 32
0.0
 13
1.0
 23
0.0
 33
0.0
 40
0.0
 40
0.0
 40
0.0
 40
0.0
 40
1.0
 40
1.0
 40
1.0
 40
1.0
 10
226.0346220427436
 20
235.8272773540496
 30
0.0
 10
222.6069045564233
 20
235.1515453060832
 30
0.0
 10
219.1793872431623
 20
234.4747987110517
 30
0.0
 10
215.752161355804
 20
233.7965870911954
 30
0.0
  0
SPLINE
  5
149
330
1F
100
AcDbEntity
  8
0
  6
Continuous
 62
     7
370
    15
100
AcDbSpline
210
0.0
220
0.0
230
1.0
 70
     8
 71
     3
 72
     8
 73
     4
 74
     0
 42
0.00000001
 43
0.00000001
 12
1.0
 22
0.0
 32
0.0
 13
1.0
 23
0.0
 33
0.0
 40
0.0
 40
0.0
 40
0.0
 40
0.0
 40
1.0
 40
1.0
 40
1.0
 40
1.0
 10
226.0346220427436
 20
200.4225944217412
 30
0.0
 10
221.7469736081221
 20
201.2722456913749
 30
0.0
 10
217.4597556893725
 20
202.1240636347515
 30
0.0
 10
213.1732370028178
 20
202.9793691342093
 30
0.0
  0
LINE
  5
14A
330
1F
100
AcDbEntity
  8
0
  6
Continuous
 62
     7
370
    15
100
AcDbLine
 10
213.1732370028
 20
217.7815633687
 30
0.0
 11
213.1732370028
 21
202.9793691342
 31
0.0
  0
LINE
  5
14B
330
1F
100
AcDbEntity
  8
0
  6
Continuous
 62
     7
370
    15
100
AcDbLine
 10
182.0346220427
 20
294.3290380048
 30
0.0
 11
214.0346220412
 21
294.3290380048
 31
0.0
  0
LINE
  5
14C
330
1F
100
AcDbEntity
  8
0
  6
Continuous
 62
     7
370
    15
100
AcDbLine
 10
215.8752797086
 20
243.1484971511
 30
0.0
 11
214.5075676674
 21
236.9791468163
 31
0.0
  0
LINE
  5
14D
330
1F
100
AcDbEntity
  8
0
  6
Continuous
 62
     7
370
    15
100
AcDbLine
 10
180.1939643769
 20
243.1484971511
 30
0.0
 11
181.5616764181
 21
236.9791468163
 31
0.0
  0
LINE
  5
14E
330
1F
100
AcDbEntity
  8
0
  6
Continuous
 62
     7
370
    15
100
AcDbLine
 10
196.9448973069
 20
319.3290380048
 30
0.0
 11
196.2846220427
 21
319.3290380048
 31
0.0
  0
LINE
  5
14F
330
1F
100
AcDbEntity
  8
0
  6
Continuous
 62
     7
370
    15
100
AcDbLine
 10
199.7846220427
 20
319.3290380048
 30
0.0
 11
199.1243467786
 21
319.3290380048
 31
0.0
  0
LINE
  5
150
330
1F
100
AcDbEntity
  8
0
  6
Continuous
 62
     7
370
    15
100
AcDbLine
 10
199.7846220427
 20
319.3290380048
 30
0.0
 11
199.7846220427
 21
294.3334372028
 31
0.0
  0
LINE
  5
151
330
1F
100
AcDbEntity
  8
0
  6
Continuous
 62
     7
370
    15
100
AcDbLine
 10
196.2846220427
 20
319.3290380048
 30
0.0
 11
196.2846220427
 21
294.3334372028
 31
0.0
  0
LINE
  5
152
330
1F
100
AcDbEntity
  8
0
  6
Continuous
 62
     7
370
    15
100
AcDbLine
 10
182.8960070827
 20
202.9793691342
 30
0.0
 11
213.1732370028
 21
202.9793691342
 31
0.0
  0
LINE
  5
153
330
1F
100
AcDbEntity
  8
0
  6
Continuous
 62
     7
370
    15
100
AcDbLine
 10
189.2846220427
 20
343.3290380048
 30
0.0
 11
189.2846220427
 21
339.3290380048
 31
0.0
  0
LINE
  5
154
330
1F
100
AcDbEntity
  8
0
  6
Continuous
 62
     7
370
    15
100
AcDbLine
 10
206.7846220427
 20
343.3290380048
 30
0.0
 11
206.7846220427
 21
339.3290380048
 31
0.0
  0
CIRCLE
  5
155
330
1F
100
AcDbEntity
  8
0
  6
Continuous
 62
     7
370
    15
100
AcDbCircle
 10
202.5346220427
 20
341.3290380048
 30
0.0
 40
1.0
  0
CIRCLE
  5
156
330
1F
100
AcDbEntity
  8
0
  6
Continuous
 62
     7
370
    15
100
AcDbCircle
 10
193.5346220427
 20
341.3290380048
 30
0.0
 40
1.0
  0
LINE
  5
157
330
1F
100
AcDbEntity
  8
0
  6
Continuous
 62
     7
370
    15
100
AcDbLine
 10
189.2846220427
 20
343.3290380048
 30
0.0
 11
206.7846220427
 21
343.3290380048
 31
0.0
  0
LINE
  5
158
330
1F
100
AcDbEntity
  8
0
  6
Continuous
 62
     7
370
    15
100
AcDbLine
 10
189.2846220427
 20
339.3290380048
 30
0.0
 11
206.7846220427
 21
339.3290380048
 31
0.0
  0
LINE
  5
159
330
1F
100
AcDbEntity
  8
0
  6
Continuous
 62
     7
370
    15
100
AcDbLine
 10
186.0841757968
 20
360.5790380048
 30
0.0
 11
168.6186348808
 21
372.5790380048
 31
0.0
  0
LINE
  5
15A
330
1F
100
AcDbEntity
  8
0
  6
Continuous
 62
     7
370
    15
100
AcDbLine
 10
169.7768444786
 20
372.5790380048
 30
0.0
 11
187.1322276696
 21
360.5790380048
 31
0.0
  0
LINE
  5
15B
330
1F
100
AcDbEntity
  8
0
  6
Continuous
 62
     7
370
    15
100
AcDbLine
 10
187.1322276696
 20
360.5790380048
 30
0.0
 11
186.0841757968
 21
360.5790380048
 31
0.0
  0
ELLIPSE
  5
15C
330
1F
100
AcDbEntity
  8
0
  6
Continuous
 62
     7
370
    15
100
AcDbEllipse
 10
198.0346220427
 20
404.5123268099
 30
0.0
 11
5.400777236139532
 21
240.9766160985929
 31
0.0
210
0.0
220
0.0
230
1.0
 40
0.0409535387
 41
1.748995730647803
 42
1.755052968898187
  0
LINE
  5
15D
330
1F
100
AcDbEntity
  8
0
  6
Continuous
 62
     7
370
    15
100
AcDbLine
 10
187.1322276696
 20
360.5790380048
 30
0.0
 11
187.3433218211
 21
360.5790380048
 31
0.0
  0
LINE
  5
15E
330
1F
100
AcDbEntity
  8
0
  6
Continuous
 62
     7
370
    15
100
AcDbLine
 10
208.9370164159
 20
360.5790380048
 30
0.0
 11
226.2923996069
 21
372.5790380048
 31
0.0
  0
LINE
  5
15F
330
1F
100
AcDbEntity
  8
0
  6
Continuous
 62
     7
370
    15
100
AcDbLine
 10
208.7259222643
 20
360.5790380048
 30
0.0
 11
208.9370164159
 21
360.5790380048
 31
0.0
  0
ELLIPSE
  5
160
330
1F
100
AcDbEntity
  8
0
  6
Continuous
 62
     7
370
    15
100
AcDbEllipse
 10
198.0346220427
 20
404.5123268099
 30
0.0
 11
-5.400777236139419
 21
240.976616098592
 31
0.0
210
0.0
220
0.0
230
1.0
 40
0.0409535387
 41
4.528132338281409
 42
4.534189576531794
  0
LINE
  5
161
330
1F
100
AcDbEntity
  8
0
  6
Continuous
 62
     7
370
    15
100
AcDbLine
 10
227.4506092047
 20
372.5790380048
 30
0.0
 11
209.9850682887
 21
360.5790380048
 31
0.0
  0
LINE
  5
162
330
1F
100
AcDbEntity
  8
0
  6
Continuous
 62
     7
370
    15
100
AcDbLine
 10
209.9850682887
 20
360.5790380048
 30
0.0
 11
208.9370164159
 21
360.5790380048
 31
0.0
  0
LINE
  5
163
330
1F
100
AcDbEntity
  8
0
  6
Continuous
 62
     7
370
    15
100
AcDbLine
 10
215.9834708129
 20
244.1357506614
 30
0.0
 11
215.983470813
 21
250.1241872844
 31
0.0
  0
LINE
  5
164
330
1F
100
AcDbEntity
  8
0
  6
Continuous
 62
     7
370
    15
100
AcDbLine
 10
180.0857732726
 20
244.1357506614
 30
0.0
 11
180.0857732725
 21
250.1241872844
 31
0.0
  0
SPLINE
  5
165
330
1F
100
AcDbEntity
  8
0
  6
Continuous
 62
     7
370
    15
100
AcDbSpline
210
0.0
220
0.0
230
1.0
 70
     8
 71
     3
 72
     8
 73
     4
 74
     0
 42
0.00000001
 43
0.00000001
 12
1.0
 22
0.0
 32
0.0
 13
1.0
 23
0.0
 33
0.0
 40
0.0
 40
0.0
 40
0.0
 40
0.0
 40
1.0
 40
1.0
 40
1.0
 40
1.0
 10
215.8752797085943
 20
243.148497151051
 30
0.0
 10
215.9473609383006
 20
243.4736345668412
 30
0.0
 10
215.9834708129236
 20
243.8027140102766
 30
0.0
 10
215.9834708129236
 20
244.1357506614318
 30
0.0
  0
SPLINE
  5
166
330
1F
100
AcDbEntity
  8
0
  6
Continuous
 62
     7
370
    15
100
AcDbSpline
210
0.0
220
0.0
230
1.0
 70
     8
 71
     3
 72
     8
 73
     4
 74
     0
 42
0.00000001
 43
0.00000001
 12
1.0
 22
0.0
 32
0.0
 13
1.0
 23
0.0
 33
0.0
 40
0.0
 40
0.0
 40
0.0
 40
0.0
 40
1.0
 40
1.0
 40
1.0
 40
1.0
 10
180.1939643768928
 20
243.148497151051
 30
0.0
 10
180.1218831471866
 20
243.4736345668412
 30
0.0
 10
180.0857732725635
 20
243.8027140102766
 30
0.0
 10
180.0857732725635
 20
244.1357506614318
 30
0.0
  0
LINE
  5
167
330
1F
100
AcDbEntity
  8
0
  6
Continuous
 62
     7
370
    15
100
AcDbLine
 10
199.7846220427
 20
304.3922795479
 30
0.0
 11
209.6602010453
 21
304.3922795479
 31
0.0
  0
LINE
  5
168
330
1F
100
AcDbEntity
  8
0
  6
Continuous
 62
     7
370
    15
100
AcDbLine
 10
186.4090430402
 20
304.3922795479
 30
0.0
 11
196.2846220427
 21
304.3922795479
 31
0.0
  0
LINE
  5
169
330
1F
100
AcDbEntity
  8
0
  6
Continuous
 62
     7
370
    15
100
AcDbLine
 10
198.4268834239
 20
319.5790380048
 30
0.0
 11
199.8523811158
 21
319.5790380048
 31
0.0
  0
LINE
  5
16A
330
1F
100
AcDbEntity
  8
0
  6
Continuous
 62
     7
370
    15
100
AcDbLine
 10
197.001385732
 20
319.5790380048
 30
0.0
 11
198.4268834239
 21
319.5790380048
 31
0.0
  0
LINE
  5
16B
330
1F
100
AcDbEntity
  8
0
  6
Continuous
 62
     7
370
    15
100
AcDbLine
 10
197.001385732
 20
319.5790380048
 30
0.0
 11
197.001385732
 21
321.7057470111
 31
0.0
  0
SPLINE
  5
16C
330
1F
100
AcDbEntity
  8
0
  6
Continuous
 62
     7
370
    15
100
AcDbSpline
210
0.0
220
0.0
230
1.0
 70
     8
 71
     3
 72
    12
 73
     8
 74
     0
 42
0.00000001
 43
0.00000001
 12
1.0
 22
0.0
 32
0.0
 13
1.0
 23
0.0
 33
0.0
 40
0.0
 40
0.0
 40
0.0
 40
0.0
 40
0.2499999999999987
 40
0.2499999999999987
 40
0.4999999999999973
 40
0.4999999999999973
 40
1.0
 40
1.0
 40
1.0
 40
1.0
 10
198.4268834238835
 20
321.9290380047507
 30
0.0
 10
198.305905800294
 20
321.9290380047507
 30
0.0
 10
198.1843858857069
 20
321.9237602244891
 30
0.0
 10
197.94399408494
 20
321.9033358612089
 30
0.0
 10
197.8246021998175
 20
321.8882089061889
 30
0.0
 10
197.4685470500869
 20
321.8298658435647
 30
0.0
 10
197.233996040164
 20
321.7737379747013
 30
0.0
 10
197.00138573198
 20
321.7057470110583
 30
0.0
  0
SPLINE
  5
16D
330
1F
100
AcDbEntity
  8
0
  6
Continuous
 62
     7
370
    15
100
AcDbSpline
210
0.0
220
0.0
230
1.0
 70
     8
 71
     3
 72
     8
 73
     4
 74
     0
 42
0.00000001
 43
0.00000001
 12
1.0
 22
0.0
 32
0.0
 13
1.0
 23
0.0
 33
0.0
 40
0.0
 40
0.0
 40
0.0
 40
0.0
 40
1.0
 40
1.0
 40
1.0
 40
1.0
 10
199.852381115787
 20
321.7057470110585
 30
0.0
 10
199.3859963785104
 20
321.8420692057341
 30
0.0
 10
198.9126094273577
 20
321.9290380047507
 30
0.0
 10
198.4268834238835
 20
321.9290380047507
 30
0.0
  0
LINE
  5
16E
330
1F
100
AcDbEntity
  8
0
  6
Continuous
 62
     7
370
    15
100
AcDbLine
 10
199.8523811158
 20
319.5790380048
 30
0.0
 11
199.8523811158
 21
321.7057470111
 31
0.0
  0
SPLINE
  5
16F
330
1F
100
AcDbEntity
  8
0
  6
Continuous
 62
     7
370
    15
100
AcDbSpline
210
0.0
220
0.0
230
1.0
 70
     8
 71
     3
 72
    10
 73
     6
 74
     0
 42
0.00000001
 43
0.00000001
 12
1.0
 22
0.0
 32
0.0
 13
1.0
 23
0.0
 33
0.0
 40
0.0
 40
0.0
 40
0.0
 40
0.0
 40
0.5
 40
0.5
 40
1.0
 40
1.0
 40
1.0
 40
1.0
 10
196.0925061954584
 20
321.9290380047507
 30
0.0
 10
196.2461831406713
 20
321.9290380047507
 30
0.0
 10
196.401949662457
 20
321.9074928312335
 30
0.0
 10
196.7055365149606
 20
321.8292276511909
 30
0.0
 10
196.8544249779844
 20
321.7731196881156
 30
0.0
 10
197.0013857319801
 20
321.7057470110581
 30
0.0
  0
LINE
  5
170
330
1F
100
AcDbEntity
  8
0
  6
Continuous
 62
     7
370
    15
100
AcDbLine
 10
196.0925061955
 20
321.9290380048
 30
0.0
 11
198.4268834239
 21
321.9290380048
 31
0.0
  0
LINE
  5
171
330
1F
100
AcDbEntity
  8
0
  6
Continuous
 62
     7
370
    15
100
AcDbLine
 10
197.001385732
 20
319.5790380048
 30
0.0
 11
196.0925061955
 21
319.5790380048
 31
0.0
  0
LINE
  5
172
330
1F
100
AcDbEntity
  8
0
  6
Continuous
 62
     7
370
    15
100
AcDbLine
 10
196.0925061955
 20
319.5790380048
 30
0.0
 11
195.1836266589
 21
319.5790380048
 31
0.0
  0
LINE
  5
173
330
1F
100
AcDbEntity
  8
0
  6
Continuous
 62
     7
370
    15
100
AcDbLine
 10
195.1836266589
 20
319.5790380048
 30
0.0
 11
195.1836266589
 21
321.7057470111
 31
0.0
  0
SPLINE
  5
174
330
1F
100
AcDbEntity
  8
0
  6
Continuous
 62
     7
370
    15
100
AcDbSpline
210
0.0
220
0.0
230
1.0
 70
     8
 71
     3
 72
    10
 73
     6
 74
     0
 42
0.00000001
 43
0.00000001
 12
1.0
 22
0.0
 32
0.0
 13
1.0
 23
0.0
 33
0.0
 40
0.0
 40
0.0
 40
0.0
 40
0.0
 40
0.5
 40
0.5
 40
1.0
 40
1.0
 40
1.0
 40
1.0
 10
195.1836266589367
 20
321.7057470110581
 30
0.0
 10
195.3314485521451
 20
321.7735144687118
 30
0.0
 10
195.4828471697472
 20
321.8303534181283
 30
0.0
 10
195.786329854356
 20
321.9080727853247
 30
0.0
 10
195.9389205009229
 20
321.9290380047507
 30
0.0
 10
196.0925061954584
 20
321.9290380047507
 30
0.0
  0
SPLINE
  5
175
330
1F
100
AcDbEntity
  8
0
  6
Continuous
 62
     7
370
    15
100
AcDbSpline
210
0.0
220
0.0
230
1.0
 70
     8
 71
     3
 72
    12
 73
     8
 74
     0
 42
0.00000001
 43
0.00000001
 12
1.0
 22
0.0
 32
0.0
 13
1.0
 23
0.0
 33
0.0
 40
0.0
 40
0.0
 40
0.0
 40
0.0
 40
0.249999999999998
 40
0.249999999999998
 40
0.499999999999996
 40
0.499999999999996
 40
1.0
 40
1.0
 40
1.0
 40
1.0
 10
200.3689992711687
 20
321.9290380047507
 30
0.0
 10
200.3251554704413
 20
321.9290380047507
 30
0.0
 10
200.2811151366878
 20
321.9237602244891
 30
0.0
 10
200.1939941477263
 20
321.9033358612089
 30
0.0
 10
200.1507250384111
 20
321.8882089061889
 30
0.0
 10
200.0216862081746
 20
321.8298658435647
 30
0.0
 10
199.9366819947146
 20
321.7737379747013
 30
0.0
 10
199.852381115787
 20
321.7057470110583
 30
0.0
  0
LINE
  5
176
330
1F
100
AcDbEntity
  8
0
  6
Continuous
 62
     7
370
    15
100
AcDbLine
 10
200.3689992712
 20
321.9290380048
 30
0.0
 11
198.4268834239
 21
321.9290380048
 31
0.0
  0
LINE
  5
177
330
1F
100
AcDbEntity
  8
0
  6
Continuous
 62
     7
370
    15
100
AcDbLine
 10
200.5346220427
 20
319.3290380048
 30
0.0
 11
199.7846220427
 21
319.3290380048
 31
0.0
  0
LINE
  5
178
330
1F
100
AcDbEntity
  8
0
  6
Continuous
 62
     7
370
    15
100
AcDbLine
 10
196.2846220427
 20
319.3290380048
 30
0.0
 11
195.5346220427
 21
319.3290380048
 31
0.0
  0
LINE
  5
179
330
1F
100
AcDbEntity
  8
0
  6
Continuous
 62
     7
370
    15
100
AcDbLine
 10
199.1243467786
 20
319.3290380048
 30
0.0
 11
196.9448973069
 21
319.3290380048
 31
0.0
  0
LINE
  5
17A
330
1F
100
AcDbEntity
  8
0
  6
Continuous
 62
     7
370
    15
100
AcDbLine
 10
191.1138547931
 20
360.5790380048
 30
0.0
 11
204.9553892924
 21
360.5790380048
 31
0.0
  0
LINE
  5
17B
330
1F
100
AcDbEntity
  8
0
  6
Continuous
 62
     7
370
    15
100
AcDbLine
 10
186.7846220427
 20
371.5790380048
 30
0.0
 11
209.2846220427
 21
371.5790380048
 31
0.0
  0
LINE
  5
17C
330
1F
100
AcDbEntity
  8
0
  6
Continuous
 62
     7
370
    15
100
AcDbLine
 10
200.3689992712
 20
319.5790380048
 30
0.0
 11
200.8856174266
 21
319.5790380048
 31
0.0
  0
SPLINE
  5
17D
330
1F
100
AcDbEntity
  8
0
  6
Continuous
 62
     7
370
    15
100
AcDbSpline
210
0.0
220
0.0
230
1.0
 70
     8
 71
     3
 72
     8
 73
     4
 74
     0
 42
0.00000001
 43
0.00000001
 12
1.0
 22
0.0
 32
0.0
 13
1.0
 23
0.0
 33
0.0
 40
0.0
 40
0.0
 40
0.0
 40
0.0
 40
1.0
 40
1.0
 40
1.0
 40
1.0
 10
200.8856174265505
 20
321.7057470110585
 30
0.0
 10
200.7165937767484
 20
321.8420692057341
 30
0.0
 10
200.5450324372419
 20
321.9290380047507
 30
0.0
 10
200.3689992711687
 20
321.9290380047507
 30
0.0
  0
LINE
  5
17E
330
1F
100
AcDbEntity
  8
0
  6
Continuous
 62
     7
370
    15
100
AcDbLine
 10
200.8856174266
 20
319.5790380048
 30
0.0
 11
200.8856174266
 21
321.7057470111
 31
0.0
  0
LINE
  5
17F
330
1F
100
AcDbEntity
  8
0
  6
Continuous
 62
     7
370
    15
100
AcDbLine
 10
199.8523811158
 20
319.5790380048
 30
0.0
 11
200.3689992712
 21
319.5790380048
 31
0.0
  0
LINE
  5
180
330
1F
100
AcDbEntity
  8
0
  6
Continuous
 62
     7
370
    15
100
AcDbLine
 10
199.7846220427
 20
316.3290380048
 30
0.0
 11
207.6111751927
 21
316.3290380048
 31
0.0
  0
LINE
  5
181
330
1F
100
AcDbEntity
  8
0
  6
Continuous
 62
     7
370
    15
100
AcDbLine
 10
188.4580688928
 20
316.3290380048
 30
0.0
 11
196.2846220427
 21
316.3290380048
 31
0.0
  0
LINE
  5
182
330
1F
100
AcDbEntity
  8
0
  6
Continuous
 62
     7
370
    15
100
AcDbLine
 10
195.1836266589
 20
321.7057470111
 30
0.0
 11
195.3565169432
 21
321.780473079
 31
0.0
  0
LINE
  5
183
330
1F
100
AcDbEntity
  8
0
  6
Continuous
 62
     7
370
    15
100
AcDbLine
 10
196.0925061955
 20
321.9290380048
 30
0.0
 11
195.5346220427
 21
321.9290380048
 31
0.0
  0
LINE
  5
184
330
1F
100
AcDbEntity
  8
0
  6
Continuous
 62
     7
370
    15
100
AcDbLine
 10
196.5346220427
 20
333.8290380048
 30
0.0
 11
199.5346220427
 21
333.8290380048
 31
0.0
  0
LINE
  5
185
330
1F
100
AcDbEntity
  8
0
  6
Continuous
 62
     7
370
    15
100
AcDbLine
 10
196.5346220427
 20
334.8290380048
 30
0.0
 11
199.5346220427
 21
334.8290380048
 31
0.0
  0
LINE
  5
186
330
1F
100
AcDbEntity
  8
0
  6
Continuous
 62
     7
370
    15
100
AcDbLine
 10
196.5346220427
 20
347.5790380048
 30
0.0
 11
199.5346220427
 21
347.5790380048
 31
0.0
  0
LINE
  5
187
330
1F
100
AcDbEntity
  8
0
  6
Continuous
 62
     7
370
    15
100
AcDbLine
 10
196.5346220427
 20
348.5790380048
 30
0.0
 11
199.5346220427
 21
348.5790380048
 31
0.0
  0
LINE
  5
188
330
1F
100
AcDbEntity
  8
0
  6
Continuous
 62
     7
370
    15
100
AcDbLine
 10
196.5346220427
 20
351.6771142161
 30
0.0
 11
199.5346220427
 21
351.6771142161
 31
0.0
  0
LINE
  5
189
330
1F
100
AcDbEntity
  8
0
  6
Continuous
 62
     7
370
    15
100
AcDbLine
 10
200.5346220427
 20
321.9290380048
 30
0.0
 11
200.3689992712
 21
321.9290380048
 31
0.0
  0
LINE
  5
18A
330
1F
100
AcDbEntity
  8
0
  6
Continuous
 62
     7
370
    15
100
AcDbLine
 10
200.5103919691
 20
319.3290380048
 30
0.0
 11
207.0346220427
 21
319.3290380048
 31
0.0
  0
LINE
  5
18B
330
1F
100
AcDbEntity
  8
0
  6
Continuous
 62
     7
370
    15
100
AcDbLine
 10
189.0346220427
 20
319.3290380048
 30
0.0
 11
195.5588521164
 21
319.3290380048
 31
0.0
  0
LINE
  5
18C
330
1F
100
AcDbEntity
  8
0
  6
Continuous
 62
     7
370
    15
100
AcDbLine
 10
187.3433218211
 20
360.5790380048
 30
0.0
 11
189.4514448307
 21
360.5790380048
 31
0.0
  0
LINE
  5
18D
330
1F
100
AcDbEntity
  8
0
  6
Continuous
 62
     7
370
    15
100
AcDbLine
 10
206.6177992547
 20
360.5790380048
 30
0.0
 11
208.7259222643
 21
360.5790380048
 31
0.0
  0
ARC
  5
18E
330
1F
100
AcDbEntity
  8
0
  6
Continuous
 62
     7
370
    15
100
AcDbCircle
 10
198.0346220427
 20
357.2776130913
 30
0.0
 40
5.000000000000073
100
AcDbArc
 50
237.1100383784
 51
302.8899616216
  0
LINE
  5
18F
330
1F
100
AcDbEntity
  8
0
  6
Continuous
 62
     7
370
    15
100
AcDbLine
 10
200.7497587323
 20
353.0790380048
 30
0.0
 11
195.3194853532
 21
353.0790380048
 31
0.0
  0
ELLIPSE
  5
190
330
1F
100
AcDbEntity
  8
0
  6
Continuous
 62
     7
370
    15
100
AcDbEllipse
 10
198.0346220427
 20
449.2422174243
 30
0.0
 11
0.0
 21
114.5188277421553
 31
0.0
210
0.0
220
0.0
230
1.0
 40
0.0436609429
 41
2.456283793863794
 42
2.56755453243815
  0
ELLIPSE
  5
191
330
1F
100
AcDbEntity
  8
0
  6
Continuous
 62
     7
370
    15
100
AcDbEllipse
 10
198.0346220427
 20
449.2422174243
 30
0.0
 11
0.0
 21
114.5188277421553
 31
0.0
210
0.0
220
0.0
230
1.0
 40
0.0436609429
 41
3.715630774741662
 42
3.826901513315984
  0
LINE
  5
192
330
1F
100
AcDbEntity
  8
0
  6
Continuous
 62
     7
370
    15
100
AcDbLine
 10
202.2331971293
 20
353.0790380048
 30
0.0
 11
201.9057400575
 21
360.5790380048
 31
0.0
  0
LINE
  5
193
330
1F
100
AcDbEntity
  8
0
  6
Continuous
 62
     7
370
    15
100
AcDbLine
 10
203.0346220427
 20
352.2776130913
 30
0.0
 11
202.2331971293
 21
353.0790380048
 31
0.0
  0
LINE
  5
194
330
1F
100
AcDbEntity
  8
0
  6
Continuous
 62
     7
370
    15
100
AcDbLine
 10
193.8360469562
 20
353.0790380048
 30
0.0
 11
193.0346220427
 21
352.2776130913
 31
0.0
  0
LINE
  5
195
330
1F
100
AcDbEntity
  8
0
  6
Continuous
 62
     7
370
    15
100
AcDbLine
 10
194.163504028
 20
360.5790380048
 30
0.0
 11
193.8360469562
 21
353.0790380048
 31
0.0
  0
LINE
  5
196
330
1F
100
AcDbEntity
  8
0
  6
Continuous
 62
     7
370
    15
100
AcDbLine
 10
212.8843698582
 20
199.5790380048
 30
0.0
 11
226.0346220427
 21
197.0228879199
 31
0.0
  0
LINE
  5
197
330
1F
100
AcDbEntity
  8
0
  6
Continuous
 62
     7
370
    15
100
AcDbLine
 10
183.1848742273
 20
199.5790380048
 30
0.0
 11
212.8843698582
 21
199.5790380048
 31
0.0
  0
LINE
  5
198
330
1F
100
AcDbEntity
  8
0
  6
Continuous
 62
     7
370
    15
100
AcDbLine
 10
183.1848742273
 20
199.5790380048
 30
0.0
 11
170.0346220427
 21
197.0228879199
 31
0.0
  0
CIRCLE
  5
199
330
1F
100
AcDbEntity
  8
0
  6
Continuous
 62
     7
370
    15
100
AcDbCircle
 10
220.5346220427
 20
240.5790380048
 30
0.0
 40
2.75
  0
CIRCLE
  5
19A
330
1F
100
AcDbEntity
  8
0
  6
Continuous
 62
     7
370
    15
100
AcDbCircle
 10
175.5346220427
 20
240.5790380048
 30
0.0
 40
2.75
  0
LINE
  5
19B
330
1F
100
AcDbEntity
  8
0
  6
Continuous
 62
     7
370
    15
100
AcDbLine
 10
187.4168362502
 20
319.3290380048
 30
0.0
 11
183.6649050161
 21
294.759020424
 31
0.0
  0
LINE
  5
19C
330
1F
100
AcDbEntity
  8
0
  6
Continuous
 62
     7
370
    15
100
AcDbLine
 10
189.0346220427
 20
319.3290380048
 30
0.0
 11
187.4168362502
 21
319.3290380048
 31
0.0
  0
LINE
  5
19D
330
1F
100
AcDbEntity
  8
0
  6
Continuous
 62
     7
370
    15
100
AcDbLine
 10
208.6524078353
 20
319.3290380048
 30
0.0
 11
212.4043390694
 21
294.759020424
 31
0.0
  0
LINE
  5
19E
330
1F
100
AcDbEntity
  8
0
  6
Continuous
 62
     7
370
    15
100
AcDbLine
 10
207.0346220427
 20
319.3290380048
 30
0.0
 11
208.6524078353
 21
319.3290380048
 31
0.0
  0
LINE
  5
19F
330
1F
100
AcDbEntity
  8
0
  6
Continuous
 62
     7
370
    15
100
AcDbLine
 10
203.0346220427
 20
372.5790380048
 30
0.0
 11
203.0346220427
 21
371.5790380048
 31
0.0
  0
LINE
  5
1A0
330
1F
100
AcDbEntity
  8
0
  6
Continuous
 62
     7
370
    15
100
AcDbLine
 10
193.0346220427
 20
372.5790380048
 30
0.0
 11
193.0346220427
 21
371.5790380048
 31
0.0
  0
LINE
  5
1A1
330
1F
100
AcDbEntity
  8
0
  6
Continuous
 62
     8
370
     0
100
AcDbLine
 10
242.9395082398
 20
373.6661937475
 30
0.0
 11
153.1297358457
 21
373.6661937475
 31
0.0
  0
LINE
  5
1A2
330
1F
100
AcDbEntity
  8
0
  6
Continuous
 62
     8
370
     0
100
AcDbLine
 10
242.678848314
 20
376.6455503326
 30
0.0
 11
153.3903957715
 21
376.6455503326
 31
0.0
  0
LINE
  5
1A3
330
1F
100
AcDbEntity
  8
0
  6
Continuous
 62
     8
370
     0
100
AcDbLine
 10
180.387944208
 20
272.8290380048
 30
0.0
 11
180.3792229061
 21
268.3290380048
 31
0.0
  0
LINE
  5
1A4
330
1F
100
AcDbEntity
  8
0
  6
Continuous
 62
     8
370
     0
100
AcDbLine
 10
215.6812998775
 20
272.8290380048
 30
0.0
 11
215.6900211794
 21
268.3290380048
 31
0.0
  0
LINE
  5
1A5
330
1F
100
AcDbEntity
  8
0
  6
Continuous
 62
     8
370
     0
100
AcDbLine
 10
180.4962655726
 20
264.5790380048
 30
0.0
 11
180.3792229061
 21
268.3290380048
 31
0.0
  0
LINE
  5
1A6
330
1F
100
AcDbEntity
  8
0
  6
Continuous
 62
     8
370
     0
100
AcDbLine
 10
215.5729785128
 20
264.5790380048
 30
0.0
 11
215.6900211794
 21
268.3290380048
 31
0.0
  0
LINE
  5
1A7
330
1F
100
AcDbEntity
  8
0
  6
Continuous
 62
     8
370
     0
100
AcDbLine
 10
180.4051073238
 20
272.8736575453
 30
0.0
 11
180.387944208
 21
272.8290380048
 31
0.0
  0
LINE
  5
1A8
330
1F
100
AcDbEntity
  8
0
  6
Continuous
 62
     8
370
     0
100
AcDbLine
 10
215.6641367617
 20
272.8736575453
 30
0.0
 11
215.6812998775
 21
272.8290380048
 31
0.0
  0
LINE
  5
1A9
330
1F
100
AcDbEntity
  8
0
  6
Continuous
 62
     8
370
     0
100
AcDbLine
 10
180.7482643765
 20
264.2749911464
 30
0.0
 11
180.4962655726
 21
264.5790380048
 31
0.0
  0
LINE
  5
1AA
330
1F
100
AcDbEntity
  8
0
  6
Continuous
 62
     8
370
     0
100
AcDbLine
 10
215.320979709
 20
264.2749911464
 30
0.0
 11
215.5729785128
 21
264.5790380048
 31
0.0
  0
LINE
  5
1AB
330
1F
100
AcDbEntity
  8
0
  6
Continuous
 62
     8
370
     0
100
AcDbLine
 10
219.6658853268
 20
264.5790380048
 30
0.0
 11
220.177060665
 21
268.3290380048
 31
0.0
  0
LINE
  5
1AC
330
1F
100
AcDbEntity
  8
0
  6
Continuous
 62
     8
370
     0
100
AcDbLine
 10
176.4033587587
 20
264.5790380048
 30
0.0
 11
175.8921834205
 21
268.3290380048
 31
0.0
  0
LINE
  5
1AD
330
1F
100
AcDbEntity
  8
0
  6
Continuous
 62
     8
370
     0
100
AcDbLine
 10
176.9180805281
 20
264.4368415096
 30
0.0
 11
176.4033587587
 21
264.5790380048
 31
0.0
  0
LINE
  5
1AE
330
1F
100
AcDbEntity
  8
0
  6
Continuous
 62
     8
370
     0
100
AcDbLine
 10
219.1511635574
 20
264.4368415096
 30
0.0
 11
219.6658853268
 21
264.5790380048
 31
0.0
  0
LINE
  5
1AF
330
1F
100
AcDbEntity
  8
0
  6
Continuous
 62
     8
370
     0
100
AcDbLine
 10
220.177060665
 20
283.3290380048
 30
0.0
 11
220.177060665
 21
268.3290380048
 31
0.0
  0
LINE
  5
1B0
330
1F
100
AcDbEntity
  8
0
  6
Continuous
 62
     8
370
     0
100
AcDbLine
 10
175.8921834205
 20
283.3290380048
 30
0.0
 11
175.8921834205
 21
268.3290380048
 31
0.0
  0
SPLINE
  5
1B1
330
1F
100
AcDbEntity
  8
0
  6
Continuous
 62
     8
370
     0
100
AcDbSpline
210
0.0
220
0.0
230
1.0
 70
     8
 71
     3
 72
    12
 73
     8
 74
     0
 42
0.00000001
 43
0.00000001
 12
1.0
 22
0.0
 32
0.0
 13
1.0
 23
0.0
 33
0.0
 40
0.0
 40
0.0
 40
0.0
 40
0.0
 40
0.2499999999999984
 40
0.2499999999999984
 40
0.4999999999999968
 40
0.4999999999999968
 40
1.0
 40
1.0
 40
1.0
 40
1.0
 10
183.8545698841421
 20
285.7968038184025
 30
0.0
 10
183.8761868745226
 20
285.956570687545
 30
0.0
 10
183.904204878018
 20
286.1120800249824
 30
0.0
 10
183.9720856100793
 20
286.4143485551442
 30
0.0
 10
184.0120929341188
 20
286.5615289911021
 30
0.0
 10
184.1476515350109
 20
286.9862007074851
 30
0.0
 10
184.2581559060584
 20
287.2460655050021
 30
0.0
 10
184.3848237021755
 20
287.4836846895296
 30
0.0
  0
SPLINE
  5
1B2
330
1F
100
AcDbEntity
  8
0
  6
Continuous
 62
     8
370
     0
100
AcDbSpline
210
0.0
220
0.0
230
1.0
 70
     8
 71
     3
 72
    38
 73
    34
 74
     0
 42
0.00000001
 43
0.00000001
 12
1.0
 22
0.0
 32
0.0
 13
1.0
 23
0.0
 33
0.0
 40
0.0
 40
0.0
 40
0.0
 40
0.0
 40
0.0624999999999998
 40
0.0624999999999998
 40
0.1249999999999997
 40
0.1249999999999997
 40
0.1874999999999995
 40
0.1874999999999995
 40
0.2187499999999994
 40
0.2187499999999994
 40
0.2499999999999993
 40
0.2499999999999993
 40
0.3124999999999992
 40
0.3124999999999992
 40
0.3437499999999993
 40
0.3437499999999993
 40
0.3749999999999994
 40
0.3749999999999994
 40
0.4999999999999996
 40
0.4999999999999996
 40
0.5624999999999996
 40
0.5624999999999996
 40
0.6249999999999997
 40
0.6249999999999997
 40
0.7499999999999998
 40
0.7499999999999998
 40
0.8124999999999998
 40
0.8124999999999998
 40
0.8749999999999999
 40
0.8749999999999999
 40
0.9374999999999999
 40
0.9374999999999999
 40
1.0
 40
1.0
 40
1.0
 40
1.0
 10
184.3848237021755
 20
287.4836846895296
 30
0.0
 10
184.8583532540346
 20
287.3325967709318
 30
0.0
 10
185.3469937218938
 20
287.180185094128
 30
0.0
 10
186.3486462940785
 20
286.8790339775447
 30
0.0
 10
186.8624793073442
 20
286.730018866363
 30
0.0
 10
187.9166579104082
 20
286.4396802886641
 30
0.0
 10
188.4570018238466
 20
286.2983466500546
 30
0.0
 10
189.2884164641885
 20
286.0957934167225
 30
0.0
 10
189.5690446210144
 20
286.0298539397384
 30
0.0
 10
190.1375378192648
 20
285.9018030961438
 30
0.0
 10
190.425897866895
 20
285.8395957608377
 30
0.0
 10
191.2968034447003
 20
285.6608896802484
 30
0.0
 10
191.8860600063545
 20
285.552060789474
 30
0.0
 10
192.7835526724545
 20
285.4079004978376
 30
0.0
 10
193.0849881716074
 20
285.3630287597813
 30
0.0
 10
193.6925459505945
 20
285.2802614731272
 30
0.0
 10
193.9990768336791
 20
285.2423305025476
 30
0.0
 10
195.5343394427156
 20
285.0726080988978
 30
0.0
 10
196.7764404480601
 20
285.0002336128498
 30
0.0
 10
198.6615855907773
 20
285.0001527055032
 30
0.0
 10
199.2881854588491
 20
285.0180963858066
 30
0.0
 10
200.5378211073515
 20
285.0887612282309
 30
0.0
 10
201.1566550710285
 20
285.141277308272
 30
0.0
 10
202.98729164781
 20
285.343848571072
 30
0.0
 10
204.1773538680439
 20
285.539161669168
 30
0.0
 10
205.9204429120796
 20
285.896267526826
 30
0.0
 10
206.4888758231231
 20
286.0248389720455
 30
0.0
 10
207.5980121284178
 20
286.2947120315422
 30
0.0
 10
208.139440784387
 20
286.4361697305202
 30
0.0
 10
209.1971247327893
 20
286.7272562728064
 30
0.0
 10
209.7133794808188
 20
286.8768949604121
 30
0.0
 10
210.7210168973959
 20
287.1797833090956
 30
0.0
 10
211.2110825881926
 20
287.3326579542868
 30
0.0
 10
211.6844203833116
 20
287.4836846895296
 30
0.0
  0
SPLINE
  5
1B3
330
1F
100
AcDbEntity
  8
0
  6
Continuous
 62
     8
370
     0
100
AcDbSpline
210
0.0
220
0.0
230
1.0
 70
     8
 71
     3
 72
    12
 73
     8
 74
     0
 42
0.00000001
 43
0.00000001
 12
1.0
 22
0.0
 32
0.0
 13
1.0
 23
0.0
 33
0.0
 40
0.0
 40
0.0
 40
0.0
 40
0.0
 40
0.2499999999999984
 40
0.2499999999999984
 40
0.4999999999999968
 40
0.4999999999999968
 40
1.0
 40
1.0
 40
1.0
 40
1.0
 10
212.2146742013451
 20
285.7968038184025
 30
0.0
 10
212.1930572109646
 20
285.956570687545
 30
0.0
 10
212.1650392074692
 20
286.1120800249824
 30
0.0
 10
212.0971584754078
 20
286.4143485551442
 30
0.0
 10
212.0571511513684
 20
286.5615289911021
 30
0.0
 10
211.9215925504763
 20
286.9862007074851
 30
0.0
 10
211.8110881794288
 20
287.2460655050021
 30
0.0
 10
211.6844203833116
 20
287.4836846895296
 30
0.0
  0
ELLIPSE
  5
1B4
330
1F
100
AcDbEntity
  8
0
  6
Continuous
 62
     8
370
     0
100
AcDbEllipse
 10
198.0346220427
 20
142.156258193
 30
0.0
 11
0.0
 21
80.44336750010882
 31
0.0
210
0.0
220
0.0
230
1.0
 40
0.9012551594
 41
6.17005314834765
 42
6.396317466011538
  0
LINE
  5
1B5
330
1F
100
AcDbEntity
  8
0
  6
Continuous
 62
     8
370
     0
100
AcDbLine
 10
189.8500255844
 20
262.8446104196
 30
0.0
 11
189.8500255844
 21
222.085381804
 31
0.0
  0
LINE
  5
1B6
330
1F
100
AcDbEntity
  8
0
  6
Continuous
 62
     8
370
     0
100
AcDbLine
 10
206.2192185011
 20
262.8446104196
 30
0.0
 11
206.2192185011
 21
222.085381804
 31
0.0
  0
ARC
  5
1B7
330
1F
100
AcDbEntity
  8
0
  6
Continuous
 62
     8
370
     0
100
AcDbCircle
 10
170.3427966691
 20
226.7297213371
 30
0.0
 40
36.17578655907277
100
AcDbArc
 50
347.4539164349
 51
352.6238642543
  0
ELLIPSE
  5
1B8
330
1F
100
AcDbEntity
  8
0
  6
Continuous
 62
     8
370
     0
100
AcDbEllipse
 10
198.0346220427
 20
138.9423201446
 30
0.0
 11
0.0
 21
80.44336750010882
 31
0.0
210
0.0
220
0.0
230
1.0
 40
0.8390996312
 41
6.170053148347652
 42
6.396317466011538
  0
ARC
  5
1B9
330
1F
100
AcDbEntity
  8
0
  6
Continuous
 62
     8
370
     0
100
AcDbCircle
 10
225.7264474164
 20
226.7297213371
 30
0.0
 40
36.1757865590859
100
AcDbArc
 50
187.3761357457
 51
192.5460835651
  0
LINE
  5
1BA
330
1F
100
AcDbEntity
  8
0
  6
Continuous
 62
     8
370
     0
100
AcDbLine
 10
181.100001261
 20
240.2023265724
 30
0.0
 11
181.100001261
 21
249.5386224823
 31
0.0
  0
ELLIPSE
  5
1BB
330
1F
100
AcDbEntity
  8
0
  6
Continuous
 62
     8
370
     0
100
AcDbEllipse
 10
190.9789354407
 20
216.1647059809
 30
0.0
 11
10.0
 21
0.0
 31
0.0
210
0.0
220
0.0
230
1.0
 40
0.5958767963
 41
1.683928485626852
 42
1.827124298404371
  0
SPLINE
  5
1BC
330
1F
100
AcDbEntity
  8
0
  6
Continuous
 62
     8
370
     0
100
AcDbSpline
210
0.0
220
0.0
230
1.0
 70
     8
 71
     3
 72
    10
 73
     6
 74
     0
 42
0.00000001
 43
0.00000001
 12
1.0
 22
0.0
 32
0.0
 13
1.0
 23
0.0
 33
0.0
 40
0.0
 40
0.0
 40
0.0
 40
0.0
 40
0.5
 40
0.5
 40
1.0
 40
1.0
 40
1.0
 40
1.0
 10
186.5923055955896
 20
226.7414083193457
 30
0.0
 10
186.912758140392
 20
225.9498697761721
 30
0.0
 10
187.2183648527948
 20
225.1486642053648
 30
0.0
 10
187.8271366920417
 20
223.5405789399151
 30
0.0
 10
188.1308415116307
 20
222.7338944180296
 30
0.0
 10
188.443633288488
 20
221.9287859057782
 30
0.0
  0
ELLIPSE
  5
1BD
330
1F
100
AcDbEntity
  8
0
  6
Continuous
 62
     8
370
     0
100
AcDbEllipse
 10
190.9789354407
 20
215.6593781149
 30
0.0
 11
-9.999704371711829
 21
24.80986852466298
 31
0.0
210
0.0
220
0.0
230
1.0
 40
0.0030992766
 41
5.174188651056191
 42
6.135111433388211
  0
SPLINE
  5
1BE
330
1F
100
AcDbEntity
  8
0
  6
Continuous
 62
     8
370
     0
100
AcDbSpline
210
0.0
220
0.0
230
1.0
 70
     8
 71
     3
 72
    10
 73
     6
 74
     0
 42
0.00000001
 43
0.00000001
 12
1.0
 22
0.0
 32
0.0
 13
1.0
 23
0.0
 33
0.0
 40
0.0
 40
0.0
 40
0.0
 40
0.0
 40
0.5
 40
0.5
 40
1.0
 40
1.0
 40
1.0
 40
1.0
 10
209.4769384898976
 20
226.7414083193457
 30
0.0
 10
209.1564859450951
 20
225.9498697761721
 30
0.0
 10
208.8508792326924
 20
225.1486642053648
 30
0.0
 10
208.2421073934454
 20
223.5405789399151
 30
0.0
 10
207.9384025738564
 20
222.7338944180296
 30
0.0
 10
207.6256107969992
 20
221.9287859057782
 30
0.0
  0
ELLIPSE
  5
1BF
330
1F
100
AcDbEntity
  8
0
  6
Continuous
 62
     8
370
     0
100
AcDbEllipse
 10
205.0903086448
 20
216.1647059809
 30
0.0
 11
10.00000000000003
 21
0.0
 31
0.0
210
0.0
220
0.0
230
1.0
 40
0.5958767963
 41
1.314468355185423
 42
1.457664167962942
  0
LINE
  5
1C0
330
1F
100
AcDbEntity
  8
0
  6
Continuous
 62
     8
370
     0
100
AcDbLine
 10
214.9692428245
 20
240.2023265724
 30
0.0
 11
214.9692428245
 21
249.5386224823
 31
0.0
  0
ELLIPSE
  5
1C1
330
1F
100
AcDbEntity
  8
0
  6
Continuous
 62
     8
370
     0
100
AcDbEllipse
 10
205.0903086448
 20
215.6593781149
 30
0.0
 11
9.999704371711829
 21
24.80986852466298
 31
0.0
210
0.0
220
0.0
230
1.0
 40
0.0030992766
 41
0.1480738737957249
 42
1.108996656124309
  0
SPLINE
  5
1C2
330
1F
100
AcDbEntity
  8
0
  6
Continuous
 62
     8
370
     0
100
AcDbSpline
210
0.0
220
0.0
230
1.0
 70
     8
 71
     3
 72
    16
 73
    12
 74
     0
 42
0.00000001
 43
0.00000001
 12
1.0
 22
0.0
 32
0.0
 13
1.0
 23
0.0
 33
0.0
 40
0.0
 40
0.0
 40
0.0
 40
0.0
 40
0.2499999999999993
 40
0.2499999999999993
 40
0.4999999999999987
 40
0.4999999999999987
 40
0.6249999999999991
 40
0.6249999999999991
 40
0.7499999999999996
 40
0.7499999999999996
 40
1.0
 40
1.0
 40
1.0
 40
1.0
 10
207.6256107969992
 20
221.9287859057782
 30
0.0
 10
207.5428522981188
 20
221.6313245428566
 30
0.0
 10
207.4544556129618
 20
221.334006948702
 30
0.0
 10
207.2702670737505
 20
220.755334273045
 30
0.0
 10
207.1739739460031
 20
220.472053096253
 30
0.0
 10
207.0221184447642
 20
220.0566859600278
 30
0.0
 10
206.9701086746492
 20
219.9195112037677
 30
0.0
 10
206.8654877019191
 20
219.653943359526
 30
0.0
 10
206.8126385160983
 20
219.5248702455807
 30
0.0
 10
206.6522471487324
 20
219.1486565175636
 30
0.0
 10
206.5428790884787
 20
218.9124248545737
 30
0.0
 10
206.4302928682006
 20
218.6915629104107
 30
0.0
  0
ELLIPSE
  5
1C3
330
1F
100
AcDbEntity
  8
0
  6
Continuous
 62
     8
370
     0
100
AcDbEllipse
 10
205.0903086448
 20
212.9507679325
 30
0.0
 11
0.0
 21
5.958767962971024
 31
0.0
210
0.0
220
0.0
230
1.0
 40
0.8390996312
 41
6.011872092225197
 42
6.170053148347652
  0
ARC
  5
1C4
330
1F
100
AcDbEntity
  8
0
  6
Continuous
 62
     8
370
     0
100
AcDbCircle
 10
204.0527089842
 20
202.9078951767
 30
0.0
 40
19.35355035884184
100
AcDbArc
 50
69.4139083728
 51
79.3614754277
  0
SPLINE
  5
1C5
330
1F
100
AcDbEntity
  8
0
  6
Continuous
 62
     8
370
     0
100
AcDbSpline
210
0.0
220
0.0
230
1.0
 70
     8
 71
     3
 72
    10
 73
     6
 74
     0
 42
0.00000001
 43
0.00000001
 12
1.0
 22
0.0
 32
0.0
 13
1.0
 23
0.0
 33
0.0
 40
0.0
 40
0.0
 40
0.0
 40
0.0
 40
0.5
 40
0.5
 40
1.0
 40
1.0
 40
1.0
 40
1.0
 10
210.7906570737156
 20
220.6845382117047
 30
0.0
 10
210.7997228812732
 20
220.7401697894706
 30
0.0
 10
210.8104354638536
 20
220.7971603132336
 30
0.0
 10
210.8331809076228
 20
220.9115402276317
 30
0.0
 10
210.8452259806624
 20
220.9687465279786
 30
0.0
 10
210.8576962232303
 20
221.0256229638154
 30
0.0
  0
LWPOLYLINE
  5
1C6
330
1F
100
AcDbEntity
  8
0
  6
Continuous
 62
     8
370
     0
100
AcDbPolyline
 90
        9
 70
   128
 43
0.0
 10
210.7906570737
 20
220.6845382117
 10
210.5525710595
 20
220.2411142713
 10
210.2010550897
 20
219.8346445625
 10
209.7457815926
 20
219.4763136389
 10
209.1992780228
 20
219.1759814514
 10
208.5765821513
 20
218.9419120387
 10
207.8948282816
 20
218.7805461315
 10
207.1727757763
 20
218.6963239268
 10
206.4302928682
 20
218.6915629104
  0
SPLINE
  5
1C7
330
1F
100
AcDbEntity
  8
0
  6
Continuous
 62
     8
370
     0
100
AcDbSpline
210
0.0
220
0.0
230
1.0
 70
     8
 71
     3
 72
    10
 73
     6
 74
     0
 42
0.00000001
 43
0.00000001
 12
1.0
 22
0.0
 32
0.0
 13
1.0
 23
0.0
 33
0.0
 40
0.0
 40
0.0
 40
0.0
 40
0.0
 40
0.5
 40
0.5
 40
1.0
 40
1.0
 40
1.0
 40
1.0
 10
185.2785870117716
 20
220.6845382117047
 30
0.0
 10
185.2695212042139
 20
220.7401697894706
 30
0.0
 10
185.2588086216336
 20
220.7971603132336
 30
0.0
 10
185.2360631778644
 20
220.9115402276317
 30
0.0
 10
185.2240181048248
 20
220.9687465279786
 30
0.0
 10
185.2115478622569
 20
221.0256229638154
 30
0.0
  0
ARC
  5
1C8
330
1F
100
AcDbEntity
  8
0
  6
Continuous
 62
     8
370
     0
100
AcDbCircle
 10
192.0165351013
 20
202.9078951767
 30
0.0
 40
19.35355035884334
100
AcDbArc
 50
100.6385245723
 51
110.5860916272
  0
SPLINE
  5
1C9
330
1F
100
AcDbEntity
  8
0
  6
Continuous
 62
     8
370
     0
100
AcDbSpline
210
0.0
220
0.0
230
1.0
 70
     8
 71
     3
 72
    16
 73
    12
 74
     0
 42
0.00000001
 43
0.00000001
 12
1.0
 22
0.0
 32
0.0
 13
1.0
 23
0.0
 33
0.0
 40
0.0
 40
0.0
 40
0.0
 40
0.0
 40
0.2499999999999993
 40
0.2499999999999993
 40
0.4999999999999987
 40
0.4999999999999987
 40
0.6249999999999991
 40
0.6249999999999991
 40
0.7499999999999996
 40
0.7499999999999996
 40
1.0
 40
1.0
 40
1.0
 40
1.0
 10
188.443633288488
 20
221.9287859057782
 30
0.0
 10
188.5263917873683
 20
221.6313245428566
 30
0.0
 10
188.6147884725253
 20
221.334006948702
 30
0.0
 10
188.7989770117366
 20
220.755334273045
 30
0.0
 10
188.895270139484
 20
220.472053096253
 30
0.0
 10
189.047125640723
 20
220.0566859600278
 30
0.0
 10
189.099135410838
 20
219.9195112037677
 30
0.0
 10
189.2037563835681
 20
219.653943359526
 30
0.0
 10
189.2566055693889
 20
219.5248702455807
 30
0.0
 10
189.4169969367548
 20
219.1486565175636
 30
0.0
 10
189.5263649970085
 20
218.9124248545737
 30
0.0
 10
189.6389512172866
 20
218.6915629104107
 30
0.0
  0
LWPOLYLINE
  5
1CA
330
1F
100
AcDbEntity
  8
0
  6
Continuous
 62
     8
370
     0
100
AcDbPolyline
 90
        9
 70
   128
 43
0.0
 10
185.2785870118
 20
220.6845382117
 10
185.516673026
 20
220.2411142713
 10
185.8681889958
 20
219.8346445625
 10
186.3234624929
 20
219.4763136389
 10
186.8699660627
 20
219.1759814514
 10
187.4926619341
 20
218.9419120387
 10
188.1744158038
 20
218.7805461315
 10
188.8964683092
 20
218.6963239268
 10
189.6389512173
 20
218.6915629104
  0
ELLIPSE
  5
1CB
330
1F
100
AcDbEntity
  8
0
  6
Continuous
 62
     8
370
     0
100
AcDbEllipse
 10
190.9789354407
 20
212.9507679325
 30
0.0
 11
0.0
 21
5.958767962971024
 31
0.0
210
0.0
220
0.0
230
1.0
 40
0.8390996312
 41
0.1131321588319518
 42
0.2713132149544075
  0
LWPOLYLINE
  5
1CC
330
1F
100
AcDbEntity
  8
0
  6
Continuous
 62
     8
370
     0
100
AcDbPolyline
 90
        9
 70
   128
 43
0.0
 10
211.896119807
 20
225.7674671427
 10
211.8621875315
 20
225.8428220878
 10
211.7430227364
 20
225.9357463571
 10
211.540955354
 20
226.0444230781
 10
211.2599362429
 20
226.1667273834
 10
210.9054599409
 20
226.3002679566
 10
210.4844572341
 20
226.4424337879
 10
210.0051596454
 20
226.5904452244
 10
209.4769384899
 20
226.7414083193
  0
SPLINE
  5
1CD
330
1F
100
AcDbEntity
  8
0
  6
Continuous
 62
     8
370
     0
100
AcDbSpline
210
0.0
220
0.0
230
1.0
 70
     8
 71
     3
 72
    10
 73
     6
 74
     0
 42
0.00000001
 43
0.00000001
 12
1.0
 22
0.0
 32
0.0
 13
1.0
 23
0.0
 33
0.0
 40
0.0
 40
0.0
 40
0.0
 40
0.0
 40
0.5
 40
0.5
 40
1.0
 40
1.0
 40
1.0
 40
1.0
 10
210.8576962232303
 20
221.0256229638154
 30
0.0
 10
211.0337080999509
 20
221.8284083273158
 30
0.0
 10
211.2066477054707
 20
222.6252513198941
 30
0.0
 10
211.5507436556726
 20
224.2063546402056
 30
0.0
 10
211.7219381882342
 20
224.9906299321551
 30
0.0
 10
211.8961198070101
 20
225.7674671427321
 30
0.0
  0
SPLINE
  5
1CE
330
1F
100
AcDbEntity
  8
0
  6
Continuous
 62
     8
370
     0
100
AcDbSpline
210
0.0
220
0.0
230
1.0
 70
     8
 71
     3
 72
    10
 73
     6
 74
     0
 42
0.00000001
 43
0.00000001
 12
1.0
 22
0.0
 32
0.0
 13
1.0
 23
0.0
 33
0.0
 40
0.0
 40
0.0
 40
0.0
 40
0.0
 40
0.5
 40
0.5
 40
1.0
 40
1.0
 40
1.0
 40
1.0
 10
185.2115478622569
 20
221.0256229638154
 30
0.0
 10
185.0355359855363
 20
221.8284083273158
 30
0.0
 10
184.8625963800164
 20
222.6252513198941
 30
0.0
 10
184.5185004298145
 20
224.2063546402056
 30
0.0
 10
184.3473058972529
 20
224.9906299321551
 30
0.0
 10
184.173124278477
 20
225.7674671427321
 30
0.0
  0
LWPOLYLINE
  5
1CF
330
1F
100
AcDbEntity
  8
0
  6
Continuous
 62
     8
370
     0
100
AcDbPolyline
 90
        9
 70
   128
 43
0.0
 10
184.1731242785
 20
225.7674671427
 10
184.207056554
 20
225.8428220878
 10
184.326221349
 20
225.9357463571
 10
184.5282887315
 20
226.0444230781
 10
184.8093078426
 20
226.1667273834
 10
185.1637841446
 20
226.3002679566
 10
185.5847868513
 20
226.4424337879
 10
186.06408444
 20
226.5904452244
 10
186.5923055956
 20
226.7414083193
  0
SPLINE
  5
1D0
330
1F
100
AcDbEntity
  8
0
  6
Continuous
 62
     8
370
     0
100
AcDbSpline
210
0.0
220
0.0
230
1.0
 70
     8
 71
     3
 72
    22
 73
    18
 74
     0
 42
0.00000001
 43
0.00000001
 12
1.0
 22
0.0
 32
0.0
 13
1.0
 23
0.0
 33
0.0
 40
0.0
 40
0.0
 40
0.0
 40
0.0
 40
0.2499999999999998
 40
0.2499999999999998
 40
0.3749999999999998
 40
0.3749999999999998
 40
0.4999999999999997
 40
0.4999999999999997
 40
0.7499999999999998
 40
0.7499999999999998
 40
0.875
 40
0.875
 40
0.9374999999999998
 40
0.9374999999999998
 40
0.9687499999999999
 40
0.9687499999999999
 40
1.0
 40
1.0
 40
1.0
 40
1.0
 10
206.4302928682006
 20
218.6915629104107
 30
0.0
 10
206.3543654515922
 20
217.747306598314
 30
0.0
 10
206.4343842259963
 20
216.8159491721162
 30
0.0
 10
206.7287616046546
 20
215.4333341010271
 30
0.0
 10
206.8564190881397
 20
214.9749050859546
 30
0.0
 10
207.1642311261571
 20
214.0623892826064
 30
0.0
 10
207.342610995257
 20
213.6135458464984
 30
0.0
 10
207.9373893677696
 20
212.2881139700919
 30
0.0
 10
208.4137818701393
 20
211.4312253921746
 30
0.0
 10
209.2059803935869
 20
210.1718675274271
 30
0.0
 10
209.4830436115182
 20
209.756431517521
 30
0.0
 10
209.9129313771515
 20
209.1380611673294
 30
0.0
 10
210.0586074405626
 20
208.9327343203412
 30
0.0
 10
210.280014001979
 20
208.6257121215127
 30
0.0
 10
210.3542980272852
 20
208.5235326536714
 30
0.0
 10
210.5037136425076
 20
208.3194573870756
 30
0.0
 10
210.5791405100493
 20
208.2171839528068
 30
0.0
 10
210.6543100530788
 20
208.1158300546094
 30
0.0
  0
LINE
  5
1D1
330
1F
100
AcDbEntity
  8
0
  6
Continuous
 62
     8
370
     0
100
AcDbLine
 10
185.4149340324
 20
208.1158300546
 30
0.0
 11
210.6543100531
 21
208.1158300546
 31
0.0
  0
SPLINE
  5
1D2
330
1F
100
AcDbEntity
  8
0
  6
Continuous
 62
     8
370
     0
100
AcDbSpline
210
0.0
220
0.0
230
1.0
 70
     8
 71
     3
 72
    22
 73
    18
 74
     0
 42
0.00000001
 43
0.00000001
 12
1.0
 22
0.0
 32
0.0
 13
1.0
 23
0.0
 33
0.0
 40
0.0
 40
0.0
 40
0.0
 40
0.0
 40
0.2499999999999998
 40
0.2499999999999998
 40
0.3749999999999998
 40
0.3749999999999998
 40
0.4999999999999997
 40
0.4999999999999997
 40
0.7499999999999998
 40
0.7499999999999998
 40
0.875
 40
0.875
 40
0.9374999999999998
 40
0.9374999999999998
 40
0.9687499999999999
 40
0.9687499999999999
 40
1.0
 40
1.0
 40
1.0
 40
1.0
 10
189.6389512172866
 20
218.6915629104107
 30
0.0
 10
189.714878633895
 20
217.747306598314
 30
0.0
 10
189.6348598594908
 20
216.8159491721162
 30
0.0
 10
189.3404824808326
 20
215.4333341010271
 30
0.0
 10
189.2128249973475
 20
214.9749050859546
 30
0.0
 10
188.9050129593301
 20
214.0623892826064
 30
0.0
 10
188.7266330902301
 20
213.6135458464984
 30
0.0
 10
188.1318547177176
 20
212.2881139700919
 30
0.0
 10
187.6554622153479
 20
211.4312253921746
 30
0.0
 10
186.8632636919002
 20
210.1718675274271
 30
0.0
 10
186.586200473969
 20
209.756431517521
 30
0.0
 10
186.1563127083357
 20
209.1380611673294
 30
0.0
 10
186.0106366449246
 20
208.9327343203412
 30
0.0
 10
185.7892300835082
 20
208.6257121215127
 30
0.0
 10
185.7149460582019
 20
208.5235326536714
 30
0.0
 10
185.5655304429795
 20
208.3194573870756
 30
0.0
 10
185.4901035754379
 20
208.2171839528068
 30
0.0
 10
185.4149340324083
 20
208.1158300546094
 30
0.0
  0
ARC
  5
1D3
330
1F
100
AcDbEntity
  8
0
  6
Continuous
 62
     8
370
     0
100
AcDbCircle
 10
211.8735859193
 20
239.8803603252
 30
0.0
 40
3.112355047137461
100
AcDbArc
 50
347.9081420374
 51
5.9377443878
  0
ELLIPSE
  5
1D4
330
1F
100
AcDbEntity
  8
0
  6
Continuous
 62
     8
370
     0
100
AcDbEllipse
 10
209.4834733922
 20
214.6854369383
 30
0.0
 11
5.499800385554352
 21
24.80988570718489
 31
0.0
210
0.0
220
0.0
230
1.0
 40
0.0018887028
 41
0.1472433835871255
 42
1.108166165915511
  0
ELLIPSE
  5
1D5
330
1F
100
AcDbEntity
  8
0
  6
Continuous
 62
     8
370
     0
100
AcDbEllipse
 10
186.5857706933
 20
214.6854369383
 30
0.0
 11
-5.499800385554352
 21
24.80988570718489
 31
0.0
210
0.0
220
0.0
230
1.0
 40
0.0018887028
 41
5.175019141265575
 42
6.135941923599472
  0
ARC
  5
1D6
330
1F
100
AcDbEntity
  8
0
  6
Continuous
 62
     8
370
     0
100
AcDbCircle
 10
184.1956581662
 20
239.8803603252
 30
0.0
 40
3.112355047138468
100
AcDbArc
 50
174.0622556122
 51
192.0918579626
  0
SPLINE
  5
1D7
330
1F
100
AcDbEntity
  8
0
  6
Continuous
 62
     8
370
     0
100
AcDbSpline
210
0.0
220
0.0
230
1.0
 70
     8
 71
     3
 72
    24
 73
    20
 74
     0
 42
0.00000001
 43
0.00000001
 12
1.0
 22
0.0
 32
0.0
 13
1.0
 23
0.0
 33
0.0
 40
0.0
 40
0.0
 40
0.0
 40
0.0
 40
0.1250000000000001
 40
0.1250000000000001
 40
0.2500000000000002
 40
0.2500000000000002
 40
0.3750000000000003
 40
0.3750000000000003
 40
0.5000000000000004
 40
0.5000000000000004
 40
0.7500000000000007
 40
0.7500000000000007
 40
0.8750000000000006
 40
0.8750000000000006
 40
0.9375000000000003
 40
0.9375000000000003
 40
0.9687500000000002
 40
0.9687500000000002
 40
1.0
 40
1.0
 40
1.0
 40
1.0
 10
210.7906570737156
 20
220.6845382117047
 30
0.0
 10
210.6991967503369
 20
220.1232995068031
 30
0.0
 10
210.6306695989973
 20
219.5619342834524
 30
0.0
 10
210.5238670843861
 20
218.4419718235257
 30
0.0
 10
210.4856938050354
 20
217.883375107665
 30
0.0
 10
210.4301272706367
 20
216.7715970558941
 30
0.0
 10
210.412777068819
 20
216.2173095689473
 30
0.0
 10
210.3930811576736
 20
215.1231800022263
 30
0.0
 10
210.39071954787
 20
214.5832836318661
 30
0.0
 10
210.4002950281309
 20
212.9881205090635
 30
0.0
 10
210.4283734201458
 20
211.957460068158
 30
0.0
 10
210.4943873978873
 20
210.4704565870276
 30
0.0
 10
210.5205311321742
 20
209.9845952822552
 30
0.0
 10
210.565939399156
 20
209.2716265955076
 30
0.0
 10
210.5821132605656
 20
209.0366073825408
 30
0.0
 10
210.6079734808506
 20
208.6881739775842
 30
0.0
 10
210.6168604039161
 20
208.5727120964097
 30
0.0
 10
210.6351782010066
 20
208.3431771086912
 30
0.0
 10
210.6446769899663
 20
208.2284372900765
 30
0.0
 10
210.6543100530788
 20
208.1158300546094
 30
0.0
  0
SPLINE
  5
1D8
330
1F
100
AcDbEntity
  8
0
  6
Continuous
 62
     8
370
     0
100
AcDbSpline
210
0.0
220
0.0
230
1.0
 70
     8
 71
     3
 72
    24
 73
    20
 74
     0
 42
0.00000001
 43
0.00000001
 12
1.0
 22
0.0
 32
0.0
 13
1.0
 23
0.0
 33
0.0
 40
0.0
 40
0.0
 40
0.0
 40
0.0
 40
0.1250000000000001
 40
0.1250000000000001
 40
0.2500000000000002
 40
0.2500000000000002
 40
0.3750000000000003
 40
0.3750000000000003
 40
0.5000000000000004
 40
0.5000000000000004
 40
0.7500000000000007
 40
0.7500000000000007
 40
0.8750000000000006
 40
0.8750000000000006
 40
0.9375000000000003
 40
0.9375000000000003
 40
0.9687500000000002
 40
0.9687500000000002
 40
1.0
 40
1.0
 40
1.0
 40
1.0
 10
185.2785870117716
 20
220.6845382117047
 30
0.0
 10
185.3700473351503
 20
220.1232995068031
 30
0.0
 10
185.4385744864899
 20
219.5619342834524
 30
0.0
 10
185.5453770011011
 20
218.4419718235257
 30
0.0
 10
185.5835502804518
 20
217.883375107665
 30
0.0
 10
185.6391168148505
 20
216.7715970558941
 30
0.0
 10
185.6564670166682
 20
216.2173095689473
 30
0.0
 10
185.6761629278136
 20
215.1231800022263
 30
0.0
 10
185.6785245376172
 20
214.5832836318661
 30
0.0
 10
185.6689490573562
 20
212.9881205090635
 30
0.0
 10
185.6408706653413
 20
211.957460068158
 30
0.0
 10
185.5748566875999
 20
210.4704565870276
 30
0.0
 10
185.548712953313
 20
209.9845952822552
 30
0.0
 10
185.5033046863312
 20
209.2716265955076
 30
0.0
 10
185.4871308249215
 20
209.0366073825408
 30
0.0
 10
185.4612706046366
 20
208.6881739775842
 30
0.0
 10
185.452383681571
 20
208.5727120964097
 30
0.0
 10
185.4340658844805
 20
208.3431771086912
 30
0.0
 10
185.4245670955208
 20
208.2284372900765
 30
0.0
 10
185.4149340324083
 20
208.1158300546094
 30
0.0
  0
ELLIPSE
  5
1D9
330
1F
100
AcDbEntity
  8
0
  6
Continuous
 62
     8
370
     0
100
AcDbEllipse
 10
210.4885097296
 20
218.7283321225
 30
0.0
 11
4.101656315358581
 21
18.49996699392264
 31
0.0
210
0.0
220
0.0
230
1.0
 40
0.0085199758
 41
0.1662046641481281
 42
1.182355117228169
  0
ELLIPSE
  5
1DA
330
1F
100
AcDbEntity
  8
0
  6
Continuous
 62
     8
370
     0
100
AcDbEllipse
 10
213.4172862279
 20
218.0790380048
 30
0.0
 11
4.101773309806533
 21
15.4999460451493
 31
0.0
210
0.0
220
0.0
230
1.0
 40
0.0099706635
 41
1.592627962247894
 42
2.271566572691165
  0
ELLIPSE
  5
1DB
330
1F
100
AcDbEntity
  8
0
  6
Continuous
 62
     8
370
     0
100
AcDbEllipse
 10
185.5807343559
 20
218.7283321225
 30
0.0
 11
-4.101656315358581
 21
18.49996699392264
 31
0.0
210
0.0
220
0.0
230
1.0
 40
0.0085199758
 41
5.100830189951655
 42
6.116980643033004
  0
ELLIPSE
  5
1DC
330
1F
100
AcDbEntity
  8
0
  6
Continuous
 62
     8
370
     0
100
AcDbEllipse
 10
182.6519578576
 20
218.0790380048
 30
0.0
 11
-4.101773309806533
 21
15.4999460451493
 31
0.0
210
0.0
220
0.0
230
1.0
 40
0.0099706635
 41
4.011618734489003
 42
4.690557344931693
  0
ARC
  5
1DD
330
1F
100
AcDbEntity
  8
0
  6
Continuous
 62
     8
370
     0
100
AcDbCircle
 10
182.2127554866
 20
290.8100690354
 30
0.0
 40
3.972746298185293
100
AcDbArc
 50
303.1438029028
 51
349.9180547083
  0
SPLINE
  5
1DE
330
1F
100
AcDbEntity
  8
0
  6
Continuous
 62
     8
370
     0
100
AcDbSpline
210
0.0
220
0.0
230
1.0
 70
     8
 71
     3
 72
    34
 73
    30
 74
     0
 42
0.00000001
 43
0.00000001
 12
1.0
 22
0.0
 32
0.0
 13
1.0
 23
0.0
 33
0.0
 40
0.0
 40
0.0
 40
0.0
 40
0.0
 40
0.0624999999999999
 40
0.0624999999999999
 40
0.1249999999999997
 40
0.1249999999999997
 40
0.2499999999999999
 40
0.2499999999999999
 40
0.3750000000000001
 40
0.3750000000000001
 40
0.4375000000000002
 40
0.4375000000000002
 40
0.5000000000000003
 40
0.5000000000000003
 40
0.6250000000000006
 40
0.6250000000000006
 40
0.6562500000000007
 40
0.6562500000000007
 40
0.6875000000000007
 40
0.6875000000000007
 40
0.7500000000000007
 40
0.7500000000000007
 40
0.7812500000000006
 40
0.7812500000000006
 40
0.8125000000000006
 40
0.8125000000000006
 40
0.8750000000000006
 40
0.8750000000000006
 40
1.0
 40
1.0
 40
1.0
 40
1.0
 10
209.9450878932475
 20
290.1146140264853
 30
0.0
 10
209.5515201916233
 20
289.9381680182396
 30
0.0
 10
209.1415883159585
 20
289.7591465585224
 30
0.0
 10
208.2932681435078
 20
289.4031056306495
 30
0.0
 10
207.8563049823088
 20
289.2266568966393
 30
0.0
 10
206.5055783491661
 20
288.7095538457473
 30
0.0
 10
205.5526336000019
 20
288.3806036513281
 30
0.0
 10
203.5206607432892
 20
287.8025014552325
 30
0.0
 10
202.4716730320496
 20
287.562596979925
 30
0.0
 10
200.8414456366857
 20
287.311321972539
 30
0.0
 10
200.2875376880788
 20
287.2456258453493
 30
0.0
 10
199.1628298717384
 20
287.1568939578427
 30
0.0
 10
198.5981235823176
 20
287.1343146507321
 30
0.0
 10
196.8970581919212
 20
287.1345954865155
 30
0.0
 10
195.7823521257957
 20
287.2258929665466
 30
0.0
 10
194.4111101861134
 20
287.4371904243028
 30
0.0
 10
194.1377875536664
 20
287.4843335461679
 30
0.0
 10
193.5981256670906
 20
287.5867322006004
 30
0.0
 10
193.331169923389
 20
287.6420719953759
 30
0.0
 10
192.5385135859271
 20
287.8192541555532
 30
0.0
 10
192.021002577575
 20
287.952240261792
 30
0.0
 10
191.2598710144823
 20
288.1693338927041
 30
0.0
 10
191.0088404251892
 20
288.2446133948968
 30
0.0
 10
190.5159911797117
 20
288.3988923271176
 30
0.0
 10
190.273595935392
 20
288.4780525285873
 30
0.0
 10
189.5578503504792
 20
288.7203993511006
 30
0.0
 10
189.0959016487238
 20
288.8884270452027
 30
0.0
 10
187.7520976504009
 20
289.4034976990788
 30
0.0
 10
186.9117972399069
 20
289.7614953172572
 30
0.0
 10
186.1241561922397
 20
290.1146140264853
 30
0.0
  0
ARC
  5
1DF
330
1F
100
AcDbEntity
  8
0
  6
Continuous
 62
     8
370
     0
100
AcDbCircle
 10
213.8564885989
 20
290.8100690354
 30
0.0
 40
3.972746298185278
100
AcDbArc
 50
190.0819452917
 51
236.8561970972
  0
SPLINE
  5
1E0
330
1F
100
AcDbEntity
  8
0
  6
Continuous
 62
     8
370
     0
100
AcDbSpline
210
0.0
220
0.0
230
1.0
 70
     8
 71
     3
 72
    16
 73
    12
 74
     0
 42
0.00000001
 43
0.00000001
 12
1.0
 22
0.0
 32
0.0
 13
1.0
 23
0.0
 33
0.0
 40
0.0
 40
0.0
 40
0.0
 40
0.0
 40
0.2499999999999997
 40
0.2499999999999997
 40
0.3749999999999999
 40
0.3749999999999999
 40
0.5000000000000002
 40
0.5000000000000002
 40
0.7500000000000001
 40
0.7500000000000001
 40
1.0
 40
1.0
 40
1.0
 40
1.0
 10
212.4041563880282
 20
289.9407938159243
 30
0.0
 10
212.235738591441
 20
290.0750907346312
 30
0.0
 10
212.0568197572013
 20
290.1779284230519
 30
0.0
 10
211.7717869279688
 20
290.2882870451668
 30
0.0
 10
211.6739916442781
 20
290.3176980207359
 30
0.0
 10
211.4725706142744
 20
290.3616694689445
 30
0.0
 10
211.3683096868264
 20
290.3762412166864
 30
0.0
 10
211.0519474497263
 20
290.3967212239169
 30
0.0
 10
210.8363799338538
 20
290.3800645947302
 30
0.0
 10
210.3963616413063
 20
290.2899480045582
 30
0.0
 10
210.170515599067
 20
290.2156787700497
 30
0.0
 10
209.9450878932475
 20
290.1146140264853
 30
0.0
  0
SPLINE
  5
1E1
330
1F
100
AcDbEntity
  8
0
  6
Continuous
 62
     8
370
     0
100
AcDbSpline
210
0.0
220
0.0
230
1.0
 70
     8
 71
     3
 72
    16
 73
    12
 74
     0
 42
0.00000001
 43
0.00000001
 12
1.0
 22
0.0
 32
0.0
 13
1.0
 23
0.0
 33
0.0
 40
0.0
 40
0.0
 40
0.0
 40
0.0
 40
0.2499999999999997
 40
0.2499999999999997
 40
0.3749999999999999
 40
0.3749999999999999
 40
0.5000000000000002
 40
0.5000000000000002
 40
0.7500000000000001
 40
0.7500000000000001
 40
1.0
 40
1.0
 40
1.0
 40
1.0
 10
183.665087697459
 20
289.9407938159243
 30
0.0
 10
183.8335054940462
 20
290.0750907346312
 30
0.0
 10
184.0124243282858
 20
290.1779284230519
 30
0.0
 10
184.2974571575184
 20
290.2882870451668
 30
0.0
 10
184.3952524412091
 20
290.3176980207359
 30
0.0
 10
184.5966734712127
 20
290.3616694689445
 30
0.0
 10
184.7009343986607
 20
290.3762412166864
 30
0.0
 10
185.0172966357609
 20
290.3967212239169
 30
0.0
 10
185.2328641516333
 20
290.3800645947302
 30
0.0
 10
185.6728824441808
 20
290.2899480045582
 30
0.0
 10
185.8987284864201
 20
290.2156787700497
 30
0.0
 10
186.1241561922397
 20
290.1146140264853
 30
0.0
  0
SPLINE
  5
1E2
330
1F
100
AcDbEntity
  8
0
  6
Continuous
 62
     8
370
     0
100
AcDbSpline
210
0.0
220
0.0
230
1.0
 70
     8
 71
     3
 72
    20
 73
    16
 74
     0
 42
0.00000001
 43
0.00000001
 12
1.0
 22
0.0
 32
0.0
 13
1.0
 23
0.0
 33
0.0
 40
0.0
 40
0.0
 40
0.0
 40
0.0
 40
0.2500000000000003
 40
0.2500000000000003
 40
0.5000000000000008
 40
0.5000000000000008
 40
0.6250000000000001
 40
0.6250000000000001
 40
0.7499999999999994
 40
0.7499999999999994
 40
0.8124999999999997
 40
0.8124999999999997
 40
0.8749999999999999
 40
0.8749999999999999
 40
1.0
 40
1.0
 40
1.0
 40
1.0
 10
183.665087697459
 20
289.9407938159243
 30
0.0
 10
183.1650740990892
 20
289.5420812871219
 30
0.0
 10
182.730077593085
 20
289.1243650168666
 30
0.0
 10
181.9734821020506
 20
288.2799458532204
 30
0.0
 10
181.6519539781173
 20
287.8520961954334
 30
0.0
 10
181.2520861295927
 20
287.2379664893886
 30
0.0
 10
181.1323524046198
 20
287.0375303426021
 30
0.0
 10
180.9239578047885
 20
286.663174341278
 30
0.0
 10
180.8349579542453
 20
286.4887407375048
 30
0.0
 10
180.7253528275638
 20
286.2612150772882
 30
0.0
 10
180.6928154422638
 20
286.1911367209108
 30
0.0
 10
180.6361808030287
 20
286.0660462282906
 30
0.0
 10
180.6122749722701
 20
286.0114725716147
 30
0.0
 10
180.5546063291243
 20
285.8775990054924
 30
0.0
 10
180.5346220427436
 20
285.8282197704494
 30
0.0
 10
180.5346220427436
 20
285.8282197704494
 30
0.0
  0
SPLINE
  5
1E3
330
1F
100
AcDbEntity
  8
0
  6
Continuous
 62
     8
370
     0
100
AcDbSpline
210
0.0
220
0.0
230
1.0
 70
     8
 71
     3
 72
    20
 73
    16
 74
     0
 42
0.00000001
 43
0.00000001
 12
1.0
 22
0.0
 32
0.0
 13
1.0
 23
0.0
 33
0.0
 40
0.0
 40
0.0
 40
0.0
 40
0.0
 40
0.2500000000000003
 40
0.2500000000000003
 40
0.5000000000000008
 40
0.5000000000000008
 40
0.6250000000000001
 40
0.6250000000000001
 40
0.7499999999999994
 40
0.7499999999999994
 40
0.8124999999999997
 40
0.8124999999999997
 40
0.8749999999999999
 40
0.8749999999999999
 40
1.0
 40
1.0
 40
1.0
 40
1.0
 10
212.4041563880282
 20
289.9407938159243
 30
0.0
 10
212.9041699863979
 20
289.5420812871219
 30
0.0
 10
213.3391664924022
 20
289.1243650168666
 30
0.0
 10
214.0957619834365
 20
288.2799458532204
 30
0.0
 10
214.4172901073698
 20
287.8520961954334
 30
0.0
 10
214.8171579558945
 20
287.2379664893886
 30
0.0
 10
214.9368916808673
 20
287.0375303426021
 30
0.0
 10
215.1452862806986
 20
286.663174341278
 30
0.0
 10
215.2342861312419
 20
286.4887407375048
 30
0.0
 10
215.3438912579234
 20
286.2612150772882
 30
0.0
 10
215.3764286432233
 20
286.1911367209108
 30
0.0
 10
215.4330632824584
 20
286.0660462282906
 30
0.0
 10
215.456969113217
 20
286.0114725716147
 30
0.0
 10
215.5146377563629
 20
285.8775990054924
 30
0.0
 10
215.5346220427436
 20
285.8282197704494
 30
0.0
 10
215.5346220427436
 20
285.8282197704494
 30
0.0
  0
LINE
  5
1E4
330
1F
100
AcDbEntity
  8
0
  6
Continuous
 62
     8
370
     0
100
AcDbLine
 10
215.5346220427
 20
292.8290380048
 30
0.0
 11
180.5346220427
 21
292.8290380048
 31
0.0
  0
ELLIPSE
  5
1E5
330
1F
100
AcDbEntity
  8
0
  6
Continuous
 62
     8
370
     0
100
AcDbEllipse
 10
132.4277867902
 20
-133.3781957314
 30
0.0
 11
83.49696948966738
 21
376.659173917662
 31
0.0
210
0.0
220
0.0
230
1.0
 40
0.0018887028
 41
0.0269454551155813
 42
0.1472433835871593
  0
ELLIPSE
  5
1E6
330
1F
100
AcDbEntity
  8
0
  6
Continuous
 62
     8
370
     0
100
AcDbEllipse
 10
263.6414572953
 20
-133.3781957314
 30
0.0
 11
-83.49696948966738
 21
376.659173917662
 31
0.0
210
0.0
220
0.0
230
1.0
 40
0.0018887028
 41
6.135941923599668
 42
6.256239852071423
  0
SPLINE
  5
1E7
330
1F
100
AcDbEntity
  8
0
  6
Continuous
 62
     8
370
     0
100
AcDbSpline
210
0.0
220
0.0
230
1.0
 70
     8
 71
     3
 72
    18
 73
    14
 74
     0
 42
0.00000001
 43
0.00000001
 12
1.0
 22
0.0
 32
0.0
 13
1.0
 23
0.0
 33
0.0
 40
0.0
 40
0.0
 40
0.0
 40
0.0
 40
0.2499999999999955
 40
0.2499999999999955
 40
0.3749999999999963
 40
0.3749999999999963
 40
0.4999999999999972
 40
0.4999999999999972
 40
0.7499999999999982
 40
0.7499999999999982
 40
0.8749999999999991
 40
0.8749999999999991
 40
1.0
 40
1.0
 40
1.0
 40
1.0
 10
181.3157366613847
 20
283.3290380047437
 30
0.0
 10
181.3308735440753
 20
283.7624310516312
 30
0.0
 10
181.3848198684579
 20
284.181690260596
 30
0.0
 10
181.5190174346135
 20
284.7883862267665
 30
0.0
 10
181.572678320089
 20
284.9869060957475
 30
0.0
 10
181.6975542179974
 20
285.3761844172543
 30
0.0
 10
181.7691320889249
 20
285.5676581036095
 30
0.0
 10
182.0060953127104
 20
286.1209216836856
 30
0.0
 10
182.1939482408613
 20
286.4638714688934
 30
0.0
 10
182.5156916583581
 20
286.9404211308707
 30
0.0
 10
182.629636417424
 20
287.0929327145259
 30
0.0
 10
182.8704844775233
 20
287.3851443708741
 30
0.0
 10
182.9976676487715
 20
287.5250781104543
 30
0.0
 10
183.1299498724249
 20
287.6572670725722
 30
0.0
  0
SPLINE
  5
1E8
330
1F
100
AcDbEntity
  8
0
  6
Continuous
 62
     8
370
     0
100
AcDbSpline
210
0.0
220
0.0
230
1.0
 70
     8
 71
     3
 72
    14
 73
    10
 74
     0
 42
0.00000001
 43
0.00000001
 12
1.0
 22
0.0
 32
0.0
 13
1.0
 23
0.0
 33
0.0
 40
0.0
 40
0.0
 40
0.0
 40
0.0
 40
0.4999999999999984
 40
0.4999999999999984
 40
0.6249999999999993
 40
0.6249999999999993
 40
0.7500000000000003
 40
0.7500000000000003
 40
1.0
 40
1.0
 40
1.0
 40
1.0
 10
184.3848237021755
 20
287.4836846895296
 30
0.0
 10
184.1625420838083
 20
287.6367326326327
 30
0.0
 10
183.9409555855425
 20
287.7327500252503
 30
0.0
 10
183.6727393439077
 20
287.7738647184712
 30
0.0
 10
183.6193943069647
 20
287.7780209551075
 30
0.0
 10
183.5153996963282
 20
287.7777482634411
 30
0.0
 10
183.4645386661068
 20
287.7733733630167
 30
0.0
 10
183.315364323494
 20
287.7471433227807
 30
0.0
 10
183.2204814788923
 20
287.7124196278295
 30
0.0
 10
183.1299498724246
 20
287.6572670725743
 30
0.0
  0
SPLINE
  5
1E9
330
1F
100
AcDbEntity
  8
0
  6
Continuous
 62
     8
370
     0
100
AcDbSpline
210
0.0
220
0.0
230
1.0
 70
     8
 71
     3
 72
    14
 73
    10
 74
     0
 42
0.00000001
 43
0.00000001
 12
1.0
 22
0.0
 32
0.0
 13
1.0
 23
0.0
 33
0.0
 40
0.0
 40
0.0
 40
0.0
 40
0.0
 40
0.4999999999999984
 40
0.4999999999999984
 40
0.6249999999999993
 40
0.6249999999999993
 40
0.7500000000000003
 40
0.7500000000000003
 40
1.0
 40
1.0
 40
1.0
 40
1.0
 10
211.6844203833116
 20
287.4836846895296
 30
0.0
 10
211.9067020016789
 20
287.6367326326327
 30
0.0
 10
212.1282884999447
 20
287.7327500252503
 30
0.0
 10
212.3965047415795
 20
287.7738647184712
 30
0.0
 10
212.4498497785225
 20
287.7780209551075
 30
0.0
 10
212.553844389159
 20
287.7777482634411
 30
0.0
 10
212.6047054193803
 20
287.7733733630167
 30
0.0
 10
212.7538797619931
 20
287.7471433227807
 30
0.0
 10
212.8487626065948
 20
287.7124196278295
 30
0.0
 10
212.9392942130626
 20
287.6572670725743
 30
0.0
  0
SPLINE
  5
1EA
330
1F
100
AcDbEntity
  8
0
  6
Continuous
 62
     8
370
     0
100
AcDbSpline
210
0.0
220
0.0
230
1.0
 70
     8
 71
     3
 72
    18
 73
    14
 74
     0
 42
0.00000001
 43
0.00000001
 12
1.0
 22
0.0
 32
0.0
 13
1.0
 23
0.0
 33
0.0
 40
0.0
 40
0.0
 40
0.0
 40
0.0
 40
0.2499999999999955
 40
0.2499999999999955
 40
0.3749999999999963
 40
0.3749999999999963
 40
0.4999999999999972
 40
0.4999999999999972
 40
0.7499999999999982
 40
0.7499999999999982
 40
0.8749999999999991
 40
0.8749999999999991
 40
1.0
 40
1.0
 40
1.0
 40
1.0
 10
214.7535074241025
 20
283.3290380047437
 30
0.0
 10
214.7383705414119
 20
283.7624310516312
 30
0.0
 10
214.6844242170293
 20
284.181690260596
 30
0.0
 10
214.5502266508737
 20
284.7883862267665
 30
0.0
 10
214.4965657653982
 20
284.9869060957475
 30
0.0
 10
214.3716898674897
 20
285.3761844172543
 30
0.0
 10
214.3001119965622
 20
285.5676581036095
 30
0.0
 10
214.0631487727768
 20
286.1209216836856
 30
0.0
 10
213.8752958446259
 20
286.4638714688934
 30
0.0
 10
213.553552427129
 20
286.9404211308707
 30
0.0
 10
213.4396076680632
 20
287.0929327145259
 30
0.0
 10
213.1987596079638
 20
287.3851443708741
 30
0.0
 10
213.0715764367156
 20
287.5250781104543
 30
0.0
 10
212.9392942130623
 20
287.6572670725722
 30
0.0
  0
LINE
  5
1EB
330
1F
100
AcDbEntity
  8
0
  6
Continuous
 62
     8
370
     0
100
AcDbLine
 10
185.0717464082
 20
296.8080934717
 30
0.0
 11
196.2846220427
 21
296.8080934717
 31
0.0
  0
LINE
  5
1EC
330
1F
100
AcDbEntity
  8
0
  6
Continuous
 62
     8
370
     0
100
AcDbLine
 10
199.7846220427
 20
296.8080934717
 30
0.0
 11
210.9974976772
 21
296.8080934717
 31
0.0
  0
SPLINE
  5
1ED
330
1F
100
AcDbEntity
  8
0
  6
Continuous
 62
     8
370
     0
100
AcDbSpline
210
0.0
220
0.0
230
1.0
 70
     8
 71
     3
 72
    11
 73
     7
 74
     0
 42
0.00000001
 43
0.00000001
 12
1.0
 22
0.0
 32
0.0
 13
1.0
 23
0.0
 33
0.0
 40
0.0
 40
0.0
 40
0.0
 40
0.0
 40
0.1908462860912498
 40
0.4462400709906384
 40
0.7207937058131453
 40
1.0
 40
1.0
 40
1.0
 40
1.0
 10
215.724259560635
 20
284.7785047429234
 30
0.0
 10
215.702916676967
 20
284.8216257178329
 30
0.0
 10
215.6530123790201
 20
284.9224519235656
 30
0.0
 10
215.1872736544696
 20
285.6749429415329
 30
0.0
 10
214.3423315012213
 20
286.6602218977614
 30
0.0
 10
213.4095856017451
 20
287.3230622985448
 30
0.0
 10
212.9392942130623
 20
287.6572670725722
 30
0.0
  0
SPLINE
  5
1EE
330
1F
100
AcDbEntity
  8
0
  6
Continuous
 62
     8
370
     0
100
AcDbSpline
210
0.0
220
0.0
230
1.0
 70
     8
 71
     3
 72
    18
 73
    14
 74
     0
 42
0.00000001
 43
0.00000001
 12
1.0
 22
0.0
 32
0.0
 13
1.0
 23
0.0
 33
0.0
 40
0.0
 40
0.0
 40
0.0
 40
0.0
 40
0.1249999999999999
 40
0.1249999999999999
 40
0.2499999999999999
 40
0.2499999999999999
 40
0.3749999999999998
 40
0.3749999999999998
 40
0.4999999999999998
 40
0.4999999999999998
 40
0.7499999999999999
 40
0.7499999999999999
 40
1.0
 40
1.0
 40
1.0
 40
1.0
 10
180.344962845452
 20
284.7784652407445
 30
0.0
 10
180.3449630729471
 20
284.7784656741064
 30
0.0
 10
180.3606337009701
 20
284.8088472311433
 30
0.0
 10
180.4224285505028
 20
284.9220172030876
 30
0.0
 10
180.4687466311022
 20
285.0047931768312
 30
0.0
 10
180.590126063976
 20
285.2051892148381
 30
0.0
 10
180.6651938315607
 20
285.3226942780089
 30
0.0
 10
180.8436235950519
 20
285.5788269146685
 30
0.0
 10
180.9472502228993
 20
285.7177650601535
 30
0.0
 10
181.2983354086776
 20
286.1490497953715
 30
0.0
 10
181.5859569807519
 20
286.4555879814818
 30
0.0
 10
182.2717954397792
 20
287.0646454317763
 30
0.0
 10
182.6699355517303
 20
287.3680318234692
 30
0.0
 10
183.1299498724248
 20
287.6572670725722
 30
0.0
  0
ELLIPSE
  5
1EF
330
1F
100
AcDbEntity
  8
0
  6
Continuous
 62
     8
370
     0
100
AcDbEllipse
 10
128.0346220427
 20
-132.4042545547
 30
0.0
 11
87.99683903116861
 21
376.6591666241255
 31
0.0
210
0.0
220
0.0
230
1.0
 40
0.0019802225
 41
0.0256216306798087
 42
0.1472873287908649
  0
ELLIPSE
  5
1F0
330
1F
100
AcDbEntity
  8
0
  6
Continuous
 62
     8
370
     0
100
AcDbEllipse
 10
268.0346220427
 20
-132.4042545547
 30
0.0
 11
-87.99683903116861
 21
376.6591666241255
 31
0.0
210
0.0
220
0.0
230
1.0
 40
0.0019802225
 41
6.135897978395638
 42
6.257563676506751
  0
ARC
  5
1F1
330
1F
100
AcDbEntity
  8
0
  6
Continuous
 62
     8
370
     0
100
AcDbCircle
 10
181.3361593565
 20
289.2821040077
 30
0.0
 40
2.420284999937295
100
AcDbArc
 50
317.8293393894
 51
15.7924719748
  0
ARC
  5
1F2
330
1F
100
AcDbEntity
  8
0
  6
Continuous
 62
     8
370
     0
100
AcDbCircle
 10
214.733084729
 20
289.2821040077
 30
0.0
 40
2.420284999937337
100
AcDbArc
 50
164.2075280252
 51
222.1706606106
  0
LINE
  5
1F3
330
1F
100
AcDbEntity
  8
0
  6
Continuous
 62
     8
370
     0
100
AcDbLine
 10
199.7846220427
 20
314.9075419391
 30
0.0
 11
209.1091194948
 21
314.9075419391
 31
0.0
  0
LINE
  5
1F4
330
1F
100
AcDbEntity
  8
0
  6
Continuous
 62
     8
370
     0
100
AcDbLine
 10
186.9601245907
 20
314.9075419391
 30
0.0
 11
196.2846220427
 21
314.9075419391
 31
0.0
  0
LINE
  5
1F5
330
1F
100
AcDbEntity
  8
FORMAT
  6
CENTERX2
370
     0
100
AcDbLine
 10
198.0346220427
 20
197.0244121589
 30
0.0
 11
198.0346220427
 21
384.0076725323
 31
0.0
  0
LINE
  5
1F6
330
1F
100
AcDbEntity
  8
FORMAT
  6
CENTERX2
370
     0
100
AcDbLine
 10
236.0346220427
 20
218.0790380048
 30
0.0
 11
159.2758146013
 21
218.0790380048
 31
0.0
  0
ARC
  5
1F7
330
1F
100
AcDbEntity
  8
0
  6
Continuous
 62
     7
370
    15
100
AcDbCircle
 10
449.7894515939
 20
373.5790380048
 30
0.0
 40
1.000000000000015
100
AcDbArc
 50
270.0
 51
5.0
  0
ARC
  5
1F8
330
1F
100
AcDbEntity
  8
0
  6
Continuous
 62
     7
370
    15
100
AcDbCircle
 10
361.9720685961
 20
373.5790380048
 30
0.0
 40
1.000000000000015
100
AcDbArc
 50
175.0
 51
270.0
  0
LINE
  5
1F9
330
1F
100
AcDbEntity
  8
0
  6
Continuous
 62
     7
370
    15
100
AcDbLine
 10
450.7856477713
 20
373.6661896514
 30
0.0
 11
450.5249854838
 21
376.6455576228
 31
0.0
  0
LINE
  5
1FA
330
1F
100
AcDbEntity
  8
0
  6
Continuous
 62
     7
370
    15
100
AcDbLine
 10
361.2365347062
 20
376.6455576228
 30
0.0
 11
360.9758724188
 21
373.6661896514
 31
0.0
  0
ARC
  5
1FB
330
1F
100
AcDbEntity
  8
0
  6
Continuous
 62
     7
370
    15
100
AcDbCircle
 10
444.0497208286
 20
376.0790380048
 30
0.0
 40
6.500000000000037
100
AcDbArc
 50
5.0
 51
90.0
  0
ARC
  5
1FC
330
1F
100
AcDbEntity
  8
0
  6
Continuous
 62
     7
370
    15
100
AcDbCircle
 10
367.7117993614
 20
376.0790380048
 30
0.0
 40
6.5
100
AcDbArc
 50
90.0
 51
175.0
  0
LINE
  5
1FD
330
1F
100
AcDbEntity
  8
0
  6
Continuous
 62
     7
370
    15
100
AcDbLine
 10
444.0497194146
 20
382.5790360974
 30
0.0
 11
367.7118007754
 21
382.5790360974
 31
0.0
  0
LINE
  5
1FE
330
1F
100
AcDbEntity
  8
0
  6
Continuous
 62
     7
370
    15
100
AcDbLine
 10
430.0441589867
 20
251.5109479831
 30
0.0
 11
431.830335102
 21
264.2202489482
 31
0.0
  0
LINE
  5
1FF
330
1F
100
AcDbEntity
  8
0
  6
Continuous
 62
     7
370
    15
100
AcDbLine
 10
379.931185088
 20
264.2202489482
 30
0.0
 11
381.7173612033
 21
251.5109479831
 31
0.0
  0
LINE
  5
200
330
1F
100
AcDbEntity
  8
0
  6
Continuous
 62
     7
370
    15
100
AcDbLine
 10
433.380759946
 20
272.9718275772
 30
0.0
 11
433.380759946
 21
283.3290398525
 31
0.0
  0
LINE
  5
201
330
1F
100
AcDbEntity
  8
0
  6
Continuous
 62
     7
370
    15
100
AcDbLine
 10
378.380760244
 20
283.3290398525
 30
0.0
 11
378.380760244
 21
272.9718275772
 31
0.0
  0
LINE
  5
202
330
1F
100
AcDbEntity
  8
0
  6
Continuous
 62
     7
370
    15
100
AcDbLine
 10
435.3414882635
 20
272.8290372001
 30
0.0
 11
433.380759946
 21
273.9610672401
 31
0.0
  0
LINE
  5
203
330
1F
100
AcDbEntity
  8
0
  6
Continuous
 62
     7
370
    15
100
AcDbLine
 10
378.380760244
 20
273.9610672401
 30
0.0
 11
376.4200319265
 21
272.8290372001
 31
0.0
  0
LINE
  5
204
330
1F
100
AcDbEntity
  8
0
  6
Continuous
 62
     7
370
    15
100
AcDbLine
 10
435.3807602738
 20
268.3290392564
 30
0.0
 11
435.3414882635
 21
272.8290372001
 31
0.0
  0
LINE
  5
205
330
1F
100
AcDbEntity
  8
0
  6
Continuous
 62
     7
370
    15
100
AcDbLine
 10
434.8537322794
 20
264.5790391074
 30
0.0
 11
435.3807602738
 21
268.3290392564
 31
0.0
  0
LINE
  5
206
330
1F
100
AcDbEntity
  8
0
  6
Continuous
 62
     7
370
    15
100
AcDbLine
 10
376.3807599162
 20
268.3290392564
 30
0.0
 11
376.9077879106
 21
264.5790391074
 31
0.0
  0
LINE
  5
207
330
1F
100
AcDbEntity
  8
0
  6
Continuous
 62
     7
370
    15
100
AcDbLine
 10
376.4200319265
 20
272.8290372001
 30
0.0
 11
376.3807599162
 21
268.3290392564
 31
0.0
  0
LINE
  5
208
330
1F
100
AcDbEntity
  8
0
  6
Continuous
 62
     7
370
    15
100
AcDbLine
 10
431.7644235407
 20
263.7512609767
 30
0.0
 11
434.8537322794
 21
264.5790391074
 31
0.0
  0
LINE
  5
209
330
1F
100
AcDbEntity
  8
0
  6
Continuous
 62
     7
370
    15
100
AcDbLine
 10
376.9077879106
 20
264.5790391074
 30
0.0
 11
379.9970966493
 21
263.7512609767
 31
0.0
  0
LINE
  5
20A
330
1F
100
AcDbEntity
  8
0
  6
Continuous
 62
     7
370
    15
100
AcDbLine
 10
388.3807600205
 20
292.8290367531
 30
0.0
 11
388.3807600205
 21
287.1344089912
 31
0.0
  0
LINE
  5
20B
330
1F
100
AcDbEntity
  8
0
  6
Continuous
 62
     7
370
    15
100
AcDbLine
 10
423.3807601695
 20
287.1344089912
 30
0.0
 11
423.3807601695
 21
292.8290367531
 31
0.0
  0
ARC
  5
20C
330
1F
100
AcDbEntity
  8
0
  6
Continuous
 62
     7
370
    15
100
AcDbCircle
 10
389.880760095
 20
292.8290380048
 30
0.0
 40
1.5
100
AcDbArc
 50
90.0
 51
180.0
  0
ARC
  5
20D
330
1F
100
AcDbEntity
  8
0
  6
Continuous
 62
     7
370
    15
100
AcDbCircle
 10
421.880760095
 20
292.8290380048
 30
0.0
 40
1.5
100
AcDbArc
 50
0.0
 51
90.0
  0
ARC
  5
20E
330
1F
100
AcDbEntity
  8
0
  6
Continuous
 62
     7
370
    15
100
AcDbCircle
 10
389.9634612015
 20
297.3290380048
 30
0.0
 40
3.000000000000057
100
AcDbArc
 50
270.0
 51
274.9308392282
  0
ARC
  5
20F
330
1F
100
AcDbEntity
  8
0
  6
Continuous
 62
     7
370
    15
100
AcDbCircle
 10
421.7980589885
 20
297.3290380048
 30
0.0
 40
3.000000000000057
100
AcDbArc
 50
190.0
 51
270.0
  0
LWPOLYLINE
  5
210
330
1F
100
AcDbEntity
  8
0
  6
Continuous
 62
     7
370
    15
100
AcDbPolyline
 90
        3
 70
   128
 43
0.0
 10
425.7307608341
 20
283.3290398525
 10
425.0782482987
 20
284.1389552163
 10
424.273172087
 20
284.9994451212
  0
LWPOLYLINE
  5
211
330
1F
100
AcDbEntity
  8
0
  6
Continuous
 62
     7
370
    15
100
AcDbPolyline
 90
        3
 70
   128
 43
0.0
 10
387.4883983945
 20
284.9994972752
 10
386.6833128696
 20
284.1390073703
 10
386.0307593559
 20
283.3290398525
  0
SPLINE
  5
212
330
1F
100
AcDbEntity
  8
0
  6
Continuous
 62
     7
370
    15
100
AcDbSpline
210
0.0
220
0.0
230
1.0
 70
     8
 71
     3
 72
    12
 73
     8
 74
     0
 42
0.00000001
 43
0.00000001
 12
1.0
 22
0.0
 32
0.0
 13
1.0
 23
0.0
 33
0.0
 40
0.0
 40
0.0
 40
0.0
 40
0.0
 40
0.2331018181671335
 40
0.4692588572279832
 40
0.6946475126151748
 40
0.9104853440551275
 40
0.9999999999999999
 40
0.9999999999999999
 40
0.9999999999999999
 40
0.9999999999999999
 10
424.3875757520314
 20
284.9005461143203
 30
0.0
 10
424.2467601551654
 20
285.0377920981406
 30
0.0
 10
423.9632833183703
 20
285.3140829226097
 30
0.0
 10
423.6622240184682
 20
285.8228176726869
 30
0.0
 10
423.4687198198953
 20
286.3589352679663
 30
0.0
 10
423.3788918513084
 20
286.8019269763755
 30
0.0
 10
423.3908125982909
 20
287.0587832623656
 30
0.0
 10
423.394307187688
 20
287.1340811656661
 30
0.0
  0
SPLINE
  5
213
330
1F
100
AcDbEntity
  8
0
  6
Continuous
 62
     7
370
    15
100
AcDbSpline
210
0.0
220
0.0
230
1.0
 70
     8
 71
     3
 72
    14
 73
    10
 74
     0
 42
0.00000001
 43
0.00000001
 12
1.0
 22
0.0
 32
0.0
 13
1.0
 23
0.0
 33
0.0
 40
0.0
 40
0.0
 40
0.0
 40
0.0
 40
0.0937614488553215
 40
0.3020984585518044
 40
0.4931983408409379
 40
0.6658462332561603
 40
0.8178327080672135
 40
0.9459825291214466
 40
1.0
 40
1.0
 40
1.0
 40
1.0
 10
388.3691594665166
 20
287.1342376278587
 30
0.0
 10
388.3720090633621
 20
287.0600387333305
 30
0.0
 10
388.3811904361444
 20
286.8209706308547
 30
0.0
 10
388.3077695418798
 20
286.4338840738519
 30
0.0
 10
388.1707109873105
 20
286.0022067484703
 30
0.0
 10
387.9889826315057
 20
285.6351091825808
 30
0.0
 10
387.7894112425378
 20
285.33723431752
 30
0.0
 10
387.6215181048394
 20
285.1321503677152
 30
0.0
 10
387.5181817161895
 20
285.0317325374002
 30
0.0
 10
387.4875397150632
 20
285.0019559668251
 30
0.0
  0
LINE
  5
214
330
1F
100
AcDbEntity
  8
0
  6
Continuous
 62
     7
370
    15
100
AcDbLine
 10
394.630759648
 20
362.7057746457
 30
0.0
 11
394.630759648
 21
360.5790362166
 31
0.0
  0
LINE
  5
215
330
1F
100
AcDbEntity
  8
0
  6
Continuous
 62
     7
370
    15
100
AcDbLine
 10
417.130760542
 20
368.0790439652
 30
0.0
 11
417.130760542
 21
371.5790436076
 31
0.0
  0
LINE
  5
216
330
1F
100
AcDbEntity
  8
0
  6
Continuous
 62
     7
370
    15
100
AcDbLine
 10
418.8436359828
 20
296.8080938266
 30
0.0
 11
417.506338722
 21
304.3922782348
 31
0.0
  0
LINE
  5
217
330
1F
100
AcDbEntity
  8
0
  6
Continuous
 62
     7
370
    15
100
AcDbLine
 10
417.506338722
 20
304.3922782348
 30
0.0
 11
416.9552574595
 21
314.9075434016
 31
0.0
  0
ARC
  5
218
330
1F
100
AcDbEntity
  8
0
  6
Continuous
 62
     7
370
    15
100
AcDbCircle
 10
415.4573132449
 20
314.8290380048
 30
0.0
 40
1.500000000000022
100
AcDbArc
 50
3.0
 51
90.0
  0
LINE
  5
219
330
1F
100
AcDbEntity
  8
0
  6
Continuous
 62
     7
370
    15
100
AcDbLine
 10
414.8807597076
 20
316.3290396737
 30
0.0
 11
414.8807597076
 21
319.3290383028
 31
0.0
  0
LINE
  5
21A
330
1F
100
AcDbEntity
  8
0
  6
Continuous
 62
     7
370
    15
100
AcDbLine
 10
400.8807602068
 20
339.329041581
 30
0.0
 11
400.8807602068
 21
319.3290383028
 31
0.0
  0
LINE
  5
21B
330
1F
100
AcDbEntity
  8
0
  6
Continuous
 62
     7
370
    15
100
AcDbLine
 10
410.8807599833
 20
319.3290383028
 30
0.0
 11
410.8807599833
 21
339.329041581
 31
0.0
  0
LINE
  5
21C
330
1F
100
AcDbEntity
  8
0
  6
Continuous
 62
     7
370
    15
100
AcDbLine
 10
400.8807602068
 20
352.2776142167
 30
0.0
 11
400.8807602068
 21
343.3290347861
 31
0.0
  0
LINE
  5
21D
330
1F
100
AcDbEntity
  8
0
  6
Continuous
 62
     7
370
    15
100
AcDbLine
 10
410.8807599833
 20
343.3290347861
 30
0.0
 11
410.8807599833
 21
352.2776142167
 31
0.0
  0
LINE
  5
21E
330
1F
100
AcDbEntity
  8
0
  6
Continuous
 62
     7
370
    15
100
AcDbLine
 10
394.3807600727
 20
319.5790350841
 30
0.0
 11
394.3807600727
 21
319.3290383028
 31
0.0
  0
LINE
  5
21F
330
1F
100
AcDbEntity
  8
0
  6
Continuous
 62
     7
370
    15
100
AcDbLine
 10
399.3807599609
 20
319.3290383028
 30
0.0
 11
399.3807599609
 21
319.5790350841
 31
0.0
  0
LINE
  5
220
330
1F
100
AcDbEntity
  8
0
  6
Continuous
 62
     7
370
    15
100
AcDbLine
 10
395.3807602366
 20
333.8290378855
 30
0.0
 11
395.3807602366
 21
321.9290376114
 31
0.0
  0
LINE
  5
221
330
1F
100
AcDbEntity
  8
0
  6
Continuous
 62
     7
370
    15
100
AcDbLine
 10
398.3807602626
 20
321.9290376114
 30
0.0
 11
398.3807602626
 21
333.8290378855
 31
0.0
  0
ARC
  5
222
330
1F
100
AcDbEntity
  8
0
  6
Continuous
 62
     7
370
    15
100
AcDbCircle
 10
394.8217431006
 20
334.3290380048
 30
0.0
 40
0.7500000000000285
100
AcDbArc
 50
318.1896851042
 51
41.8103148958
  0
ARC
  5
223
330
1F
100
AcDbEntity
  8
0
  6
Continuous
 62
     7
370
    15
100
AcDbCircle
 10
398.9397770894
 20
334.3290380048
 30
0.0
 40
0.7499999999999861
100
AcDbArc
 50
138.1896851042
 51
221.8103148958
  0
LINE
  5
224
330
1F
100
AcDbEntity
  8
0
  6
Continuous
 62
     7
370
    15
100
AcDbLine
 10
395.3807602366
 20
339.329041581
 30
0.0
 11
395.3807602366
 21
334.8290399121
 31
0.0
  0
LINE
  5
225
330
1F
100
AcDbEntity
  8
0
  6
Continuous
 62
     7
370
    15
100
AcDbLine
 10
398.3807602626
 20
334.8290399121
 30
0.0
 11
398.3807602626
 21
339.329041581
 31
0.0
  0
LINE
  5
226
330
1F
100
AcDbEntity
  8
0
  6
Continuous
 62
     7
370
    15
100
AcDbLine
 10
395.3807602366
 20
347.5790396737
 30
0.0
 11
395.3807602366
 21
343.3290347861
 31
0.0
  0
LINE
  5
227
330
1F
100
AcDbEntity
  8
0
  6
Continuous
 62
     7
370
    15
100
AcDbLine
 10
398.3807602626
 20
343.3290347861
 30
0.0
 11
398.3807602626
 21
347.5790396737
 31
0.0
  0
LINE
  5
228
330
1F
100
AcDbEntity
  8
0
  6
Continuous
 62
     7
370
    15
100
AcDbLine
 10
395.3807602366
 20
351.6771123217
 30
0.0
 11
395.3807602366
 21
348.5790417002
 31
0.0
  0
LINE
  5
229
330
1F
100
AcDbEntity
  8
0
  6
Continuous
 62
     7
370
    15
100
AcDbLine
 10
398.3807602626
 20
348.5790417002
 30
0.0
 11
398.3807602626
 21
351.6771123217
 31
0.0
  0
ARC
  5
22A
330
1F
100
AcDbEntity
  8
0
  6
Continuous
 62
     7
370
    15
100
AcDbCircle
 10
394.8217431006
 20
348.0790380048
 30
0.0
 40
0.7500000000000285
100
AcDbArc
 50
318.1896851042
 51
41.8103148958
  0
ARC
  5
22B
330
1F
100
AcDbEntity
  8
0
  6
Continuous
 62
     7
370
    15
100
AcDbCircle
 10
398.9397770894
 20
348.0790380048
 30
0.0
 40
0.7499999999999861
100
AcDbArc
 50
138.1896851042
 51
221.8103148958
  0
ARC
  5
22C
330
1F
100
AcDbEntity
  8
0
  6
Continuous
 62
     7
370
    15
100
AcDbCircle
 10
396.880760095
 20
349.0790380048
 30
0.0
 40
3.0
100
AcDbArc
 50
60.0
 51
120.0
  0
LINE
  5
22D
330
1F
100
AcDbEntity
  8
0
  6
Continuous
 62
     7
370
    15
100
AcDbLine
 10
405.880760095
 20
372.579030733
 30
0.0
 11
361.9720671986
 21
372.579030733
 31
0.0
  0
LINE
  5
22E
330
1F
100
AcDbEntity
  8
0
  6
Continuous
 62
     7
370
    15
100
AcDbLine
 10
449.7894529914
 20
372.579030733
 30
0.0
 11
405.880760095
 21
372.579030733
 31
0.0
  0
CIRCLE
  5
22F
330
1F
100
AcDbEntity
  8
0
  6
Continuous
 62
     7
370
    15
100
AcDbCircle
 10
405.880760095
 20
218.0790380048
 30
0.0
 40
26.0
  0
CIRCLE
  5
230
330
1F
100
AcDbEntity
  8
0
  6
Continuous
 62
     7
370
    15
100
AcDbCircle
 10
405.880760095
 20
218.0790380048
 30
0.0
 40
24.50000000000006
  0
CIRCLE
  5
231
330
1F
100
AcDbEntity
  8
0
  6
Continuous
 62
     7
370
    15
100
AcDbCircle
 10
405.880760095
 20
218.0790380048
 30
0.0
 40
21.125
  0
CIRCLE
  5
232
330
1F
100
AcDbEntity
  8
0
  6
Continuous
 62
     7
370
    15
100
AcDbCircle
 10
405.880760095
 20
218.0790380048
 30
0.0
 40
19.875
  0
CIRCLE
  5
233
330
1F
100
AcDbEntity
  8
0
  6
Continuous
 62
     7
370
    15
100
AcDbCircle
 10
405.880760095
 20
218.0790380048
 30
0.0
 40
17.125
  0
CIRCLE
  5
234
330
1F
100
AcDbEntity
  8
0
  6
Continuous
 62
     7
370
    15
100
AcDbCircle
 10
405.880760095
 20
218.0790380048
 30
0.0
 40
15.87500000000006
  0
CIRCLE
  5
235
330
1F
100
AcDbEntity
  8
0
  6
Continuous
 62
     7
370
    15
100
AcDbCircle
 10
405.880760095
 20
218.0790380048
 30
0.0
 40
41.25
  0
LINE
  5
236
330
1F
100
AcDbEntity
  8
0
  6
Continuous
 62
     7
370
    15
100
AcDbLine
 10
425.880759648
 20
176.8290363656
 30
0.0
 11
405.880760095
 21
176.8290363656
 31
0.0
  0
LINE
  5
237
330
1F
100
AcDbEntity
  8
0
  6
Continuous
 62
     7
370
    15
100
AcDbLine
 10
428.2892753099
 20
183.4463812815
 30
0.0
 11
425.880759648
 21
176.8290363656
 31
0.0
  0
LINE
  5
238
330
1F
100
AcDbEntity
  8
0
  6
Continuous
 62
     7
370
    15
100
AcDbLine
 10
383.4722448801
 20
183.4463812815
 30
0.0
 11
385.880760542
 21
176.8290363656
 31
0.0
  0
LINE
  5
239
330
1F
100
AcDbEntity
  8
0
  6
Continuous
 62
     7
370
    15
100
AcDbLine
 10
385.880760542
 20
176.8290363656
 30
0.0
 11
405.880760095
 21
176.8290363656
 31
0.0
  0
LINE
  5
23A
330
1F
100
AcDbEntity
  8
0
  6
Continuous
 62
     7
370
    15
100
AcDbLine
 10
391.2661277418
 20
372.579030733
 30
0.0
 11
397.5168640455
 21
366.2109002875
 31
0.0
  0
LINE
  5
23B
330
1F
100
AcDbEntity
  8
0
  6
Continuous
 62
     7
370
    15
100
AcDbLine
 10
404.0795402098
 20
360.5790362166
 30
0.0
 11
404.4501397721
 21
360.5790362166
 31
0.0
  0
LINE
  5
23C
330
1F
100
AcDbEntity
  8
0
  6
Continuous
 62
     7
370
    15
100
AcDbLine
 10
394.1549013098
 20
372.579030733
 30
0.0
 11
404.0795402098
 21
360.5790362166
 31
0.0
  0
LINE
  5
23D
330
1F
100
AcDbEntity
  8
0
  6
Continuous
 62
     7
370
    15
100
AcDbLine
 10
400.1688469862
 20
372.579030733
 30
0.0
 11
405.1719760019
 21
367.481939535
 31
0.0
  0
ELLIPSE
  5
23E
330
1F
100
AcDbEntity
  8
0
  6
Continuous
 62
     7
370
    15
100
AcDbEllipse
 10
405.880760095
 20
298.2106429527
 30
0.0
 11
9.528293937110618
 21
144.42313176477
 31
0.0
210
0.0
220
0.0
230
1.0
 40
0.0414140486
 41
1.073284773149395
 42
1.123357185164405
  0
LINE
  5
23F
330
1F
100
AcDbEntity
  8
0
  6
Continuous
 62
     7
370
    15
100
AcDbLine
 10
404.4501397721
 20
360.5790362166
 30
0.0
 11
404.6109037436
 21
361.0522523926
 31
0.0
  0
LINE
  5
240
330
1F
100
AcDbEntity
  8
0
  6
Continuous
 62
     7
370
    15
100
AcDbLine
 10
402.264261079
 20
360.5790362166
 30
0.0
 11
392.1488231709
 21
372.579030733
 31
0.0
  0
LINE
  5
241
330
1F
100
AcDbEntity
  8
0
  6
Continuous
 62
     7
370
    15
100
AcDbLine
 10
404.0795402098
 20
360.5790362166
 30
0.0
 11
402.264261079
 21
360.5790362166
 31
0.0
  0
LINE
  5
242
330
1F
100
AcDbEntity
  8
0
  6
Continuous
 62
     7
370
    15
100
AcDbLine
 10
388.2747755115
 20
372.579030733
 30
0.0
 11
398.2472588969
 21
360.5790362166
 31
0.0
  0
ELLIPSE
  5
243
330
1F
100
AcDbEntity
  8
0
  6
Continuous
 62
     7
370
    15
100
AcDbEllipse
 10
405.880760095
 20
404.5123268099
 30
0.0
 11
9.611923821355674
 21
240.9766047925345
 31
0.0
210
0.0
220
0.0
230
1.0
 40
0.0242588017
 41
1.736437724193011
 42
1.755102736441255
  0
LINE
  5
244
330
1F
100
AcDbEntity
  8
0
  6
Continuous
 62
     7
370
    15
100
AcDbLine
 10
398.2472588969
 20
360.5790362166
 30
0.0
 11
398.3724365671
 21
360.5790362166
 31
0.0
  0
LINE
  5
245
330
1F
100
AcDbEntity
  8
0
  6
Continuous
 62
     7
370
    15
100
AcDbLine
 10
396.4319803481
 20
360.5790362166
 30
0.0
 11
386.2686973726
 21
372.579030733
 31
0.0
  0
LINE
  5
246
330
1F
100
AcDbEntity
  8
0
  6
Continuous
 62
     7
370
    15
100
AcDbLine
 10
398.2472588969
 20
360.5790362166
 30
0.0
 11
396.4319803481
 21
360.5790362166
 31
0.0
  0
LINE
  5
247
330
1F
100
AcDbEntity
  8
0
  6
Continuous
 62
     7
370
    15
100
AcDbLine
 10
386.0165026699
 20
268.3290392564
 30
0.0
 11
425.7450175201
 21
268.3290392564
 31
0.0
  0
LINE
  5
248
330
1F
100
AcDbEntity
  8
0
  6
Continuous
 62
     7
370
    15
100
AcDbLine
 10
425.7450175201
 20
268.3290392564
 30
0.0
 11
429.005875877
 21
268.3290392564
 31
0.0
  0
LINE
  5
249
330
1F
100
AcDbEntity
  8
0
  6
Continuous
 62
     7
370
    15
100
AcDbLine
 10
382.8839339976
 20
264.5790391074
 30
0.0
 11
428.8775861924
 21
264.5790391074
 31
0.0
  0
LINE
  5
24A
330
1F
100
AcDbEntity
  8
0
  6
Continuous
 62
     7
370
    15
100
AcDbLine
 10
386.0165026699
 20
268.3290392564
 30
0.0
 11
382.755644313
 21
268.3290392564
 31
0.0
  0
SPLINE
  5
24B
330
1F
100
AcDbEntity
  8
0
  6
Continuous
 62
     7
370
    15
100
AcDbSpline
210
0.0
220
0.0
230
1.0
 70
     8
 71
     3
 72
     8
 73
     4
 74
     0
 42
0.00000001
 43
0.00000001
 12
1.0
 22
0.0
 32
0.0
 13
1.0
 23
0.0
 33
0.0
 40
0.0000452121221637
 40
0.0000452121221637
 40
0.0000452121221637
 40
0.0000452121221637
 40
0.0090475411750319
 40
0.0090475411750319
 40
0.0090475411750319
 40
0.0090475411750319
 10
386.0165028361989
 20
268.3290380047508
 30
0.0
 10
386.0507135137518
 20
269.8290238211671
 30
0.0
 10
386.0842452249996
 20
271.3290245983006
 30
0.0
 10
386.1171659205795
 20
272.8290380047508
 30
0.0
  0
LINE
  5
24C
330
1F
100
AcDbEntity
  8
0
  6
Continuous
 62
     7
370
    15
100
AcDbLine
 10
386.1171656017
 20
272.8290372001
 30
0.0
 11
425.6443545883
 21
272.8290372001
 31
0.0
  0
SPLINE
  5
24D
330
1F
100
AcDbEntity
  8
0
  6
Continuous
 62
     7
370
    15
100
AcDbSpline
210
0.0
220
0.0
230
1.0
 70
     8
 71
     3
 72
     8
 73
     4
 74
     0
 42
0.00000001
 43
0.00000001
 12
1.0
 22
0.0
 32
0.0
 13
1.0
 23
0.0
 33
0.0
 40
0.0000452121221637
 40
0.0000452121221637
 40
0.0000452121221637
 40
0.0000452121221637
 40
0.0090475411750319
 40
0.0090475411750319
 40
0.0090475411750319
 40
0.0090475411750319
 10
425.7450173538247
 20
268.3290380047508
 30
0.0
 10
425.7108066762718
 20
269.8290238211671
 30
0.0
 10
425.677274965024
 20
271.3290245983006
 30
0.0
 10
425.6443542694441
 20
272.8290380047508
 30
0.0
  0
SPLINE
  5
24E
330
1F
100
AcDbEntity
  8
0
  6
Continuous
 62
     7
370
    15
100
AcDbSpline
210
0.0
220
0.0
230
1.0
 70
     8
 71
     3
 72
    24
 73
    20
 74
     0
 42
0.00000001
 43
0.00000001
 12
1.0
 22
0.0
 32
0.0
 13
1.0
 23
0.0
 33
0.0
 40
0.0
 40
0.0
 40
0.0
 40
0.0
 40
0.1249999999999996
 40
0.1249999999999996
 40
0.2499999999999992
 40
0.2499999999999992
 40
0.3749999999999988
 40
0.3749999999999988
 40
0.4374999999999981
 40
0.4374999999999981
 40
0.4999999999999974
 40
0.4999999999999974
 40
0.6249999999999979
 40
0.6249999999999979
 40
0.7499999999999986
 40
0.7499999999999986
 40
0.8749999999999993
 40
0.8749999999999993
 40
1.0
 40
1.0
 40
1.0
 40
1.0
 10
386.1171659205795
 20
272.8290380047508
 30
0.0
 10
386.4909729138411
 20
272.9148546096799
 30
0.0
 10
386.8486672702311
 20
273.0149342032441
 30
0.0
 10
387.5350301968677
 20
273.2411153454984
 30
0.0
 10
387.8644235403335
 20
273.3675755349947
 30
0.0
 10
388.4914430541949
 20
273.6451574258467
 30
0.0
 10
388.7821105062283
 20
273.7930902688812
 30
0.0
 10
389.186971253196
 20
274.027739709653
 30
0.0
 10
389.3167019479707
 20
274.1080938565271
 30
0.0
 10
389.5658959145263
 20
274.2730504447232
 30
0.0
 10
389.6857261446162
 20
274.357937626403
 30
0.0
 10
390.0270719563982
 20
274.6169533082203
 30
0.0
 10
390.2292340663849
 20
274.7942154461936
 30
0.0
 10
390.586400978761
 20
275.157540868417
 30
0.0
 10
390.7413840320378
 20
275.343606844192
 30
0.0
 10
391.0042014364422
 20
275.7247484808831
 30
0.0
 10
391.109522353992
 20
275.9162638880009
 30
0.0
 10
391.2698813322278
 20
276.2997875747643
 30
0.0
 10
391.3250742363749
 20
276.4920347258275
 30
0.0
 10
391.3549060921219
 20
276.6847747763242
 30
0.0
  0
LINE
  5
24F
330
1F
100
AcDbEntity
  8
0
  6
Continuous
 62
     7
370
    15
100
AcDbLine
 10
391.3549060663
 20
276.6847759889
 30
0.0
 11
420.4066141238
 21
276.6847759889
 31
0.0
  0
SPLINE
  5
250
330
1F
100
AcDbEntity
  8
0
  6
Continuous
 62
     7
370
    15
100
AcDbSpline
210
0.0
220
0.0
230
1.0
 70
     8
 71
     3
 72
    24
 73
    20
 74
     0
 42
0.00000001
 43
0.00000001
 12
1.0
 22
0.0
 32
0.0
 13
1.0
 23
0.0
 33
0.0
 40
0.0
 40
0.0
 40
0.0
 40
0.0
 40
0.1249999999999996
 40
0.1249999999999996
 40
0.2499999999999992
 40
0.2499999999999992
 40
0.3749999999999988
 40
0.3749999999999988
 40
0.4374999999999981
 40
0.4374999999999981
 40
0.4999999999999974
 40
0.4999999999999974
 40
0.6249999999999979
 40
0.6249999999999979
 40
0.7499999999999986
 40
0.7499999999999986
 40
0.8749999999999993
 40
0.8749999999999993
 40
1.0
 40
1.0
 40
1.0
 40
1.0
 10
425.6443542694441
 20
272.8290380047508
 30
0.0
 10
425.2705472761825
 20
272.9148546096799
 30
0.0
 10
424.9128529197924
 20
273.0149342032441
 30
0.0
 10
424.2264899931559
 20
273.2411153454984
 30
0.0
 10
423.8970966496901
 20
273.3675755349947
 30
0.0
 10
423.2700771358287
 20
273.6451574258467
 30
0.0
 10
422.9794096837953
 20
273.7930902688812
 30
0.0
 10
422.5745489368276
 20
274.027739709653
 30
0.0
 10
422.4448182420529
 20
274.1080938565271
 30
0.0
 10
422.1956242754972
 20
274.2730504447232
 30
0.0
 10
422.0757940454073
 20
274.357937626403
 30
0.0
 10
421.7344482336254
 20
274.6169533082203
 30
0.0
 10
421.5322861236386
 20
274.7942154461936
 30
0.0
 10
421.1751192112625
 20
275.157540868417
 30
0.0
 10
421.0201361579857
 20
275.343606844192
 30
0.0
 10
420.7573187535813
 20
275.7247484808831
 30
0.0
 10
420.6519978360315
 20
275.9162638880009
 30
0.0
 10
420.4916388577957
 20
276.2997875747643
 30
0.0
 10
420.4364459536487
 20
276.4920347258275
 30
0.0
 10
420.4066140979017
 20
276.6847747763242
 30
0.0
  0
SPLINE
  5
251
330
1F
100
AcDbEntity
  8
0
  6
Continuous
 62
     7
370
    15
100
AcDbSpline
210
0.0
220
0.0
230
1.0
 70
     8
 71
     3
 72
    10
 73
     6
 74
     0
 42
0.00000001
 43
0.00000001
 12
1.0
 22
0.0
 32
0.0
 13
1.0
 23
0.0
 33
0.0
 40
0.0
 40
0.0
 40
0.0
 40
0.0
 40
0.5
 40
0.5
 40
1.0
 40
1.0
 40
1.0
 40
1.0
 10
383.0131146043831
 20
264.4368415095626
 30
0.0
 10
383.3091738144035
 20
264.4491433500833
 30
0.0
 10
383.6133414889605
 20
264.4533119750075
 30
0.0
 10
384.2375669811236
 20
264.4457345136832
 30
0.0
 10
384.5595828150419
 20
264.4337841001923
 30
0.0
 10
384.8807600950117
 20
264.4137950080411
 30
0.0
  0
SPLINE
  5
252
330
1F
100
AcDbEntity
  8
0
  6
Continuous
 62
     7
370
    15
100
AcDbSpline
210
0.0
220
0.0
230
1.0
 70
     8
 71
     3
 72
    10
 73
     6
 74
     0
 42
0.00000001
 43
0.00000001
 12
1.0
 22
0.0
 32
0.0
 13
1.0
 23
0.0
 33
0.0
 40
0.0
 40
0.0
 40
0.0
 40
0.0
 40
0.5
 40
0.5
 40
1.0
 40
1.0
 40
1.0
 40
1.0
 10
428.7484055856404
 20
264.4368415095626
 30
0.0
 10
428.4523463756201
 20
264.4491433500833
 30
0.0
 10
428.148178701063
 20
264.4533119750075
 30
0.0
 10
427.5239532089
 20
264.4457345136832
 30
0.0
 10
427.2019373749816
 20
264.4337841001923
 30
0.0
 10
426.8807600950118
 20
264.4137950080411
 30
0.0
  0
SPLINE
  5
253
330
1F
100
AcDbEntity
  8
0
  6
Continuous
 62
     7
370
    15
100
AcDbSpline
210
0.0
220
0.0
230
1.0
 70
     8
 71
     3
 72
    14
 73
    10
 74
     0
 42
0.00000001
 43
0.00000001
 12
1.0
 22
0.0
 32
0.0
 13
1.0
 23
0.0
 33
0.0
 40
0.0
 40
0.0
 40
0.0
 40
0.0
 40
0.2500000000000001
 40
0.2500000000000001
 40
0.5000000000000001
 40
0.5000000000000001
 40
0.75
 40
0.75
 40
1.0
 40
1.0
 40
1.0
 40
1.0
 10
426.8807600950118
 20
264.4137950080411
 30
0.0
 10
423.3842087454751
 20
264.1961803400804
 30
0.0
 10
419.8860016247338
 20
264.0300312193923
 30
0.0
 10
412.8860541472498
 20
263.807554868838
 30
0.0
 10
409.3843127395787
 20
263.7512603044749
 30
0.0
 10
402.3772076595666
 20
263.7512603022425
 30
0.0
 10
398.8754661316974
 20
263.807554866579
 30
0.0
 10
391.8755185850399
 20
264.0300312181973
 30
0.0
 10
388.3773114465541
 20
264.1961803399556
 30
0.0
 10
384.8807600950117
 20
264.4137950080411
 30
0.0
  0
SPLINE
  5
254
330
1F
100
AcDbEntity
  8
0
  6
Continuous
 62
     7
370
    15
100
AcDbSpline
210
0.0
220
0.0
230
1.0
 70
     8
 71
     3
 72
     8
 73
     4
 74
     0
 42
0.00000001
 43
0.00000001
 12
1.0
 22
0.0
 32
0.0
 13
1.0
 23
0.0
 33
0.0
 40
0.0000584952617486
 40
0.0000584952617486
 40
0.0000584952617486
 40
0.0000584952617486
 40
0.0117175252869889
 40
0.0117175252869889
 40
0.0117175252869889
 40
0.0117175252869889
 10
420.3947633979509
 20
282.5122766429059
 30
0.0
 10
420.3981171749962
 20
280.5697775200763
 30
0.0
 10
420.4020686467396
 20
278.6272767047656
 30
0.0
 10
420.4066140979017
 20
276.6847747763242
 30
0.0
  0
SPLINE
  5
255
330
1F
100
AcDbEntity
  8
0
  6
Continuous
 62
     7
370
    15
100
AcDbSpline
210
0.0
220
0.0
230
1.0
 70
     8
 71
     3
 72
     8
 73
     4
 74
     0
 42
0.00000001
 43
0.00000001
 12
1.0
 22
0.0
 32
0.0
 13
1.0
 23
0.0
 33
0.0
 40
0.0
 40
0.0
 40
0.0
 40
0.0
 40
1.0
 40
1.0
 40
1.0
 40
1.0
 10
420.3905590597557
 20
283.3290380047507
 30
0.0
 10
420.3927183121783
 20
283.0581578104249
 30
0.0
 10
420.3942909753193
 20
282.7859026279103
 30
0.0
 10
420.3947633979509
 20
282.5122766429059
 30
0.0
  0
LINE
  5
256
330
1F
100
AcDbEntity
  8
0
  6
Continuous
 62
     7
370
    15
100
AcDbLine
 10
420.3905590539
 20
283.3290398525
 30
0.0
 11
425.7450175201
 21
283.3290398525
 31
0.0
  0
LINE
  5
257
330
1F
100
AcDbEntity
  8
0
  6
Continuous
 62
     7
370
    15
100
AcDbLine
 10
425.7450175201
 20
283.3290398525
 30
0.0
 11
425.7450175201
 21
268.3290392564
 31
0.0
  0
LINE
  5
258
330
1F
100
AcDbEntity
  8
0
  6
Continuous
 62
     7
370
    15
100
AcDbLine
 10
391.3709611361
 20
283.3290398525
 30
0.0
 11
386.0165026699
 21
283.3290398525
 31
0.0
  0
SPLINE
  5
259
330
1F
100
AcDbEntity
  8
0
  6
Continuous
 62
     7
370
    15
100
AcDbSpline
210
0.0
220
0.0
230
1.0
 70
     8
 71
     3
 72
     8
 73
     4
 74
     0
 42
0.00000001
 43
0.00000001
 12
1.0
 22
0.0
 32
0.0
 13
1.0
 23
0.0
 33
0.0
 40
0.0
 40
0.0
 40
0.0
 40
0.0
 40
1.0
 40
1.0
 40
1.0
 40
1.0
 10
391.3709611302678
 20
283.3290380047507
 30
0.0
 10
391.3688018778453
 20
283.0581578104249
 30
0.0
 10
391.3672292147043
 20
282.7859026279103
 30
0.0
 10
391.3667567920727
 20
282.5122766429059
 30
0.0
  0
SPLINE
  5
25A
330
1F
100
AcDbEntity
  8
0
  6
Continuous
 62
     7
370
    15
100
AcDbSpline
210
0.0
220
0.0
230
1.0
 70
     8
 71
     3
 72
     8
 73
     4
 74
     0
 42
0.00000001
 43
0.00000001
 12
1.0
 22
0.0
 32
0.0
 13
1.0
 23
0.0
 33
0.0
 40
0.0000584952617486
 40
0.0000584952617486
 40
0.0000584952617486
 40
0.0000584952617486
 40
0.0117175252869889
 40
0.0117175252869889
 40
0.0117175252869889
 40
0.0117175252869889
 10
391.3667567920727
 20
282.5122766429059
 30
0.0
 10
391.3634030150273
 20
280.5697775200763
 30
0.0
 10
391.359451543284
 20
278.6272767047656
 30
0.0
 10
391.3549060921219
 20
276.6847747763242
 30
0.0
  0
LINE
  5
25B
330
1F
100
AcDbEntity
  8
0
  6
Continuous
 62
     7
370
    15
100
AcDbLine
 10
386.0165026699
 20
283.3290398525
 30
0.0
 11
386.0165026699
 21
268.3290392564
 31
0.0
  0
LINE
  5
25C
330
1F
100
AcDbEntity
  8
0
  6
Continuous
 62
     7
370
    15
100
AcDbLine
 10
429.005875877
 20
283.3290398525
 30
0.0
 11
425.7450175201
 21
283.3290398525
 31
0.0
  0
LINE
  5
25D
330
1F
100
AcDbEntity
  8
0
  6
Continuous
 62
     7
370
    15
100
AcDbLine
 10
382.755644313
 20
283.3290398525
 30
0.0
 11
386.0165026699
 21
283.3290398525
 31
0.0
  0
LINE
  5
25E
330
1F
100
AcDbEntity
  8
0
  6
Continuous
 62
     7
370
    15
100
AcDbLine
 10
432.7068251287
 20
268.3290392564
 30
0.0
 11
433.3955120956
 21
268.3290392564
 31
0.0
  0
LINE
  5
25F
330
1F
100
AcDbEntity
  8
0
  6
Continuous
 62
     7
370
    15
100
AcDbLine
 10
428.8775861924
 20
264.5790391074
 30
0.0
 11
432.8816455518
 21
264.5790391074
 31
0.0
  0
LINE
  5
260
330
1F
100
AcDbEntity
  8
0
  6
Continuous
 62
     7
370
    15
100
AcDbLine
 10
429.005875877
 20
268.3290392564
 30
0.0
 11
432.7068251287
 21
268.3290392564
 31
0.0
  0
LINE
  5
261
330
1F
100
AcDbEntity
  8
0
  6
Continuous
 62
     7
370
    15
100
AcDbLine
 10
432.7068251287
 20
268.3290392564
 30
0.0
 11
432.7068251287
 21
283.3290398525
 31
0.0
  0
LINE
  5
262
330
1F
100
AcDbEntity
  8
0
  6
Continuous
 62
     7
370
    15
100
AcDbLine
 10
432.7068251287
 20
283.3290398525
 30
0.0
 11
429.005875877
 21
283.3290398525
 31
0.0
  0
LINE
  5
263
330
1F
100
AcDbEntity
  8
0
  6
Continuous
 62
     7
370
    15
100
AcDbLine
 10
382.8839339976
 20
264.5790391074
 30
0.0
 11
378.8798746382
 21
264.5790391074
 31
0.0
  0
LINE
  5
264
330
1F
100
AcDbEntity
  8
0
  6
Continuous
 62
     7
370
    15
100
AcDbLine
 10
379.0546950613
 20
268.3290392564
 30
0.0
 11
378.3660080944
 21
268.3290392564
 31
0.0
  0
LINE
  5
265
330
1F
100
AcDbEntity
  8
0
  6
Continuous
 62
     7
370
    15
100
AcDbLine
 10
382.755644313
 20
268.3290392564
 30
0.0
 11
379.0546950613
 21
268.3290392564
 31
0.0
  0
LINE
  5
266
330
1F
100
AcDbEntity
  8
0
  6
Continuous
 62
     7
370
    15
100
AcDbLine
 10
379.0546950613
 20
268.3290392564
 30
0.0
 11
379.0546950613
 21
283.3290398525
 31
0.0
  0
LINE
  5
267
330
1F
100
AcDbEntity
  8
0
  6
Continuous
 62
     7
370
    15
100
AcDbLine
 10
379.0546950613
 20
283.3290398525
 30
0.0
 11
382.755644313
 21
283.3290398525
 31
0.0
  0
SPLINE
  5
268
330
1F
100
AcDbEntity
  8
0
  6
Continuous
 62
     7
370
    15
100
AcDbSpline
210
0.0
220
0.0
230
1.0
 70
     8
 71
     3
 72
     9
 73
     5
 74
     0
 42
0.00000001
 43
0.00000001
 12
1.0
 22
0.0
 32
0.0
 13
1.0
 23
0.0
 33
0.0
 40
0.0
 40
0.0
 40
0.0
 40
0.0
 40
0.7944944292167221
 40
1.0
 40
1.0
 40
1.0
 40
1.0
 10
431.7694694464322
 20
264.2288059400268
 30
0.0
 10
431.7942277831299
 20
264.2467988062103
 30
0.0
 10
431.8253901623579
 20
264.2694457443409
 30
0.0
 10
431.7838077004212
 20
264.2740465897793
 30
0.0
 10
431.7752622728463
 20
264.2749920891471
 30
0.0
  0
SPLINE
  5
269
330
1F
100
AcDbEntity
  8
0
  6
Continuous
 62
     7
370
    15
100
AcDbSpline
210
0.0
220
0.0
230
1.0
 70
     8
 71
     3
 72
    20
 73
    16
 74
     0
 42
0.00000001
 43
0.00000001
 12
1.0
 22
0.0
 32
0.0
 13
1.0
 23
0.0
 33
0.0
 40
0.0
 40
0.0
 40
0.0
 40
0.0
 40
0.1249999999999997
 40
0.1249999999999997
 40
0.2499999999999994
 40
0.2499999999999994
 40
0.3749999999999992
 40
0.3749999999999992
 40
0.4999999999999989
 40
0.4999999999999989
 40
0.7499999999999986
 40
0.7499999999999986
 40
0.8749999999999992
 40
0.8749999999999992
 40
1.0
 40
1.0
 40
1.0
 40
1.0
 10
431.7752628855288
 20
264.274991146397
 30
0.0
 10
431.7422054805474
 20
264.2787993139287
 30
0.0
 10
431.6958280125695
 20
264.2831394555773
 30
0.0
 10
431.5755009813789
 20
264.292884917272
 30
0.0
 10
431.5021848458512
 20
264.298233327421
 30
0.0
 10
431.3319996059763
 20
264.3096728477966
 30
0.0
 10
431.2348767004021
 20
264.3157847473819
 30
0.0
 10
431.0164961017333
 20
264.3287588989908
 30
0.0
 10
430.8943001558417
 20
264.3356712397286
 30
0.0
 10
430.4968462275332
 20
264.3571544646506
 30
0.0
 10
430.1941158668744
 20
264.3723182733229
 30
0.0
 10
429.6837734213606
 20
264.3961807455648
 30
0.0
 10
429.5036301881404
 20
264.4043442669358
 30
0.0
 10
429.1344383328497
 20
264.4205782175641
 30
0.0
 10
428.9442100280372
 20
264.428705451159
 30
0.0
 10
428.7484055856404
 20
264.4368415095625
 30
0.0
  0
SPLINE
  5
26A
330
1F
100
AcDbEntity
  8
0
  6
Continuous
 62
     7
370
    15
100
AcDbSpline
210
0.0
220
0.0
230
1.0
 70
     8
 71
     3
 72
     9
 73
     5
 74
     0
 42
0.00000001
 43
0.00000001
 12
1.0
 22
0.0
 32
0.0
 13
1.0
 23
0.0
 33
0.0
 40
0.0
 40
0.0
 40
0.0
 40
0.0
 40
0.7944944292167221
 40
1.0
 40
1.0
 40
1.0
 40
1.0
 10
379.9920507435914
 20
264.2288059400268
 30
0.0
 10
379.9672924068936
 20
264.2467988062103
 30
0.0
 10
379.9361300276657
 20
264.2694457443409
 30
0.0
 10
379.9777124896024
 20
264.2740465897793
 30
0.0
 10
379.9862579171773
 20
264.2749920891471
 30
0.0
  0
SPLINE
  5
26B
330
1F
100
AcDbEntity
  8
0
  6
Continuous
 62
     7
370
    15
100
AcDbSpline
210
0.0
220
0.0
230
1.0
 70
     8
 71
     3
 72
    20
 73
    16
 74
     0
 42
0.00000001
 43
0.00000001
 12
1.0
 22
0.0
 32
0.0
 13
1.0
 23
0.0
 33
0.0
 40
0.0
 40
0.0
 40
0.0
 40
0.0
 40
0.1249999999999997
 40
0.1249999999999997
 40
0.2499999999999994
 40
0.2499999999999994
 40
0.3749999999999992
 40
0.3749999999999992
 40
0.4999999999999989
 40
0.4999999999999989
 40
0.7499999999999986
 40
0.7499999999999986
 40
0.8749999999999992
 40
0.8749999999999992
 40
1.0
 40
1.0
 40
1.0
 40
1.0
 10
379.9862573044948
 20
264.274991146397
 30
0.0
 10
380.0193147094761
 20
264.2787993139287
 30
0.0
 10
380.0656921774541
 20
264.2831394555773
 30
0.0
 10
380.1860192086447
 20
264.292884917272
 30
0.0
 10
380.2593353441723
 20
264.298233327421
 30
0.0
 10
380.4295205840473
 20
264.3096728477966
 30
0.0
 10
380.5266434896215
 20
264.3157847473819
 30
0.0
 10
380.7450240882903
 20
264.3287588989908
 30
0.0
 10
380.8672200341819
 20
264.3356712397286
 30
0.0
 10
381.2646739624903
 20
264.3571544646506
 30
0.0
 10
381.5674043231491
 20
264.3723182733229
 30
0.0
 10
382.077746768663
 20
264.3961807455648
 30
0.0
 10
382.2578900018831
 20
264.4043442669358
 30
0.0
 10
382.6270818571739
 20
264.4205782175641
 30
0.0
 10
382.8173101619863
 20
264.428705451159
 30
0.0
 10
383.0131146043831
 20
264.4368415095625
 30
0.0
  0
LINE
  5
26C
330
1F
100
AcDbEntity
  8
0
  6
Continuous
 62
     7
370
    15
100
AcDbLine
 10
433.3548952555
 20
272.9718275772
 30
0.0
 11
433.2818683897
 21
272.8736587273
 31
0.0
  0
SPLINE
  5
26D
330
1F
100
AcDbEntity
  8
0
  6
Continuous
 62
     7
370
    15
100
AcDbSpline
210
0.0
220
0.0
230
1.0
 70
     8
 71
     3
 72
     8
 73
     4
 74
     0
 42
0.00000001
 43
0.00000001
 12
1.0
 22
0.0
 32
0.0
 13
1.0
 23
0.0
 33
0.0
 40
0.0
 40
0.0
 40
0.0
 40
0.0
 40
1.0
 40
1.0
 40
1.0
 40
1.0
 10
433.2818691004604
 20
272.8736575452781
 30
0.0
 10
433.2062792709129
 20
272.8612837340873
 30
0.0
 10
433.0885577549804
 20
272.846400445717
 30
0.0
 10
432.9275963704279
 20
272.8290380047508
 30
0.0
  0
SPLINE
  5
26E
330
1F
100
AcDbEntity
  8
0
  6
Continuous
 62
     7
370
    15
100
AcDbSpline
210
0.0
220
0.0
230
1.0
 70
     8
 71
     3
 72
     8
 73
     4
 74
     0
 42
0.00000001
 43
0.00000001
 12
1.0
 22
0.0
 32
0.0
 13
1.0
 23
0.0
 33
0.0
 40
0.0
 40
0.0
 40
0.0
 40
0.0
 40
1.0
 40
1.0
 40
1.0
 40
1.0
 10
432.9275963704279
 20
272.8290380047508
 30
0.0
 10
432.8575835382592
 20
271.3301507735351
 30
0.0
 10
432.783687127277
 20
269.8300420645508
 30
0.0
 10
432.7068253210372
 20
268.3290380047508
 30
0.0
  0
LINE
  5
26F
330
1F
100
AcDbEntity
  8
0
  6
Continuous
 62
     7
370
    15
100
AcDbLine
 10
432.7068251287
 20
283.3290398525
 30
0.0
 11
433.380759946
 21
283.3290398525
 31
0.0
  0
LINE
  5
270
330
1F
100
AcDbEntity
  8
0
  6
Continuous
 62
     7
370
    15
100
AcDbLine
 10
432.9275970076
 20
272.8290372001
 30
0.0
 11
433.3572216992
 21
272.8290372001
 31
0.0
  0
SPLINE
  5
271
330
1F
100
AcDbEntity
  8
0
  6
Continuous
 62
     7
370
    15
100
AcDbSpline
210
0.0
220
0.0
230
1.0
 70
     8
 71
     3
 72
     8
 73
     4
 74
     0
 42
0.00000001
 43
0.00000001
 12
1.0
 22
0.0
 32
0.0
 13
1.0
 23
0.0
 33
0.0
 40
0.0
 40
0.0
 40
0.0
 40
0.0
 40
1.0
 40
1.0
 40
1.0
 40
1.0
 10
378.8339238195956
 20
272.8290380047508
 30
0.0
 10
378.9039366517644
 20
271.3301507735351
 30
0.0
 10
378.9778330627466
 20
269.8300420645508
 30
0.0
 10
379.0546948689864
 20
268.3290380047508
 30
0.0
  0
SPLINE
  5
272
330
1F
100
AcDbEntity
  8
0
  6
Continuous
 62
     7
370
    15
100
AcDbSpline
210
0.0
220
0.0
230
1.0
 70
     8
 71
     3
 72
     8
 73
     4
 74
     0
 42
0.00000001
 43
0.00000001
 12
1.0
 22
0.0
 32
0.0
 13
1.0
 23
0.0
 33
0.0
 40
0.0
 40
0.0
 40
0.0
 40
0.0
 40
1.0
 40
1.0
 40
1.0
 40
1.0
 10
378.4796510895632
 20
272.8736575452781
 30
0.0
 10
378.5552409191106
 20
272.8612837340873
 30
0.0
 10
378.6729624350432
 20
272.846400445717
 30
0.0
 10
378.8339238195956
 20
272.8290380047508
 30
0.0
  0
LINE
  5
273
330
1F
100
AcDbEntity
  8
0
  6
Continuous
 62
     7
370
    15
100
AcDbLine
 10
378.4066249346
 20
272.9718275772
 30
0.0
 11
378.4796518003
 21
272.8736587273
 31
0.0
  0
LINE
  5
274
330
1F
100
AcDbEntity
  8
0
  6
Continuous
 62
     7
370
    15
100
AcDbLine
 10
379.0546950613
 20
283.3290398525
 30
0.0
 11
378.380760244
 21
283.3290398525
 31
0.0
  0
LINE
  5
275
330
1F
100
AcDbEntity
  8
0
  6
Continuous
 62
     7
370
    15
100
AcDbLine
 10
378.8339231824
 20
272.8290372001
 30
0.0
 11
378.4042984908
 21
272.8290372001
 31
0.0
  0
LINE
  5
276
330
1F
100
AcDbEntity
  8
0
  6
Continuous
 62
     7
370
    15
100
AcDbLine
 10
433.3572216992
 20
272.8290372001
 30
0.0
 11
435.3414882635
 21
272.8290372001
 31
0.0
  0
LINE
  5
277
330
1F
100
AcDbEntity
  8
0
  6
Continuous
 62
     7
370
    15
100
AcDbLine
 10
378.4042984908
 20
272.8290372001
 30
0.0
 11
376.4200319265
 21
272.8290372001
 31
0.0
  0
LINE
  5
278
330
1F
100
AcDbEntity
  8
0
  6
Continuous
 62
     7
370
    15
100
AcDbLine
 10
433.3955120956
 20
268.3290392564
 30
0.0
 11
435.3807602738
 21
268.3290392564
 31
0.0
  0
LINE
  5
279
330
1F
100
AcDbEntity
  8
0
  6
Continuous
 62
     7
370
    15
100
AcDbLine
 10
432.8816455518
 20
264.5790391074
 30
0.0
 11
434.8537322794
 21
264.5790391074
 31
0.0
  0
LINE
  5
27A
330
1F
100
AcDbEntity
  8
0
  6
Continuous
 62
     7
370
    15
100
AcDbLine
 10
378.3660080944
 20
268.3290392564
 30
0.0
 11
376.3807599162
 21
268.3290392564
 31
0.0
  0
LINE
  5
27B
330
1F
100
AcDbEntity
  8
0
  6
Continuous
 62
     7
370
    15
100
AcDbLine
 10
378.8798746382
 20
264.5790391074
 30
0.0
 11
376.9077879106
 21
264.5790391074
 31
0.0
  0
LINE
  5
27C
330
1F
100
AcDbEntity
  8
0
  6
Continuous
 62
     7
370
    15
100
AcDbLine
 10
389.8807593351
 20
294.3290397929
 30
0.0
 11
421.880760855
 21
294.3290397929
 31
0.0
  0
SPLINE
  5
27D
330
1F
100
AcDbEntity
  8
0
  6
Continuous
 62
     7
370
    15
100
AcDbSpline
210
0.0
220
0.0
230
1.0
 70
     8
 71
     3
 72
    24
 73
    20
 74
     0
 42
0.00000001
 43
0.00000001
 12
1.0
 22
0.0
 32
0.0
 13
1.0
 23
0.0
 33
0.0
 40
0.0
 40
0.0
 40
0.0
 40
0.0
 40
0.2500000000000007
 40
0.2500000000000007
 40
0.375000000000001
 40
0.375000000000001
 40
0.5000000000000013
 40
0.5000000000000013
 40
0.6250000000000017
 40
0.6250000000000017
 40
0.6875000000000012
 40
0.6875000000000012
 40
0.7500000000000007
 40
0.7500000000000007
 40
0.8125
 40
0.8125
 40
0.8749999999999994
 40
0.8749999999999994
 40
1.0
 40
1.0
 40
1.0
 40
1.0
 10
421.3837444292145
 20
283.329038004752
 30
0.0
 10
421.3819131514041
 20
283.6539045697525
 30
0.0
 10
421.3792971231662
 20
283.9687886802956
 30
0.0
 10
421.382759605646
 20
284.4233702063232
 30
0.0
 10
421.3852762710533
 20
284.5726871430757
 30
0.0
 10
421.3955865246216
 20
284.8546775460166
 30
0.0
 10
421.4033351771523
 20
284.9884117338557
 30
0.0
 10
421.4280301930141
 20
285.2383054998189
 30
0.0
 10
421.4450447147435
 20
285.353697127404
 30
0.0
 10
421.4804116360723
 20
285.5025369813533
 30
0.0
 10
421.4938799973154
 20
285.5483992138103
 30
0.0
 10
421.5250114434597
 20
285.6316306884399
 30
0.0
 10
421.5426602308442
 20
285.6687622280935
 30
0.0
 10
421.5817919938719
 20
285.7315063612882
 30
0.0
 10
421.6033797013324
 20
285.7574344005303
 30
0.0
 10
421.6511364399183
 20
285.797777852348
 30
0.0
 10
421.677554123916
 20
285.8121813574012
 30
0.0
 10
421.7615709197481
 20
285.8362132334226
 30
0.0
 10
421.8243971974219
 20
285.8276851092403
 30
0.0
 10
421.8939934057435
 20
285.7968038183975
 30
0.0
  0
SPLINE
  5
27E
330
1F
100
AcDbEntity
  8
0
  6
Continuous
 62
     7
370
    15
100
AcDbSpline
210
0.0
220
0.0
230
1.0
 70
     8
 71
     3
 72
    24
 73
    20
 74
     0
 42
0.00000001
 43
0.00000001
 12
1.0
 22
0.0
 32
0.0
 13
1.0
 23
0.0
 33
0.0
 40
0.0
 40
0.0
 40
0.0
 40
0.0
 40
0.2500000000000007
 40
0.2500000000000007
 40
0.375000000000001
 40
0.375000000000001
 40
0.5000000000000013
 40
0.5000000000000013
 40
0.6250000000000017
 40
0.6250000000000017
 40
0.6875000000000012
 40
0.6875000000000012
 40
0.7500000000000007
 40
0.7500000000000007
 40
0.8125
 40
0.8125
 40
0.8749999999999994
 40
0.8749999999999994
 40
1.0
 40
1.0
 40
1.0
 40
1.0
 10
390.3777757608091
 20
283.329038004752
 30
0.0
 10
390.3796070386194
 20
283.6539045697525
 30
0.0
 10
390.3822230668574
 20
283.9687886802956
 30
0.0
 10
390.3787605843776
 20
284.4233702063232
 30
0.0
 10
390.3762439189703
 20
284.5726871430757
 30
0.0
 10
390.3659336654019
 20
284.8546775460166
 30
0.0
 10
390.3581850128713
 20
284.9884117338557
 30
0.0
 10
390.3334899970095
 20
285.2383054998189
 30
0.0
 10
390.31647547528
 20
285.353697127404
 30
0.0
 10
390.2811085539512
 20
285.5025369813533
 30
0.0
 10
390.2676401927081
 20
285.5483992138103
 30
0.0
 10
390.2365087465639
 20
285.6316306884399
 30
0.0
 10
390.2188599591794
 20
285.6687622280935
 30
0.0
 10
390.1797281961516
 20
285.7315063612882
 30
0.0
 10
390.1581404886911
 20
285.7574344005303
 30
0.0
 10
390.1103837501053
 20
285.797777852348
 30
0.0
 10
390.0839660661076
 20
285.8121813574012
 30
0.0
 10
389.9999492702754
 20
285.8362132334226
 30
0.0
 10
389.9371229926017
 20
285.8276851092403
 30
0.0
 10
389.8675267842801
 20
285.7968038183975
 30
0.0
  0
SPLINE
  5
27F
330
1F
100
AcDbEntity
  8
0
  6
Continuous
 62
     7
370
    15
100
AcDbSpline
210
0.0
220
0.0
230
1.0
 70
     8
 71
     3
 72
    18
 73
    14
 74
     0
 42
0.00000001
 43
0.00000001
 12
1.0
 22
0.0
 32
0.0
 13
1.0
 23
0.0
 33
0.0
 40
0.0
 40
0.0
 40
0.0
 40
0.0
 40
0.2499999999999951
 40
0.2499999999999951
 40
0.3749999999999961
 40
0.3749999999999961
 40
0.4999999999999971
 40
0.4999999999999971
 40
0.6249999999999981
 40
0.6249999999999981
 40
0.7499999999999991
 40
0.7499999999999991
 40
1.0
 40
1.0
 40
1.0
 40
1.0
 10
424.7922201911877
 20
283.3290380047507
 30
0.0
 10
424.5444551981568
 20
283.632797797982
 30
0.0
 10
424.287046383064
 20
283.919199740645
 30
0.0
 10
423.8902172410839
 20
284.3204183852977
 30
0.0
 10
423.7570073049821
 20
284.4485003743336
 30
0.0
 10
423.4935727854686
 20
284.6897936519066
 30
0.0
 10
423.362817482388
 20
284.8035478755962
 30
0.0
 10
423.1047082391121
 20
285.0170745064354
 30
0.0
 10
422.977349030748
 20
285.1168534551307
 30
0.0
 10
422.7277707469739
 20
285.3018584087113
 30
0.0
 10
422.6078061881233
 20
285.3853957899225
 30
0.0
 10
422.2674015795073
 20
285.6081467380149
 30
0.0
 10
422.0647521863687
 20
285.7210345818885
 30
0.0
 10
421.8939934057428
 20
285.7968038183978
 30
0.0
  0
SPLINE
  5
280
330
1F
100
AcDbEntity
  8
0
  6
Continuous
 62
     7
370
    15
100
AcDbSpline
210
0.0
220
0.0
230
1.0
 70
     8
 71
     3
 72
    18
 73
    14
 74
     0
 42
0.00000001
 43
0.00000001
 12
1.0
 22
0.0
 32
0.0
 13
1.0
 23
0.0
 33
0.0
 40
0.0
 40
0.0
 40
0.0
 40
0.0
 40
0.2499999999999951
 40
0.2499999999999951
 40
0.3749999999999961
 40
0.3749999999999961
 40
0.4999999999999971
 40
0.4999999999999971
 40
0.6249999999999981
 40
0.6249999999999981
 40
0.7499999999999991
 40
0.7499999999999991
 40
1.0
 40
1.0
 40
1.0
 40
1.0
 10
386.9692999988359
 20
283.3290380047507
 30
0.0
 10
387.2170649918668
 20
283.632797797982
 30
0.0
 10
387.4744738069596
 20
283.919199740645
 30
0.0
 10
387.8713029489396
 20
284.3204183852977
 30
0.0
 10
388.0045128850414
 20
284.4485003743336
 30
0.0
 10
388.2679474045549
 20
284.6897936519066
 30
0.0
 10
388.3987027076356
 20
284.8035478755962
 30
0.0
 10
388.6568119509114
 20
285.0170745064354
 30
0.0
 10
388.7841711592756
 20
285.1168534551307
 30
0.0
 10
389.0337494430497
 20
285.3018584087113
 30
0.0
 10
389.1537140019003
 20
285.3853957899225
 30
0.0
 10
389.4941186105162
 20
285.6081467380149
 30
0.0
 10
389.6967680036549
 20
285.7210345818885
 30
0.0
 10
389.8675267842807
 20
285.7968038183978
 30
0.0
  0
SPLINE
  5
281
330
1F
100
AcDbEntity
  8
0
  6
Continuous
 62
     7
370
    15
100
AcDbSpline
210
0.0
220
0.0
230
1.0
 70
     8
 71
     3
 72
    22
 73
    18
 74
     0
 42
0.00000001
 43
0.00000001
 12
1.0
 22
0.0
 32
0.0
 13
1.0
 23
0.0
 33
0.0
 40
0.0
 40
0.0
 40
0.0
 40
0.0
 40
0.125
 40
0.125
 40
0.25
 40
0.25
 40
0.375
 40
0.375
 40
0.5
 40
0.5
 40
0.625
 40
0.625
 40
0.75
 40
0.75
 40
0.875
 40
0.875
 40
1.0
 40
1.0
 40
1.0
 40
1.0
 10
390.2233612746076
 20
294.3334372027866
 30
0.0
 10
390.3913258176257
 20
294.3424870439122
 30
0.0
 10
390.5606378370348
 20
294.3658883074499
 30
0.0
 10
390.8882291202876
 20
294.4393131520032
 30
0.0
 10
391.0480144488648
 20
294.4892816422127
 30
0.0
 10
391.3595201041036
 20
294.6158774425201
 30
0.0
 10
391.5119902291335
 20
294.6932315038943
 30
0.0
 10
391.797765927691
 20
294.8696055124719
 30
0.0
 10
391.9324454936641
 20
294.969013272913
 30
0.0
 10
392.1852988524901
 20
295.1903922517547
 30
0.0
 10
392.3039780384182
 20
295.3132406727381
 30
0.0
 10
392.5172597445052
 20
295.5751407234032
 30
0.0
 10
392.6133254517713
 20
295.7158409589395
 30
0.0
 10
392.7794596146904
 20
296.0098258372231
 30
0.0
 10
392.8492809459741
 20
296.1621920110293
 30
0.0
 10
392.9629254403775
 20
296.477471685567
 30
0.0
 10
393.0069765335269
 20
296.6418900964505
 30
0.0
 10
393.0365534353776
 20
296.8080934717499
 30
0.0
  0
SPLINE
  5
282
330
1F
100
AcDbEntity
  8
0
  6
Continuous
 62
     7
370
    15
100
AcDbSpline
210
0.0
220
0.0
230
1.0
 70
     8
 71
     3
 72
    22
 73
    18
 74
     0
 42
0.00000001
 43
0.00000001
 12
1.0
 22
0.0
 32
0.0
 13
1.0
 23
0.0
 33
0.0
 40
0.0
 40
0.0
 40
0.0
 40
0.0
 40
0.125
 40
0.125
 40
0.25
 40
0.25
 40
0.375
 40
0.375
 40
0.5
 40
0.5
 40
0.625
 40
0.625
 40
0.75
 40
0.75
 40
0.875
 40
0.875
 40
1.0
 40
1.0
 40
1.0
 40
1.0
 10
412.1939150485912
 20
294.3334372027866
 30
0.0
 10
412.1099462995109
 20
294.3424855867496
 30
0.0
 10
412.02517783841
 20
294.3659036202232
 30
0.0
 10
411.8610797785406
 20
294.4395221872068
 30
0.0
 10
411.781125260298
 20
294.4896005545588
 30
0.0
 10
411.6254038080003
 20
294.6162863394266
 30
0.0
 10
411.5490991488837
 20
294.6937560928482
 30
0.0
 10
411.4059784798594
 20
294.8706069874905
 30
0.0
 10
411.3386099465209
 20
294.970207040836
 30
0.0
 10
411.2122536837812
 20
295.1917488995052
 30
0.0
 10
411.1528542375292
 20
295.3149393567801
 30
0.0
 10
411.0466498027868
 20
295.5760675371677
 30
0.0
 10
410.9994102737207
 20
295.7144436550773
 30
0.0
 10
410.9166401441072
 20
296.0067980292584
 30
0.0
 10
410.8809199100192
 20
296.1622080474011
 30
0.0
 10
410.8238013464019
 20
296.4794926846766
 30
0.0
 10
410.8021066027295
 20
296.6418992717708
 30
0.0
 10
410.7873189682061
 20
296.8080934717499
 30
0.0
  0
SPLINE
  5
283
330
1F
100
AcDbEntity
  8
0
  6
Continuous
 62
     7
370
    15
100
AcDbSpline
210
0.0
220
0.0
230
1.0
 70
     8
 71
     3
 72
    20
 73
    16
 74
     0
 42
0.00000001
 43
0.00000001
 12
1.0
 22
0.0
 32
0.0
 13
1.0
 23
0.0
 33
0.0
 40
0.0
 40
0.0
 40
0.0
 40
0.0
 40
0.1250000000000028
 40
0.1250000000000028
 40
0.2500000000000057
 40
0.2500000000000057
 40
0.3750000000000085
 40
0.3750000000000085
 40
0.5000000000000113
 40
0.5000000000000113
 40
0.7500000000000062
 40
0.7500000000000062
 40
0.8750000000000031
 40
0.8750000000000031
 40
1.0
 40
1.0
 40
1.0
 40
1.0
 10
409.0728655359863
 20
316.3290380047508
 30
0.0
 10
409.1205753715529
 20
316.3290380047508
 30
0.0
 10
409.1689915882288
 20
316.3200373428818
 30
0.0
 10
409.2627509218742
 20
316.2848003901019
 30
0.0
 10
409.3084919686618
 20
316.2586969330948
 30
0.0
 10
409.3976605692747
 20
316.1892499018001
 30
0.0
 10
409.4410218300949
 20
316.1456881417005
 30
0.0
 10
409.521715681439
 20
316.0446314701931
 30
0.0
 10
409.5595497981436
 20
315.9868084692833
 30
0.0
 10
409.6652314837253
 20
315.7906361374107
 30
0.0
 10
409.7222202894939
 20
315.6352663741491
 30
0.0
 10
409.7837394266002
 20
315.373801989002
 30
0.0
 10
409.7997494166483
 20
315.2840252802475
 30
0.0
 10
409.8230477726661
 20
315.0993861493426
 30
0.0
 10
409.8303392709342
 20
315.0037829717678
 30
0.0
 10
409.8328932490313
 20
314.9075419391152
 30
0.0
  0
LINE
  5
284
330
1F
100
AcDbEntity
  8
0
  6
Continuous
 62
     7
370
    15
100
AcDbLine
 10
408.7793265199
 20
319.3290383028
 30
0.0
 11
408.7793265199
 21
316.3290396737
 31
0.0
  0
LINE
  5
285
330
1F
100
AcDbEntity
  8
0
  6
Continuous
 62
     7
370
    15
100
AcDbLine
 10
408.7793265199
 20
319.3290383028
 30
0.0
 11
409.9902158332
 21
319.3290383028
 31
0.0
  0
LINE
  5
286
330
1F
100
AcDbEntity
  8
0
  6
Continuous
 62
     7
370
    15
100
AcDbLine
 10
409.9902158332
 20
319.3290383028
 30
0.0
 11
412.1939150346
 21
294.3334356354
 31
0.0
  0
SPLINE
  5
287
330
1F
100
AcDbEntity
  8
0
  6
Continuous
 62
     7
370
    15
100
AcDbSpline
210
0.0
220
0.0
230
1.0
 70
     8
 71
     3
 72
     8
 73
     4
 74
     0
 42
0.00000001
 43
0.00000001
 12
1.0
 22
0.0
 32
0.0
 13
1.0
 23
0.0
 33
0.0
 40
0.0000002031562946
 40
0.0000002031562946
 40
0.0000002031562946
 40
0.0000002031562946
 40
0.0154073884259818
 40
0.0154073884259818
 40
0.0154073884259818
 40
0.0154073884259818
 10
410.1117708487923
 20
304.3922795478587
 30
0.0
 10
410.337214259459
 20
301.8643104650497
 30
0.0
 10
410.5623695665339
 20
299.3362385775617
 30
0.0
 10
410.7873189682061
 20
296.8080934717499
 30
0.0
  0
LINE
  5
288
330
1F
100
AcDbEntity
  8
0
  6
Continuous
 62
     7
370
    15
100
AcDbLine
 10
409.8328930986
 20
314.9075434016
 30
0.0
 11
410.1117706587
 21
304.3922782348
 31
0.0
  0
LINE
  5
289
330
1F
100
AcDbEntity
  8
0
  6
Continuous
 62
     7
370
    15
100
AcDbLine
 10
413.0213043382
 20
319.3290383028
 30
0.0
 11
409.9902158332
 21
319.3290383028
 31
0.0
  0
LINE
  5
28A
330
1F
100
AcDbEntity
  8
0
  6
Continuous
 62
     7
370
    15
100
AcDbLine
 10
413.0213043382
 20
319.3290383028
 30
0.0
 11
415.2250035395
 21
294.3334356354
 31
0.0
  0
SPLINE
  5
28B
330
1F
100
AcDbEntity
  8
0
  6
Continuous
 62
     7
370
    15
100
AcDbSpline
210
0.0
220
0.0
230
1.0
 70
     8
 71
     3
 72
     8
 73
     4
 74
     0
 42
0.00000001
 43
0.00000001
 12
1.0
 22
0.0
 32
0.0
 13
1.0
 23
0.0
 33
0.0
 40
0.0
 40
0.0
 40
0.0
 40
0.0
 40
1.0
 40
1.0
 40
1.0
 40
1.0
 10
394.3876496742052
 20
304.3922795478587
 30
0.0
 10
393.9367628457927
 20
301.8643104253587
 30
0.0
 10
393.4864522244313
 20
299.3362384972568
 30
0.0
 10
393.0365534353776
 20
296.8080934717499
 30
0.0
  0
LINE
  5
28C
330
1F
100
AcDbEntity
  8
0
  6
Continuous
 62
     7
370
    15
100
AcDbLine
 10
394.3876499971
 20
304.3922782348
 30
0.0
 11
410.1117706587
 21
304.3922782348
 31
0.0
  0
LWPOLYLINE
  5
28D
330
1F
100
AcDbEntity
  8
0
  6
Continuous
 62
     7
370
    15
100
AcDbPolyline
 90
        3
 70
   128
 43
0.0
 10
394.9454051172
 20
314.9075434016
 10
394.5344711383
 20
307.1614727782
 10
394.3876499971
 20
304.3922782348
  0
ELLIPSE
  5
28E
330
1F
100
AcDbEntity
  8
0
  6
Continuous
 62
     7
370
    15
100
AcDbEllipse
 10
405.880760095
 20
298.2106429527
 30
0.0
 11
0.4491142736625306
 21
144.4236666204392
 31
0.0
210
0.0
220
0.0
230
1.0
 40
0.0778337241
 41
5.162802440238553
 42
5.212874852253567
  0
LINE
  5
28F
330
1F
100
AcDbEntity
  8
0
  6
Continuous
 62
     7
370
    15
100
AcDbLine
 10
401.1504116197
 20
371.5790436076
 30
0.0
 11
417.130760542
 21
371.5790436076
 31
0.0
  0
LINE
  5
290
330
1F
100
AcDbEntity
  8
0
  6
Continuous
 62
     7
370
    15
100
AcDbLine
 10
394.630759648
 20
360.5790362166
 30
0.0
 11
396.4319803481
 21
360.5790362166
 31
0.0
  0
LINE
  5
291
330
1F
100
AcDbEntity
  8
0
  6
Continuous
 62
     7
370
    15
100
AcDbLine
 10
404.4501397721
 20
360.5790362166
 30
0.0
 11
416.4372605001
 21
360.5790362166
 31
0.0
  0
SPLINE
  5
292
330
1F
100
AcDbEntity
  8
0
  6
Continuous
 62
     7
370
    15
100
AcDbSpline
210
0.0
220
0.0
230
1.0
 70
     8
 71
     3
 72
    20
 73
    16
 74
     0
 42
0.00000001
 43
0.00000001
 12
1.0
 22
0.0
 32
0.0
 13
1.0
 23
0.0
 33
0.0
 40
0.0
 40
0.0
 40
0.0
 40
0.0
 40
0.250000000000005
 40
0.250000000000005
 40
0.3750000000000042
 40
0.3750000000000042
 40
0.5000000000000033
 40
0.5000000000000033
 40
0.6250000000000024
 40
0.6250000000000024
 40
0.7500000000000017
 40
0.7500000000000017
 40
0.8750000000000008
 40
0.8750000000000008
 40
1.0
 40
1.0
 40
1.0
 40
1.0
 10
396.4654602998173
 20
316.3290380047508
 30
0.0
 10
396.2749729788027
 20
316.3290380047508
 30
0.0
 10
396.082209090414
 20
316.2929986768675
 30
0.0
 10
395.8161106894984
 20
316.1893271808331
 30
0.0
 10
395.7300119980487
 20
316.1462300339639
 30
0.0
 10
395.5668798304254
 20
316.0440796266915
 30
0.0
 10
395.4912518712874
 20
315.986053001184
 30
0.0
 10
395.3516122104394
 20
315.8564012640498
 30
0.0
 10
395.2870060654042
 20
315.7838735252625
 30
0.0
 10
395.1739563554295
 20
315.6292196878225
 30
0.0
 10
395.1253664533797
 20
315.5473324091674
 30
0.0
 10
395.0440248915578
 20
315.3744553296253
 30
0.0
 10
395.0112643810473
 20
315.2827390401082
 30
0.0
 10
394.9647551537493
 20
315.0976190805752
 30
0.0
 10
394.9504934418312
 20
315.0034176730509
 30
0.0
 10
394.9454048737273
 20
314.9075419391152
 30
0.0
  0
LINE
  5
293
330
1F
100
AcDbEntity
  8
0
  6
Continuous
 62
     7
370
    15
100
AcDbLine
 10
396.4654604634
 20
316.3290396737
 30
0.0
 11
409.0728654255
 21
316.3290396737
 31
0.0
  0
LINE
  5
294
330
1F
100
AcDbEntity
  8
0
  6
Continuous
 62
     7
370
    15
100
AcDbLine
 10
398.3724365671
 20
360.5790362166
 30
0.0
 11
402.264261079
 21
360.5790362166
 31
0.0
  0
LINE
  5
295
330
1F
100
AcDbEntity
  8
0
  6
Continuous
 62
     7
370
    15
100
AcDbLine
 10
414.3381814202
 20
304.3922782348
 30
0.0
 11
417.506338722
 21
304.3922782348
 31
0.0
  0
LINE
  5
296
330
1F
100
AcDbEntity
  8
0
  6
Continuous
 62
     7
370
    15
100
AcDbLine
 10
397.0525382747
 20
319.3290383028
 30
0.0
 11
397.0525382747
 21
316.3290396737
 31
0.0
  0
LINE
  5
297
330
1F
100
AcDbEntity
  8
0
  6
Continuous
 62
     7
370
    15
100
AcDbLine
 10
397.227982684
 20
319.3290383028
 30
0.0
 11
408.7793265199
 21
319.3290383028
 31
0.0
  0
LINE
  5
298
330
1F
100
AcDbEntity
  8
0
  6
Continuous
 62
     7
370
    15
100
AcDbLine
 10
391.6307600876
 20
343.3290347861
 30
0.0
 11
391.6307600876
 21
339.329041581
 31
0.0
  0
LINE
  5
299
330
1F
100
AcDbEntity
  8
0
  6
Continuous
 62
     7
370
    15
100
AcDbLine
 10
391.6307600876
 20
343.3290347861
 30
0.0
 11
414.6307601323
 21
343.3290347861
 31
0.0
  0
LINE
  5
29A
330
1F
100
AcDbEntity
  8
0
  6
Continuous
 62
     7
370
    15
100
AcDbLine
 10
414.6307601323
 20
343.3290347861
 30
0.0
 11
414.6307601323
 21
339.329041581
 31
0.0
  0
LINE
  5
29B
330
1F
100
AcDbEntity
  8
0
  6
Continuous
 62
     7
370
    15
100
AcDbLine
 10
391.6307600876
 20
339.329041581
 30
0.0
 11
414.6307601323
 21
339.329041581
 31
0.0
  0
LINE
  5
29C
330
1F
100
AcDbEntity
  8
0
  6
Continuous
 62
     7
370
    15
100
AcDbLine
 10
413.2857948271
 20
316.3290396737
 30
0.0
 11
415.4573135738
 21
316.3290396737
 31
0.0
  0
LINE
  5
29D
330
1F
100
AcDbEntity
  8
0
  6
Continuous
 62
     7
370
    15
100
AcDbLine
 10
413.0213043382
 20
319.3290383028
 30
0.0
 11
414.8807597076
 21
319.3290383028
 31
0.0
  0
LINE
  5
29E
330
1F
100
AcDbEntity
  8
0
  6
Continuous
 62
     7
370
    15
100
AcDbLine
 10
417.130760542
 20
360.5790362166
 30
0.0
 11
437.2186806713
 21
372.579030733
 31
0.0
  0
LINE
  5
29F
330
1F
100
AcDbEntity
  8
0
  6
Continuous
 62
     7
370
    15
100
AcDbLine
 10
416.1962081407
 20
361.0522523926
 30
0.0
 11
416.4372605001
 21
360.5790362166
 31
0.0
  0
LINE
  5
2A0
330
1F
100
AcDbEntity
  8
0
  6
Continuous
 62
     7
370
    15
100
AcDbLine
 10
425.96483945
 20
372.579030733
 30
0.0
 11
415.9585821172
 21
367.481939535
 31
0.0
  0
LINE
  5
2A1
330
1F
100
AcDbEntity
  8
0
  6
Continuous
 62
     7
370
    15
100
AcDbLine
 10
416.4372605001
 20
360.5790362166
 30
0.0
 11
417.130760542
 21
360.5790362166
 31
0.0
  0
LWPOLYLINE
  5
2A2
330
1F
100
AcDbEntity
  8
0
  6
Continuous
 62
     7
370
    15
100
AcDbPolyline
 90
        5
 70
   128
 43
0.0
 10
401.6821851683
 20
353.0790433692
 10
401.295210394
 20
352.692060213
 10
401.031308501
 20
352.4281606482
 10
400.8975631287
 20
352.2944227265
 10
400.8807602068
 20
352.2776142167
  0
LWPOLYLINE
  5
2A3
330
1F
100
AcDbEntity
  8
0
  6
Continuous
 62
     7
370
    15
100
AcDbPolyline
 90
        4
 70
   128
 43
0.0
 10
402.0096421437
 20
360.5790362166
 10
401.8949569863
 20
357.952319126
 10
401.7857547579
 20
355.4511741208
 10
401.6821851683
 20
353.0790433692
  0
ELLIPSE
  5
2A4
330
1F
100
AcDbEntity
  8
0
  6
Continuous
 62
     7
370
    15
100
AcDbEllipse
 10
405.880760095
 20
449.2422174243
 30
0.0
 11
0.0
 21
114.5188277421553
 31
0.0
210
0.0
220
0.0
230
1.0
 40
0.0436609429
 41
2.456283793863791
 42
2.56755453243814
  0
ARC
  5
2A5
330
1F
100
AcDbEntity
  8
0
  6
Continuous
 62
     7
370
    15
100
AcDbCircle
 10
405.880760095
 20
357.2776130913
 30
0.0
 40
5.000000000000088
100
AcDbArc
 50
237.1100383784
 51
302.8899616216
  0
ELLIPSE
  5
2A6
330
1F
100
AcDbEntity
  8
0
  6
Continuous
 62
     7
370
    15
100
AcDbEllipse
 10
405.880760095
 20
449.2422174243
 30
0.0
 11
0.0
 21
114.5188277421553
 31
0.0
210
0.0
220
0.0
230
1.0
 40
0.0436609429
 41
3.715630774741672
 42
3.826901513315987
  0
LWPOLYLINE
  5
2A7
330
1F
100
AcDbEntity
  8
0
  6
Continuous
 62
     7
370
    15
100
AcDbPolyline
 90
        4
 70
   128
 43
0.0
 10
410.0793350217
 20
353.0790433692
 10
409.9757654322
 20
355.4511741208
 10
409.8665632037
 20
357.952319126
 10
409.7518780464
 20
360.5790362166
  0
LWPOLYLINE
  5
2A8
330
1F
100
AcDbEntity
  8
0
  6
Continuous
 62
     7
370
    15
100
AcDbPolyline
 90
        5
 70
   128
 43
0.0
 10
410.8807599833
 20
352.2776142167
 10
410.8639570614
 20
352.2944227265
 10
410.7302116891
 20
352.4281606482
 10
410.466309796
 20
352.692060213
 10
410.0793350217
 20
353.0790433692
  0
LINE
  5
2A9
330
1F
100
AcDbEntity
  8
0
  6
Continuous
 62
     7
370
    15
100
AcDbLine
 10
408.595896718
 20
353.0790433692
 30
0.0
 11
403.165623472
 21
353.0790433692
 31
0.0
  0
LINE
  5
2AA
330
1F
100
AcDbEntity
  8
0
  6
Continuous
 62
     7
370
    15
100
AcDbLine
 10
398.4549857405
 20
319.5790350841
 30
0.0
 11
399.5762669211
 21
319.5790350841
 31
0.0
  0
LINE
  5
2AB
330
1F
100
AcDbEntity
  8
0
  6
Continuous
 62
     7
370
    15
100
AcDbLine
 10
397.33370456
 20
319.5790350841
 30
0.0
 11
398.4549857405
 21
319.5790350841
 31
0.0
  0
LINE
  5
2AC
330
1F
100
AcDbEntity
  8
0
  6
Continuous
 62
     7
370
    15
100
AcDbLine
 10
397.33370456
 20
319.5790350841
 30
0.0
 11
397.33370456
 21
321.7057437109
 31
0.0
  0
SPLINE
  5
2AD
330
1F
100
AcDbEntity
  8
0
  6
Continuous
 62
     7
370
    15
100
AcDbSpline
210
0.0
220
0.0
230
1.0
 70
     8
 71
     3
 72
    10
 73
     6
 74
     0
 42
0.00000001
 43
0.00000001
 12
1.0
 22
0.0
 32
0.0
 13
1.0
 23
0.0
 33
0.0
 40
0.0
 40
0.0
 40
0.0
 40
0.0
 40
0.5000000000000007
 40
0.5000000000000007
 40
1.0
 40
1.0
 40
1.0
 40
1.0
 10
398.454985630227
 20
321.9290380047507
 30
0.0
 10
398.2653949877276
 20
321.9290380047507
 30
0.0
 10
398.0732264428341
 20
321.9074928312335
 30
0.0
 10
397.6986925376945
 20
321.8292276511909
 30
0.0
 10
397.5150094268263
 20
321.7731196881156
 30
0.0
 10
397.3337045229994
 20
321.7057470110581
 30
0.0
  0
SPLINE
  5
2AE
330
1F
100
AcDbEntity
  8
0
  6
Continuous
 62
     7
370
    15
100
AcDbSpline
210
0.0
220
0.0
230
1.0
 70
     8
 71
     3
 72
    10
 73
     6
 74
     0
 42
0.00000001
 43
0.00000001
 12
1.0
 22
0.0
 32
0.0
 13
1.0
 23
0.0
 33
0.0
 40
0.0
 40
0.0
 40
0.0
 40
0.0
 40
0.5
 40
0.5
 40
1.0
 40
1.0
 40
1.0
 40
1.0
 10
399.5762667374545
 20
321.7057470110581
 30
0.0
 10
399.39389944957
 20
321.7735144687118
 30
0.0
 10
399.2071195708775
 20
321.8303534181283
 30
0.0
 10
398.8327141772597
 20
321.9080727853247
 30
0.0
 10
398.6444636971247
 20
321.9290380047507
 30
0.0
 10
398.454985630227
 20
321.9290380047507
 30
0.0
  0
LINE
  5
2AF
330
1F
100
AcDbEntity
  8
0
  6
Continuous
 62
     7
370
    15
100
AcDbLine
 10
399.5762669211
 20
319.5790350841
 30
0.0
 11
399.5762669211
 21
321.7057437109
 31
0.0
  0
SPLINE
  5
2B0
330
1F
100
AcDbEntity
  8
0
  6
Continuous
 62
     7
370
    15
100
AcDbSpline
210
0.0
220
0.0
230
1.0
 70
     8
 71
     3
 72
     8
 73
     4
 74
     0
 42
0.00000001
 43
0.00000001
 12
1.0
 22
0.0
 32
0.0
 13
1.0
 23
0.0
 33
0.0
 40
0.0
 40
0.0
 40
0.0
 40
0.0
 40
1.0
 40
1.0
 40
1.0
 40
1.0
 10
397.3337045229995
 20
321.7057470110585
 30
0.0
 10
396.892755665487
 20
321.8420692057341
 30
0.0
 10
396.4451864836759
 20
321.9290380047507
 30
0.0
 10
395.9859512017781
 20
321.9290380047507
 30
0.0
  0
LINE
  5
2B1
330
1F
100
AcDbEntity
  8
0
  6
Continuous
 62
     7
370
    15
100
AcDbLine
 10
398.4549857405
 20
321.9290376114
 30
0.0
 11
395.9859513407
 21
321.9290376114
 31
0.0
  0
LINE
  5
2B2
330
1F
100
AcDbEntity
  8
0
  6
Continuous
 62
     7
370
    15
100
AcDbLine
 10
394.6381981214
 20
319.5790350841
 30
0.0
 11
395.9859513407
 21
319.5790350841
 31
0.0
  0
LINE
  5
2B3
330
1F
100
AcDbEntity
  8
0
  6
Continuous
 62
     7
370
    15
100
AcDbLine
 10
394.6381981214
 20
319.5790350841
 30
0.0
 11
394.6381981214
 21
321.7057437109
 31
0.0
  0
SPLINE
  5
2B4
330
1F
100
AcDbEntity
  8
0
  6
Continuous
 62
     7
370
    15
100
AcDbSpline
210
0.0
220
0.0
230
1.0
 70
     8
 71
     3
 72
    12
 73
     8
 74
     0
 42
0.00000001
 43
0.00000001
 12
1.0
 22
0.0
 32
0.0
 13
1.0
 23
0.0
 33
0.0
 40
0.0
 40
0.0
 40
0.0
 40
0.0
 40
0.249999999999998
 40
0.249999999999998
 40
0.499999999999996
 40
0.499999999999996
 40
1.0
 40
1.0
 40
1.0
 40
1.0
 10
395.9859512017781
 20
321.9290380047507
 30
0.0
 10
395.8715715048398
 20
321.9290380047507
 30
0.0
 10
395.7566790925899
 20
321.9237602244891
 30
0.0
 10
395.5293978772514
 20
321.9033358612089
 30
0.0
 10
395.4165174351331
 20
321.8882089061889
 30
0.0
 10
395.0798809654195
 20
321.8298658435647
 30
0.0
 10
394.8581219935074
 20
321.7737379747013
 30
0.0
 10
394.6381978805567
 20
321.7057470110583
 30
0.0
  0
LINE
  5
2B5
330
1F
100
AcDbEntity
  8
0
  6
Continuous
 62
     7
370
    15
100
AcDbLine
 10
395.9859513407
 20
319.5790350841
 30
0.0
 11
397.33370456
 21
319.5790350841
 31
0.0
  0
LINE
  5
2B6
330
1F
100
AcDbEntity
  8
0
  6
Continuous
 62
     7
370
    15
100
AcDbLine
 10
397.227982684
 20
319.3290383028
 30
0.0
 11
395.0954029997
 21
319.3290383028
 31
0.0
  0
LINE
  5
2B7
330
1F
100
AcDbEntity
  8
0
  6
Continuous
 62
     7
370
    15
100
AcDbLine
 10
394.630759648
 20
319.3290383028
 30
0.0
 11
394.3807600727
 21
319.3290383028
 31
0.0
  0
SPLINE
  5
2B8
330
1F
100
AcDbEntity
  8
0
  6
Continuous
 62
     7
370
    15
100
AcDbSpline
210
0.0
220
0.0
230
1.0
 70
     8
 71
     3
 72
     8
 73
     4
 74
     0
 42
0.00000001
 43
0.00000001
 12
1.0
 22
0.0
 32
0.0
 13
1.0
 23
0.0
 33
0.0
 40
0.0
 40
0.0
 40
0.0
 40
0.0
 40
1.0
 40
1.0
 40
1.0
 40
1.0
 10
394.6381978805567
 20
321.7057470110585
 30
0.0
 10
394.5641022263695
 20
321.8420692057341
 30
0.0
 10
394.4888941137837
 20
321.9290380047507
 30
0.0
 10
394.4117256665629
 20
321.9290380047507
 30
0.0
  0
LINE
  5
2B9
330
1F
100
AcDbEntity
  8
0
  6
Continuous
 62
     7
370
    15
100
AcDbLine
 10
395.9859513407
 20
321.9290376114
 30
0.0
 11
394.4117256169
 21
321.9290376114
 31
0.0
  0
SPLINE
  5
2BA
330
1F
100
AcDbEntity
  8
0
  6
Continuous
 62
     7
370
    15
100
AcDbSpline
210
0.0
220
0.0
230
1.0
 70
     8
 71
     3
 72
    12
 73
     8
 74
     0
 42
0.00000001
 43
0.00000001
 12
1.0
 22
0.0
 32
0.0
 13
1.0
 23
0.0
 33
0.0
 40
0.0
 40
0.0
 40
0.0
 40
0.0
 40
0.2500000000000012
 40
0.2500000000000012
 40
0.5000000000000023
 40
0.5000000000000023
 40
1.0
 40
1.0
 40
1.0
 40
1.0
 10
399.3497945234607
 20
321.9290380047507
 30
0.0
 10
399.3690145267014
 20
321.9290380047508
 30
0.0
 10
399.3883206850047
 20
321.9237602244891
 30
0.0
 10
399.4265123030304
 20
321.9033358612089
 30
0.0
 10
399.4454803762235
 20
321.8882089061889
 30
0.0
 10
399.502047706021
 20
321.8298658435647
 30
0.0
 10
399.5393113836919
 20
321.7737379747013
 30
0.0
 10
399.5762667374545
 20
321.7057470110583
 30
0.0
  0
LINE
  5
2BB
330
1F
100
AcDbEntity
  8
0
  6
Continuous
 62
     7
370
    15
100
AcDbLine
 10
398.4549857405
 20
321.9290376114
 30
0.0
 11
399.3798719448
 21
321.9290376114
 31
0.0
  0
LINE
  5
2BC
330
1F
100
AcDbEntity
  8
0
  6
Continuous
 62
     7
370
    15
100
AcDbLine
 10
394.1852531125
 20
319.5790350841
 30
0.0
 11
394.4117256169
 21
319.5790350841
 31
0.0
  0
LINE
  5
2BD
330
1F
100
AcDbEntity
  8
0
  6
Continuous
 62
     7
370
    15
100
AcDbLine
 10
394.1852531125
 20
319.5790350841
 30
0.0
 11
394.1852531125
 21
321.7057437109
 31
0.0
  0
SPLINE
  5
2BE
330
1F
100
AcDbEntity
  8
0
  6
Continuous
 62
     7
370
    15
100
AcDbSpline
210
0.0
220
0.0
230
1.0
 70
     8
 71
     3
 72
    12
 73
     8
 74
     0
 42
0.00000001
 43
0.00000001
 12
1.0
 22
0.0
 32
0.0
 13
1.0
 23
0.0
 33
0.0
 40
0.0
 40
0.0
 40
0.0
 40
0.0
 40
0.2499999999999987
 40
0.2499999999999987
 40
0.4999999999999973
 40
0.4999999999999973
 40
1.0
 40
1.0
 40
1.0
 40
1.0
 10
394.4117256665629
 20
321.9290380047507
 30
0.0
 10
394.3925056633221
 20
321.9290380047507
 30
0.0
 10
394.3731995050188
 20
321.9237602244891
 30
0.0
 10
394.3350078869931
 20
321.9033358612089
 30
0.0
 10
394.3160398138
 20
321.8882089061889
 30
0.0
 10
394.2594724840026
 20
321.8298658435647
 30
0.0
 10
394.2222088063317
 20
321.7737379747013
 30
0.0
 10
394.185253452569
 20
321.7057470110583
 30
0.0
  0
LINE
  5
2BF
330
1F
100
AcDbEntity
  8
0
  6
Continuous
 62
     7
370
    15
100
AcDbLine
 10
394.4117256169
 20
319.5790350841
 30
0.0
 11
394.6381981214
 21
319.5790350841
 31
0.0
  0
LINE
  5
2C0
330
1F
100
AcDbEntity
  8
0
  6
Continuous
 62
     7
370
    15
100
AcDbLine
 10
394.630759648
 20
319.3290383028
 30
0.0
 11
390.2233612453
 21
294.3334356354
 31
0.0
  0
LINE
  5
2C1
330
1F
100
AcDbEntity
  8
0
  6
Continuous
 62
     7
370
    15
100
AcDbLine
 10
395.0954029997
 20
319.3290383028
 30
0.0
 11
394.630759648
 21
319.3290383028
 31
0.0
  0
LINE
  5
2C2
330
1F
100
AcDbEntity
  8
0
  6
Continuous
 62
     7
370
    15
100
AcDbLine
 10
395.3807602366
 20
333.8290378855
 30
0.0
 11
398.3807602626
 21
333.8290378855
 31
0.0
  0
LINE
  5
2C3
330
1F
100
AcDbEntity
  8
0
  6
Continuous
 62
     7
370
    15
100
AcDbLine
 10
395.3807602366
 20
334.8290399121
 30
0.0
 11
398.3807602626
 21
334.8290399121
 31
0.0
  0
LINE
  5
2C4
330
1F
100
AcDbEntity
  8
0
  6
Continuous
 62
     7
370
    15
100
AcDbLine
 10
395.3807602366
 20
347.5790396737
 30
0.0
 11
398.3807602626
 21
347.5790396737
 31
0.0
  0
LINE
  5
2C5
330
1F
100
AcDbEntity
  8
0
  6
Continuous
 62
     7
370
    15
100
AcDbLine
 10
395.3807602366
 20
348.5790417002
 30
0.0
 11
398.3807602626
 21
348.5790417002
 31
0.0
  0
LINE
  5
2C6
330
1F
100
AcDbEntity
  8
0
  6
Continuous
 62
     7
370
    15
100
AcDbLine
 10
395.3807602366
 20
351.6771123217
 30
0.0
 11
398.3807602626
 21
351.6771123217
 31
0.0
  0
LINE
  5
2C7
330
1F
100
AcDbEntity
  8
0
  6
Continuous
 62
     8
370
     0
100
AcDbLine
 10
405.880760095
 20
373.6661896514
 30
0.0
 11
360.9758724188
 21
373.6661896514
 31
0.0
  0
LINE
  5
2C8
330
1F
100
AcDbEntity
  8
0
  6
Continuous
 62
     8
370
     0
100
AcDbLine
 10
450.7856477713
 20
373.6661896514
 30
0.0
 11
405.880760095
 21
373.6661896514
 31
0.0
  0
LINE
  5
2C9
330
1F
100
AcDbEntity
  8
0
  6
Continuous
 62
     8
370
     0
100
AcDbLine
 10
405.880760095
 20
376.6455576228
 30
0.0
 11
361.2365347062
 21
376.6455576228
 31
0.0
  0
LINE
  5
2CA
330
1F
100
AcDbEntity
  8
0
  6
Continuous
 62
     8
370
     0
100
AcDbLine
 10
450.5249854838
 20
376.6455576228
 30
0.0
 11
405.880760095
 21
376.6455576228
 31
0.0
  0
CIRCLE
  5
2CB
330
1F
100
AcDbEntity
  8
0
  6
Continuous
 62
     8
370
     0
100
AcDbCircle
 10
405.880760095
 20
218.0790380048
 30
0.0
 40
20.75980762113534
  0
CIRCLE
  5
2CC
330
1F
100
AcDbEntity
  8
0
  6
Continuous
 62
     8
370
     0
100
AcDbCircle
 10
405.880760095
 20
218.0790380048
 30
0.0
 40
20.24019237886466
  0
CIRCLE
  5
2CD
330
1F
100
AcDbEntity
  8
0
  6
Continuous
 62
     8
370
     0
100
AcDbCircle
 10
405.880760095
 20
218.0790380048
 30
0.0
 40
16.75980762113534
  0
CIRCLE
  5
2CE
330
1F
100
AcDbEntity
  8
0
  6
Continuous
 62
     8
370
     0
100
AcDbCircle
 10
405.880760095
 20
218.0790380048
 30
0.0
 40
16.24019237886466
  0
LINE
  5
2CF
330
1F
100
AcDbEntity
  8
0
  6
Continuous
 62
     8
370
     0
100
AcDbLine
 10
428.8775861924
 20
264.5790391074
 30
0.0
 11
429.005875877
 21
268.3290392564
 31
0.0
  0
LINE
  5
2D0
330
1F
100
AcDbEntity
  8
0
  6
Continuous
 62
     8
370
     0
100
AcDbLine
 10
382.8839339976
 20
264.5790391074
 30
0.0
 11
382.755644313
 21
268.3290392564
 31
0.0
  0
LINE
  5
2D1
330
1F
100
AcDbEntity
  8
0
  6
Continuous
 62
     8
370
     0
100
AcDbLine
 10
383.0131140267
 20
264.4368410515
 30
0.0
 11
382.8839339976
 21
264.5790391074
 31
0.0
  0
LINE
  5
2D2
330
1F
100
AcDbEntity
  8
0
  6
Continuous
 62
     8
370
     0
100
AcDbLine
 10
428.7484061633
 20
264.4368410515
 30
0.0
 11
428.8775861924
 21
264.5790391074
 31
0.0
  0
LINE
  5
2D3
330
1F
100
AcDbEntity
  8
0
  6
Continuous
 62
     8
370
     0
100
AcDbLine
 10
429.005875877
 20
283.3290398525
 30
0.0
 11
429.005875877
 21
268.3290392564
 31
0.0
  0
LINE
  5
2D4
330
1F
100
AcDbEntity
  8
0
  6
Continuous
 62
     8
370
     0
100
AcDbLine
 10
382.755644313
 20
283.3290398525
 30
0.0
 11
382.755644313
 21
268.3290392564
 31
0.0
  0
LINE
  5
2D5
330
1F
100
AcDbEntity
  8
0
  6
Continuous
 62
     8
370
     0
100
AcDbLine
 10
384.8807603781
 20
253.5834387349
 30
0.0
 11
384.8807603781
 21
264.4137964057
 31
0.0
  0
LINE
  5
2D6
330
1F
100
AcDbEntity
  8
0
  6
Continuous
 62
     8
370
     0
100
AcDbLine
 10
426.8807598119
 20
253.5834387349
 30
0.0
 11
426.8807598119
 21
264.4137964057
 31
0.0
  0
LINE
  5
2D7
330
1F
100
AcDbEntity
  8
0
  6
Continuous
 62
     8
370
     0
100
AcDbLine
 10
432.8816455518
 20
264.5790391074
 30
0.0
 11
433.3955120956
 21
268.3290392564
 31
0.0
  0
LINE
  5
2D8
330
1F
100
AcDbEntity
  8
0
  6
Continuous
 62
     8
370
     0
100
AcDbLine
 10
378.8798746382
 20
264.5790391074
 30
0.0
 11
378.3660080944
 21
268.3290392564
 31
0.0
  0
LINE
  5
2D9
330
1F
100
AcDbEntity
  8
0
  6
Continuous
 62
     8
370
     0
100
AcDbLine
 10
431.7752622728
 20
264.2749920891
 30
0.0
 11
432.8816455518
 21
264.5790391074
 31
0.0
  0
LINE
  5
2DA
330
1F
100
AcDbEntity
  8
0
  6
Continuous
 62
     8
370
     0
100
AcDbLine
 10
379.9862579172
 20
264.2749920891
 30
0.0
 11
378.8798746382
 21
264.5790391074
 31
0.0
  0
LINE
  5
2DB
330
1F
100
AcDbEntity
  8
0
  6
Continuous
 62
     8
370
     0
100
AcDbLine
 10
433.3572216992
 20
272.8290372001
 30
0.0
 11
433.3955120956
 21
268.3290392564
 31
0.0
  0
LINE
  5
2DC
330
1F
100
AcDbEntity
  8
0
  6
Continuous
 62
     8
370
     0
100
AcDbLine
 10
378.4042984908
 20
272.8290372001
 30
0.0
 11
378.3660080944
 21
268.3290392564
 31
0.0
  0
LINE
  5
2DD
330
1F
100
AcDbEntity
  8
0
  6
Continuous
 62
     8
370
     0
100
AcDbLine
 10
433.2818683897
 20
272.8736587273
 30
0.0
 11
433.3572216992
 21
272.8290372001
 31
0.0
  0
LINE
  5
2DE
330
1F
100
AcDbEntity
  8
0
  6
Continuous
 62
     8
370
     0
100
AcDbLine
 10
378.4796518003
 20
272.8736587273
 30
0.0
 11
378.4042984908
 21
272.8290372001
 31
0.0
  0
SPLINE
  5
2DF
330
1F
100
AcDbEntity
  8
0
  6
Continuous
 62
     8
370
     0
100
AcDbSpline
210
0.0
220
0.0
230
1.0
 70
     8
 71
     3
 72
    18
 73
    14
 74
     0
 42
0.00000001
 43
0.00000001
 12
1.0
 22
0.0
 32
0.0
 13
1.0
 23
0.0
 33
0.0
 40
0.0
 40
0.0
 40
0.0
 40
0.0
 40
0.2499999999999955
 40
0.2499999999999955
 40
0.3749999999999963
 40
0.3749999999999963
 40
0.4999999999999972
 40
0.4999999999999972
 40
0.7499999999999982
 40
0.7499999999999982
 40
0.8749999999999991
 40
0.8749999999999991
 40
1.0
 40
1.0
 40
1.0
 40
1.0
 10
421.1931427982214
 20
283.3290380047437
 30
0.0
 10
420.9191190968143
 20
283.7624310516312
 30
0.0
 10
420.6325071395325
 20
284.181690260596
 30
0.0
 10
420.1813017407698
 20
284.7883862267665
 30
0.0
 10
420.0273425840233
 20
284.9869060957475
 30
0.0
 10
419.7117652575046
 20
285.3761844172543
 30
0.0
 10
419.5494717925326
 20
285.5676581036095
 30
0.0
 10
419.0581687052945
 20
286.1209216836856
 30
0.0
 10
418.7231939603381
 20
286.4638714688934
 30
0.0
 10
418.2076400813044
 20
286.9404211308707
 30
0.0
 10
418.0336032616534
 20
287.0929327145259
 30
0.0
 10
417.6807706084218
 20
287.3851443708741
 30
0.0
 10
417.5016167882349
 20
287.5250781104543
 30
0.0
 10
417.3215368545611
 20
287.6572670725722
 30
0.0
  0
LINE
  5
2E0
330
1F
100
AcDbEntity
  8
0
  6
Continuous
 62
     8
370
     0
100
AcDbLine
 10
391.366757146
 20
282.5122774051
 30
0.0
 11
420.394763044
 21
282.5122774051
 31
0.0
  0
SPLINE
  5
2E1
330
1F
100
AcDbEntity
  8
0
  6
Continuous
 62
     8
370
     0
100
AcDbSpline
210
0.0
220
0.0
230
1.0
 70
     8
 71
     3
 72
    18
 73
    14
 74
     0
 42
0.00000001
 43
0.00000001
 12
1.0
 22
0.0
 32
0.0
 13
1.0
 23
0.0
 33
0.0
 40
0.0
 40
0.0
 40
0.0
 40
0.0
 40
0.2499999999999955
 40
0.2499999999999955
 40
0.3749999999999963
 40
0.3749999999999963
 40
0.4999999999999972
 40
0.4999999999999972
 40
0.7499999999999982
 40
0.7499999999999982
 40
0.8749999999999991
 40
0.8749999999999991
 40
1.0
 40
1.0
 40
1.0
 40
1.0
 10
390.5683773918022
 20
283.3290380047437
 30
0.0
 10
390.8424010932093
 20
283.7624310516312
 30
0.0
 10
391.1290130504911
 20
284.181690260596
 30
0.0
 10
391.5802184492538
 20
284.7883862267665
 30
0.0
 10
391.7341776060003
 20
284.9869060957475
 30
0.0
 10
392.0497549325189
 20
285.3761844172543
 30
0.0
 10
392.2120483974909
 20
285.5676581036095
 30
0.0
 10
392.7033514847291
 20
286.1209216836856
 30
0.0
 10
393.0383262296855
 20
286.4638714688934
 30
0.0
 10
393.5538801087192
 20
286.9404211308707
 30
0.0
 10
393.7279169283702
 20
287.0929327145259
 30
0.0
 10
394.0807495816017
 20
287.3851443708741
 30
0.0
 10
394.2599034017887
 20
287.5250781104543
 30
0.0
 10
394.4399833354624
 20
287.6572670725722
 30
0.0
  0
SPLINE
  5
2E2
330
1F
100
AcDbEntity
  8
0
  6
Continuous
 62
     8
370
     0
100
AcDbSpline
210
0.0
220
0.0
230
1.0
 70
     8
 71
     3
 72
    32
 73
    28
 74
     0
 42
0.00000001
 43
0.00000001
 12
1.0
 22
0.0
 32
0.0
 13
1.0
 23
0.0
 33
0.0
 40
0.0
 40
0.0
 40
0.0
 40
0.0
 40
0.0624999999999999
 40
0.0624999999999999
 40
0.1249999999999998
 40
0.1249999999999998
 40
0.2499999999999997
 40
0.2499999999999997
 40
0.3124999999999998
 40
0.3124999999999998
 40
0.3749999999999999
 40
0.3749999999999999
 40
0.4375
 40
0.4375
 40
0.5000000000000001
 40
0.5000000000000001
 40
0.5625000000000002
 40
0.5625000000000002
 40
0.6250000000000003
 40
0.6250000000000003
 40
0.6875000000000004
 40
0.6875000000000004
 40
0.7500000000000004
 40
0.7500000000000004
 40
0.8750000000000002
 40
0.8750000000000002
 40
1.0
 40
1.0
 40
1.0
 40
1.0
 10
417.3215368545611
 20
287.6572670725722
 30
0.0
 10
416.8860172929084
 20
287.5127846375193
 30
0.0
 10
416.4438092531446
 20
287.3640648635442
 30
0.0
 10
415.5507644254024
 20
287.0629660945287
 30
0.0
 10
415.1001214615279
 20
286.9106407111431
 30
0.0
 10
413.7349302552157
 20
286.4535072957315
 30
0.0
 10
412.8075183092206
 20
286.1475546924541
 30
0.0
 10
411.381812388066
 20
285.718081893728
 30
0.0
 10
410.900733477001
 20
285.580017303669
 30
0.0
 10
409.9237909201793
 20
285.3235642086644
 30
0.0
 10
409.429667551824
 20
285.2057113677831
 30
0.0
 10
408.4340164491254
 20
285.0056164199534
 30
0.0
 10
407.9315217012207
 20
284.9232502108791
 30
0.0
 10
406.9143357535169
 20
284.8094480124386
 30
0.0
 10
406.39959744423
 20
284.7786286518871
 30
0.0
 10
405.3703207533746
 20
284.7783031574691
 30
0.0
 10
404.8589147198693
 20
284.8085463861095
 30
0.0
 10
403.84197891682
 20
284.9215085600403
 30
0.0
 10
403.3352773962715
 20
285.0042158510993
 30
0.0
 10
402.3369018071882
 20
285.2045370101778
 30
0.0
 10
401.8439676441519
 20
285.3220323433639
 30
0.0
 10
400.8673921179644
 20
285.5781789835255
 30
0.0
 10
400.3828615470272
 20
285.7171418007314
 30
0.0
 10
398.9506928415933
 20
286.14853167064
 30
0.0
 10
398.021559882929
 20
286.4551720270469
 30
0.0
 10
396.2021535406113
 20
287.0644383508356
 30
0.0
 10
395.3121347611682
 20
287.3679331991576
 30
0.0
 10
394.4399833354624
 20
287.6572670725722
 30
0.0
  0
ARC
  5
2E3
330
1F
100
AcDbEntity
  8
0
  6
Continuous
 62
     8
370
     0
100
AcDbCircle
 10
391.03790787
 20
291.4248801965
 30
0.0
 40
5.076318853033037
100
AcDbArc
 50
312.081379084
 51
343.0010460983
  0
SPLINE
  5
2E4
330
1F
100
AcDbEntity
  8
0
  6
Continuous
 62
     8
370
     0
100
AcDbSpline
210
0.0
220
0.0
230
1.0
 70
     8
 71
     3
 72
    36
 73
    32
 74
     0
 42
0.00000001
 43
0.00000001
 12
1.0
 22
0.0
 32
0.0
 13
1.0
 23
0.0
 33
0.0
 40
0.0
 40
0.0
 40
0.0
 40
0.0
 40
0.1250000000000003
 40
0.1250000000000003
 40
0.2500000000000006
 40
0.2500000000000006
 40
0.3125000000000007
 40
0.3125000000000007
 40
0.3750000000000007
 40
0.3750000000000007
 40
0.4375000000000007
 40
0.4375000000000007
 40
0.5000000000000008
 40
0.5000000000000008
 40
0.5312500000000009
 40
0.5312500000000009
 40
0.5625000000000009
 40
0.5625000000000009
 40
0.6250000000000013
 40
0.6250000000000013
 40
0.6562500000000014
 40
0.6562500000000014
 40
0.6875000000000017
 40
0.6875000000000017
 40
0.7500000000000014
 40
0.7500000000000014
 40
0.8750000000000011
 40
0.8750000000000011
 40
0.9375000000000007
 40
0.9375000000000007
 40
1.0
 40
1.0
 40
1.0
 40
1.0
 10
395.8924427842888
 20
289.9407938159243
 30
0.0
 10
396.612432000831
 20
289.541719576104
 30
0.0
 10
397.3528719870336
 20
289.123606604438
 30
0.0
 10
398.8823903386618
 20
288.278406079911
 30
0.0
 10
399.6708845358737
 20
287.8501652729335
 30
0.0
 10
400.9073538426795
 20
287.2355894306136
 30
0.0
 10
401.329989553466
 20
287.0350343800467
 30
0.0
 10
402.1897140931328
 20
286.6605777048399
 30
0.0
 10
402.627422384929
 20
286.4861505430757
 30
0.0
 10
403.5264308148717
 20
286.1830136523502
 30
0.0
 10
403.9910410154469
 20
286.0539823931248
 30
0.0
 10
404.9306441959581
 20
285.876322628743
 30
0.0
 10
405.4071642053464
 20
285.827520716839
 30
0.0
 10
406.1333557484685
 20
285.8285808281996
 30
0.0
 10
406.3745077666277
 20
285.841176284625
 30
0.0
 10
406.8550769179553
 20
285.8895363097989
 30
0.0
 10
407.0939938992386
 20
285.9253168249235
 30
0.0
 10
407.7978972566007
 20
286.0608224055231
 30
0.0
 10
408.2539745364419
 20
286.1887297483002
 30
0.0
 10
408.9246654013175
 20
286.4158762757389
 30
0.0
 10
409.1459714567279
 20
286.4975307462713
 30
0.0
 10
409.5848667175302
 20
286.6700054921142
 30
0.0
 10
409.8027429962983
 20
286.760970045679
 30
0.0
 10
410.4462123390064
 20
287.0418373127251
 30
0.0
 10
410.8636526750834
 20
287.2402039923269
 30
0.0
 10
412.0911595173156
 20
287.8506291323911
 30
0.0
 10
412.8769582580083
 20
288.2772267245868
 30
0.0
 10
414.023606672736
 20
288.9108252286345
 30
0.0
 10
414.4002805448409
 20
289.1212868823328
 30
0.0
 10
415.1437406558327
 20
289.5368952065811
 30
0.0
 10
415.510170820738
 20
289.7418597634646
 30
0.0
 10
415.8690774057347
 20
289.9407938159243
 30
0.0
  0
ARC
  5
2E5
330
1F
100
AcDbEntity
  8
0
  6
Continuous
 62
     8
370
     0
100
AcDbCircle
 10
420.7236123201
 20
291.4248801965
 30
0.0
 40
5.076318853032999
100
AcDbArc
 50
196.9989539017
 51
227.918620916
  0
SPLINE
  5
2E6
330
1F
100
AcDbEntity
  8
0
  6
Continuous
 62
     8
370
     0
100
AcDbSpline
210
0.0
220
0.0
230
1.0
 70
     8
 71
     3
 72
    16
 73
    12
 74
     0
 42
0.00000001
 43
0.00000001
 12
1.0
 22
0.0
 32
0.0
 13
1.0
 23
0.0
 33
0.0
 40
0.0
 40
0.0
 40
0.0
 40
0.0
 40
0.2499999999999997
 40
0.2499999999999997
 40
0.3749999999999999
 40
0.3749999999999999
 40
0.5000000000000002
 40
0.5000000000000002
 40
0.7500000000000001
 40
0.7500000000000001
 40
1.0
 40
1.0
 40
1.0
 40
1.0
 10
395.8924427842888
 20
289.9407938159243
 30
0.0
 10
395.6501511913077
 20
290.0750907346312
 30
0.0
 10
395.4058283314666
 20
290.1779284230519
 30
0.0
 10
395.0380502416263
 20
290.2882870451668
 30
0.0
 10
394.9152295734622
 20
290.3176980207359
 30
0.0
 10
394.6693016289962
 20
290.3616694689445
 30
0.0
 10
394.5454736383473
 20
290.3762412166864
 30
0.0
 10
394.1802036882779
 20
290.3967212239169
 30
0.0
 10
393.9448818544585
 20
290.3800645947302
 30
0.0
 10
393.4897315431424
 20
290.2899480045582
 30
0.0
 10
393.2686723312526
 20
290.2156787700497
 30
0.0
 10
393.0592623968495
 20
290.1146140264853
 30
0.0
  0
SPLINE
  5
2E7
330
1F
100
AcDbEntity
  8
0
  6
Continuous
 62
     8
370
     0
100
AcDbSpline
210
0.0
220
0.0
230
1.0
 70
     8
 71
     3
 72
    18
 73
    14
 74
     0
 42
0.00000001
 43
0.00000001
 12
1.0
 22
0.0
 32
0.0
 13
1.0
 23
0.0
 33
0.0
 40
0.0
 40
0.0
 40
0.0
 40
0.0
 40
0.1249999999999996
 40
0.1249999999999996
 40
0.2499999999999993
 40
0.2499999999999993
 40
0.4999999999999994
 40
0.4999999999999994
 40
0.7499999999999996
 40
0.7499999999999996
 40
0.8749999999999998
 40
0.8749999999999998
 40
1.0
 40
1.0
 40
1.0
 40
1.0
 10
393.0592623968495
 20
290.1146140264853
 30
0.0
 10
392.6937542309167
 20
289.9382136605429
 30
0.0
 10
392.3468321977376
 20
289.7592394765614
 30
0.0
 10
391.6931714957015
 20
289.4032890107072
 30
0.0
 10
391.3874011144037
 20
289.2268840730366
 30
0.0
 10
390.5310708083367
 20
288.7099020749333
 30
0.0
 10
390.0406969944315
 20
288.3810195522244
 30
0.0
 10
389.2275523995728
 20
287.8029828656802
 30
0.0
 10
388.9170177302953
 20
287.5630563335141
 30
0.0
 10
388.5988930444818
 20
287.3116774811021
 30
0.0
 10
388.5175706176321
 20
287.2459342776991
 30
0.0
 10
388.4082401318709
 20
287.1570679616105
 30
0.0
 10
388.3807600950118
 20
287.1344079720731
 30
0.0
 10
388.3807600950118
 20
287.1344079720731
 30
0.0
  0
SPLINE
  5
2E8
330
1F
100
AcDbEntity
  8
0
  6
Continuous
 62
     8
370
     0
100
AcDbSpline
210
0.0
220
0.0
230
1.0
 70
     8
 71
     3
 72
    18
 73
    14
 74
     0
 42
0.00000001
 43
0.00000001
 12
1.0
 22
0.0
 32
0.0
 13
1.0
 23
0.0
 33
0.0
 40
0.0
 40
0.0
 40
0.0
 40
0.0
 40
0.1250000000000003
 40
0.1250000000000003
 40
0.2500000000000007
 40
0.2500000000000007
 40
0.5000000000000003
 40
0.5000000000000003
 40
0.7500000000000001
 40
0.7500000000000001
 40
0.8750000000000001
 40
0.8750000000000001
 40
1.0
 40
1.0
 40
1.0
 40
1.0
 10
418.7022577931741
 20
290.1146140264853
 30
0.0
 10
419.0677659591069
 20
289.9382136605429
 30
0.0
 10
419.4146879922859
 20
289.7592394765615
 30
0.0
 10
420.0683486943221
 20
289.4032890107072
 30
0.0
 10
420.3741190756199
 20
289.2268840730367
 30
0.0
 10
421.2304493816869
 20
288.7099020749333
 30
0.0
 10
421.7208231955921
 20
288.3810195522244
 30
0.0
 10
422.5339677904508
 20
287.8029828656802
 30
0.0
 10
422.8445024597283
 20
287.5630563335141
 30
0.0
 10
423.1626271455418
 20
287.3116774811021
 30
0.0
 10
423.2439495723915
 20
287.2459342776991
 30
0.0
 10
423.3532800581527
 20
287.1570679616106
 30
0.0
 10
423.3807600950118
 20
287.1344079720731
 30
0.0
 10
423.3807600950118
 20
287.1344079720731
 30
0.0
  0
SPLINE
  5
2E9
330
1F
100
AcDbEntity
  8
0
  6
Continuous
 62
     8
370
     0
100
AcDbSpline
210
0.0
220
0.0
230
1.0
 70
     8
 71
     3
 72
    16
 73
    12
 74
     0
 42
0.00000001
 43
0.00000001
 12
1.0
 22
0.0
 32
0.0
 13
1.0
 23
0.0
 33
0.0
 40
0.0
 40
0.0
 40
0.0
 40
0.0
 40
0.2499999999999997
 40
0.2499999999999997
 40
0.3749999999999999
 40
0.3749999999999999
 40
0.5000000000000002
 40
0.5000000000000002
 40
0.7500000000000001
 40
0.7500000000000001
 40
1.0
 40
1.0
 40
1.0
 40
1.0
 10
415.8690774057347
 20
289.9407938159243
 30
0.0
 10
416.1113689987159
 20
290.0750907346312
 30
0.0
 10
416.3556918585569
 20
290.1779284230519
 30
0.0
 10
416.7234699483973
 20
290.2882870451668
 30
0.0
 10
416.8462906165614
 20
290.3176980207359
 30
0.0
 10
417.0922185610273
 20
290.3616694689445
 30
0.0
 10
417.2160465516762
 20
290.3762412166864
 30
0.0
 10
417.5813165017456
 20
290.3967212239169
 30
0.0
 10
417.816638335565
 20
290.3800645947302
 30
0.0
 10
418.2717886468812
 20
290.2899480045582
 30
0.0
 10
418.492847858771
 20
290.2156787700497
 30
0.0
 10
418.7022577931741
 20
290.1146140264853
 30
0.0
  0
LINE
  5
2EA
330
1F
100
AcDbEntity
  8
0
  6
Continuous
 62
     8
370
     0
100
AcDbLine
 10
423.3807601695
 20
292.8290367531
 30
0.0
 11
388.3807600205
 21
292.8290367531
 31
0.0
  0
SPLINE
  5
2EB
330
1F
100
AcDbEntity
  8
0
  6
Continuous
 62
     8
370
     0
100
AcDbSpline
210
0.0
220
0.0
230
1.0
 70
     8
 71
     3
 72
    14
 73
    10
 74
     0
 42
0.00000001
 43
0.00000001
 12
1.0
 22
0.0
 32
0.0
 13
1.0
 23
0.0
 33
0.0
 40
0.0
 40
0.0
 40
0.0
 40
0.0
 40
0.4999999999999984
 40
0.4999999999999984
 40
0.6249999999999993
 40
0.6249999999999993
 40
0.7500000000000003
 40
0.7500000000000003
 40
1.0
 40
1.0
 40
1.0
 40
1.0
 10
419.4907155172556
 20
287.4836846895296
 30
0.0
 10
419.1573451357877
 20
287.6367326326327
 30
0.0
 10
418.8093963621536
 20
287.7327500252503
 30
0.0
 10
418.3494324666432
 20
287.7738647184712
 30
0.0
 10
418.2559529808527
 20
287.7780209551075
 30
0.0
 10
418.0694939696001
 20
287.7777482634411
 30
0.0
 10
417.9761615111249
 20
287.7733733630167
 30
0.0
 10
417.6959009161319
 20
287.7471433227807
 30
0.0
 10
417.5086704040309
 20
287.7124196278295
 30
0.0
 10
417.3215368545614
 20
287.6572670725743
 30
0.0
  0
SPLINE
  5
2EC
330
1F
100
AcDbEntity
  8
0
  6
Continuous
 62
     8
370
     0
100
AcDbSpline
210
0.0
220
0.0
230
1.0
 70
     8
 71
     3
 72
    12
 73
     8
 74
     0
 42
0.00000001
 43
0.00000001
 12
1.0
 22
0.0
 32
0.0
 13
1.0
 23
0.0
 33
0.0
 40
0.0
 40
0.0
 40
0.0
 40
0.0
 40
0.2499999999999984
 40
0.2499999999999984
 40
0.4999999999999968
 40
0.4999999999999968
 40
1.0
 40
1.0
 40
1.0
 40
1.0
 10
421.8939934057377
 20
285.7968038184025
 30
0.0
 10
421.7048263203725
 20
285.956570687545
 30
0.0
 10
421.5124495173771
 20
286.1120800249824
 30
0.0
 10
421.1209938103896
 20
286.4143485551442
 30
0.0
 10
420.9213036918513
 20
286.5615289911021
 30
0.0
 10
420.3164874082283
 20
286.9862007074851
 30
0.0
 10
419.9070628678889
 20
287.2460655050021
 30
0.0
 10
419.4907155172556
 20
287.4836846895296
 30
0.0
  0
SPLINE
  5
2ED
330
1F
100
AcDbEntity
  8
0
  6
Continuous
 62
     8
370
     0
100
AcDbSpline
210
0.0
220
0.0
230
1.0
 70
     8
 71
     3
 72
    12
 73
     8
 74
     0
 42
0.00000001
 43
0.00000001
 12
1.0
 22
0.0
 32
0.0
 13
1.0
 23
0.0
 33
0.0
 40
0.0
 40
0.0
 40
0.0
 40
0.0
 40
0.2499999999999984
 40
0.2499999999999984
 40
0.4999999999999968
 40
0.4999999999999968
 40
1.0
 40
1.0
 40
1.0
 40
1.0
 10
389.8675267842859
 20
285.7968038184025
 30
0.0
 10
390.0566938696511
 20
285.956570687545
 30
0.0
 10
390.2490706726464
 20
286.1120800249824
 30
0.0
 10
390.640526379634
 20
286.4143485551442
 30
0.0
 10
390.8402164981723
 20
286.5615289911021
 30
0.0
 10
391.4450327817952
 20
286.9862007074851
 30
0.0
 10
391.8544573221347
 20
287.2460655050021
 30
0.0
 10
392.270804672768
 20
287.4836846895296
 30
0.0
  0
SPLINE
  5
2EE
330
1F
100
AcDbEntity
  8
0
  6
Continuous
 62
     8
370
     0
100
AcDbSpline
210
0.0
220
0.0
230
1.0
 70
     8
 71
     3
 72
    14
 73
    10
 74
     0
 42
0.00000001
 43
0.00000001
 12
1.0
 22
0.0
 32
0.0
 13
1.0
 23
0.0
 33
0.0
 40
0.0
 40
0.0
 40
0.0
 40
0.0
 40
0.4999999999999984
 40
0.4999999999999984
 40
0.6249999999999993
 40
0.6249999999999993
 40
0.7500000000000003
 40
0.7500000000000003
 40
1.0
 40
1.0
 40
1.0
 40
1.0
 10
392.270804672768
 20
287.4836846895296
 30
0.0
 10
392.6041750542359
 20
287.6367326326327
 30
0.0
 10
392.9521238278699
 20
287.7327500252503
 30
0.0
 10
393.4120877233804
 20
287.7738647184712
 30
0.0
 10
393.5055672091709
 20
287.7780209551075
 30
0.0
 10
393.6920262204235
 20
287.7777482634411
 30
0.0
 10
393.7853586788987
 20
287.7733733630167
 30
0.0
 10
394.0656192738917
 20
287.7471433227807
 30
0.0
 10
394.2528497859927
 20
287.7124196278295
 30
0.0
 10
394.4399833354622
 20
287.6572670725743
 30
0.0
  0
LINE
  5
2EF
330
1F
100
AcDbEntity
  8
0
  6
Continuous
 62
     8
370
     0
100
AcDbLine
 10
415.0068300505
 20
296.8080938266
 30
0.0
 11
418.8436359828
 21
296.8080938266
 31
0.0
  0
LINE
  5
2F0
330
1F
100
AcDbEntity
  8
0
  6
Continuous
 62
     8
370
     0
100
AcDbLine
 10
393.0365533297
 20
296.8080938266
 30
0.0
 11
410.7873189924
 21
296.8080938266
 31
0.0
  0
ARC
  5
2F1
330
1F
100
AcDbEntity
  8
0
  6
Continuous
 62
     8
370
     0
100
AcDbCircle
 10
421.1450950181
 20
289.4130919525
 30
0.0
 40
2.541571317018386
100
AcDbArc
 50
163.9773094869
 51
229.388397235
  0
ARC
  5
2F2
330
1F
100
AcDbEntity
  8
0
  6
Continuous
 62
     8
370
     0
100
AcDbCircle
 10
390.6164251719
 20
289.4130919525
 30
0.0
 40
2.541571317018386
100
AcDbArc
 50
310.611602765
 51
16.0226905131
  0
SPLINE
  5
2F3
330
1F
100
AcDbEntity
  8
0
  6
Continuous
 62
     8
370
     0
100
AcDbSpline
210
0.0
220
0.0
230
1.0
 70
     8
 71
     3
 72
    14
 73
    10
 74
     0
 42
0.00000001
 43
0.00000001
 12
1.0
 22
0.0
 32
0.0
 13
1.0
 23
0.0
 33
0.0
 40
0.0
 40
0.0
 40
0.0
 40
0.0
 40
0.000034047325127
 40
0.1369475419409152
 40
0.3201340140073481
 40
0.5070711026162171
 40
0.7006675828839402
 40
0.8977333613685845
 40
0.9999999999999999
 40
0.9999999999999999
 40
0.9999999999999999
 40
0.9999999999999999
 10
424.272402814519
 20
285.0001976298042
 30
0.0
 10
424.2724108877713
 20
285.0001926616117
 30
0.0
 10
424.3048836899887
 20
284.9802092491079
 30
0.0
 10
424.177704833257
 20
285.0626931399918
 30
0.0
 10
423.8131542199487
 20
285.3033990587543
 30
0.0
 10
423.0349519741236
 20
285.7823928682858
 30
0.0
 10
421.9099067050268
 20
286.4031746654418
 30
0.0
 10
420.6832860346479
 20
286.9981505051682
 30
0.0
 10
419.7944016841947
 20
287.3600441394206
 30
0.0
 10
419.4907151823159
 20
287.4836847590156
 30
0.0
  0
SPLINE
  5
2F4
330
1F
100
AcDbEntity
  8
0
  6
Continuous
 62
     8
370
     0
100
AcDbSpline
210
0.0
220
0.0
230
1.0
 70
     8
 71
     3
 72
    14
 73
    10
 74
     0
 42
0.00000001
 43
0.00000001
 12
1.0
 22
0.0
 32
0.0
 13
1.0
 23
0.0
 33
0.0
 40
0.0
 40
0.0
 40
0.0
 40
0.0
 40
0.0000382879158994
 40
0.1369512019178174
 40
0.3201368971389377
 40
0.5070731929971227
 40
0.7006688522734454
 40
0.8977337950543144
 40
0.9999999999999999
 40
0.9999999999999999
 40
0.9999999999999999
 40
0.9999999999999999
 10
387.4891211007949
 20
285.0001976298042
 30
0.0
 10
387.4891117852682
 20
285.0001926614082
 30
0.0
 10
387.4557912833894
 20
284.982421315574
 30
0.0
 10
387.5843448789949
 20
285.0613038423235
 30
0.0
 10
387.9482037251203
 20
285.3038247378381
 30
0.0
 10
388.7266138289548
 20
285.7822731941581
 30
0.0
 10
389.8516006263272
 20
286.403208402495
 30
0.0
 10
391.0782356592351
 20
286.99814655952
 30
0.0
 10
391.9671188887846
 20
287.3600431346668
 30
0.0
 10
392.2708050077077
 20
287.4836847590156
 30
0.0
  0
LINE
  5
2F5
330
1F
100
AcDbEntity
  8
0
  6
Continuous
 62
     8
370
     0
100
AcDbLine
 10
394.9454051172
 20
314.9075434016
 30
0.0
 11
409.8328930986
 21
314.9075434016
 31
0.0
  0
LINE
  5
2F6
330
1F
100
AcDbEntity
  8
0
  6
Continuous
 62
     8
370
     0
100
AcDbLine
 10
413.4111191807
 20
314.9075434016
 30
0.0
 11
416.9552574595
 21
314.9075434016
 31
0.0
  0
INSERT
  5
302
330
1F
100
AcDbEntity
  8
FORMAT
100
AcDbBlockReference
  2
SW_CENTERMARKSYMBOL_0
 10
405.880760095
 20
218.0790380048
 30
0.0
  0
CIRCLE
  5
303
330
1F
100
AcDbEntity
  8
0
  6
Continuous
 62
     7
370
    15
100
AcDbCircle
 10
198.0346220427
 20
81.2870673634
 30
0.0
 40
44.90869149893071
  0
LINE
  5
304
330
1F
100
AcDbEntity
  8
0
  6
Continuous
 62
     7
370
    15
100
AcDbLine
 10
162.0346235925
 20
40.0370657243
 30
0.0
 11
170.0346211785
 21
40.0370657243
 31
0.0
  0
LINE
  5
305
330
1F
100
AcDbEntity
  8
0
  6
Continuous
 62
     7
370
    15
100
AcDbLine
 10
170.0346211785
 20
122.5370690025
 30
0.0
 11
162.0346235925
 21
122.5370690025
 31
0.0
  0
LINE
  5
306
330
1F
100
AcDbEntity
  8
0
  6
Continuous
 62
     7
370
    15
100
AcDbLine
 10
234.034620493
 20
122.5370690025
 30
0.0
 11
226.034622907
 21
122.5370690025
 31
0.0
  0
LINE
  5
307
330
1F
100
AcDbEntity
  8
0
  6
Continuous
 62
     7
370
    15
100
AcDbLine
 10
226.034622907
 20
40.0370657243
 30
0.0
 11
234.034620493
 21
40.0370657243
 31
0.0
  0
LINE
  5
308
330
1F
100
AcDbEntity
  8
0
  6
Continuous
 62
     7
370
    15
100
AcDbLine
 10
174.588989734
 20
98.401788602
 30
0.0
 11
172.1042173797
 21
98.8847780772
 31
0.0
  0
LINE
  5
309
330
1F
100
AcDbEntity
  8
0
  6
Continuous
 62
     7
370
    15
100
AcDbLine
 10
223.9650267058
 20
98.8847780772
 30
0.0
 11
221.4802543515
 21
98.401788602
 31
0.0
  0
SPLINE
  5
30A
330
1F
100
AcDbEntity
  8
0
  6
Continuous
 62
     7
370
    15
100
AcDbSpline
210
0.0
220
0.0
230
1.0
 70
     8
 71
     3
 72
    10
 73
     6
 74
     0
 42
0.00000001
 43
0.00000001
 12
1.0
 22
0.0
 32
0.0
 13
1.0
 23
0.0
 33
0.0
 40
0.0
 40
0.0
 40
0.0
 40
0.0
 40
0.3233535019782089
 40
0.6535204223208254
 40
1.0
 40
1.0
 40
1.0
 40
1.0
 10
203.0346219309849
 20
113.042239079634
 30
0.0
 10
201.9651588367637
 20
113.2157465116148
 30
0.0
 10
199.803697870001
 20
113.5664173703814
 30
0.0
 10
196.4211121644213
 20
113.5835626100726
 30
0.0
 10
194.1814501518706
 20
113.2255571991392
 30
0.0
 10
193.0346221545023
 20
113.042239079634
 30
0.0
  0
SPLINE
  5
30B
330
1F
100
AcDbEntity
  8
0
  6
Continuous
 62
     7
370
    15
100
AcDbSpline
210
0.0
220
0.0
230
1.0
 70
     8
 71
     3
 72
    13
 73
     9
 74
     0
 42
0.00000001
 43
0.00000001
 12
1.0
 22
0.0
 32
0.0
 13
1.0
 23
0.0
 33
0.0
 40
0.0
 40
0.0
 40
0.0
 40
0.0
 40
0.1372316000682259
 40
0.3300415763488965
 40
0.5228366506784351
 40
0.7217370190314769
 40
0.9206586931777323
 40
1.0
 40
1.0
 40
1.0
 40
1.0
 10
168.0338366770429
 20
69.73960807398922
 30
0.0
 10
168.1878062686305
 20
69.30687398446273
 30
0.0
 10
168.5581026631353
 20
68.26614982926648
 30
0.0
 10
169.2739166338779
 20
66.66131120286985
 30
0.0
 10
170.202630365892
 20
64.92838392029985
 30
0.0
 10
171.2828912536969
 20
63.26122889898333
 30
0.0
 10
172.252854109915
 20
61.98558261007273
 30
0.0
 10
172.8605600418128
 20
61.28041876708959
 30
0.0
 10
173.0338356339616
 20
61.07935493663913
 30
0.0
  0
SPLINE
  5
30C
330
1F
100
AcDbEntity
  8
0
  6
Continuous
 62
     7
370
    15
100
AcDbSpline
210
0.0
220
0.0
230
1.0
 70
     8
 71
     3
 72
    11
 73
     7
 74
     0
 42
0.00000001
 43
0.00000001
 12
1.0
 22
0.0
 32
0.0
 13
1.0
 23
0.0
 33
0.0
 40
0.0
 40
0.0
 40
0.0
 40
0.0
 40
0.2787113228622025
 40
0.5616950973243083
 40
0.7798175153322174
 40
1.0
 40
1.0
 40
1.0
 40
1.0
 10
223.0354084515256
 20
61.07935493663913
 30
0.0
 10
223.6306488023263
 20
61.79935492183737
 30
0.0
 10
224.8302541263614
 20
63.25039199347932
 30
0.0
 10
226.202869156043
 20
65.49325343543056
 30
0.0
 10
227.2787752782708
 20
67.66787674314085
 30
0.0
 10
227.7824076614436
 20
69.0468705048908
 30
0.0
 10
228.0354074084443
 20
69.73960807398922
 30
0.0
  0
LINE
  5
30D
330
1F
100
AcDbEntity
  8
0
  6
Continuous
 62
     7
370
    15
100
AcDbLine
 10
168.033836677
 20
69.739608074
 30
0.0
 11
186.8069724062
 21
80.5782832703
 31
0.0
  0
LINE
  5
30E
330
1F
100
AcDbEntity
  8
0
  6
Continuous
 62
     7
370
    15
100
AcDbLine
 10
173.033835634
 20
61.0793549366
 30
0.0
 11
191.8069718288
 21
71.918029318
 31
0.0
  0
LINE
  5
30F
330
1F
100
AcDbEntity
  8
0
  6
Continuous
 62
     7
370
    15
100
AcDbLine
 10
203.034621931
 20
113.0422390796
 30
0.0
 11
203.034621931
 21
91.3648893856
 31
0.0
  0
LINE
  5
310
330
1F
100
AcDbEntity
  8
0
  6
Continuous
 62
     7
370
    15
100
AcDbLine
 10
193.0346221545
 20
113.0422390796
 30
0.0
 11
193.0346221545
 21
91.3648893856
 31
0.0
  0
LINE
  5
311
330
1F
100
AcDbEntity
  8
0
  6
Continuous
 62
     7
370
    15
100
AcDbLine
 10
223.0354084515
 20
61.0793549366
 30
0.0
 11
204.2622722567
 21
71.918029318
 31
0.0
  0
LINE
  5
312
330
1F
100
AcDbEntity
  8
0
  6
Continuous
 62
     7
370
    15
100
AcDbLine
 10
228.0354074084
 20
69.739608074
 30
0.0
 11
209.2622716793
 21
80.5782832703
 31
0.0
  0
ARC
  5
313
330
1F
100
AcDbEntity
  8
0
  6
Continuous
 62
     7
370
    15
100
AcDbCircle
 10
198.0346220427
 20
81.2870673634
 30
0.0
 40
31.33792146725508
100
AcDbArc
 50
99.1808417223
 51
200.8191582777
  0
ARC
  5
314
330
1F
100
AcDbEntity
  8
0
  6
Continuous
 62
     7
370
    15
100
AcDbCircle
 10
198.0346220427
 20
81.2870673634
 30
0.0
 40
31.33792146725506
100
AcDbArc
 50
339.1808417224
 51
80.8191582777
  0
ARC
  5
315
330
1F
100
AcDbEntity
  8
0
  6
Continuous
 62
     7
370
    15
100
AcDbCircle
 10
198.0346220427
 20
81.2870673634
 30
0.0
 40
31.33792146725506
100
AcDbArc
 50
219.1808417223
 51
320.8191582777
  0
CIRCLE
  5
316
330
1F
100
AcDbEntity
  8
0
  6
Continuous
 62
     7
370
    15
100
AcDbCircle
 10
198.0346220427
 20
81.2870673634
 30
0.0
 40
11.25000000000003
  0
LINE
  5
317
330
1F
100
AcDbEntity
  8
0
  6
Continuous
 62
     7
370
    15
100
AcDbLine
 10
189.2846220055
 20
67.037067356
 30
0.0
 11
206.78462208
 21
67.037067356
 31
0.0
  0
LINE
  5
318
330
1F
100
AcDbEntity
  8
0
  6
Continuous
 62
     7
370
    15
100
AcDbLine
 10
189.2846220055
 20
90.0370674007
 30
0.0
 11
189.2846220055
 21
88.3581349425
 31
0.0
  0
LINE
  5
319
330
1F
100
AcDbEntity
  8
0
  6
Continuous
 62
     7
370
    15
100
AcDbLine
 10
189.2846220055
 20
70.4617500104
 30
0.0
 11
189.2846220055
 21
67.037067356
 31
0.0
  0
LINE
  5
31A
330
1F
100
AcDbEntity
  8
0
  6
Continuous
 62
     7
370
    15
100
AcDbLine
 10
206.78462208
 20
90.0370674007
 30
0.0
 11
205.1056896218
 21
90.0370674007
 31
0.0
  0
LINE
  5
31B
330
1F
100
AcDbEntity
  8
0
  6
Continuous
 62
     7
370
    15
100
AcDbLine
 10
190.9635544637
 20
90.0370674007
 30
0.0
 11
189.2846220055
 21
90.0370674007
 31
0.0
  0
LINE
  5
31C
330
1F
100
AcDbEntity
  8
0
  6
Continuous
 62
     7
370
    15
100
AcDbLine
 10
206.78462208
 20
67.037067356
 30
0.0
 11
206.78462208
 21
70.4617500104
 31
0.0
  0
LINE
  5
31D
330
1F
100
AcDbEntity
  8
0
  6
Continuous
 62
     7
370
    15
100
AcDbLine
 10
206.78462208
 20
88.3581349425
 30
0.0
 11
206.78462208
 21
90.0370674007
 31
0.0
  0
LINE
  5
31E
330
1F
100
AcDbEntity
  8
0
  6
Continuous
 62
     7
370
    15
100
AcDbLine
 10
187.5354333663
 20
85.3280504033
 30
0.0
 11
187.4168359556
 21
85.3965231016
 31
0.0
  0
LINE
  5
31F
330
1F
100
AcDbEntity
  8
0
  6
Continuous
 62
     7
370
    15
100
AcDbLine
 10
187.4168359556
 20
85.3965231016
 30
0.0
 11
189.1668367082
 21
88.4276116066
 31
0.0
  0
LINE
  5
320
330
1F
100
AcDbEntity
  8
0
  6
Continuous
 62
     7
370
    15
100
AcDbLine
 10
189.2846220055
 20
88.3596082948
 30
0.0
 11
189.1668367082
 21
88.4276116066
 31
0.0
  0
LINE
  5
321
330
1F
100
AcDbEntity
  8
0
  6
Continuous
 62
     7
370
    15
100
AcDbLine
 10
206.9024073773
 20
88.4276116066
 30
0.0
 11
208.6524081298
 21
85.3965231016
 31
0.0
  0
LINE
  5
322
330
1F
100
AcDbEntity
  8
0
  6
Continuous
 62
     7
370
    15
100
AcDbLine
 10
208.5338107192
 20
85.3280504033
 30
0.0
 11
208.6524081298
 21
85.3965231016
 31
0.0
  0
LINE
  5
323
330
1F
100
AcDbEntity
  8
0
  6
Continuous
 62
     7
370
    15
100
AcDbLine
 10
206.78462208
 20
88.3596082948
 30
0.0
 11
206.9024073773
 21
88.4276116066
 31
0.0
  0
LINE
  5
324
330
1F
100
AcDbEntity
  8
0
  6
Continuous
 62
     7
370
    15
100
AcDbLine
 10
208.6524081298
 20
85.3965231016
 30
0.0
 11
212.4693275311
 21
87.600222303
 31
0.0
  0
SPLINE
  5
325
330
1F
100
AcDbEntity
  8
0
  6
Continuous
 62
     7
370
    15
100
AcDbSpline
210
0.0
220
0.0
230
1.0
 70
     8
 71
     3
 72
    10
 73
     6
 74
     0
 42
0.00000001
 43
0.00000001
 12
1.0
 22
0.0
 32
0.0
 13
1.0
 23
0.0
 33
0.0
 40
0.0
 40
0.0
 40
0.0
 40
0.0
 40
0.5
 40
0.5
 40
1.0
 40
1.0
 40
1.0
 40
1.0
 10
210.7193271783981
 20
90.63131123024574
 30
0.0
 10
211.0104729722231
 20
90.12578113434853
 30
0.0
 10
211.3016340563151
 20
89.6202619206098
 30
0.0
 10
211.8849493650342
 20
88.60993031615685
 30
0.0
 10
212.1771287650941
 20
88.10507415710407
 30
0.0
 10
212.4693271783981
 20
87.6002223170002
 30
0.0
  0
LINE
  5
326
330
1F
100
AcDbEntity
  8
0
  6
Continuous
 62
     7
370
    15
100
AcDbLine
 10
206.9024073773
 20
88.4276116066
 30
0.0
 11
210.7193267786
 21
90.6313108079
 31
0.0
  0
SPLINE
  5
327
330
1F
100
AcDbEntity
  8
0
  6
Continuous
 62
     7
370
    15
100
AcDbSpline
210
0.0
220
0.0
230
1.0
 70
     8
 71
     3
 72
     9
 73
     5
 74
     0
 42
0.00000001
 43
0.00000001
 12
1.0
 22
0.0
 32
0.0
 13
1.0
 23
0.0
 33
0.0
 40
0.0
 40
0.0
 40
0.0
 40
0.0
 40
0.5000000000000003
 40
1.0
 40
1.0
 40
1.0
 40
1.0
 10
183.599916907089
 20
87.60022231700002
 30
0.0
 10
183.8921288178115
 20
88.10509747754723
 30
0.0
 10
184.4765201387086
 20
89.11486605802936
 30
0.0
 10
185.0587956936843
 20
90.12582381448495
 30
0.0
 10
185.3499169070889
 20
90.63131123024556
 30
0.0
  0
LINE
  5
328
330
1F
100
AcDbEntity
  8
0
  6
Continuous
 62
     7
370
    15
100
AcDbLine
 10
187.4168359556
 20
85.3965231016
 30
0.0
 11
183.5999165544
 21
87.600222303
 31
0.0
  0
LINE
  5
329
330
1F
100
AcDbEntity
  8
0
  6
Continuous
 62
     7
370
    15
100
AcDbLine
 10
189.1668367082
 20
88.4276116066
 30
0.0
 11
185.3499173069
 21
90.6313108079
 31
0.0
  0
SPLINE
  5
32A
330
1F
100
AcDbEntity
  8
0
  6
Continuous
 62
     7
370
    15
100
AcDbSpline
210
0.0
220
0.0
230
1.0
 70
     8
 71
     3
 72
     9
 73
     5
 74
     0
 42
0.00000001
 43
0.00000001
 12
1.0
 22
0.0
 32
0.0
 13
1.0
 23
0.0
 33
0.0
 40
0.0
 40
0.0
 40
0.0
 40
0.0
 40
0.5
 40
1.0
 40
1.0
 40
1.0
 40
1.0
 10
199.7846220427436
 20
65.62966854301655
 30
0.0
 10
199.2012887094079
 20
65.63029389285174
 30
0.0
 10
198.0346220427365
 20
65.63150733113162
 30
0.0
 10
196.8679553760651
 20
65.63029389285172
 30
0.0
 10
196.2846220427294
 20
65.62966854301654
 30
0.0
  0
LINE
  5
32B
330
1F
100
AcDbEntity
  8
0
  6
Continuous
 62
     7
370
    15
100
AcDbLine
 10
196.2846219887
 20
67.037067356
 30
0.0
 11
196.2846219887
 21
65.6296685137
 31
0.0
  0
LINE
  5
32C
330
1F
100
AcDbEntity
  8
0
  6
Continuous
 62
     7
370
    15
100
AcDbLine
 10
199.7846220968
 20
67.037067356
 30
0.0
 11
199.7846220968
 21
65.6296685137
 31
0.0
  0
LINE
  5
32D
330
1F
100
AcDbEntity
  8
0
  6
Continuous
 62
     7
370
    15
100
AcDbLine
 10
207.1129477465
 20
88.5491668977
 30
0.0
 11
206.78462208
 21
88.9415815272
 31
0.0
  0
ARC
  5
32E
330
1F
100
AcDbEntity
  8
0
  6
Continuous
 62
     7
370
    15
100
AcDbCircle
 10
198.0346220427
 20
81.2870673634
 30
0.0
 40
11.62557900256376
100
AcDbArc
 50
48.8205130652
 51
64.5269752488
  0
ARC
  5
32F
330
1F
100
AcDbEntity
  8
0
  6
Continuous
 62
     7
370
    15
100
AcDbCircle
 10
198.0346220427
 20
81.2870673634
 30
0.0
 40
11.62557900256377
100
AcDbArc
 50
115.4730247512
 51
131.1794869348
  0
LINE
  5
330
330
1F
100
AcDbEntity
  8
0
  6
Continuous
 62
     7
370
    15
100
AcDbLine
 10
189.2846220055
 20
88.9415815272
 30
0.0
 11
188.956296339
 21
88.5491668977
 31
0.0
  0
ARC
  5
331
330
1F
100
AcDbEntity
  8
0
  6
Continuous
 62
     7
370
    15
100
AcDbCircle
 10
198.0346220427
 20
81.2870673634
 30
0.0
 40
11.62557900256378
100
AcDbArc
 50
158.6576500139
 51
184.5269752488
  0
ARC
  5
332
330
1F
100
AcDbEntity
  8
0
  6
Continuous
 62
     7
370
    15
100
AcDbCircle
 10
198.0346220427
 20
81.2870673634
 30
0.0
 40
11.62557900256377
100
AcDbArc
 50
355.4730247512
 51
21.3423499861
  0
ARC
  5
333
330
1F
100
AcDbEntity
  8
0
  6
Continuous
 62
     7
370
    15
100
AcDbCircle
 10
198.0346220427
 20
81.2870673634
 30
0.0
 40
17.50000000000003
100
AcDbArc
 50
106.601549599
 51
180.0
  0
ARC
  5
334
330
1F
100
AcDbEntity
  8
0
  6
Continuous
 62
     7
370
    15
100
AcDbCircle
 10
198.0346220427
 20
81.2870673634
 30
0.0
 40
17.5
100
AcDbArc
 50
346.601549599
 51
73.398450401
  0
ARC
  5
335
330
1F
100
AcDbEntity
  8
0
  6
Continuous
 62
     7
370
    15
100
AcDbCircle
 10
198.0346220427
 20
81.2870673634
 30
0.0
 40
17.50000000000002
100
AcDbArc
 50
226.601549599
 51
313.398450401
  0
ARC
  5
336
330
1F
100
AcDbEntity
  8
0
  6
Continuous
 62
     7
370
    15
100
AcDbCircle
 10
198.0346220427
 20
81.2870673634
 30
0.0
 40
17.50000000000003
100
AcDbArc
 50
180.0
 51
193.398450401
  0
LINE
  5
337
330
1F
100
AcDbEntity
  8
0
  6
Continuous
 62
     7
370
    15
100
AcDbLine
 10
183.4652165764
 20
90.9703271262
 30
0.0
 11
183.6650877142
 21
91.2753846295
 31
0.0
  0
ARC
  5
338
330
1F
100
AcDbEntity
  8
0
  6
Continuous
 62
     7
370
    15
100
AcDbCircle
 10
268.0346220427
 20
81.2870673634
 30
0.0
 40
88.06040055458988
100
AcDbArc
 50
169.9862214963
 51
170.5160691987
  0
ARC
  5
339
330
1F
100
AcDbEntity
  8
0
  6
Continuous
 62
     7
370
    15
100
AcDbCircle
 10
128.0346220427
 20
81.2870673634
 30
0.0
 40
88.06040055458988
100
AcDbArc
 50
9.4839308013
 51
10.0137785037
  0
SPLINE
  5
33A
330
1F
100
AcDbEntity
  8
0
  6
Continuous
 62
     7
370
    15
100
AcDbSpline
210
0.0
220
0.0
230
1.0
 70
     8
 71
     3
 72
    18
 73
    14
 74
     0
 42
0.00000001
 43
0.00000001
 12
1.0
 22
0.0
 32
0.0
 13
1.0
 23
0.0
 33
0.0
 40
0.0
 40
0.0
 40
0.0
 40
0.0
 40
0.2499999999999951
 40
0.2499999999999951
 40
0.3749999999999961
 40
0.3749999999999961
 40
0.4999999999999971
 40
0.4999999999999971
 40
0.6249999999999981
 40
0.6249999999999981
 40
0.7499999999999991
 40
0.7499999999999991
 40
1.0
 40
1.0
 40
1.0
 40
1.0
 10
186.6226473050762
 20
100.1985274595967
 30
0.0
 10
186.5209443755434
 20
99.95076246656579
 30
0.0
 10
186.3945122548953
 20
99.69335365147302
 30
0.0
 10
186.1531309322284
 20
99.29652450949294
 30
0.0
 10
186.0643984527413
 20
99.1633145733911
 30
0.0
 10
185.8709416743966
 20
98.89988005387762
 30
0.0
 10
185.7659107946682
 20
98.76912475079698
 30
0.0
 10
185.5372658077364
 20
98.51101550752115
 30
0.0
 10
185.4136648096297
 20
98.38365629915698
 30
0.0
 10
185.1451995864383
 20
98.13407801538291
 30
0.0
 10
185.0026533773642
 20
98.01411345653227
 30
0.0
 10
184.5526394251717
 20
97.67370884791634
 30
0.0
 10
184.2216187392606
 20
97.47105945477763
 30
0.0
 10
183.8545698841395
 20
97.30030067415186
 30
0.0
  0
ARC
  5
33B
330
1F
100
AcDbEntity
  8
0
  6
Continuous
 62
     7
370
    15
100
AcDbCircle
 10
198.0346220427
 20
31.2870673634
 30
0.0
 40
69.85000000000005
100
AcDbArc
 50
98.4693139072
 51
99.4030399619
  0
ARC
  5
33C
330
1F
100
AcDbEntity
  8
0
  6
Continuous
 62
     7
370
    15
100
AcDbCircle
 10
198.0346220427
 20
31.2870673634
 30
0.0
 40
72.6516615259442
100
AcDbArc
 50
93.9463037958
 51
97.9671119368
  0
ARC
  5
33D
330
1F
100
AcDbEntity
  8
0
  6
Continuous
 62
     7
370
    15
100
AcDbCircle
 10
198.0346220427
 20
31.2870673634
 30
0.0
 40
72.65166152594419
100
AcDbArc
 50
82.0328880632
 51
86.0536962042
  0
ARC
  5
33E
330
1F
100
AcDbEntity
  8
0
  6
Continuous
 62
     7
370
    15
100
AcDbCircle
 10
198.0346220427
 20
31.2870673634
 30
0.0
 40
69.85000000000005
100
AcDbArc
 50
80.5969600381
 51
81.5306860928
  0
SPLINE
  5
33F
330
1F
100
AcDbEntity
  8
0
  6
Continuous
 62
     7
370
    15
100
AcDbSpline
210
0.0
220
0.0
230
1.0
 70
     8
 71
     3
 72
    18
 73
    14
 74
     0
 42
0.00000001
 43
0.00000001
 12
1.0
 22
0.0
 32
0.0
 13
1.0
 23
0.0
 33
0.0
 40
0.0
 40
0.0
 40
0.0
 40
0.0
 40
0.2499999999999951
 40
0.2499999999999951
 40
0.3749999999999961
 40
0.3749999999999961
 40
0.4999999999999971
 40
0.4999999999999971
 40
0.6249999999999981
 40
0.6249999999999981
 40
0.7499999999999991
 40
0.7499999999999991
 40
1.0
 40
1.0
 40
1.0
 40
1.0
 10
209.446596780411
 20
100.1985274595967
 30
0.0
 10
209.5482997099437
 20
99.95076246656579
 30
0.0
 10
209.6747318305918
 20
99.69335365147302
 30
0.0
 10
209.9161131532588
 20
99.29652450949294
 30
0.0
 10
210.0048456327459
 20
99.1633145733911
 30
0.0
 10
210.1983024110906
 20
98.89988005387762
 30
0.0
 10
210.3033332908189
 20
98.76912475079698
 30
0.0
 10
210.5319782777508
 20
98.51101550752115
 30
0.0
 10
210.6555792758574
 20
98.38365629915698
 30
0.0
 10
210.9240444990488
 20
98.13407801538291
 30
0.0
 10
211.066590708123
 20
98.01411345653227
 30
0.0
 10
211.5166046603155
 20
97.67370884791634
 30
0.0
 10
211.8476253462266
 20
97.47105945477763
 30
0.0
 10
212.2146742013476
 20
97.30030067415186
 30
0.0
  0
ARC
  5
340
330
1F
100
AcDbEntity
  8
0
  6
Continuous
 62
     7
370
    15
100
AcDbCircle
 10
198.0346220427
 20
131.2870673634
 30
0.0
 40
72.6516615259442
100
AcDbArc
 50
262.0328880632
 51
277.9671119368
  0
ARC
  5
341
330
1F
100
AcDbEntity
  8
0
  6
Continuous
 62
     7
370
    15
100
AcDbCircle
 10
198.0346220427
 20
131.2870673634
 30
0.0
 40
69.85000000000004
100
AcDbArc
 50
260.5969600381
 51
261.5306860928
  0
SPLINE
  5
342
330
1F
100
AcDbEntity
  8
0
  6
Continuous
 62
     7
370
    15
100
AcDbSpline
210
0.0
220
0.0
230
1.0
 70
     8
 71
     3
 72
    18
 73
    14
 74
     0
 42
0.00000001
 43
0.00000001
 12
1.0
 22
0.0
 32
0.0
 13
1.0
 23
0.0
 33
0.0
 40
0.0
 40
0.0
 40
0.0
 40
0.0
 40
0.2499999999999951
 40
0.2499999999999951
 40
0.3749999999999961
 40
0.3749999999999961
 40
0.4999999999999971
 40
0.4999999999999971
 40
0.6249999999999981
 40
0.6249999999999981
 40
0.7499999999999991
 40
0.7499999999999991
 40
1.0
 40
1.0
 40
1.0
 40
1.0
 10
186.6226473050762
 20
62.37560726724491
 30
0.0
 10
186.5209443755434
 20
62.62337226027579
 30
0.0
 10
186.3945122548953
 20
62.88078107536857
 30
0.0
 10
186.1531309322284
 20
63.27761021734862
 30
0.0
 10
186.0643984527413
 20
63.41082015345048
 30
0.0
 10
185.8709416743966
 20
63.67425467296398
 30
0.0
 10
185.7659107946682
 20
63.8050099760446
 30
0.0
 10
185.5372658077364
 20
64.06311921932043
 30
0.0
 10
185.4136648096297
 20
64.19047842768461
 30
0.0
 10
185.1451995864383
 20
64.44005671145867
 30
0.0
 10
185.0026533773642
 20
64.5600212703093
 30
0.0
 10
184.5526394251717
 20
64.90042587892525
 30
0.0
 10
184.2216187392606
 20
65.10307527206395
 30
0.0
 10
183.8545698841395
 20
65.27383405268974
 30
0.0
  0
SPLINE
  5
343
330
1F
100
AcDbEntity
  8
0
  6
Continuous
 62
     7
370
    15
100
AcDbSpline
210
0.0
220
0.0
230
1.0
 70
     8
 71
     3
 72
    18
 73
    14
 74
     0
 42
0.00000001
 43
0.00000001
 12
1.0
 22
0.0
 32
0.0
 13
1.0
 23
0.0
 33
0.0
 40
0.0
 40
0.0
 40
0.0
 40
0.0
 40
0.2499999999999951
 40
0.2499999999999951
 40
0.3749999999999961
 40
0.3749999999999961
 40
0.4999999999999971
 40
0.4999999999999971
 40
0.6249999999999981
 40
0.6249999999999981
 40
0.7499999999999991
 40
0.7499999999999991
 40
1.0
 40
1.0
 40
1.0
 40
1.0
 10
209.446596780411
 20
62.37560726724491
 30
0.0
 10
209.5482997099437
 20
62.62337226027579
 30
0.0
 10
209.6747318305918
 20
62.88078107536857
 30
0.0
 10
209.9161131532588
 20
63.27761021734862
 30
0.0
 10
210.0048456327459
 20
63.41082015345048
 30
0.0
 10
210.1983024110906
 20
63.67425467296398
 30
0.0
 10
210.3033332908189
 20
63.8050099760446
 30
0.0
 10
210.5319782777508
 20
64.06311921932043
 30
0.0
 10
210.6555792758574
 20
64.19047842768461
 30
0.0
 10
210.9240444990488
 20
64.44005671145867
 30
0.0
 10
211.066590708123
 20
64.5600212703093
 30
0.0
 10
211.5166046603155
 20
64.90042587892525
 30
0.0
 10
211.8476253462266
 20
65.10307527206395
 30
0.0
 10
212.2146742013476
 20
65.27383405268974
 30
0.0
  0
ARC
  5
344
330
1F
100
AcDbEntity
  8
0
  6
Continuous
 62
     7
370
    15
100
AcDbCircle
 10
198.0346220427
 20
131.2870673634
 30
0.0
 40
69.85000000000004
100
AcDbArc
 50
278.4693139072
 51
279.4030399619
  0
SPLINE
  5
345
330
1F
100
AcDbEntity
  8
0
  6
Continuous
 62
     7
370
    15
100
AcDbSpline
210
0.0
220
0.0
230
1.0
 70
     8
 71
     3
 72
    24
 73
    20
 74
     0
 42
0.00000001
 43
0.00000001
 12
1.0
 22
0.0
 32
0.0
 13
1.0
 23
0.0
 33
0.0
 40
0.0
 40
0.0
 40
0.0
 40
0.0
 40
0.2500000000000007
 40
0.2500000000000007
 40
0.375000000000001
 40
0.375000000000001
 40
0.5000000000000013
 40
0.5000000000000013
 40
0.6250000000000017
 40
0.6250000000000017
 40
0.6875000000000012
 40
0.6875000000000012
 40
0.7500000000000007
 40
0.7500000000000007
 40
0.8125
 40
0.8125
 40
0.8749999999999994
 40
0.8749999999999994
 40
1.0
 40
1.0
 40
1.0
 40
1.0
 10
181.3534625274557
 20
96.79005169762351
 30
0.0
 10
181.4090299250382
 20
96.78822041981317
 30
0.0
 10
181.4994069004815
 20
96.78560439157522
 30
0.0
 10
181.6968698567238
 20
96.78906687405498
 30
0.0
 10
181.7738307171867
 20
96.79158353946225
 30
0.0
 10
181.9474587562418
 20
96.80189379303063
 30
0.0
 10
182.0443868254088
 20
96.80964244556128
 30
0.0
 10
182.262482249304
 20
96.83433746142312
 30
0.0
 10
182.3834671788925
 20
96.85135198315254
 30
0.0
 10
182.5789502776117
 20
96.88671890448136
 30
0.0
 10
182.6467199948669
 20
96.90018726572445
 30
0.0
 10
182.7880953864854
 20
96.93131871186866
 30
0.0
 10
182.8614937761986
 20
96.94896749925319
 30
0.0
 10
183.0100324330996
 20
96.98809926228094
 30
0.0
 10
183.0856742791039
 20
97.00968696974147
 30
0.0
 10
183.2397740258806
 20
97.05744370832734
 30
0.0
 10
183.3188558446814
 20
97.08386139232496
 30
0.0
 10
183.5523615547626
 20
97.16787818815718
 30
0.0
 10
183.7049716702653
 20
97.23070446583087
 30
0.0
 10
183.8545698841409
 20
97.30030067415247
 30
0.0
  0
SPLINE
  5
346
330
1F
100
AcDbEntity
  8
0
  6
Continuous
 62
     7
370
    15
100
AcDbSpline
210
0.0
220
0.0
230
1.0
 70
     8
 71
     3
 72
     8
 73
     4
 74
     0
 42
0.00000001
 43
0.00000001
 12
1.0
 22
0.0
 32
0.0
 13
1.0
 23
0.0
 33
0.0
 40
0.0
 40
0.0
 40
0.0
 40
0.0
 40
1.0
 40
1.0
 40
1.0
 40
1.0
 10
181.3534625274601
 20
96.79005169762337
 30
0.0
 10
181.339579443737
 20
96.72683049397538
 30
0.0
 10
181.3270101112624
 20
96.66329519293485
 30
0.0
 10
181.3157366613849
 20
96.5994500666259
 30
0.0
  0
SPLINE
  5
347
330
1F
100
AcDbEntity
  8
0
  6
Continuous
 62
     7
370
    15
100
AcDbSpline
210
0.0
220
0.0
230
1.0
 70
     8
 71
     3
 72
    24
 73
    20
 74
     0
 42
0.00000001
 43
0.00000001
 12
1.0
 22
0.0
 32
0.0
 13
1.0
 23
0.0
 33
0.0
 40
0.0
 40
0.0
 40
0.0
 40
0.0
 40
0.2500000000000007
 40
0.2500000000000007
 40
0.375000000000001
 40
0.375000000000001
 40
0.5000000000000013
 40
0.5000000000000013
 40
0.6250000000000017
 40
0.6250000000000017
 40
0.6875000000000012
 40
0.6875000000000012
 40
0.7500000000000007
 40
0.7500000000000007
 40
0.8125
 40
0.8125
 40
0.8749999999999994
 40
0.8749999999999994
 40
1.0
 40
1.0
 40
1.0
 40
1.0
 10
214.7157815580315
 20
96.79005169762351
 30
0.0
 10
214.660214160449
 20
96.78822041981317
 30
0.0
 10
214.5698371850057
 20
96.78560439157522
 30
0.0
 10
214.3723742287634
 20
96.78906687405498
 30
0.0
 10
214.2954133683005
 20
96.79158353946225
 30
0.0
 10
214.1217853292454
 20
96.80189379303063
 30
0.0
 10
214.0248572600783
 20
96.80964244556128
 30
0.0
 10
213.8067618361831
 20
96.83433746142312
 30
0.0
 10
213.6857769065947
 20
96.85135198315254
 30
0.0
 10
213.4902938078754
 20
96.88671890448136
 30
0.0
 10
213.4225240906202
 20
96.90018726572445
 30
0.0
 10
213.2811486990018
 20
96.93131871186866
 30
0.0
 10
213.2077503092886
 20
96.94896749925319
 30
0.0
 10
213.0592116523876
 20
96.98809926228094
 30
0.0
 10
212.9835698063833
 20
97.00968696974147
 30
0.0
 10
212.8294700596065
 20
97.05744370832734
 30
0.0
 10
212.7503882408058
 20
97.08386139232496
 30
0.0
 10
212.5168825307246
 20
97.16787818815718
 30
0.0
 10
212.3642724152218
 20
97.23070446583087
 30
0.0
 10
212.2146742013463
 20
97.30030067415247
 30
0.0
  0
SPLINE
  5
348
330
1F
100
AcDbEntity
  8
0
  6
Continuous
 62
     7
370
    15
100
AcDbSpline
210
0.0
220
0.0
230
1.0
 70
     8
 71
     3
 72
     8
 73
     4
 74
     0
 42
0.00000001
 43
0.00000001
 12
1.0
 22
0.0
 32
0.0
 13
1.0
 23
0.0
 33
0.0
 40
0.0
 40
0.0
 40
0.0
 40
0.0
 40
1.0
 40
1.0
 40
1.0
 40
1.0
 10
214.715781558027
 20
96.79005169762337
 30
0.0
 10
214.7296646417501
 20
96.72683049397538
 30
0.0
 10
214.7422339742248
 20
96.66329519293485
 30
0.0
 10
214.7535074241022
 20
96.5994500666259
 30
0.0
  0
SPLINE
  5
349
330
1F
100
AcDbEntity
  8
0
  6
Continuous
 62
     7
370
    15
100
AcDbSpline
210
0.0
220
0.0
230
1.0
 70
     8
 71
     3
 72
    24
 73
    20
 74
     0
 42
0.00000001
 43
0.00000001
 12
1.0
 22
0.0
 32
0.0
 13
1.0
 23
0.0
 33
0.0
 40
0.0
 40
0.0
 40
0.0
 40
0.0
 40
0.2500000000000007
 40
0.2500000000000007
 40
0.375000000000001
 40
0.375000000000001
 40
0.5000000000000013
 40
0.5000000000000013
 40
0.6250000000000017
 40
0.6250000000000017
 40
0.6875000000000012
 40
0.6875000000000012
 40
0.7500000000000007
 40
0.7500000000000007
 40
0.8125
 40
0.8125
 40
0.8749999999999994
 40
0.8749999999999994
 40
1.0
 40
1.0
 40
1.0
 40
1.0
 10
214.7157815580315
 20
65.78408302921807
 30
0.0
 10
214.660214160449
 20
65.7859143070284
 30
0.0
 10
214.5698371850057
 20
65.78853033526637
 30
0.0
 10
214.3723742287634
 20
65.78506785278661
 30
0.0
 10
214.2954133683005
 20
65.78255118737933
 30
0.0
 10
214.1217853292454
 20
65.77224093381095
 30
0.0
 10
214.0248572600783
 20
65.7644922812803
 30
0.0
 10
213.8067618361831
 20
65.73979726541847
 30
0.0
 10
213.6857769065947
 20
65.72278274368905
 30
0.0
 10
213.4902938078754
 20
65.68741582236022
 30
0.0
 10
213.4225240906202
 20
65.67394746111712
 30
0.0
 10
213.2811486990018
 20
65.64281601497294
 30
0.0
 10
213.2077503092886
 20
65.62516722758839
 30
0.0
 10
213.0592116523876
 20
65.58603546456062
 30
0.0
 10
212.9835698063833
 20
65.56444775710011
 30
0.0
 10
212.8294700596065
 20
65.51669101851425
 30
0.0
 10
212.7503882408058
 20
65.49027333451663
 30
0.0
 10
212.5168825307246
 20
65.40625653868442
 30
0.0
 10
212.3642724152218
 20
65.3434302610107
 30
0.0
 10
212.2146742013463
 20
65.27383405268912
 30
0.0
  0
LINE
  5
34A
330
1F
100
AcDbEntity
  8
0
  6
Continuous
 62
     7
370
    15
100
AcDbLine
 10
214.7157809579
 20
65.7840827279
 30
0.0
 11
214.7332972729
 21
65.8725797929
 31
0.0
  0
SPLINE
  5
34B
330
1F
100
AcDbEntity
  8
0
  6
Continuous
 62
     7
370
    15
100
AcDbSpline
210
0.0
220
0.0
230
1.0
 70
     8
 71
     3
 72
    24
 73
    20
 74
     0
 42
0.00000001
 43
0.00000001
 12
1.0
 22
0.0
 32
0.0
 13
1.0
 23
0.0
 33
0.0
 40
0.0
 40
0.0
 40
0.0
 40
0.0
 40
0.2500000000000007
 40
0.2500000000000007
 40
0.375000000000001
 40
0.375000000000001
 40
0.5000000000000013
 40
0.5000000000000013
 40
0.6250000000000017
 40
0.6250000000000017
 40
0.6875000000000012
 40
0.6875000000000012
 40
0.7500000000000007
 40
0.7500000000000007
 40
0.8125
 40
0.8125
 40
0.8749999999999994
 40
0.8749999999999994
 40
1.0
 40
1.0
 40
1.0
 40
1.0
 10
181.3534625274557
 20
65.78408302921807
 30
0.0
 10
181.4090299250382
 20
65.7859143070284
 30
0.0
 10
181.4994069004815
 20
65.78853033526637
 30
0.0
 10
181.6968698567238
 20
65.78506785278661
 30
0.0
 10
181.7738307171867
 20
65.78255118737933
 30
0.0
 10
181.9474587562418
 20
65.77224093381095
 30
0.0
 10
182.0443868254088
 20
65.7644922812803
 30
0.0
 10
182.262482249304
 20
65.73979726541847
 30
0.0
 10
182.3834671788925
 20
65.72278274368905
 30
0.0
 10
182.5789502776117
 20
65.68741582236022
 30
0.0
 10
182.6467199948669
 20
65.67394746111712
 30
0.0
 10
182.7880953864854
 20
65.64281601497294
 30
0.0
 10
182.8614937761986
 20
65.62516722758839
 30
0.0
 10
183.0100324330996
 20
65.58603546456062
 30
0.0
 10
183.0856742791039
 20
65.56444775710011
 30
0.0
 10
183.2397740258806
 20
65.51669101851425
 30
0.0
 10
183.3188558446814
 20
65.49027333451663
 30
0.0
 10
183.5523615547626
 20
65.40625653868442
 30
0.0
 10
183.7049716702653
 20
65.3434302610107
 30
0.0
 10
183.8545698841409
 20
65.27383405268912
 30
0.0
  0
LINE
  5
34C
330
1F
100
AcDbEntity
  8
0
  6
Continuous
 62
     7
370
    15
100
AcDbLine
 10
181.3534631276
 20
65.7840827279
 30
0.0
 11
181.3359468126
 21
65.8725797929
 31
0.0
  0
ARC
  5
34D
330
1F
100
AcDbEntity
  8
0
  6
Continuous
 62
     7
370
    15
100
AcDbCircle
 10
214.5346220427
 20
102.2870673634
 30
0.0
 40
6.500000000000004
100
AcDbArc
 50
273.1464846978
 51
349.9370740577
  0
ARC
  5
34E
330
1F
100
AcDbEntity
  8
0
  6
Continuous
 62
     7
370
    15
100
AcDbCircle
 10
128.0346220427
 20
81.2870673634
 30
0.0
 40
95.0
100
AcDbArc
 50
12.0694654592
 51
13.306446449
  0
ARC
  5
34F
330
1F
100
AcDbEntity
  8
0
  6
Continuous
 62
     7
370
    15
100
AcDbCircle
 10
214.5346220427
 20
102.2870673634
 30
0.0
 40
6.500000000000004
100
AcDbArc
 50
101.1068856075
 51
197.1042443763
  0
ARC
  5
350
330
1F
100
AcDbEntity
  8
0
  6
Continuous
 62
     7
370
    15
100
AcDbCircle
 10
181.5346220427
 20
102.2870673634
 30
0.0
 40
6.500000000000004
100
AcDbArc
 50
190.0629259423
 51
266.8535153022
  0
ARC
  5
351
330
1F
100
AcDbEntity
  8
0
  6
Continuous
 62
     7
370
    15
100
AcDbCircle
 10
268.0346220427
 20
81.2870673634
 30
0.0
 40
95.0
100
AcDbArc
 50
166.693553551
 51
167.9305345408
  0
ARC
  5
352
330
1F
100
AcDbEntity
  8
0
  6
Continuous
 62
     7
370
    15
100
AcDbCircle
 10
181.5346220427
 20
102.2870673634
 30
0.0
 40
6.500000000000004
100
AcDbArc
 50
342.8957556237
 51
78.8931143925
  0
ARC
  5
353
330
1F
100
AcDbEntity
  8
0
  6
Continuous
 62
     7
370
    15
100
AcDbCircle
 10
268.0346220427
 20
81.2870673634
 30
0.0
 40
95.00000000000001
100
AcDbArc
 50
192.0694654592
 51
193.306446449
  0
ARC
  5
354
330
1F
100
AcDbEntity
  8
0
  6
Continuous
 62
     7
370
    15
100
AcDbCircle
 10
181.5346220427
 20
60.2870673634
 30
0.0
 40
6.500000000000005
100
AcDbArc
 50
281.1068856075
 51
17.1042443763
  0
LINE
  5
355
330
1F
100
AcDbEntity
  8
0
  6
Continuous
 62
     7
370
    15
100
AcDbLine
 10
175.4043235325
 20
62.4479558118
 30
0.0
 11
175.1346143776
 21
61.4228099384
 31
0.0
  0
ARC
  5
356
330
1F
100
AcDbEntity
  8
0
  6
Continuous
 62
     7
370
    15
100
AcDbCircle
 10
214.5346220427
 20
60.2870673634
 30
0.0
 40
6.500000000000005
100
AcDbArc
 50
162.8957556237
 51
258.8931143925
  0
ARC
  5
357
330
1F
100
AcDbEntity
  8
0
  6
Continuous
 62
     7
370
    15
100
AcDbCircle
 10
128.0346220427
 20
81.2870673634
 30
0.0
 40
95.00000000000001
100
AcDbArc
 50
346.693553551
 51
347.9305345408
  0
LINE
  5
358
330
1F
100
AcDbEntity
  8
0
  6
Continuous
 62
     7
370
    15
100
AcDbLine
 10
220.6649205529
 20
62.4479558118
 30
0.0
 11
220.9346297079
 21
61.4228099384
 31
0.0
  0
ARC
  5
359
330
1F
100
AcDbEntity
  8
0
  6
Continuous
 62
     7
370
    15
100
AcDbCircle
 10
268.0346220427
 20
81.2870673634
 30
0.0
 40
88.28239710596489
100
AcDbArc
 50
170.5295734168
 51
183.0577976515
  0
ARC
  5
35A
330
1F
100
AcDbEntity
  8
0
  6
Continuous
 62
     7
370
    15
100
AcDbCircle
 10
128.0346220427
 20
81.2870673634
 30
0.0
 40
88.28239710596489
100
AcDbArc
 50
356.9422023485
 51
9.4704265832
  0
ARC
  5
35B
330
1F
100
AcDbEntity
  8
0
  6
Continuous
 62
     7
370
    15
100
AcDbCircle
 10
198.0346220427
 20
31.2870673634
 30
0.0
 40
79.46072909494161
100
AcDbArc
 50
80.2773665583
 51
86.392327527
  0
ARC
  5
35C
330
1F
100
AcDbEntity
  8
0
  6
Continuous
 62
     7
370
    15
100
AcDbCircle
 10
198.0346220427
 20
31.2870673634
 30
0.0
 40
79.46072909494161
100
AcDbArc
 50
93.607672473
 51
99.7226334417
  0
ARC
  5
35D
330
1F
100
AcDbEntity
  8
0
  6
Continuous
 62
     7
370
    15
100
AcDbCircle
 10
198.0346220427
 20
131.2870673634
 30
0.0
 40
79.46072909494158
100
AcDbArc
 50
260.2773665583
 51
279.7226334417
  0
LINE
  5
35E
330
1F
100
AcDbEntity
  8
0
  6
Continuous
 62
     7
370
    15
100
AcDbLine
 10
220.9159455144
 20
61.5234728702
 30
0.0
 11
221.0612523251
 21
62.2191335805
 31
0.0
  0
ARC
  5
35F
330
1F
100
AcDbEntity
  8
0
  6
Continuous
 62
     7
370
    15
100
AcDbCircle
 10
128.0346220427
 20
81.2870673634
 30
0.0
 40
94.96072909494161
100
AcDbArc
 50
354.9120620648
 51
12.0124286901
  0
LINE
  5
360
330
1F
100
AcDbEntity
  8
0
  6
Continuous
 62
     7
370
    15
100
AcDbLine
 10
175.1532985711
 20
61.5234728702
 30
0.0
 11
175.0079917603
 21
62.2191335805
 31
0.0
  0
ARC
  5
361
330
1F
100
AcDbEntity
  8
0
  6
Continuous
 62
     7
370
    15
100
AcDbCircle
 10
268.0346220427
 20
81.2870673634
 30
0.0
 40
94.96072909494164
100
AcDbArc
 50
167.9875713099
 51
185.0879379352
  0
LINE
  5
362
330
1F
100
AcDbEntity
  8
0
  6
Continuous
 62
     7
370
    15
100
AcDbLine
 10
175.1346143776
 20
61.4228099384
 30
0.0
 11
174.9721470171
 21
62.1984377302
 31
0.0
  0
ARC
  5
363
330
1F
100
AcDbEntity
  8
0
  6
Continuous
 62
     7
370
    15
100
AcDbCircle
 10
268.0346220427
 20
81.2870673634
 30
0.0
 40
95.00000000000003
100
AcDbArc
 50
167.9305345408
 51
185.0989376296
  0
LINE
  5
364
330
1F
100
AcDbEntity
  8
0
  6
Continuous
 62
     7
370
    15
100
AcDbLine
 10
220.9346297079
 20
61.4228099384
 30
0.0
 11
221.0970970684
 21
62.1984377302
 31
0.0
  0
ARC
  5
365
330
1F
100
AcDbEntity
  8
0
  6
Continuous
 62
     7
370
    15
100
AcDbCircle
 10
128.0346220427
 20
81.2870673634
 30
0.0
 40
95.0
100
AcDbArc
 50
354.9010623704
 51
12.0694654592
  0
ARC
  5
366
330
1F
100
AcDbEntity
  8
0
  6
Continuous
 62
     7
370
    15
100
AcDbCircle
 10
198.0346220427
 20
31.2870673634
 30
0.0
 40
79.50000000000001
100
AcDbArc
 50
80.3791140678
 51
86.3941119793
  0
ARC
  5
367
330
1F
100
AcDbEntity
  8
0
  6
Continuous
 62
     7
370
    15
100
AcDbCircle
 10
198.0346220427
 20
31.2870673634
 30
0.0
 40
79.50000000000001
100
AcDbArc
 50
93.6058880207
 51
99.6208859322
  0
ARC
  5
368
330
1F
100
AcDbEntity
  8
0
  6
Continuous
 62
     7
370
    15
100
AcDbCircle
 10
198.0346220427
 20
131.2870673634
 30
0.0
 40
79.5
100
AcDbArc
 50
260.3791140678
 51
279.6208859322
  0
LINE
  5
369
330
1F
100
AcDbEntity
  8
0
  6
Continuous
 62
     7
370
    15
100
AcDbLine
 10
173.0820017749
 20
78.2870673373
 30
0.0
 11
170.0346211785
 21
78.2870673373
 31
0.0
  0
LINE
  5
36A
330
1F
100
AcDbEntity
  8
0
  6
Continuous
 62
     7
370
    15
100
AcDbLine
 10
170.0346211785
 20
78.2870673373
 30
0.0
 11
170.0346211785
 21
70.8947628535
 31
0.0
  0
LINE
  5
36B
330
1F
100
AcDbEntity
  8
0
  6
Continuous
 62
     7
370
    15
100
AcDbLine
 10
170.0346211785
 20
46.1759492554
 30
0.0
 11
170.0346211785
 21
40.0370657243
 31
0.0
  0
LINE
  5
36C
330
1F
100
AcDbEntity
  8
0
  6
Continuous
 62
     7
370
    15
100
AcDbLine
 10
170.0346211785
 20
84.2870673895
 30
0.0
 11
170.0346211785
 21
95.3606357597
 31
0.0
  0
LINE
  5
36D
330
1F
100
AcDbEntity
  8
0
  6
Continuous
 62
     7
370
    15
100
AcDbLine
 10
170.0346211785
 20
116.3981854715
 30
0.0
 11
170.0346211785
 21
122.5370690025
 31
0.0
  0
LINE
  5
36E
330
1F
100
AcDbEntity
  8
0
  6
Continuous
 62
     7
370
    15
100
AcDbLine
 10
173.0820017749
 20
84.2870673895
 30
0.0
 11
170.0346211785
 21
84.2870673895
 31
0.0
  0
LINE
  5
36F
330
1F
100
AcDbEntity
  8
0
  6
Continuous
 62
     7
370
    15
100
AcDbLine
 10
162.0346235925
 20
40.0370657243
 30
0.0
 11
162.0346235925
 21
54.4395241685
 31
0.0
  0
LINE
  5
370
330
1F
100
AcDbEntity
  8
0
  6
Continuous
 62
     7
370
    15
100
AcDbLine
 10
162.0346235925
 20
108.1346105583
 30
0.0
 11
162.0346235925
 21
122.5370690025
 31
0.0
  0
LINE
  5
371
330
1F
100
AcDbEntity
  8
0
  6
Continuous
 62
     7
370
    15
100
AcDbLine
 10
222.9872423106
 20
84.2870673895
 30
0.0
 11
226.034622907
 21
84.2870673895
 31
0.0
  0
LINE
  5
372
330
1F
100
AcDbEntity
  8
0
  6
Continuous
 62
     7
370
    15
100
AcDbLine
 10
226.034622907
 20
84.2870673895
 30
0.0
 11
226.034622907
 21
95.3606357597
 31
0.0
  0
LINE
  5
373
330
1F
100
AcDbEntity
  8
0
  6
Continuous
 62
     7
370
    15
100
AcDbLine
 10
226.034622907
 20
116.3981854715
 30
0.0
 11
226.034622907
 21
122.5370690025
 31
0.0
  0
LINE
  5
374
330
1F
100
AcDbEntity
  8
0
  6
Continuous
 62
     7
370
    15
100
AcDbLine
 10
226.034622907
 20
78.2870673373
 30
0.0
 11
226.034622907
 21
70.8947628535
 31
0.0
  0
LINE
  5
375
330
1F
100
AcDbEntity
  8
0
  6
Continuous
 62
     7
370
    15
100
AcDbLine
 10
226.034622907
 20
46.1759492554
 30
0.0
 11
226.034622907
 21
40.0370657243
 31
0.0
  0
LINE
  5
376
330
1F
100
AcDbEntity
  8
0
  6
Continuous
 62
     7
370
    15
100
AcDbLine
 10
222.9872423106
 20
78.2870673373
 30
0.0
 11
226.034622907
 21
78.2870673373
 31
0.0
  0
LINE
  5
377
330
1F
100
AcDbEntity
  8
0
  6
Continuous
 62
     7
370
    15
100
AcDbLine
 10
234.034620493
 20
40.0370657243
 30
0.0
 11
234.034620493
 21
54.4395241685
 31
0.0
  0
LINE
  5
378
330
1F
100
AcDbEntity
  8
0
  6
Continuous
 62
     7
370
    15
100
AcDbLine
 10
234.034620493
 20
108.1346105583
 30
0.0
 11
234.034620493
 21
122.5370690025
 31
0.0
  0
ARC
  5
379
330
1F
100
AcDbEntity
  8
0
  6
Continuous
 62
     8
370
     0
100
AcDbCircle
 10
198.0346220427
 20
81.2870673634
 30
0.0
 40
31.69369519603123
100
AcDbArc
 50
99.0769072957
 51
200.9230927043
  0
ARC
  5
37A
330
1F
100
AcDbEntity
  8
0
  6
Continuous
 62
     8
370
     0
100
AcDbCircle
 10
198.0346220427
 20
81.2870673634
 30
0.0
 40
31.69369519603122
100
AcDbArc
 50
219.0769072957
 51
320.9230927043
  0
ARC
  5
37B
330
1F
100
AcDbEntity
  8
0
  6
Continuous
 62
     8
370
     0
100
AcDbCircle
 10
198.0346220427
 20
81.2870673634
 30
0.0
 40
31.69369519603122
100
AcDbArc
 50
339.0769072957
 51
80.9230927043
  0
CIRCLE
  5
37C
330
1F
100
AcDbEntity
  8
0
  6
Continuous
 62
     8
370
     0
100
AcDbCircle
 10
198.0346220427
 20
81.2870673634
 30
0.0
 40
44.64422627122386
  0
CIRCLE
  5
37D
330
1F
100
AcDbEntity
  8
0
  6
Continuous
 62
     8
370
     0
100
AcDbCircle
 10
198.0346220427
 20
81.2870673634
 30
0.0
 40
44.90488619702245
  0
ARC
  5
37E
330
1F
100
AcDbEntity
  8
0
  6
Continuous
 62
     8
370
     0
100
AcDbCircle
 10
198.0346220427
 20
81.2870673634
 30
0.0
 40
12.9628756344952
100
AcDbArc
 50
37.7586724788
 51
67.3117474798
  0
ARC
  5
37F
330
1F
100
AcDbEntity
  8
0
  6
Continuous
 62
     8
370
     0
100
AcDbCircle
 10
198.0346220427
 20
81.2870673634
 30
0.0
 40
12.96287563449521
100
AcDbArc
 50
112.6882525202
 51
142.2413275212
  0
ARC
  5
380
330
1F
100
AcDbEntity
  8
0
  6
Continuous
 62
     8
370
     0
100
AcDbCircle
 10
198.0346220427
 20
81.2870673634
 30
0.0
 40
12.96287563449522
100
AcDbArc
 50
352.6882525202
 51
22.2413275212
  0
ARC
  5
381
330
1F
100
AcDbEntity
  8
0
  6
Continuous
 62
     8
370
     0
100
AcDbCircle
 10
198.0346220427
 20
81.2870673634
 30
0.0
 40
12.96287563449525
100
AcDbArc
 50
157.7586724788
 51
187.3117474798
  0
ARC
  5
382
330
1F
100
AcDbEntity
  8
0
  6
Continuous
 62
     8
370
     0
100
AcDbCircle
 10
198.0346220427
 20
81.2870673634
 30
0.0
 40
15.91729889353184
100
AcDbArc
 50
108.307917357
 51
180.0
  0
ARC
  5
383
330
1F
100
AcDbEntity
  8
0
  6
Continuous
 62
     8
370
     0
100
AcDbCircle
 10
198.0346220427
 20
81.2870673634
 30
0.0
 40
15.91729889353184
100
AcDbArc
 50
348.307917357
 51
71.692082643
  0
ARC
  5
384
330
1F
100
AcDbEntity
  8
0
  6
Continuous
 62
     8
370
     0
100
AcDbCircle
 10
198.0346220427
 20
81.2870673634
 30
0.0
 40
15.91729889353184
100
AcDbArc
 50
303.3475579429
 51
311.692082643
  0
ARC
  5
385
330
1F
100
AcDbEntity
  8
0
  6
Continuous
 62
     8
370
     0
100
AcDbCircle
 10
198.0346220427
 20
81.2870673634
 30
0.0
 40
15.91729889353185
100
AcDbArc
 50
243.540867914
 51
296.459132086
  0
LWPOLYLINE
  5
386
330
1F
100
AcDbEntity
  8
0
  6
Continuous
 62
     8
370
     0
100
AcDbPolyline
 90
        3
 70
   128
 43
0.0
 10
189.2846220055
 20
67.9905302622
 10
188.4808319503
 20
68.5557871856
 10
187.447593815
 20
69.401141236
  0
LWPOLYLINE
  5
387
330
1F
100
AcDbEntity
  8
0
  6
Continuous
 62
     8
370
     0
100
AcDbPolyline
 90
        3
 70
   128
 43
0.0
 10
182.4475939268
 20
78.0613953047
 10
182.2016875142
 20
79.6504347617
 10
182.1173227274
 20
81.2870673634
  0
LWPOLYLINE
  5
388
330
1F
100
AcDbEntity
  8
0
  6
Continuous
 62
     8
370
     0
100
AcDbPolyline
 90
        3
 70
   128
 43
0.0
 10
182.0346212828
 20
81.2870673634
 10
182.1194237911
 20
79.6419314373
 10
182.3721754247
 20
78.017852249
  0
LWPOLYLINE
  5
389
330
1F
100
AcDbEntity
  8
0
  6
Continuous
 62
     8
370
     0
100
AcDbPolyline
 90
        3
 70
   128
 43
0.0
 10
187.3721753129
 20
69.3575981803
 10
188.4311933884
 20
68.4896390684
 10
189.2846220055
 20
67.8916387059
  0
ARC
  5
38A
330
1F
100
AcDbEntity
  8
0
  6
Continuous
 62
     8
370
     0
100
AcDbCircle
 10
198.0346220427
 20
81.2870673634
 30
0.0
 40
16.00000000000002
100
AcDbArc
 50
242.9518894536
 51
297.0481105464
  0
ARC
  5
38B
330
1F
100
AcDbEntity
  8
0
  6
Continuous
 62
     8
370
     0
100
AcDbCircle
 10
198.0346220427
 20
81.2870673634
 30
0.0
 40
16.0
100
AcDbArc
 50
303.1528879286
 51
311.7900431357
  0
ARC
  5
38C
330
1F
100
AcDbEntity
  8
0
  6
Continuous
 62
     8
370
     0
100
AcDbCircle
 10
198.0346220427
 20
81.2870673634
 30
0.0
 40
15.99999999999999
100
AcDbArc
 50
348.2099568643
 51
71.7900431357
  0
ARC
  5
38D
330
1F
100
AcDbEntity
  8
0
  6
Continuous
 62
     8
370
     0
100
AcDbCircle
 10
198.0346220427
 20
81.2870673634
 30
0.0
 40
16.00000000000003
100
AcDbArc
 50
108.2099568643
 51
180.0
  0
SPLINE
  5
38E
330
1F
100
AcDbEntity
  8
0
  6
Continuous
 62
     8
370
     0
100
AcDbSpline
210
0.0
220
0.0
230
1.0
 70
     8
 71
     3
 72
    12
 73
     8
 74
     0
 42
0.00000001
 43
0.00000001
 12
1.0
 22
0.0
 32
0.0
 13
1.0
 23
0.0
 33
0.0
 40
0.0
 40
0.0
 40
0.0
 40
0.0
 40
0.0327758158880647
 40
0.3692004897902721
 40
0.7134614312500257
 40
0.899064283686413
 40
1.0
 40
1.0
 40
1.0
 40
1.0
 10
184.3848240443749
 20
94.8970224507249
 30
0.0
 10
184.466878211456
 20
94.96282481355247
 30
0.0
 10
185.3911706464375
 20
95.70405013249689
 30
0.0
 10
187.3036103491845
 20
96.9785755418758
 30
0.0
 10
189.8501654387046
 20
98.14883412588561
 30
0.0
 10
191.7952560318583
 20
98.80839068678263
 30
0.0
 10
192.7117715494787
 20
99.01316416661903
 30
0.0
 10
193.0346221545023
 20
99.08529741541513
 30
0.0
  0
SPLINE
  5
38F
330
1F
100
AcDbEntity
  8
0
  6
Continuous
 62
     8
370
     0
100
AcDbSpline
210
0.0
220
0.0
230
1.0
 70
     8
 71
     3
 72
    11
 73
     7
 74
     0
 42
0.00000001
 43
0.00000001
 12
1.0
 22
0.0
 32
0.0
 13
1.0
 23
0.0
 33
0.0
 40
0.0
 40
0.0
 40
0.0
 40
0.0
 40
0.255486335388441
 40
0.5478920469322736
 40
0.8455377432747644
 40
1.0
 40
1.0
 40
1.0
 40
1.0
 10
203.0346219309849
 20
99.08951630667812
 30
0.0
 10
203.8437555108133
 20
98.87883267290297
 30
0.0
 10
205.5789475421985
 20
98.42702030028155
 30
0.0
 10
208.0814354355243
 20
97.31022640703708
 30
0.0
 10
210.1456214722685
 20
96.09029356664297
 30
0.0
 10
211.2925671348011
 20
95.20088727374788
 30
0.0
 10
211.6844200411123
 20
94.8970224507249
 30
0.0
  0
LWPOLYLINE
  5
390
330
1F
100
AcDbEntity
  8
0
  6
Continuous
 62
     8
370
     0
100
AcDbPolyline
 90
        9
 70
   128
 43
0.0
 10
209.9450875887
 20
94.1085647591
 10
210.0506325134
 20
94.0524032138
 10
210.1957884499
 20
94.0423551746
 10
210.3775863418
 20
94.0786273949
 10
210.5923055553
 20
94.1604766794
 10
210.8355549046
 20
94.2862294413
 10
211.1023574018
 20
94.4533124365
 10
211.3872554966
 20
94.6583086424
 10
211.6844200411
 20
94.8970224507
  0
LWPOLYLINE
  5
391
330
1F
100
AcDbEntity
  8
0
  6
Continuous
 62
     8
370
     0
100
AcDbPolyline
 90
        9
 70
   128
 43
0.0
 10
186.1241564968
 20
94.1085647591
 10
186.0186115721
 20
94.0524032138
 10
185.8734556356
 20
94.0423551746
 10
185.6916577437
 20
94.0786273949
 10
185.4769385302
 20
94.1604766794
 10
185.2336891809
 20
94.2862294413
 10
184.9668866837
 20
94.4533124365
 10
184.6819885888
 20
94.6583086424
 10
184.3848240444
 20
94.8970224507
  0
LWPOLYLINE
  5
392
330
1F
100
AcDbEntity
  8
0
  6
Continuous
 62
     8
370
     0
100
AcDbPolyline
 90
        3
 70
   128
 43
0.0
 10
186.1241564968
 20
68.4655699678
 10
186.0186115721
 20
68.521731513
 10
185.9438934245
 20
68.5329790957
  0
LWPOLYLINE
  5
393
330
1F
100
AcDbEntity
  8
0
  6
Continuous
 62
     8
370
     0
100
AcDbPolyline
 90
        3
 70
   128
 43
0.0
 10
209.9450875887
 20
68.4655699678
 10
210.0506325134
 20
68.521731513
 10
210.1253506609
 20
68.5329790957
  0
SPLINE
  5
394
330
1F
100
AcDbEntity
  8
0
  6
Continuous
 62
     8
370
     0
100
AcDbSpline
210
0.0
220
0.0
230
1.0
 70
     8
 71
     3
 72
    38
 73
    34
 74
     0
 42
0.00000001
 43
0.00000001
 12
1.0
 22
0.0
 32
0.0
 13
1.0
 23
0.0
 33
0.0
 40
0.0
 40
0.0
 40
0.0
 40
0.0
 40
0.0624999999999998
 40
0.0624999999999998
 40
0.1249999999999997
 40
0.1249999999999997
 40
0.1874999999999995
 40
0.1874999999999995
 40
0.2187499999999994
 40
0.2187499999999994
 40
0.2499999999999993
 40
0.2499999999999993
 40
0.3124999999999992
 40
0.3124999999999992
 40
0.3437499999999993
 40
0.3437499999999993
 40
0.3749999999999994
 40
0.3749999999999994
 40
0.4999999999999996
 40
0.4999999999999996
 40
0.5624999999999996
 40
0.5624999999999996
 40
0.6249999999999997
 40
0.6249999999999997
 40
0.7499999999999998
 40
0.7499999999999998
 40
0.8124999999999998
 40
0.8124999999999998
 40
0.8749999999999999
 40
0.8749999999999999
 40
0.9374999999999999
 40
0.9374999999999999
 40
1.0
 40
1.0
 40
1.0
 40
1.0
 10
184.3848237021755
 20
67.67711194117697
 30
0.0
 10
184.8583532540346
 20
67.29348578738319
 30
0.0
 10
185.3469937218938
 20
66.9321627444893
 30
0.0
 10
186.3486462940785
 20
66.25580312017705
 30
0.0
 10
186.8624793073442
 20
65.94009898368665
 30
0.0
 10
187.9166579104082
 20
65.35232277236271
 30
0.0
 10
188.4570018238466
 20
65.08025262343948
 30
0.0
 10
189.2884164641885
 20
64.70490390722914
 30
0.0
 10
189.5690446210144
 20
64.58525745407646
 30
0.0
 10
190.1375378192648
 20
64.35703830378397
 30
0.0
 10
190.425897866895
 20
64.24830405600193
 30
0.0
 10
191.2968034447003
 20
63.94091729104196
 30
0.0
 10
191.8860600063545
 20
63.76057504180364
 30
0.0
 10
192.7835526724545
 20
63.52698292869361
 30
0.0
 10
193.0849881716074
 20
63.45528349489594
 30
0.0
 10
193.6925459505945
 20
63.32435668992943
 30
0.0
 10
193.9990768336791
 20
63.26507502978227
 30
0.0
 10
195.5343394427156
 20
63.00191354544693
 30
0.0
 10
196.7764404480601
 20
62.89548140316032
 30
0.0
 10
198.6615855907773
 20
62.89536041181598
 30
0.0
 10
199.2881854588491
 20
62.92207288223674
 30
0.0
 10
200.5378211073515
 20
63.02872279050177
 30
0.0
 10
201.1566550710285
 20
63.10838033930214
 30
0.0
 10
202.98729164781
 20
63.42249820299725
 30
0.0
 10
204.1773538680439
 20
63.73175353792279
 30
0.0
 10
205.9204429120796
 20
64.34567688991159
 30
0.0
 10
206.4888758231231
 20
64.57359897061053
 30
0.0
 10
207.5980121284178
 20
65.07334220559893
 30
0.0
 10
208.139440784387
 20
65.34542103273152
 30
0.0
 10
209.1971247327893
 20
65.93430541176765
 30
0.0
 10
209.7133794808188
 20
66.2511070530644
 30
0.0
 10
210.7210168973959
 20
66.93115328961622
 30
0.0
 10
211.2110825881926
 20
67.29364113756215
 30
0.0
 10
211.6844203833116
 20
67.67711194117697
 30
0.0
  0
LWPOLYLINE
  5
395
330
1F
100
AcDbEntity
  8
0
  6
Continuous
 62
     8
370
     0
100
AcDbPolyline
 90
        9
 70
   128
 43
0.0
 10
183.6650877142
 20
91.2753846295
 10
183.7214262107
 20
91.3938814573
 10
183.7418631532
 20
91.5350876547
 10
183.7261061066
 20
91.6969906338
 10
183.6743804508
 20
91.8772844397
 10
183.5874237933
 20
92.0733995535
 10
183.4664738619
 20
92.2825420074
 10
183.3132554659
 20
92.501730638
 10
183.1299497628
 20
92.7278445833
  0
SPLINE
  5
396
330
1F
100
AcDbEntity
  8
0
  6
Continuous
 62
     8
370
     0
100
AcDbSpline
210
0.0
220
0.0
230
1.0
 70
     8
 71
     3
 72
    15
 73
    11
 74
     0
 42
0.00000001
 43
0.00000001
 12
1.0
 22
0.0
 32
0.0
 13
1.0
 23
0.0
 33
0.0
 40
0.0
 40
0.0
 40
0.0
 40
0.0
 40
0.0659123960535875
 40
0.2711417238992961
 40
0.4762918617233402
 40
0.5768519814033981
 40
0.67731056687533
 40
0.7408435216415389
 40
0.8821976586932153
 40
1.0
 40
1.0
 40
1.0
 40
1.0
 10
183.1299497627896
 20
92.72784458325273
 30
0.0
 10
182.9715609520611
 20
92.41697543352359
 30
0.0
 10
182.3200019470996
 20
91.13816291552406
 30
0.0
 10
181.41906024569
 20
88.79454241307596
 30
0.0
 10
180.7767557382779
 20
86.15911846585766
 30
0.0
 10
180.4725324827013
 20
83.99050546352285
 30
0.0
 10
180.3630684100346
 20
82.54326188935664
 30
0.0
 10
180.331159036216
 20
80.85839545086405
 30
0.0
 10
180.3903446788262
 20
79.0657485502088
 30
0.0
 10
180.6326990630595
 20
77.69861437286278
 30
0.0
 10
180.7428638332767
 20
77.07716895119316
 30
0.0
  0
SPLINE
  5
397
330
1F
100
AcDbEntity
  8
0
  6
Continuous
 62
     8
370
     0
100
AcDbSpline
210
0.0
220
0.0
230
1.0
 70
     8
 71
     3
 72
    15
 73
    11
 74
     0
 42
0.00000001
 43
0.00000001
 12
1.0
 22
0.0
 32
0.0
 13
1.0
 23
0.0
 33
0.0
 40
0.0
 40
0.0
 40
0.0
 40
0.0
 40
0.0659131474932542
 40
0.2693704482058439
 40
0.4762846475091003
 40
0.5762833280336632
 40
0.677306888028033
 40
0.7408405671068934
 40
0.8821963156779802
 40
1.0
 40
1.0
 40
1.0
 40
1.0
 10
212.9392943226975
 20
92.72784458325273
 30
0.0
 10
213.0976858411008
 20
92.4170177757256
 30
0.0
 10
213.7449921210605
 20
91.14674682611658
 30
0.0
 10
214.6472836463561
 20
88.8003796361704
 30
0.0
 10
215.2903607823528
 20
86.1717163431373
 30
0.0
 10
215.5965761873459
 20
83.99358553445315
 30
0.0
 10
215.706084895599
 20
82.54637219709204
 30
0.0
 10
215.7381018628601
 20
80.85839587795249
 30
0.0
 10
215.678894974567
 20
79.06574843762748
 30
0.0
 10
215.4365436373664
 20
77.6986143376803
 30
0.0
 10
215.3263802522105
 20
77.07716895119316
 30
0.0
  0
LWPOLYLINE
  5
398
330
1F
100
AcDbEntity
  8
0
  6
Continuous
 62
     8
370
     0
100
AcDbPolyline
 90
        9
 70
   128
 43
0.0
 10
212.4041563713
 20
91.2753846295
 10
212.3478178748
 20
91.3938814573
 10
212.3273809322
 20
91.5350876547
 10
212.3431379789
 20
91.6969906338
 10
212.3948636347
 20
91.8772844397
 10
212.4818202921
 20
92.0733995535
 10
212.6027702236
 20
92.2825420074
 10
212.7559886196
 20
92.501730638
 10
212.9392943227
 20
92.7278445833
  0
SPLINE
  5
399
330
1F
100
AcDbEntity
  8
0
  6
Continuous
 62
     8
370
     0
100
AcDbSpline
210
0.0
220
0.0
230
1.0
 70
     8
 71
     3
 72
    14
 73
    10
 74
     0
 42
0.00000001
 43
0.00000001
 12
1.0
 22
0.0
 32
0.0
 13
1.0
 23
0.0
 33
0.0
 40
0.0
 40
0.0
 40
0.0
 40
0.0
 40
0.4999999999999984
 40
0.4999999999999984
 40
0.6249999999999993
 40
0.6249999999999993
 40
0.7500000000000003
 40
0.7500000000000003
 40
1.0
 40
1.0
 40
1.0
 40
1.0
 10
211.6844203833116
 20
94.89702278566462
 30
0.0
 10
211.9067020016789
 20
94.56365240419669
 30
0.0
 10
212.1282884999447
 20
94.21570363056266
 30
0.0
 10
212.3965047415795
 20
93.75573973505219
 30
0.0
 10
212.4498497785225
 20
93.66226024926165
 30
0.0
 10
212.553844389159
 20
93.47580123800907
 30
0.0
 10
212.6047054193803
 20
93.38246877953387
 30
0.0
 10
212.7538797619931
 20
93.10220818454091
 30
0.0
 10
212.8487626065948
 20
92.9149776724399
 30
0.0
 10
212.9392942130626
 20
92.72784412297037
 30
0.0
  0
SPLINE
  5
39A
330
1F
100
AcDbEntity
  8
0
  6
Continuous
 62
     8
370
     0
100
AcDbSpline
210
0.0
220
0.0
230
1.0
 70
     8
 71
     3
 72
    14
 73
    10
 74
     0
 42
0.00000001
 43
0.00000001
 12
1.0
 22
0.0
 32
0.0
 13
1.0
 23
0.0
 33
0.0
 40
0.0
 40
0.0
 40
0.0
 40
0.0
 40
0.4999999999999984
 40
0.4999999999999984
 40
0.6249999999999993
 40
0.6249999999999993
 40
0.7500000000000003
 40
0.7500000000000003
 40
1.0
 40
1.0
 40
1.0
 40
1.0
 10
184.3848237021755
 20
94.89702278566462
 30
0.0
 10
184.1625420838083
 20
94.56365240419669
 30
0.0
 10
183.9409555855425
 20
94.21570363056266
 30
0.0
 10
183.6727393439077
 20
93.75573973505219
 30
0.0
 10
183.6193943069647
 20
93.66226024926165
 30
0.0
 10
183.5153996963282
 20
93.47580123800907
 30
0.0
 10
183.4645386661068
 20
93.38246877953387
 30
0.0
 10
183.315364323494
 20
93.10220818454091
 30
0.0
 10
183.2204814788923
 20
92.9149776724399
 30
0.0
 10
183.1299498724246
 20
92.72784412297037
 30
0.0
  0
ARC
  5
39B
330
1F
100
AcDbEntity
  8
0
  6
Continuous
 62
     8
370
     0
100
AcDbCircle
 10
268.0346220427
 20
81.2870673634
 30
0.0
 40
88.12979859914228
100
AcDbArc
 50
170.5208350322
 51
183.0073629562
  0
SPLINE
  5
39C
330
1F
100
AcDbEntity
  8
0
  6
Continuous
 62
     8
370
     0
100
AcDbSpline
210
0.0
220
0.0
230
1.0
 70
     8
 71
     3
 72
    18
 73
    14
 74
     0
 42
0.00000001
 43
0.00000001
 12
1.0
 22
0.0
 32
0.0
 13
1.0
 23
0.0
 33
0.0
 40
0.0
 40
0.0
 40
0.0
 40
0.0
 40
0.2499999999999955
 40
0.2499999999999955
 40
0.3749999999999963
 40
0.3749999999999963
 40
0.4999999999999972
 40
0.4999999999999972
 40
0.7499999999999982
 40
0.7499999999999982
 40
0.8749999999999991
 40
0.8749999999999991
 40
1.0
 40
1.0
 40
1.0
 40
1.0
 10
181.3157366613847
 20
96.5994500666304
 30
0.0
 10
181.3308735440753
 20
96.32542636522322
 30
0.0
 10
181.3848198684579
 20
96.03881440794152
 30
0.0
 10
181.5190174346135
 20
95.58760900917878
 30
0.0
 10
181.572678320089
 20
95.4336498524323
 30
0.0
 10
181.6975542179974
 20
95.11807252591368
 30
0.0
 10
181.7691320889249
 20
94.95577906094165
 30
0.0
 10
182.0060953127104
 20
94.46447597370344
 30
0.0
 10
182.1939482408613
 20
94.12950122874707
 30
0.0
 10
182.5156916583581
 20
93.61394734971336
 30
0.0
 10
182.629636417424
 20
93.43991053006235
 30
0.0
 10
182.8704844775233
 20
93.08707787683085
 30
0.0
 10
182.9976676487715
 20
92.90792405664386
 30
0.0
 10
183.1299498724249
 20
92.72784412297013
 30
0.0
  0
SPLINE
  5
39D
330
1F
100
AcDbEntity
  8
0
  6
Continuous
 62
     8
370
     0
100
AcDbSpline
210
0.0
220
0.0
230
1.0
 70
     8
 71
     3
 72
    18
 73
    14
 74
     0
 42
0.00000001
 43
0.00000001
 12
1.0
 22
0.0
 32
0.0
 13
1.0
 23
0.0
 33
0.0
 40
0.0
 40
0.0
 40
0.0
 40
0.0
 40
0.2499999999999955
 40
0.2499999999999955
 40
0.3749999999999963
 40
0.3749999999999963
 40
0.4999999999999972
 40
0.4999999999999972
 40
0.7499999999999982
 40
0.7499999999999982
 40
0.8749999999999991
 40
0.8749999999999991
 40
1.0
 40
1.0
 40
1.0
 40
1.0
 10
214.7535074241025
 20
96.5994500666304
 30
0.0
 10
214.7383705414119
 20
96.32542636522322
 30
0.0
 10
214.6844242170293
 20
96.03881440794152
 30
0.0
 10
214.5502266508737
 20
95.58760900917878
 30
0.0
 10
214.4965657653982
 20
95.4336498524323
 30
0.0
 10
214.3716898674897
 20
95.11807252591368
 30
0.0
 10
214.3001119965622
 20
94.95577906094165
 30
0.0
 10
214.0631487727768
 20
94.46447597370344
 30
0.0
 10
213.8752958446259
 20
94.12950122874707
 30
0.0
 10
213.553552427129
 20
93.61394734971336
 30
0.0
 10
213.4396076680632
 20
93.43991053006235
 30
0.0
 10
213.1987596079638
 20
93.08707787683085
 30
0.0
 10
213.0715764367156
 20
92.90792405664386
 30
0.0
 10
212.9392942130623
 20
92.72784412297013
 30
0.0
  0
ARC
  5
39E
330
1F
100
AcDbEntity
  8
0
  6
Continuous
 62
     8
370
     0
100
AcDbCircle
 10
128.0346220427
 20
81.2870673634
 30
0.0
 40
88.12979859914228
100
AcDbArc
 50
356.9926370439
 51
9.4791649678
  0
SPLINE
  5
39F
330
1F
100
AcDbEntity
  8
0
  6
Continuous
 62
     8
370
     0
100
AcDbSpline
210
0.0
220
0.0
230
1.0
 70
     8
 71
     3
 72
    12
 73
     8
 74
     0
 42
0.00000001
 43
0.00000001
 12
1.0
 22
0.0
 32
0.0
 13
1.0
 23
0.0
 33
0.0
 40
0.0
 40
0.0
 40
0.0
 40
0.0
 40
0.2499999999999984
 40
0.2499999999999984
 40
0.4999999999999968
 40
0.4999999999999968
 40
1.0
 40
1.0
 40
1.0
 40
1.0
 10
183.8545698841421
 20
97.30030067414668
 30
0.0
 10
183.8761868745226
 20
97.11113358878148
 30
0.0
 10
183.904204878018
 20
96.91875678578619
 30
0.0
 10
183.9720856100793
 20
96.52730107879859
 30
0.0
 10
184.0120929341188
 20
96.3276109602603
 30
0.0
 10
184.1476515350109
 20
95.72279467663733
 30
0.0
 10
184.2581559060584
 20
95.31337013629788
 30
0.0
 10
184.3848237021755
 20
94.89702278566462
 30
0.0
  0
SPLINE
  5
3A0
330
1F
100
AcDbEntity
  8
0
  6
Continuous
 62
     8
370
     0
100
AcDbSpline
210
0.0
220
0.0
230
1.0
 70
     8
 71
     3
 72
    12
 73
     8
 74
     0
 42
0.00000001
 43
0.00000001
 12
1.0
 22
0.0
 32
0.0
 13
1.0
 23
0.0
 33
0.0
 40
0.0
 40
0.0
 40
0.0
 40
0.0
 40
0.2499999999999984
 40
0.2499999999999984
 40
0.4999999999999968
 40
0.4999999999999968
 40
1.0
 40
1.0
 40
1.0
 40
1.0
 10
212.2146742013451
 20
97.30030067414668
 30
0.0
 10
212.1930572109646
 20
97.11113358878148
 30
0.0
 10
212.1650392074692
 20
96.91875678578619
 30
0.0
 10
212.0971584754078
 20
96.52730107879859
 30
0.0
 10
212.0571511513684
 20
96.3276109602603
 30
0.0
 10
211.9215925504763
 20
95.72279467663733
 30
0.0
 10
211.8110881794288
 20
95.31337013629788
 30
0.0
 10
211.6844203833116
 20
94.89702278566462
 30
0.0
  0
SPLINE
  5
3A1
330
1F
100
AcDbEntity
  8
0
  6
Continuous
 62
     8
370
     0
100
AcDbSpline
210
0.0
220
0.0
230
1.0
 70
     8
 71
     3
 72
    12
 73
     8
 74
     0
 42
0.00000001
 43
0.00000001
 12
1.0
 22
0.0
 32
0.0
 13
1.0
 23
0.0
 33
0.0
 40
0.0
 40
0.0
 40
0.0
 40
0.0
 40
0.2499999999999984
 40
0.2499999999999984
 40
0.4999999999999968
 40
0.4999999999999968
 40
1.0
 40
1.0
 40
1.0
 40
1.0
 10
183.8545698841421
 20
65.2738340526949
 30
0.0
 10
183.8761868745226
 20
65.4630011380601
 30
0.0
 10
183.904204878018
 20
65.6553779410554
 30
0.0
 10
183.9720856100793
 20
66.04683364804299
 30
0.0
 10
184.0120929341188
 20
66.24652376658129
 30
0.0
 10
184.1476515350109
 20
66.85134005020427
 30
0.0
 10
184.2581559060584
 20
67.2607645905437
 30
0.0
 10
184.3848237021755
 20
67.67711194117697
 30
0.0
  0
SPLINE
  5
3A2
330
1F
100
AcDbEntity
  8
0
  6
Continuous
 62
     8
370
     0
100
AcDbSpline
210
0.0
220
0.0
230
1.0
 70
     8
 71
     3
 72
    12
 73
     8
 74
     0
 42
0.00000001
 43
0.00000001
 12
1.0
 22
0.0
 32
0.0
 13
1.0
 23
0.0
 33
0.0
 40
0.0
 40
0.0
 40
0.0
 40
0.0
 40
0.2499999999999984
 40
0.2499999999999984
 40
0.4999999999999968
 40
0.4999999999999968
 40
1.0
 40
1.0
 40
1.0
 40
1.0
 10
212.2146742013451
 20
65.2738340526949
 30
0.0
 10
212.1930572109646
 20
65.4630011380601
 30
0.0
 10
212.1650392074692
 20
65.6553779410554
 30
0.0
 10
212.0971584754078
 20
66.04683364804299
 30
0.0
 10
212.0571511513684
 20
66.24652376658129
 30
0.0
 10
211.9215925504763
 20
66.85134005020427
 30
0.0
 10
211.8110881794288
 20
67.2607645905437
 30
0.0
 10
211.6844203833116
 20
67.67711194117697
 30
0.0
  0
INSERT
  5
3AE
330
1F
100
AcDbEntity
  8
FORMAT
100
AcDbBlockReference
  2
SW_CENTERMARKSYMBOL_1
 10
198.0346220427
 20
81.2870673634
 30
0.0
  0
ENDSEC
  0
SECTION
  2
OBJECTS
  0
DICTIONARY
  5
C
330
0
100
AcDbDictionary
281
     1
  3
ACAD_GROUP
350
D
  3
ACAD_LAYOUT
350
1A
  3
ACAD_MLINESTYLE
350
17
  3
ACAD_PLOTSETTINGS
350
19
  3
ACAD_PLOTSTYLENAME
350
E
  0
DICTIONARY
  5
D
102
{ACAD_REACTORS
330
C
102
}
330
C
100
AcDbDictionary
281
     1
  0
DICTIONARY
  5
1A
102
{ACAD_REACTORS
330
C
102
}
330
C
100
AcDbDictionary
281
     1
  3
Layout1
350
1E
  3
Layout2
350
26
  3
Model
350
22
  0
DICTIONARY
  5
17
102
{ACAD_REACTORS
330
C
102
}
330
C
100
AcDbDictionary
281
     1
  3
Standard
350
18
  0
DICTIONARY
  5
19
102
{ACAD_REACTORS
330
C
102
}
330
C
100
AcDbDictionary
281
     1
  0
ACDBDICTIONARYWDFLT
  5
E
102
{ACAD_REACTORS
330
C
102
}
330
C
100
AcDbDictionary
281
     1
  3
Normal
350
F
100
AcDbDictionaryWithDefault
340
F
  0
LAYOUT
  5
1E
102
{ACAD_REACTORS
330
1A
102
}
330
1A
100
AcDbPlotSettings
  1

  2
none_device
  4

  6

 40
0.0
 41
0.0
 42
0.0
 43
0.0
 44
0.0
 45
0.0
 46
0.0
 47
0.0
 48
0.0
 49
0.0
140
0.0
141
0.0
142
1.0
143
1.0
 70
   688
 72
     0
 73
     0
 74
     5
  7

 75
    16
147
1.0
148
0.0
149
0.0
100
AcDbLayout
  1
Layout1
 70
     1
 71
     1
 10
0.0
 20
0.0
 11
420.0
 21
297.0
 12
0.0
 22
0.0
 32
0.0
 14
1.0000000000E+20
 24
1.0000000000E+20
 34
1.0000000000E+20
 15
-1.0000000000E+20
 25
-1.0000000000E+20
 35
-1.0000000000E+20
146
0.0
 13
0.0
 23
0.0
 33
0.0
 16
1.0
 26
0.0
 36
0.0
 17
0.0
 27
1.0
 37
0.0
 76
     0
330
1B
  0
LAYOUT
  5
26
102
{ACAD_REACTORS
330
1A
102
}
330
1A
100
AcDbPlotSettings
  1

  2
none_device
  4

  6

 40
0.0
 41
0.0
 42
0.0
 43
0.0
 44
0.0
 45
0.0
 46
0.0
 47
0.0
 48
0.0
 49
0.0
140
0.0
141
0.0
142
1.0
143
1.0
 70
   688
 72
     0
 73
     0
 74
     5
  7

 75
    16
147
1.0
148
0.0
149
0.0
100
AcDbLayout
  1
Layout2
 70
     1
 71
     2
 10
0.0
 20
0.0
 11
0.0
 21
0.0
 12
0.0
 22
0.0
 32
0.0
 14
0.0
 24
0.0
 34
0.0
 15
0.0
 25
0.0
 35
0.0
146
0.0
 13
0.0
 23
0.0
 33
0.0
 16
1.0
 26
0.0
 36
0.0
 17
0.0
 27
1.0
 37
0.0
 76
     0
330
23
  0
LAYOUT
  5
22
102
{ACAD_REACTORS
330
1A
102
}
330
1A
100
AcDbPlotSettings
  1

  2
none_device
  4

  6

 40
0.0
 41
0.0
 42
0.0
 43
0.0
 44
0.0
 45
0.0
 46
0.0
 47
0.0
 48
0.0
 49
0.0
140
0.0
141
0.0
142
1.0
143
1.0
 70
  1712
 72
     0
 73
     0
 74
     0
  7

 75
     0
147
1.0
148
0.0
149
0.0
100
AcDbLayout
  1
Model
 70
     1
 71
     0
 10
0.0
 20
0.0
 11
594.0
 21
420.0
 12
0.0
 22
0.0
 32
0.0
 14
0.0
 24
0.0
 34
0.0
 15
594.0
 25
420.0
 35
0.0
146
0.0
 13
0.0
 23
0.0
 33
0.0
 16
1.0
 26
0.0
 36
0.0
 17
0.0
 27
1.0
 37
0.0
 76
     0
330
1F
331
29
  0
MLINESTYLE
  5
18
102
{ACAD_REACTORS
330
17
102
}
330
17
100
AcDbMlineStyle
  2
Standard
 70
     0
  3

 62
   256
 51
90.0
 52
90.0
 71
     2
 49
0.5
 62
   256
  6
BYLAYER
 49
-0.5
 62
   256
  6
BYLAYER
  0
ACDBPLACEHOLDER
  5
F
102
{ACAD_REACTORS
330
E
102
}
330
E
  0
ENDSEC
  0
EOF
