  0
SECTION
  2
HEADER
  9
$ACADVER
  1
AC1009
  9
$DWGCODEPAGE
  3
ansi_1252
  9
$INSBASE
 10
0.0
 20
0.0
 30
0.0
  9
$EXTMIN
 10
0.0
 20
0.0
 30
0.0
  9
$EXTMAX
 10
841.0
 20
594.0
 30
0.0
  9
$LIMMIN
 10
0.0
 20
0.0
  9
$LIMMAX
 10
841.0
 20
594.0
  9
$ORTHOMODE
 70
     0
  9
$REGENMODE
 70
     1
  9
$FILLMODE
 70
     1
  9
$QTEXTMODE
 70
     0
  9
$MIRRTEXT
 70
     1
  9
$DRAGMODE
 70
     2
  9
$LTSCALE
 40
1.0
  9
$OSMODE
 70
    37
  9
$ATTMODE
 70
     1
  9
$TEXTSIZE
 40
2.5
  9
$TRACEWID
 40
1.0
  9
$TEXTSTYLE
  7
STANDARD
  9
$CLAYER
  8
0
  9
$CELTYPE
  6
BYLAYER
  9
$CECOLOR
 62
   256
  9
$DIMSCALE
 40
1.0
  9
$DIMASZ
 40
2.5
  9
$DIMEXO
 40
1.0
  9
$DIMDLI
 40
3.75
  9
$DIMRND
 40
0.0
  9
$DIMDLE
 40
0.0
  9
$DIMEXE
 40
1.0
  9
$DIMTP
 40
0.0
  9
$DIMTM
 40
0.0
  9
$DIMTXT
 40
2.5
  9
$DIMCEN
 40
2.5
  9
$DIMTSZ
 40
0.0
  9
$DIMTOL
 70
     0
  9
$DIMLIM
 70
     0
  9
$DIMTIH
 70
     1
  9
$DIMTOH
 70
     1
  9
$DIMSE1
 70
     0
  9
$DIMSE2
 70
     0
  9
$DIMTAD
 70
     1
  9
$DIMZIN
 70
     0
  9
$DIMBLK
  1

  9
$DIMASO
 70
     1
  9
$DIMSHO
 70
     1
  9
$DIMPOST
  1

  9
$DIMAPOST
  1

  9
$DIMALT
 70
     0
  9
$DIMALTD
 70
     3
  9
$DIMALTF
 40
0.0393700787
  9
$DIMLFAC
 40
1.0
  9
$DIMTOFL
 70
     1
  9
$DIMTVP
 40
0.0
  9
$DIMTIX
 70
     0
  9
$DIMSOXD
 70
     0
  9
$DIMSAH
 70
     0
  9
$DIMBLK1
  1

  9
$DIMBLK2
  1

  9
$DIMSTYLE
  2
ISO-25
  9
$DIMCLRD
 70
     0
  9
$DIMCLRE
 70
     0
  9
$DIMCLRT
 70
     0
  9
$DIMTFAC
 40
1.0
  9
$DIMGAP
 40
1.524
  9
$LUNITS
 70
     2
  9
$LUPREC
 70
     2
  9
$SKETCHINC
 40
1.0
  9
$FILLETRAD
 40
10.0
  9
$AUNITS
 70
     0
  9
$AUPREC
 70
     2
  9
$MENU
  1
.
  9
$ELEVATION
 40
0.0
  9
$PELEVATION
 40
0.0
  9
$THICKNESS
 40
0.0
  9
$LIMCHECK
 70
     0
  9
$CHAMFERA
 40
10.0
  9
$CHAMFERB
 40
10.0
  9
$SKPOLY
 70
     0
  9
$TDCREATE
 40
2457374.566159074
  9
$TDUPDATE
 40
2457374.566162107
  9
$TDINDWG
 40
0.0000000116
  9
$TDUSRTIMER
 40
0.0000000116
  9
$USRTIMER
 70
     1
  9
$ANGBASE
 50
0.0
  9
$ANGDIR
 70
     0
  9
$PDMODE
 70
     0
  9
$PDSIZE
 40
-1.0
  9
$PLINEWID
 40
0.0
  9
$COORDS
 70
     1
  9
$SPLFRAME
 70
     0
  9
$SPLINETYPE
 70
     6
  9
$SPLINESEGS
 70
     8
  9
$ATTDIA
 70
     0
  9
$ATTREQ
 70
     1
  9
$HANDLING
 70
     1
  9
$HANDSEED
  5
B8D
  9
$SURFTAB1
 70
     6
  9
$SURFTAB2
 70
     6
  9
$SURFTYPE
 70
     6
  9
$SURFU
 70
     6
  9
$SURFV
 70
     6
  9
$UCSNAME
  2

  9
$UCSORG
 10
0.0
 20
0.0
 30
0.0
  9
$UCSXDIR
 10
1.0
 20
0.0
 30
0.0
  9
$UCSYDIR
 10
0.0
 20
1.0
 30
0.0
  9
$PUCSNAME
  2

  9
$PUCSORG
 10
0.0
 20
0.0
 30
0.0
  9
$PUCSXDIR
 10
1.0
 20
0.0
 30
0.0
  9
$PUCSYDIR
 10
0.0
 20
1.0
 30
0.0
  9
$USERI1
 70
     0
  9
$USERI2
 70
     0
  9
$USERI3
 70
     0
  9
$USERI4
 70
     0
  9
$USERI5
 70
     0
  9
$USERR1
 40
0.0
  9
$USERR2
 40
0.0
  9
$USERR3
 40
0.0
  9
$USERR4
 40
0.0
  9
$USERR5
 40
0.0
  9
$WORLDVIEW
 70
     1
  9
$SHADEDGE
 70
     3
  9
$SHADEDIF
 70
    70
  9
$TILEMODE
 70
     1
  9
$MAXACTVP
 70
    64
  9
$PLIMCHECK
 70
     0
  9
$PEXTMIN
 10
1.0000000000E+20
 20
1.0000000000E+20
 30
1.0000000000E+20
  9
$PEXTMAX
 10
-1.0000000000E+20
 20
-1.0000000000E+20
 30
-1.0000000000E+20
  9
$PLIMMIN
 10
0.0
 20
0.0
  9
$PLIMMAX
 10
420.0
 20
297.0
  9
$UNITMODE
 70
     0
  9
$VISRETAIN
 70
     1
  9
$PLINEGEN
 70
     0
  9
$PSLTSCALE
 70
     1
  0
ENDSEC
  0
SECTION
  2
TABLES
  0
TABLE
  2
VPORT
 70
     1
  0
VPORT
  2
*ACTIVE
 70
     0
 10
0.0
 20
0.0
 11
1.0
 21
1.0
 12
420.5
 22
297.0
 13
0.0
 23
0.0
 14
10.0
 24
10.0
 15
10.0
 25
10.0
 16
0.0
 26
0.0
 36
1.0
 17
0.0
 27
0.0
 37
0.0
 40
594.0
 41
1.4158249158
 42
50.0
 43
0.0
 44
0.0
 50
0.0
 51
0.0
 71
     0
 72
  2000
 73
     1
 74
     3
 75
     0
 76
     0
 77
     0
 78
     0
  0
ENDTAB
  0
TABLE
  2
LTYPE
 70
     6
  0
LTYPE
  2
CONTINUOUS
 70
     0
  3
Solid line
 72
    65
 73
     0
 40
0.0
  0
LTYPE
  2
HIDDEN
 70
     0
  3
Hidden __ __ __ __ __ __ __ __ __ __ __ __ __ __
 72
    65
 73
     2
 40
1.905
 49
1.27
 49
-0.635
  0
LTYPE
  2
PHANTOM
 70
     0
  3
Phantom ______  __  __  ______  __  __  ______
 72
    65
 73
     6
 40
12.7
 49
6.35
 49
-1.27
 49
1.27
 49
-1.27
 49
1.27
 49
-1.27
  0
LTYPE
  2
CENTER
 70
     0
  3
Center ____ _ ____ _ ____ _ ____ _ ____ _ ____
 72
    65
 73
     4
 40
10.16
 49
6.35
 49
-1.27
 49
1.27
 49
-1.27
  0
LTYPE
  2
CENTERX2
 70
     0
  3
Center (2x) ________  __  ________  __  _____
 72
    65
 73
     4
 40
20.32
 49
12.7
 49
-2.54
 49
2.54
 49
-2.54
  0
LTYPE
  2
DOT2
 70
     0
  3
Dot (.5x) ........................................
 72
    65
 73
     2
 40
0.635
 49
0.0
 49
-0.635
  0
ENDTAB
  0
TABLE
  2
LAYER
 70
     5
  0
LAYER
  2
0
 70
     0
 62
     7
  6
CONTINUOUS
  0
LAYER
  2
FORMAT
 70
     0
 62
     7
  6
CONTINUOUS
  0
LAYER
  2
PROTOTYPE
 70
     0
 62
     7
  6
CONTINUOUS
  0
LAYER
  2
TECH_TEXT
 70
     0
 62
     7
  6
CONTINUOUS
  0
LAYER
  2
TOOLING_TABLE
 70
     0
 62
    -7
  6
CONTINUOUS
  0
ENDTAB
  0
TABLE
  2
STYLE
 70
     1
  0
STYLE
  2
STANDARD
 70
     0
 40
0.0
 41
1.0
 50
0.0
 71
     0
 42
2.5
  3
txt
  4

  0
ENDTAB
  0
TABLE
  2
VIEW
 70
     0
  0
ENDTAB
  0
TABLE
  2
UCS
 70
     0
  0
ENDTAB
  0
TABLE
  2
APPID
 70
     1
  0
APPID
  2
ACAD
 70
     0
  0
ENDTAB
  0
TABLE
  2
DIMSTYLE
 70
     1
  0
DIMSTYLE
  2
ISO-25
 70
     0
  3

  4

  5

  6

  7

 40
1.0
 41
2.5
 42
0.625
 43
3.75
 44
1.25
 45
0.0
 46
0.0
 47
0.0
 48
0.0
140
2.5
141
2.5
142
0.0
143
0.0393700787
144
1.0
145
0.0
146
1.0
147
0.625
 71
     0
 72
     0
 73
     0
 74
     0
 75
     0
 76
     0
 77
     1
 78
     8
170
     0
171
     3
172
     1
173
     0
174
     0
175
     0
176
     0
177
     0
178
     0
  0
ENDTAB
  0
ENDSEC
  0
SECTION
  2
BLOCKS
  0
BLOCK
  8
0
  2
$MODEL_SPACE
 70
     0
 10
0.0
 20
0.0
 30
0.0
  3
$MODEL_SPACE
  1

  0
ENDBLK
  5
21
  8
0
  0
BLOCK
 67
     1
  8
0
  2
$PAPER_SPACE
 70
     0
 10
0.0
 20
0.0
 30
0.0
  3
$PAPER_SPACE
  1

  0
ENDBLK
  5
1D
 67
     1
  8
0
  0
BLOCK
  8
0
  2
SW_CENTERMARKSYMBOL_0
 70
     0
 10
0.0
 20
0.0
 30
0.0
  3
SW_CENTERMARKSYMBOL_0
  1

  0
LINE
  5
2E5
  8
FORMAT
 62
     0
 10
0.0
 20
0.0
 30
0.0
 11
0.0
 21
2.5
 31
0.0
  0
LINE
  5
2E6
  8
FORMAT
 62
     0
 10
0.0
 20
0.0
 30
0.0
 11
-2.5
 21
0.0
 31
0.0
  0
LINE
  5
2E7
  8
FORMAT
 62
     0
 10
0.0
 20
0.0
 30
0.0
 11
0.0
 21
-2.5
 31
0.0
  0
LINE
  5
2E8
  8
FORMAT
 62
     0
 10
0.0
 20
0.0
 30
0.0
 11
2.5
 21
0.0
 31
0.0
  0
LINE
  5
2E9
  8
FORMAT
 62
     0
 10
0.0
 20
5.0
 30
0.0
 11
0.0
 21
301.9152106166
 31
0.0
  0
LINE
  5
2EA
  8
FORMAT
 62
     0
 10
-5.0
 20
0.0
 30
0.0
 11
-70.8034107455
 21
0.0
 31
0.0
  0
LINE
  5
2EB
  8
FORMAT
 62
     0
 10
0.0
 20
-5.0
 30
0.0
 11
0.0
 21
-57.2450955496
 31
0.0
  0
LINE
  5
2EC
  8
FORMAT
 62
     0
 10
5.0
 20
0.0
 30
0.0
 11
67.6245606878
 21
0.0
 31
0.0
  0
ENDBLK
  5
2E4
  8
0
  0
BLOCK
  8
0
  2
SW_CENTERMARKSYMBOL_1
 70
     0
 10
0.0
 20
0.0
 30
0.0
  3
SW_CENTERMARKSYMBOL_1
  1

  0
LINE
  5
409
  8
FORMAT
 62
     0
 10
0.0
 20
0.0
 30
0.0
 11
0.0
 21
2.5
 31
0.0
  0
LINE
  5
40A
  8
FORMAT
 62
     0
 10
0.0
 20
0.0
 30
0.0
 11
-2.5
 21
0.0
 31
0.0
  0
LINE
  5
40B
  8
FORMAT
 62
     0
 10
0.0
 20
0.0
 30
0.0
 11
0.0
 21
-2.5
 31
0.0
  0
LINE
  5
40C
  8
FORMAT
 62
     0
 10
0.0
 20
0.0
 30
0.0
 11
2.5
 21
0.0
 31
0.0
  0
LINE
  5
40D
  8
FORMAT
 62
     0
 10
0.0
 20
5.0
 30
0.0
 11
0.0
 21
81.4058284183
 31
0.0
  0
LINE
  5
40E
  8
FORMAT
 62
     0
 10
-5.0
 20
0.0
 30
0.0
 11
-280.2156794162
 21
0.0
 31
0.0
  0
LINE
  5
40F
  8
FORMAT
 62
     0
 10
0.0
 20
-5.0
 30
0.0
 11
0.0
 21
-80.4895356004
 31
0.0
  0
LINE
  5
410
  8
FORMAT
 62
     0
 10
5.0
 20
0.0
 30
0.0
 11
278.1968456951
 21
0.0
 31
0.0
  0
ENDBLK
  5
408
  8
0
  0
ENDSEC
  0
SECTION
  2
ENTITIES
  0
LINE
  5
48
  8
TOOLING_TABLE
 62
     7
 10
558.0
 20
36.8671069427
 30
0.0
 11
644.0
 21
36.8671069427
 31
0.0
  0
LINE
  5
49
  8
TOOLING_TABLE
 62
     7
 10
558.0
 20
24.8671069427
 30
0.0
 11
644.0
 21
24.8671069427
 31
0.0
  0
LINE
  5
4A
  8
TOOLING_TABLE
 62
     7
 10
558.0
 20
63.8671069427
 30
0.0
 11
558.0
 21
12.8671069427
 31
0.0
  0
LINE
  5
4B
  8
TOOLING_TABLE
 10
558.0
 20
12.8671069427
 30
0.0
 11
644.0
 21
12.8671069427
 31
0.0
  0
LINE
  5
4C
  8
TOOLING_TABLE
 10
644.0
 20
63.8671069427
 30
0.0
 11
644.0
 21
12.8671069427
 31
0.0
  0
LINE
  5
4D
  8
TOOLING_TABLE
 62
     7
 10
558.0
 20
45.8671069427
 30
0.0
 11
644.0
 21
45.8671069427
 31
0.0
  0
LINE
  5
4E
  8
TOOLING_TABLE
 62
     7
 10
558.0
 20
54.8671069427
 30
0.0
 11
644.0
 21
54.8671069427
 31
0.0
  0
LINE
  5
4F
  8
TOOLING_TABLE
 62
     7
 10
558.0
 20
63.8671069427
 30
0.0
 11
644.0
 21
63.8671069427
 31
0.0
  0
LINE
  5
50
  8
TOOLING_TABLE
 62
     7
 10
601.0
 20
63.8671069427
 30
0.0
 11
601.0
 21
36.8671069427
 31
0.0
  0
LINE
  5
51
  8
TOOLING_TABLE
 62
     7
 10
624.0
 20
54.8671069427
 30
0.0
 11
624.0
 21
45.8671069427
 31
0.0
  0
TEXT
  5
52
  8
TOOLING_TABLE
 10
602.1062783613
 20
53.1472890072
 30
0.0
 40
1.2
  1
Date:
 41
0.7
 11
602.1062783613
 21
52.7233769329
 31
0.0
 73
     1
  0
TEXT
  5
53
  8
TOOLING_TABLE
 10
603.018097772
 20
47.4888007685
 30
0.0
 40
2.5
  1
yyyy.mm.dd
 41
0.7
 11
603.018097772
 21
46.6056506137
 31
0.0
 73
     1
  0
TEXT
  5
54
  8
TOOLING_TABLE
 10
560.201296573
 20
16.6814315711
 30
0.0
 40
2.6458333333
  1
-
 41
0.7
 11
560.201296573
 21
15.746764324
 31
0.0
 73
     1
  0
TEXT
  5
55
  8
TOOLING_TABLE
 10
560.201296573
 20
28.9413815461
 30
0.0
 40
2.6458333333
  1
-
 41
0.7
 11
560.201296573
 21
28.006714299
 31
0.0
 73
     1
  0
TEXT
  5
56
  8
TOOLING_TABLE
 10
560.201296573
 20
38.9105738177
 30
0.0
 40
2.6458333333
  1
-
 41
0.7
 11
560.201296573
 21
37.9759065705
 31
0.0
 73
     1
  0
TEXT
  5
57
  8
TOOLING_TABLE
 10
559.8363625628
 20
47.5198317328
 30
0.0
 40
2.6458333333
  1
-
 41
0.7
 11
559.8363625628
 21
46.5851644856
 31
0.0
 73
     1
  0
TEXT
  5
58
  8
TOOLING_TABLE
 10
603.9499678367
 20
39.3226071614
 30
0.0
 40
2.5
  1
-
 41
0.7
 11
603.9499678367
 21
38.4394570066
 31
0.0
 73
     1
  0
TEXT
  5
59
  8
TOOLING_TABLE
 10
630.2212650386
 20
47.4250903135
 30
0.0
 40
3.175
  1
-
 41
0.7
 11
630.2212650386
 21
46.3034896169
 31
0.0
 73
     1
  0
TEXT
  5
5A
  8
TOOLING_TABLE
 10
610.1822179805
 20
57.6531886813
 30
0.0
 40
3.175
  1
T-
 41
0.7
 11
610.1822179805
 21
56.5315879847
 31
0.0
 73
     1
  0
TEXT
  5
5B
  8
TOOLING_TABLE
 62
     7
 10
559.1184091958
 20
44.3644642694
 30
0.0
 40
1.2
  1
Not specified chamfer:
 41
0.6681818182
 11
559.1184091958
 21
43.940552195
 31
0.0
 73
     1
  0
TEXT
  5
5C
  8
TOOLING_TABLE
 10
559.1184091958
 20
53.1472890072
 30
0.0
 40
1.2
  1
Not specified tolerance:
 41
0.6708333333
 11
559.1184091958
 21
52.7233769329
 31
0.0
 73
     1
  0
TEXT
  5
5D
  8
TOOLING_TABLE
 10
559.1184091958
 20
34.9954885695
 30
0.0
 40
1.2
  1
Hardening & Surfacing:
 41
0.6681818182
 11
559.1184091958
 21
34.5715764952
 31
0.0
 73
     1
  0
TEXT
  5
5E
  8
TOOLING_TABLE
 10
559.1184091958
 20
23.2152478097
 30
0.0
 40
1.2
  1
Notes:
 41
0.7
 11
559.1184091958
 21
22.7913357354
 31
0.0
 73
     1
  0
TEXT
  5
5F
  8
TOOLING_TABLE
 10
602.1062783613
 20
44.3644642694
 30
0.0
 40
1.2
  1
Ekstern part no.:
 41
0.6588235294
 11
602.1062783613
 21
43.940552195
 31
0.0
 73
     1
  0
TEXT
  5
60
  8
TOOLING_TABLE
 10
624.6246212708
 20
53.1472890072
 30
0.0
 40
1.2
  1
Number:
 41
0.7
 11
624.6246212708
 21
52.7233769329
 31
0.0
 73
     1
  0
TEXT
  5
61
  8
TOOLING_TABLE
 10
601.8747919494
 20
62.1407640834
 30
0.0
 40
1.2
  1
Order no.:
 41
0.7
 11
601.8747919494
 21
61.7168520091
 31
0.0
 73
     1
  0
TEXT
  5
62
  8
TOOLING_TABLE
 10
561.334242998
 20
57.6531886813
 30
0.0
 40
3.175
  1
AVK Tech Tooling
 41
0.65625
 11
561.334242998
 21
56.5315879847
 31
0.0
 73
     1
  0
LINE
  5
63
  8
0
  6
CONTINUOUS
 62
     7
 10
343.9052455293
 20
452.6118519193
 30
0.0
 11
343.7089618461
 21
445.1160611993
 31
0.0
  0
LINE
  5
64
  8
0
  6
CONTINUOUS
 62
     7
 10
290.5303757804
 20
445.1160611993
 30
0.0
 11
290.3340920972
 21
452.6118519193
 31
0.0
  0
POLYLINE
  5
65
  8
0
  6
CONTINUOUS
 62
     7
 66
     1
 10
0.0
 20
0.0
 30
0.0
  0
VERTEX
  5
412
  8
0
  6
CONTINUOUS
 62
     7
 10
282.0605222302
 20
315.4385196453
 30
0.0
  0
VERTEX
  5
413
  8
0
  6
CONTINUOUS
 62
     7
 10
282.0908833461
 20
315.2988026327
 30
0.0
  0
VERTEX
  5
414
  8
0
  6
CONTINUOUS
 62
     7
 10
282.1431454437
 20
315.0456803327
 30
0.0
  0
SEQEND
  5
B8C
  8
0
  6
CONTINUOUS
 62
     7
  0
POLYLINE
  5
66
  8
0
  6
CONTINUOUS
 62
     7
 66
     1
 10
0.0
 20
0.0
 30
0.0
  0
VERTEX
  5
415
  8
0
  6
CONTINUOUS
 62
     7
 10
352.0960580723
 20
315.0456505304
 30
0.0
  0
VERTEX
  5
416
  8
0
  6
CONTINUOUS
 62
     7
 10
352.1442707794
 20
315.2790828085
 30
0.0
  0
VERTEX
  5
417
  8
0
  6
CONTINUOUS
 62
     7
 10
352.1788340228
 20
315.4385215079
 30
0.0
  0
SEQEND
  5
B8B
  8
0
  6
CONTINUOUS
 62
     7
  0
LINE
  5
67
  8
0
  6
CONTINUOUS
 62
     7
 10
259.6196677702
 20
426.6118588334
 30
0.0
 11
259.7244117575
 21
422.6118656283
 31
0.0
  0
LINE
  5
68
  8
0
  6
CONTINUOUS
 62
     7
 10
374.514925869
 20
422.6118656283
 30
0.0
 11
374.6196698563
 21
426.6118588334
 31
0.0
  0
POLYLINE
  5
69
  8
0
  6
CONTINUOUS
 62
     7
 66
     1
 10
0.0
 20
0.0
 30
0.0
  0
VERTEX
  5
418
  8
0
  6
CONTINUOUS
 62
     7
 10
352.1755632179
 20
315.4390523618
 30
0.0
  0
VERTEX
  5
419
  8
0
  6
CONTINUOUS
 62
     7
 10
353.1006235795
 20
319.6184965258
 30
0.0
  0
VERTEX
  5
41A
  8
0
  6
CONTINUOUS
 62
     7
 10
354.8530671911
 20
327.5369437819
 30
0.0
  0
VERTEX
  5
41B
  8
0
  6
CONTINUOUS
 62
     7
 10
356.5975088792
 20
335.4203882104
 30
0.0
  0
VERTEX
  5
41C
  8
0
  6
CONTINUOUS
 62
     7
 10
357.7668961303
 20
340.7057220524
 30
0.0
  0
SEQEND
  5
B8A
  8
0
  6
CONTINUOUS
 62
     7
  0
POLYLINE
  5
6A
  8
0
  6
CONTINUOUS
 62
     7
 66
     1
 10
0.0
 20
0.0
 30
0.0
  0
VERTEX
  5
41D
  8
0
  6
CONTINUOUS
 62
     7
 10
276.4724414962
 20
340.7057220524
 30
0.0
  0
VERTEX
  5
41E
  8
0
  6
CONTINUOUS
 62
     7
 10
277.3853164332
 20
336.5797171777
 30
0.0
  0
VERTEX
  5
41F
  8
0
  6
CONTINUOUS
 62
     7
 10
279.1243564503
 20
328.7204983121
 30
0.0
  0
VERTEX
  5
420
  8
0
  6
CONTINUOUS
 62
     7
 10
280.8705154972
 20
320.83027013
 30
0.0
  0
VERTEX
  5
421
  8
0
  6
CONTINUOUS
 62
     7
 10
282.0637744086
 20
315.4390523618
 30
0.0
  0
SEQEND
  5
B89
  8
0
  6
CONTINUOUS
 62
     7
  0
ARC
  5
6B
  8
0
  6
CONTINUOUS
 62
     7
 10
732.7775421389
 20
442.2105581588
 30
0.0
 40
467.4586362723353
 50
192.2223622434
 51
192.5412157229
  0
ARC
  5
6C
  8
0
  6
CONTINUOUS
 62
     7
 10
-89.2154420008
 20
440.1639220742
 30
0.0
 40
457.9139047383938
 50
347.4554611863
 51
347.7809608474
  0
LINE
  5
6D
  8
0
  6
CONTINUOUS
 62
     7
 10
374.6196698563
 20
426.6118588334
 30
0.0
 11
374.5480995791
 21
429.3449553138
 31
0.0
  0
LINE
  5
6E
  8
0
  6
CONTINUOUS
 62
     7
 10
259.6912380474
 20
429.3449553138
 30
0.0
 11
259.6196677702
 21
426.6118588334
 31
0.0
  0
LINE
  5
6F
  8
0
  6
CONTINUOUS
 62
     7
 10
259.6196677702
 20
422.6118656283
 30
0.0
 11
260.4950253086
 21
412.6064660436
 31
0.0
  0
LINE
  5
70
  8
0
  6
CONTINUOUS
 62
     7
 10
373.7443123179
 20
412.6064660436
 30
0.0
 11
374.6196698563
 21
422.6118656283
 31
0.0
  0
ARC
  5
71
  8
0
  6
CONTINUOUS
 62
     7
 10
368.5501563007
 20
429.18788969
 30
0.0
 40
6.00000000000005
 50
1.5
 51
60.0
  0
ARC
  5
72
  8
0
  6
CONTINUOUS
 62
     7
 10
265.6891813258
 20
429.18788969
 30
0.0
 40
6.00000000000005
 50
120.0
 51
178.5
  0
LINE
  5
73
  8
0
  6
CONTINUOUS
 62
     7
 10
260.4950253086
 20
412.6064660436
 30
0.0
 11
268.500443192
 21
407.9845430737
 31
0.0
  0
LINE
  5
74
  8
0
  6
CONTINUOUS
 62
     7
 10
365.7388944345
 20
407.9845430737
 30
0.0
 11
373.7443123179
 21
412.6064660436
 31
0.0
  0
ARC
  5
75
  8
0
  6
CONTINUOUS
 62
     7
 10
270.6387755515
 20
341.0824161783
 30
0.0
 40
5.98953954914452
 50
269.9161761159
 51
352.1103591765
  0
ARC
  5
76
  8
0
  6
CONTINUOUS
 62
     7
 10
363.5990850457
 20
341.080767247
 30
0.0
 40
5.98789296325503
 50
187.8937087531
 51
270.0979800612
  0
LINE
  5
77
  8
0
  6
CONTINUOUS
 62
     7
 10
265.8631052988
 20
436.216506589
 30
0.0
 11
262.6891803162
 21
434.3840362912
 31
0.0
  0
LINE
  5
78
  8
0
  6
CONTINUOUS
 62
     7
 10
371.5501573103
 20
434.3840362912
 30
0.0
 11
368.3762323277
 21
436.216506589
 31
0.0
  0
LINE
  5
79
  8
0
  6
CONTINUOUS
 62
     7
 10
270.6356454807
 20
335.1118596679
 30
0.0
 11
246.914010139
 21
335.1118596679
 31
0.0
  0
LINE
  5
7A
  8
0
  6
CONTINUOUS
 62
     7
 10
387.3253274875
 20
335.1118596679
 30
0.0
 11
363.6036921458
 21
335.1118596679
 31
0.0
  0
LINE
  5
7B
  8
0
  6
CONTINUOUS
 62
     7
 10
370.1196681874
 20
238.1118568068
 30
0.0
 11
387.3253274875
 21
238.1118568068
 31
0.0
  0
LINE
  5
7C
  8
0
  6
CONTINUOUS
 62
     7
 10
246.914010139
 20
238.1118568068
 30
0.0
 11
264.1196694391
 21
238.1118568068
 31
0.0
  0
LINE
  5
7D
  8
0
  6
CONTINUOUS
 62
     7
 10
246.914010139
 20
335.1118596679
 30
0.0
 11
223.9696715193
 21
331.0661534255
 31
0.0
  0
LINE
  5
7E
  8
0
  6
CONTINUOUS
 62
     7
 10
223.9696715193
 20
242.1575630492
 30
0.0
 11
246.914010139
 21
238.1118568068
 31
0.0
  0
LINE
  5
7F
  8
0
  6
CONTINUOUS
 62
     7
 10
387.3253274875
 20
238.1118568068
 30
0.0
 11
410.2696661072
 21
242.1575630492
 31
0.0
  0
LINE
  5
80
  8
0
  6
CONTINUOUS
 62
     7
 10
410.2696661072
 20
331.0661534255
 30
0.0
 11
387.3253274875
 21
335.1118596679
 31
0.0
  0
LINE
  5
81
  8
0
  6
CONTINUOUS
 62
     7
 10
363.1196689027
 20
368.3889093285
 30
0.0
 11
363.1196689027
 21
393.834899593
 31
0.0
  0
LINE
  5
82
  8
0
  6
CONTINUOUS
 62
     7
 10
271.1196687238
 20
393.834899593
 30
0.0
 11
271.1196687238
 21
368.3889093285
 31
0.0
  0
POLYLINE
  5
83
  8
0
  6
CONTINUOUS
 62
     7
 66
     1
 10
0.0
 20
0.0
 30
0.0
  0
VERTEX
  5
422
  8
0
  6
CONTINUOUS
 62
     7
 10
358.3247061985
 20
343.2466382569
 30
0.0
  0
VERTEX
  5
423
  8
0
  6
CONTINUOUS
 62
     7
 10
358.4681224244
 20
343.9222680813
 30
0.0
  0
VERTEX
  5
424
  8
0
  6
CONTINUOUS
 62
     7
 10
358.7343987243
 20
345.1780299133
 30
0.0
  0
VERTEX
  5
425
  8
0
  6
CONTINUOUS
 62
     7
 10
358.9907322245
 20
346.3886784798
 30
0.0
  0
VERTEX
  5
426
  8
0
  6
CONTINUOUS
 62
     7
 10
359.2373240905
 20
347.5551302021
 30
0.0
  0
VERTEX
  5
427
  8
0
  6
CONTINUOUS
 62
     7
 10
359.4743643122
 20
348.6782307213
 30
0.0
  0
VERTEX
  5
428
  8
0
  6
CONTINUOUS
 62
     7
 10
359.7020354288
 20
349.7588219529
 30
0.0
  0
VERTEX
  5
429
  8
0
  6
CONTINUOUS
 62
     7
 10
359.9205199795
 20
350.7977532631
 30
0.0
  0
VERTEX
  5
42A
  8
0
  6
CONTINUOUS
 62
     7
 10
360.1299967783
 20
351.7958330398
 30
0.0
  0
VERTEX
  5
42B
  8
0
  6
CONTINUOUS
 62
     7
 10
360.3306520896
 20
352.7538957482
 30
0.0
  0
VERTEX
  5
42C
  8
0
  6
CONTINUOUS
 62
     7
 10
360.5226572769
 20
353.6727535015
 30
0.0
  0
VERTEX
  5
42D
  8
0
  6
CONTINUOUS
 62
     7
 10
360.7061874287
 20
354.5532109624
 30
0.0
  0
VERTEX
  5
42E
  8
0
  6
CONTINUOUS
 62
     7
 10
360.8814213591
 20
355.3960727936
 30
0.0
  0
VERTEX
  5
42F
  8
0
  6
CONTINUOUS
 62
     7
 10
361.048526706
 20
356.2021436578
 30
0.0
  0
VERTEX
  5
430
  8
0
  6
CONTINUOUS
 62
     7
 10
361.2076785581
 20
356.9722356683
 30
0.0
  0
VERTEX
  5
431
  8
0
  6
CONTINUOUS
 62
     7
 10
361.3590482788
 20
357.7071609383
 30
0.0
  0
VERTEX
  5
432
  8
0
  6
CONTINUOUS
 62
     7
 10
361.502814682
 20
358.4077390319
 30
0.0
  0
VERTEX
  5
433
  8
0
  6
CONTINUOUS
 62
     7
 10
361.6391454058
 20
359.074819315
 30
0.0
  0
VERTEX
  5
434
  8
0
  6
CONTINUOUS
 62
     7
 10
361.7682229893
 20
359.7092809564
 30
0.0
  0
VERTEX
  5
435
  8
0
  6
CONTINUOUS
 62
     7
 10
361.8902411478
 20
360.3120478278
 30
0.0
  0
VERTEX
  5
436
  8
0
  6
CONTINUOUS
 62
     7
 10
362.0053898709
 20
360.8841257578
 30
0.0
  0
VERTEX
  5
437
  8
0
  6
CONTINUOUS
 62
     7
 10
362.1138889508
 20
361.4266323334
 30
0.0
  0
VERTEX
  5
438
  8
0
  6
CONTINUOUS
 62
     7
 10
362.2159842568
 20
361.9408416038
 30
0.0
  0
VERTEX
  5
439
  8
0
  6
CONTINUOUS
 62
     7
 10
362.3119514601
 20
362.4283256417
 30
0.0
  0
VERTEX
  5
43A
  8
0
  6
CONTINUOUS
 62
     7
 10
362.4020587819
 20
362.8906192666
 30
0.0
  0
VERTEX
  5
43B
  8
0
  6
CONTINUOUS
 62
     7
 10
362.4866899269
 20
363.3300023561
 30
0.0
  0
VERTEX
  5
43C
  8
0
  6
CONTINUOUS
 62
     7
 10
362.5664521175
 20
363.7502076512
 30
0.0
  0
VERTEX
  5
43D
  8
0
  6
CONTINUOUS
 62
     7
 10
362.6423102038
 20
364.1572924739
 30
0.0
  0
VERTEX
  5
43E
  8
0
  6
CONTINUOUS
 62
     7
 10
362.7160448747
 20
364.5628871804
 30
0.0
  0
VERTEX
  5
43F
  8
0
  6
CONTINUOUS
 62
     7
 10
362.7919439392
 20
364.995892573
 30
0.0
  0
VERTEX
  5
440
  8
0
  6
CONTINUOUS
 62
     7
 10
362.8489520567
 20
365.3374346381
 30
0.0
  0
VERTEX
  5
441
  8
0
  6
CONTINUOUS
 62
     7
 10
362.8918524997
 20
365.6088443881
 30
0.0
  0
VERTEX
  5
442
  8
0
  6
CONTINUOUS
 62
     7
 10
362.9241284149
 20
365.8249484783
 30
0.0
  0
VERTEX
  5
443
  8
0
  6
CONTINUOUS
 62
     7
 10
362.952336313
 20
366.0253616458
 30
0.0
  0
VERTEX
  5
444
  8
0
  6
CONTINUOUS
 62
     7
 10
362.9774671214
 20
366.2160965091
 30
0.0
  0
VERTEX
  5
445
  8
0
  6
CONTINUOUS
 62
     7
 10
363.0003106015
 20
366.4027782565
 30
0.0
  0
VERTEX
  5
446
  8
0
  6
CONTINUOUS
 62
     7
 10
363.0213361399
 20
366.589601565
 30
0.0
  0
VERTEX
  5
447
  8
0
  6
CONTINUOUS
 62
     7
 10
363.0407821553
 20
366.7799415475
 30
0.0
  0
VERTEX
  5
448
  8
0
  6
CONTINUOUS
 62
     7
 10
363.058730604
 20
366.9767784363
 30
0.0
  0
VERTEX
  5
449
  8
0
  6
CONTINUOUS
 62
     7
 10
363.0751144307
 20
367.1829658037
 30
0.0
  0
VERTEX
  5
44A
  8
0
  6
CONTINUOUS
 62
     7
 10
363.0897287445
 20
367.4014764315
 30
0.0
  0
VERTEX
  5
44B
  8
0
  6
CONTINUOUS
 62
     7
 10
363.1022047417
 20
367.6355215197
 30
0.0
  0
VERTEX
  5
44C
  8
0
  6
CONTINUOUS
 62
     7
 10
363.1118979471
 20
367.8869264608
 30
0.0
  0
VERTEX
  5
44D
  8
0
  6
CONTINUOUS
 62
     7
 10
363.1180372255
 20
368.1590216642
 30
0.0
  0
VERTEX
  5
44E
  8
0
  6
CONTINUOUS
 62
     7
 10
363.1191920655
 20
368.3888199216
 30
0.0
  0
SEQEND
  5
B88
  8
0
  6
CONTINUOUS
 62
     7
  0
POLYLINE
  5
84
  8
0
  6
CONTINUOUS
 62
     7
 66
     1
 10
0.0
 20
0.0
 30
0.0
  0
VERTEX
  5
44F
  8
0
  6
CONTINUOUS
 62
     7
 10
271.1203243749
 20
368.378687132
 30
0.0
  0
VERTEX
  5
450
  8
0
  6
CONTINUOUS
 62
     7
 10
271.1200934069
 20
368.2714956289
 30
0.0
  0
VERTEX
  5
451
  8
0
  6
CONTINUOUS
 62
     7
 10
271.1244929748
 20
367.993439961
 30
0.0
  0
VERTEX
  5
452
  8
0
  6
CONTINUOUS
 62
     7
 10
271.1327072399
 20
367.7382873779
 30
0.0
  0
VERTEX
  5
453
  8
0
  6
CONTINUOUS
 62
     7
 10
271.1438272314
 20
367.5023647433
 30
0.0
  0
VERTEX
  5
454
  8
0
  6
CONTINUOUS
 62
     7
 10
271.15721965
 20
367.2823789006
 30
0.0
  0
VERTEX
  5
455
  8
0
  6
CONTINUOUS
 62
     7
 10
271.1723778563
 20
367.0764076
 30
0.0
  0
VERTEX
  5
456
  8
0
  6
CONTINUOUS
 62
     7
 10
271.1889963763
 20
366.8817015773
 30
0.0
  0
VERTEX
  5
457
  8
0
  6
CONTINUOUS
 62
     7
 10
271.2069299238
 20
366.6955041176
 30
0.0
  0
VERTEX
  5
458
  8
0
  6
CONTINUOUS
 62
     7
 10
271.2261524217
 20
366.5151777154
 30
0.0
  0
VERTEX
  5
459
  8
0
  6
CONTINUOUS
 62
     7
 10
271.2467570024
 20
366.3379582053
 30
0.0
  0
VERTEX
  5
45A
  8
0
  6
CONTINUOUS
 62
     7
 10
271.2689858096
 20
366.1607312446
 30
0.0
  0
VERTEX
  5
45B
  8
0
  6
CONTINUOUS
 62
     7
 10
271.2932858782
 20
365.9795927292
 30
0.0
  0
VERTEX
  5
45C
  8
0
  6
CONTINUOUS
 62
     7
 10
271.3204320686
 20
365.7891186362
 30
0.0
  0
VERTEX
  5
45D
  8
0
  6
CONTINUOUS
 62
     7
 10
271.3517990129
 20
365.5808376556
 30
0.0
  0
VERTEX
  5
45E
  8
0
  6
CONTINUOUS
 62
     7
 10
271.3900465684
 20
365.3395058995
 30
0.0
  0
VERTEX
  5
45F
  8
0
  6
CONTINUOUS
 62
     7
 10
271.4414183216
 20
365.0309028512
 30
0.0
  0
VERTEX
  5
460
  8
0
  6
CONTINUOUS
 62
     7
 10
271.529275568
 20
364.5295160299
 30
0.0
  0
VERTEX
  5
461
  8
0
  6
CONTINUOUS
 62
     7
 10
271.6036323624
 20
364.1214924341
 30
0.0
  0
VERTEX
  5
462
  8
0
  6
CONTINUOUS
 62
     7
 10
271.6790806668
 20
363.7173058873
 30
0.0
  0
VERTEX
  5
463
  8
0
  6
CONTINUOUS
 62
     7
 10
271.7571068721
 20
363.3067118412
 30
0.0
  0
VERTEX
  5
464
  8
0
  6
CONTINUOUS
 62
     7
 10
271.8465250151
 20
362.8429504519
 30
0.0
  0
VERTEX
  5
465
  8
0
  6
CONTINUOUS
 62
     7
 10
271.9401899891
 20
362.3630213028
 30
0.0
  0
VERTEX
  5
466
  8
0
  6
CONTINUOUS
 62
     7
 10
272.0389586108
 20
361.8619772082
 30
0.0
  0
VERTEX
  5
467
  8
0
  6
CONTINUOUS
 62
     7
 10
272.1434306519
 20
361.3364505058
 30
0.0
  0
VERTEX
  5
468
  8
0
  6
CONTINUOUS
 62
     7
 10
272.2539264875
 20
360.7846232539
 30
0.0
  0
VERTEX
  5
469
  8
0
  6
CONTINUOUS
 62
     7
 10
272.3707068877
 20
360.2050574904
 30
0.0
  0
VERTEX
  5
46A
  8
0
  6
CONTINUOUS
 62
     7
 10
272.4940475242
 20
359.5963227039
 30
0.0
  0
VERTEX
  5
46B
  8
0
  6
CONTINUOUS
 62
     7
 10
272.6241793649
 20
358.9572417026
 30
0.0
  0
VERTEX
  5
46C
  8
0
  6
CONTINUOUS
 62
     7
 10
272.7613073008
 20
358.2867639547
 30
0.0
  0
VERTEX
  5
46D
  8
0
  6
CONTINUOUS
 62
     7
 10
272.905625047
 20
357.583950687
 30
0.0
  0
VERTEX
  5
46E
  8
0
  6
CONTINUOUS
 62
     7
 10
273.0573151427
 20
356.8479152804
 30
0.0
  0
VERTEX
  5
46F
  8
0
  6
CONTINUOUS
 62
     7
 10
273.2165526765
 20
356.0778158193
 30
0.0
  0
VERTEX
  5
470
  8
0
  6
CONTINUOUS
 62
     7
 10
273.3835090118
 20
355.2728252893
 30
0.0
  0
VERTEX
  5
471
  8
0
  6
CONTINUOUS
 62
     7
 10
273.5583555119
 20
354.4321464783
 30
0.0
  0
VERTEX
  5
472
  8
0
  6
CONTINUOUS
 62
     7
 10
273.7412635403
 20
353.5549896246
 30
0.0
  0
VERTEX
  5
473
  8
0
  6
CONTINUOUS
 62
     7
 10
273.9324007349
 20
352.6405575162
 30
0.0
  0
VERTEX
  5
474
  8
0
  6
CONTINUOUS
 62
     7
 10
274.1319347339
 20
351.6880678421
 30
0.0
  0
VERTEX
  5
475
  8
0
  6
CONTINUOUS
 62
     7
 10
274.3400443511
 20
350.6967308408
 30
0.0
  0
VERTEX
  5
476
  8
0
  6
CONTINUOUS
 62
     7
 10
274.55690095
 20
349.6657418495
 30
0.0
  0
VERTEX
  5
477
  8
0
  6
CONTINUOUS
 62
     7
 10
274.7826758938
 20
348.5942999309
 30
0.0
  0
VERTEX
  5
478
  8
0
  6
CONTINUOUS
 62
     7
 10
275.0175442712
 20
347.4816004222
 30
0.0
  0
VERTEX
  5
479
  8
0
  6
CONTINUOUS
 62
     7
 10
275.2616923468
 20
346.3268312102
 30
0.0
  0
VERTEX
  5
47A
  8
0
  6
CONTINUOUS
 62
     7
 10
275.5152952092
 20
345.1291652804
 30
0.0
  0
VERTEX
  5
47B
  8
0
  6
CONTINUOUS
 62
     7
 10
275.7785353975
 20
343.8877793437
 30
0.0
  0
VERTEX
  5
47C
  8
0
  6
CONTINUOUS
 62
     7
 10
275.914631428
 20
343.2466382569
 30
0.0
  0
SEQEND
  5
B87
  8
0
  6
CONTINUOUS
 62
     7
  0
ARC
  5
85
  8
0
  6
CONTINUOUS
 62
     7
 10
284.1196688132
 20
439.6118582374
 30
0.0
 40
76.29999999999998
 50
9.8099183596
 51
19.1561511934
  0
ARC
  5
86
  8
0
  6
CONTINUOUS
 62
     7
 10
350.1196688132
 20
439.6118582374
 30
0.0
 40
76.30000000000001
 50
160.843845401
 51
170.1900816404
  0
LINE
  5
87
  8
0
  6
CONTINUOUS
 62
     7
 10
410.2696661072
 20
242.1575630492
 30
0.0
 11
410.2721471505
 21
242.1618583089
 31
0.0
  0
LINE
  5
88
  8
0
  6
CONTINUOUS
 62
     7
 10
410.2721471505
 20
331.0618581658
 30
0.0
 11
410.2696661072
 21
331.0661534255
 31
0.0
  0
LINE
  5
89
  8
0
  6
CONTINUOUS
 62
     7
 10
223.9696715193
 20
331.0661534255
 30
0.0
 11
223.967190476
 21
331.0618581658
 31
0.0
  0
LINE
  5
8A
  8
0
  6
CONTINUOUS
 62
     7
 10
223.967190476
 20
242.1618583089
 30
0.0
 11
223.9696715193
 21
242.1575630492
 31
0.0
  0
LINE
  5
8B
  8
0
  6
CONTINUOUS
 62
     7
 10
591.1381650882
 20
331.0618581658
 30
0.0
 11
410.2721471505
 21
331.0618581658
 31
0.0
  0
LINE
  5
8C
  8
0
  6
CONTINUOUS
 62
     7
 10
410.2721471505
 20
242.1618583089
 30
0.0
 11
591.1381650882
 21
242.1618583089
 31
0.0
  0
LINE
  5
8D
  8
0
  6
CONTINUOUS
 62
     7
 10
223.967190476
 20
331.0618581658
 30
0.0
 11
43.1011725383
 21
331.0618581658
 31
0.0
  0
LINE
  5
8E
  8
0
  6
CONTINUOUS
 62
     7
 10
43.1011725383
 20
242.1618583089
 30
0.0
 11
223.967190476
 21
242.1618583089
 31
0.0
  0
LINE
  5
8F
  8
0
  6
CONTINUOUS
 62
     7
 10
591.1381650882
 20
242.1618583089
 30
0.0
 11
592.1196747737
 21
243.8618572837
 31
0.0
  0
LINE
  5
90
  8
0
  6
CONTINUOUS
 62
     7
 10
592.1196747737
 20
329.361859191
 30
0.0
 11
591.1381650882
 21
331.0618581658
 31
0.0
  0
LINE
  5
91
  8
0
  6
CONTINUOUS
 62
     7
 10
43.1011725383
 20
331.0618581658
 30
0.0
 11
42.1196628528
 21
329.361859191
 31
0.0
  0
LINE
  5
92
  8
0
  6
CONTINUOUS
 62
     7
 10
42.1196628528
 20
243.8618572837
 30
0.0
 11
43.1011725383
 21
242.1618583089
 31
0.0
  0
LINE
  5
93
  8
0
  6
CONTINUOUS
 62
     7
 10
356.1947826462
 20
464.6492036467
 30
0.0
 11
355.6196686046
 21
486.6118612176
 31
0.0
  0
LINE
  5
94
  8
0
  6
CONTINUOUS
 62
     7
 10
278.6196690219
 20
486.6118612176
 30
0.0
 11
278.0445549803
 21
464.6492036467
 31
0.0
  0
LINE
  5
95
  8
0
  6
CONTINUOUS
 62
     7
 10
288.6459171938
 20
503.4910025483
 30
0.0
 11
285.669669153
 21
486.6118612176
 31
0.0
  0
LINE
  5
96
  8
0
  6
CONTINUOUS
 62
     7
 10
348.5696684735
 20
486.6118612176
 30
0.0
 11
345.5934204327
 21
503.4910025483
 31
0.0
  0
LINE
  5
97
  8
0
  6
CONTINUOUS
 62
     7
 10
289.9706732648
 20
528.7688704615
 30
0.0
 11
288.6459171938
 21
503.4910025483
 31
0.0
  0
LINE
  5
98
  8
0
  6
CONTINUOUS
 62
     7
 10
345.5934204327
 20
503.4910025483
 30
0.0
 11
344.2686643617
 21
528.7688704615
 31
0.0
  0
ARC
  5
99
  8
0
  6
CONTINUOUS
 62
     7
 10
292.9665625134
 20
528.6118582374
 30
0.0
 40
3.000000000000051
 50
90.0
 51
177.0
  0
ARC
  5
9A
  8
0
  6
CONTINUOUS
 62
     7
 10
341.2727751131
 20
528.6118582374
 30
0.0
 40
3.0
 50
3.0
 51
90.0
  0
LINE
  5
9B
  8
0
  6
CONTINUOUS
 62
     7
 10
341.0276301371
 20
531.6118630057
 30
0.0
 11
339.9696681814
 21
537.6118453627
 31
0.0
  0
LINE
  5
9C
  8
0
  6
CONTINUOUS
 62
     7
 10
294.2696694451
 20
537.6118453627
 30
0.0
 11
293.2117074894
 21
531.6118630057
 31
0.0
  0
LINE
  5
9D
  8
0
  6
CONTINUOUS
 62
     7
 10
329.4196684079
 20
537.6118453627
 30
0.0
 11
329.4196684079
 21
547.0963450557
 31
0.0
  0
LINE
  5
9E
  8
0
  6
CONTINUOUS
 62
     7
 10
304.8196692186
 20
547.0963450557
 30
0.0
 11
304.8196692186
 21
537.6118453627
 31
0.0
  0
LINE
  5
9F
  8
0
  6
CONTINUOUS
 62
     7
 10
358.4447387772
 20
412.6064660436
 30
0.0
 11
275.7945988493
 21
412.6064660436
 31
0.0
  0
LINE
  5
A0
  8
0
  6
CONTINUOUS
 62
     7
 10
358.7047528641
 20
422.6118656283
 30
0.0
 11
275.5345847624
 21
422.6118656283
 31
0.0
  0
LINE
  5
A1
  8
0
  6
CONTINUOUS
 62
     7
 10
273.9183973687
 20
422.6118656283
 30
0.0
 11
273.1793258505
 21
422.6118656283
 31
0.0
  0
POLYLINE
  5
A2
  8
0
  6
CONTINUOUS
 62
     7
 66
     1
 10
0.0
 20
0.0
 30
0.0
  0
VERTEX
  5
47D
  8
0
  6
CONTINUOUS
 62
     7
 10
275.5319323557
 20
426.6118588334
 30
0.0
  0
VERTEX
  5
47E
  8
0
  6
CONTINUOUS
 62
     7
 10
275.2672653811
 20
426.5607776528
 30
0.0
  0
VERTEX
  5
47F
  8
0
  6
CONTINUOUS
 62
     7
 10
275.1063998954
 20
426.4799686557
 30
0.0
  0
VERTEX
  5
480
  8
0
  6
CONTINUOUS
 62
     7
 10
274.9594781714
 20
426.3734700566
 30
0.0
  0
VERTEX
  5
481
  8
0
  6
CONTINUOUS
 62
     7
 10
274.7171182351
 20
426.1303725129
 30
0.0
  0
VERTEX
  5
482
  8
0
  6
CONTINUOUS
 62
     7
 10
274.5092358606
 20
425.8531066066
 30
0.0
  0
VERTEX
  5
483
  8
0
  6
CONTINUOUS
 62
     7
 10
274.1235900836
 20
425.1936259156
 30
0.0
  0
VERTEX
  5
484
  8
0
  6
CONTINUOUS
 62
     7
 10
273.8074060695
 20
424.4905593282
 30
0.0
  0
VERTEX
  5
485
  8
0
  6
CONTINUOUS
 62
     7
 10
273.5406939106
 20
423.7611474877
 30
0.0
  0
VERTEX
  5
486
  8
0
  6
CONTINUOUS
 62
     7
 10
273.3034823256
 20
423.0226161366
 30
0.0
  0
VERTEX
  5
487
  8
0
  6
CONTINUOUS
 62
     7
 10
273.1793258505
 20
422.6118656283
 30
0.0
  0
SEQEND
  5
B86
  8
0
  6
CONTINUOUS
 62
     7
  0
LINE
  5
A3
  8
0
  6
CONTINUOUS
 62
     7
 10
358.7074052708
 20
426.6118588334
 30
0.0
 11
275.5319323557
 21
426.6118588334
 31
0.0
  0
POLYLINE
  5
A4
  8
0
  6
CONTINUOUS
 62
     7
 66
     1
 10
0.0
 20
0.0
 30
0.0
  0
VERTEX
  5
488
  8
0
  6
CONTINUOUS
 62
     7
 10
358.7074052708
 20
426.6118588334
 30
0.0
  0
VERTEX
  5
489
  8
0
  6
CONTINUOUS
 62
     7
 10
358.9720722454
 20
426.5607776528
 30
0.0
  0
VERTEX
  5
48A
  8
0
  6
CONTINUOUS
 62
     7
 10
359.132937731
 20
426.4799686557
 30
0.0
  0
VERTEX
  5
48B
  8
0
  6
CONTINUOUS
 62
     7
 10
359.2798594551
 20
426.3734700566
 30
0.0
  0
VERTEX
  5
48C
  8
0
  6
CONTINUOUS
 62
     7
 10
359.5222193914
 20
426.1303725129
 30
0.0
  0
VERTEX
  5
48D
  8
0
  6
CONTINUOUS
 62
     7
 10
359.7301017659
 20
425.8531066066
 30
0.0
  0
VERTEX
  5
48E
  8
0
  6
CONTINUOUS
 62
     7
 10
360.1157475429
 20
425.1936259156
 30
0.0
  0
VERTEX
  5
48F
  8
0
  6
CONTINUOUS
 62
     7
 10
360.431931557
 20
424.4905593282
 30
0.0
  0
VERTEX
  5
490
  8
0
  6
CONTINUOUS
 62
     7
 10
360.6986437159
 20
423.7611474877
 30
0.0
  0
VERTEX
  5
491
  8
0
  6
CONTINUOUS
 62
     7
 10
360.9358553009
 20
423.0226161366
 30
0.0
  0
VERTEX
  5
492
  8
0
  6
CONTINUOUS
 62
     7
 10
361.060011776
 20
422.6118656283
 30
0.0
  0
SEQEND
  5
B85
  8
0
  6
CONTINUOUS
 62
     7
  0
LINE
  5
A5
  8
0
  6
CONTINUOUS
 62
     7
 10
361.060011776
 20
422.6118656283
 30
0.0
 11
360.3209402578
 21
422.6118656283
 31
0.0
  0
LINE
  5
A6
  8
0
  6
CONTINUOUS
 62
     7
 10
358.6038049476
 20
430.4578634387
 30
0.0
 11
354.5311946588
 21
430.4578634387
 31
0.0
  0
LINE
  5
A7
  8
0
  6
CONTINUOUS
 62
     7
 10
275.6355326789
 20
430.4578634387
 30
0.0
 11
279.7081429677
 21
430.4578634387
 31
0.0
  0
ARC
  5
A8
  8
0
  6
CONTINUOUS
 62
     7
 10
288.5455492549
 20
424.5804693824
 30
0.0
 40
10.61336472466455
 50
112.5268376475
 51
146.3737613829
  0
ARC
  5
A9
  8
0
  6
CONTINUOUS
 62
     7
 10
345.6937883716
 20
424.5804693824
 30
0.0
 40
10.61336472466453
 50
33.6262386171
 51
67.4731623525
  0
ARC
  5
AA
  8
0
  6
CONTINUOUS
 62
     7
 10
289.3987588592
 20
410.8560650969
 30
0.0
 40
4.386954690195638
 50
226.4600919276
 51
272.1947451809
  0
ARC
  5
AB
  8
0
  6
CONTINUOUS
 62
     7
 10
275.7542672754
 20
396.1165455047
 30
0.0
 40
15.69898232072723
 50
47.4186812248
 51
88.3552910052
  0
ARC
  5
AC
  8
0
  6
CONTINUOUS
 62
     7
 10
358.4850703511
 20
396.1165455047
 30
0.0
 40
15.69898232072723
 50
91.6447089948
 51
132.5813187752
  0
ARC
  5
AD
  8
0
  6
CONTINUOUS
 62
     7
 10
344.8405787673
 20
410.8560650969
 30
0.0
 40
4.386954690195638
 50
267.8052548191
 51
313.5399080724
  0
LINE
  5
AE
  8
0
  6
CONTINUOUS
 62
     7
 10
289.5667623894
 20
406.4723285323
 30
0.0
 11
344.6725752371
 21
406.4723285323
 31
0.0
  0
POLYLINE
  5
AF
  8
0
  6
CONTINUOUS
 62
     7
 66
     1
 10
0.0
 20
0.0
 30
0.0
  0
VERTEX
  5
493
  8
0
  6
CONTINUOUS
 62
     7
 10
290.6083051281
 20
440.8394726401
 30
0.0
  0
VERTEX
  5
494
  8
0
  6
CONTINUOUS
 62
     7
 10
290.4927764254
 20
440.1973369008
 30
0.0
  0
VERTEX
  5
495
  8
0
  6
CONTINUOUS
 62
     7
 10
290.2790956365
 20
439.5524444466
 30
0.0
  0
VERTEX
  5
496
  8
0
  6
CONTINUOUS
 62
     7
 10
289.9594806301
 20
438.892621029
 30
0.0
  0
VERTEX
  5
497
  8
0
  6
CONTINUOUS
 62
     7
 10
289.5397726612
 20
438.2380279189
 30
0.0
  0
VERTEX
  5
498
  8
0
  6
CONTINUOUS
 62
     7
 10
288.9941871332
 20
437.5622006541
 30
0.0
  0
VERTEX
  5
499
  8
0
  6
CONTINUOUS
 62
     7
 10
288.3427474814
 20
436.9013341552
 30
0.0
  0
VERTEX
  5
49A
  8
0
  6
CONTINUOUS
 62
     7
 10
287.8342714327
 20
436.4579501038
 30
0.0
  0
VERTEX
  5
49B
  8
0
  6
CONTINUOUS
 62
     7
 10
287.2774001377
 20
436.0251905805
 30
0.0
  0
VERTEX
  5
49C
  8
0
  6
CONTINUOUS
 62
     7
 10
286.6744004356
 20
435.6055887824
 30
0.0
  0
VERTEX
  5
49D
  8
0
  6
CONTINUOUS
 62
     7
 10
286.1687276678
 20
435.2860631829
 30
0.0
  0
VERTEX
  5
49E
  8
0
  6
CONTINUOUS
 62
     7
 10
285.635906847
 20
434.9763723498
 30
0.0
  0
VERTEX
  5
49F
  8
0
  6
CONTINUOUS
 62
     7
 10
285.0705120878
 20
434.6742215043
 30
0.0
  0
VERTEX
  5
4A0
  8
0
  6
CONTINUOUS
 62
     7
 10
284.4793979244
 20
434.3840362912
 30
0.0
  0
SEQEND
  5
B84
  8
0
  6
CONTINUOUS
 62
     7
  0
LINE
  5
B0
  8
0
  6
CONTINUOUS
 62
     7
 10
290.6083051281
 20
440.8394726401
 30
0.0
 11
343.6310324984
 21
440.8394726401
 31
0.0
  0
POLYLINE
  5
B1
  8
0
  6
CONTINUOUS
 62
     7
 66
     1
 10
0.0
 20
0.0
 30
0.0
  0
VERTEX
  5
4A1
  8
0
  6
CONTINUOUS
 62
     7
 10
343.6310324984
 20
440.8394726401
 30
0.0
  0
VERTEX
  5
4A2
  8
0
  6
CONTINUOUS
 62
     7
 10
343.7465612011
 20
440.1973369008
 30
0.0
  0
VERTEX
  5
4A3
  8
0
  6
CONTINUOUS
 62
     7
 10
343.96024199
 20
439.5524444466
 30
0.0
  0
VERTEX
  5
4A4
  8
0
  6
CONTINUOUS
 62
     7
 10
344.2798569964
 20
438.892621029
 30
0.0
  0
VERTEX
  5
4A5
  8
0
  6
CONTINUOUS
 62
     7
 10
344.6995649653
 20
438.2380279189
 30
0.0
  0
VERTEX
  5
4A6
  8
0
  6
CONTINUOUS
 62
     7
 10
345.2451504933
 20
437.5622006541
 30
0.0
  0
VERTEX
  5
4A7
  8
0
  6
CONTINUOUS
 62
     7
 10
345.8965901451
 20
436.9013341552
 30
0.0
  0
VERTEX
  5
4A8
  8
0
  6
CONTINUOUS
 62
     7
 10
346.4050661938
 20
436.4579501038
 30
0.0
  0
VERTEX
  5
4A9
  8
0
  6
CONTINUOUS
 62
     7
 10
346.9619374888
 20
436.0251905805
 30
0.0
  0
VERTEX
  5
4AA
  8
0
  6
CONTINUOUS
 62
     7
 10
347.5649371909
 20
435.6055887824
 30
0.0
  0
VERTEX
  5
4AB
  8
0
  6
CONTINUOUS
 62
     7
 10
348.0706099587
 20
435.2860631829
 30
0.0
  0
VERTEX
  5
4AC
  8
0
  6
CONTINUOUS
 62
     7
 10
348.6034307795
 20
434.9763723498
 30
0.0
  0
VERTEX
  5
4AD
  8
0
  6
CONTINUOUS
 62
     7
 10
349.1688255387
 20
434.6742215043
 30
0.0
  0
VERTEX
  5
4AE
  8
0
  6
CONTINUOUS
 62
     7
 10
349.7599397021
 20
434.3840362912
 30
0.0
  0
SEQEND
  5
B83
  8
0
  6
CONTINUOUS
 62
     7
  0
LINE
  5
B2
  8
0
  6
CONTINUOUS
 62
     7
 10
354.4891361313
 20
452.6118519193
 30
0.0
 11
343.9052455293
 21
452.6118519193
 31
0.0
  0
LINE
  5
B3
  8
0
  6
CONTINUOUS
 62
     7
 10
354.4891361313
 20
452.6118519193
 30
0.0
 11
354.5311946588
 21
430.4578634387
 31
0.0
  0
POLYLINE
  5
B4
  8
0
  6
CONTINUOUS
 62
     7
 66
     1
 10
0.0
 20
0.0
 30
0.0
  0
VERTEX
  5
4AF
  8
0
  6
CONTINUOUS
 62
     7
 10
343.709954636
 20
445.1160462981
 30
0.0
  0
VERTEX
  5
4B0
  8
0
  6
CONTINUOUS
 62
     7
 10
343.7013846057
 20
444.80783068
 30
0.0
  0
VERTEX
  5
4B1
  8
0
  6
CONTINUOUS
 62
     7
 10
343.6812028455
 20
443.8101830369
 30
0.0
  0
VERTEX
  5
4B2
  8
0
  6
CONTINUOUS
 62
     7
 10
343.6644800173
 20
442.7961292153
 30
0.0
  0
VERTEX
  5
4B3
  8
0
  6
CONTINUOUS
 62
     7
 10
343.6479881572
 20
441.7710187322
 30
0.0
  0
VERTEX
  5
4B4
  8
0
  6
CONTINUOUS
 62
     7
 10
343.6310324984
 20
440.8394726401
 30
0.0
  0
SEQEND
  5
B82
  8
0
  6
CONTINUOUS
 62
     7
  0
POLYLINE
  5
B5
  8
0
  6
CONTINUOUS
 62
     7
 66
     1
 10
0.0
 20
0.0
 30
0.0
  0
VERTEX
  5
4B5
  8
0
  6
CONTINUOUS
 62
     7
 10
290.5293829905
 20
445.1160462981
 30
0.0
  0
VERTEX
  5
4B6
  8
0
  6
CONTINUOUS
 62
     7
 10
290.5379530208
 20
444.80783068
 30
0.0
  0
VERTEX
  5
4B7
  8
0
  6
CONTINUOUS
 62
     7
 10
290.558134781
 20
443.8101830369
 30
0.0
  0
VERTEX
  5
4B8
  8
0
  6
CONTINUOUS
 62
     7
 10
290.5748576092
 20
442.7961292153
 30
0.0
  0
VERTEX
  5
4B9
  8
0
  6
CONTINUOUS
 62
     7
 10
290.5913494693
 20
441.7710187322
 30
0.0
  0
VERTEX
  5
4BA
  8
0
  6
CONTINUOUS
 62
     7
 10
290.6083051281
 20
440.8394726401
 30
0.0
  0
SEQEND
  5
B81
  8
0
  6
CONTINUOUS
 62
     7
  0
LINE
  5
B6
  8
0
  6
CONTINUOUS
 62
     7
 10
279.7502014952
 20
452.6118519193
 30
0.0
 11
279.7081429677
 21
430.4578634387
 31
0.0
  0
LINE
  5
B7
  8
0
  6
CONTINUOUS
 62
     7
 10
279.7502014952
 20
452.6118519193
 30
0.0
 11
290.3340920972
 21
452.6118519193
 31
0.0
  0
POLYLINE
  5
B8
  8
0
  6
CONTINUOUS
 62
     7
 66
     1
 10
0.0
 20
0.0
 30
0.0
  0
VERTEX
  5
4BB
  8
0
  6
CONTINUOUS
 62
     7
 10
273.9805948155
 20
429.3899121171
 30
0.0
  0
VERTEX
  5
4BC
  8
0
  6
CONTINUOUS
 62
     7
 10
274.0047533231
 20
429.5634361392
 30
0.0
  0
VERTEX
  5
4BD
  8
0
  6
CONTINUOUS
 62
     7
 10
274.1002697663
 20
429.7875347024
 30
0.0
  0
VERTEX
  5
4BE
  8
0
  6
CONTINUOUS
 62
     7
 10
274.2009643631
 20
429.9241783505
 30
0.0
  0
VERTEX
  5
4BF
  8
0
  6
CONTINUOUS
 62
     7
 10
274.3213173168
 20
430.0424339658
 30
0.0
  0
VERTEX
  5
4C0
  8
0
  6
CONTINUOUS
 62
     7
 10
274.5256196873
 20
430.1860662585
 30
0.0
  0
VERTEX
  5
4C1
  8
0
  6
CONTINUOUS
 62
     7
 10
274.7490290718
 20
430.2948894387
 30
0.0
  0
VERTEX
  5
4C2
  8
0
  6
CONTINUOUS
 62
     7
 10
275.1202505248
 20
430.4062756186
 30
0.0
  0
VERTEX
  5
4C3
  8
0
  6
CONTINUOUS
 62
     7
 10
275.5040336566
 20
430.4545702821
 30
0.0
  0
VERTEX
  5
4C4
  8
0
  6
CONTINUOUS
 62
     7
 10
275.6355326789
 20
430.4578634387
 30
0.0
  0
SEQEND
  5
B80
  8
0
  6
CONTINUOUS
 62
     7
  0
POLYLINE
  5
B9
  8
0
  6
CONTINUOUS
 62
     7
 66
     1
 10
0.0
 20
0.0
 30
0.0
  0
VERTEX
  5
4C5
  8
0
  6
CONTINUOUS
 62
     7
 10
274.5216000991
 20
452.6118519193
 30
0.0
  0
VERTEX
  5
4C6
  8
0
  6
CONTINUOUS
 62
     7
 10
273.9858921783
 20
429.6175422555
 30
0.0
  0
VERTEX
  5
4C7
  8
0
  6
CONTINUOUS
 62
     7
 10
273.9805948155
 20
429.3899121171
 30
0.0
  0
SEQEND
  5
B7F
  8
0
  6
CONTINUOUS
 62
     7
  0
LINE
  5
BA
  8
0
  6
CONTINUOUS
 62
     7
 10
274.5216000991
 20
452.6118519193
 30
0.0
 11
279.7502014952
 21
452.6118519193
 31
0.0
  0
POLYLINE
  5
BB
  8
0
  6
CONTINUOUS
 62
     7
 66
     1
 10
0.0
 20
0.0
 30
0.0
  0
VERTEX
  5
4C8
  8
0
  6
CONTINUOUS
 62
     7
 10
359.7177375274
 20
452.6118519193
 30
0.0
  0
VERTEX
  5
4C9
  8
0
  6
CONTINUOUS
 62
     7
 10
360.2534454482
 20
429.6175422555
 30
0.0
  0
VERTEX
  5
4CA
  8
0
  6
CONTINUOUS
 62
     7
 10
360.258742811
 20
429.3899121171
 30
0.0
  0
SEQEND
  5
B7E
  8
0
  6
CONTINUOUS
 62
     7
  0
POLYLINE
  5
BC
  8
0
  6
CONTINUOUS
 62
     7
 66
     1
 10
0.0
 20
0.0
 30
0.0
  0
VERTEX
  5
4CB
  8
0
  6
CONTINUOUS
 62
     7
 10
360.258742811
 20
429.3899121171
 30
0.0
  0
VERTEX
  5
4CC
  8
0
  6
CONTINUOUS
 62
     7
 10
360.2345843034
 20
429.5634361392
 30
0.0
  0
VERTEX
  5
4CD
  8
0
  6
CONTINUOUS
 62
     7
 10
360.1390678601
 20
429.7875347024
 30
0.0
  0
VERTEX
  5
4CE
  8
0
  6
CONTINUOUS
 62
     7
 10
360.0383732634
 20
429.9241783505
 30
0.0
  0
VERTEX
  5
4CF
  8
0
  6
CONTINUOUS
 62
     7
 10
359.9180203097
 20
430.0424339658
 30
0.0
  0
VERTEX
  5
4D0
  8
0
  6
CONTINUOUS
 62
     7
 10
359.7137179392
 20
430.1860662585
 30
0.0
  0
VERTEX
  5
4D1
  8
0
  6
CONTINUOUS
 62
     7
 10
359.4903085547
 20
430.2948894387
 30
0.0
  0
VERTEX
  5
4D2
  8
0
  6
CONTINUOUS
 62
     7
 10
359.1190871017
 20
430.4062756186
 30
0.0
  0
VERTEX
  5
4D3
  8
0
  6
CONTINUOUS
 62
     7
 10
358.7353039699
 20
430.4545702821
 30
0.0
  0
VERTEX
  5
4D4
  8
0
  6
CONTINUOUS
 62
     7
 10
358.6038049476
 20
430.4578634387
 30
0.0
  0
SEQEND
  5
B7D
  8
0
  6
CONTINUOUS
 62
     7
  0
LINE
  5
BD
  8
0
  6
CONTINUOUS
 62
     7
 10
359.7177375274
 20
452.6118519193
 30
0.0
 11
354.4891361313
 21
452.6118519193
 31
0.0
  0
LINE
  5
BE
  8
0
  6
CONTINUOUS
 62
     7
 10
267.8396959024
 20
452.6118519193
 30
0.0
 11
274.5216000991
 21
452.6118519193
 31
0.0
  0
LINE
  5
BF
  8
0
  6
CONTINUOUS
 62
     7
 10
273.1793258505
 20
422.6118656283
 30
0.0
 11
267.4631100314
 21
422.6118656283
 31
0.0
  0
ARC
  5
C0
  8
0
  6
CONTINUOUS
 62
     7
 10
257.1144146851
 20
422.8748226818
 30
0.0
 40
10.35203563466196
 50
358.5444456935
 51
21.1613330423
  0
POLYLINE
  5
C1
  8
0
  6
CONTINUOUS
 62
     7
 66
     1
 10
0.0
 20
0.0
 30
0.0
  0
VERTEX
  5
4D5
  8
0
  6
CONTINUOUS
 62
     7
 10
267.3372473734
 20
429.3890478497
 30
0.0
  0
VERTEX
  5
4D6
  8
0
  6
CONTINUOUS
 62
     7
 10
267.4102816897
 20
432.7653678542
 30
0.0
  0
VERTEX
  5
4D7
  8
0
  6
CONTINUOUS
 62
     7
 10
267.8396959024
 20
452.6118519193
 30
0.0
  0
SEQEND
  5
B7C
  8
0
  6
CONTINUOUS
 62
     7
  0
ARC
  5
C2
  8
0
  6
CONTINUOUS
 62
     7
 10
377.1249229414
 20
422.8748226818
 30
0.0
 40
10.35203563466196
 50
158.8386669577
 51
181.4555543065
  0
LINE
  5
C3
  8
0
  6
CONTINUOUS
 62
     7
 10
361.060011776
 20
422.6118656283
 30
0.0
 11
366.7762275951
 21
422.6118656283
 31
0.0
  0
LINE
  5
C4
  8
0
  6
CONTINUOUS
 62
     7
 10
366.3996417241
 20
452.6118519193
 30
0.0
 11
359.7177375274
 21
452.6118519193
 31
0.0
  0
POLYLINE
  5
C5
  8
0
  6
CONTINUOUS
 62
     7
 66
     1
 10
0.0
 20
0.0
 30
0.0
  0
VERTEX
  5
4D8
  8
0
  6
CONTINUOUS
 62
     7
 10
366.9020902531
 20
429.3890478497
 30
0.0
  0
VERTEX
  5
4D9
  8
0
  6
CONTINUOUS
 62
     7
 10
366.8290559368
 20
432.7653678542
 30
0.0
  0
VERTEX
  5
4DA
  8
0
  6
CONTINUOUS
 62
     7
 10
366.3996417241
 20
452.6118519193
 30
0.0
  0
SEQEND
  5
B7B
  8
0
  6
CONTINUOUS
 62
     7
  0
LINE
  5
C6
  8
0
  6
CONTINUOUS
 62
     7
 10
366.9627677815
 20
422.6118656283
 30
0.0
 11
367.4715791063
 21
422.6118656283
 31
0.0
  0
LINE
  5
C7
  8
0
  6
CONTINUOUS
 62
     7
 10
358.4447387772
 20
412.6064660436
 30
0.0
 11
366.6212517934
 21
412.6064660436
 31
0.0
  0
LINE
  5
C8
  8
0
  6
CONTINUOUS
 62
     7
 10
358.7047528641
 20
422.6118656283
 30
0.0
 11
360.3209402578
 21
422.6118656283
 31
0.0
  0
LINE
  5
C9
  8
0
  6
CONTINUOUS
 62
     7
 10
275.7945988493
 20
412.6064660436
 30
0.0
 11
267.6180858331
 21
412.6064660436
 31
0.0
  0
LINE
  5
CA
  8
0
  6
CONTINUOUS
 62
     7
 10
267.276569845
 20
422.6118656283
 30
0.0
 11
266.7677585201
 21
422.6118656283
 31
0.0
  0
LINE
  5
CB
  8
0
  6
CONTINUOUS
 62
     7
 10
275.5345847624
 20
422.6118656283
 30
0.0
 11
273.9183973687
 21
422.6118656283
 31
0.0
  0
ARC
  5
CC
  8
0
  6
CONTINUOUS
 62
     7
 10
363.8423669834
 20
343.3416579159
 30
0.0
 40
68.71329335739819
 50
88.4899222207
 51
94.8486208075
  0
ARC
  5
CD
  8
0
  6
CONTINUOUS
 62
     7
 10
270.3969706431
 20
343.3416579159
 30
0.0
 40
68.71329335739819
 50
85.1513791925
 51
91.5100777793
  0
LINE
  5
CE
  8
0
  6
CONTINUOUS
 62
     7
 10
268.7522430139
 20
398.4547960049
 30
0.0
 11
268.4007581489
 21
411.8774714356
 31
0.0
  0
POLYLINE
  5
CF
  8
0
  6
CONTINUOUS
 62
     7
 66
     1
 10
0.0
 20
0.0
 30
0.0
  0
VERTEX
  5
4DB
  8
0
  6
CONTINUOUS
 62
     7
 10
268.5861844735
 20
412.0310875064
 30
0.0
  0
VERTEX
  5
4DC
  8
0
  6
CONTINUOUS
 62
     7
 10
268.4459384697
 20
411.9810941106
 30
0.0
  0
VERTEX
  5
4DD
  8
0
  6
CONTINUOUS
 62
     7
 10
268.4007581489
 20
411.8774714356
 30
0.0
  0
SEQEND
  5
B7A
  8
0
  6
CONTINUOUS
 62
     7
  0
POLYLINE
  5
D0
  8
0
  6
CONTINUOUS
 62
     7
 66
     1
 10
0.0
 20
0.0
 30
0.0
  0
VERTEX
  5
4DE
  8
0
  6
CONTINUOUS
 62
     7
 10
365.653153153
 20
412.0310875064
 30
0.0
  0
VERTEX
  5
4DF
  8
0
  6
CONTINUOUS
 62
     7
 10
365.7933991568
 20
411.9810941106
 30
0.0
  0
VERTEX
  5
4E0
  8
0
  6
CONTINUOUS
 62
     7
 10
365.8385794776
 20
411.8774714356
 30
0.0
  0
SEQEND
  5
B79
  8
0
  6
CONTINUOUS
 62
     7
  0
LINE
  5
D1
  8
0
  6
CONTINUOUS
 62
     7
 10
365.4870946126
 20
398.4547960049
 30
0.0
 11
365.8385794776
 21
411.8774714356
 31
0.0
  0
LINE
  5
D2
  8
0
  6
CONTINUOUS
 62
     7
 10
359.4891499894
 20
392.6118569857
 30
0.0
 11
353.2354381101
 21
392.6118569857
 31
0.0
  0
ARC
  5
D3
  8
0
  6
CONTINUOUS
 62
     7
 10
359.4891499406
 20
398.6118582374
 30
0.0
 40
6.0
 50
270.0
 51
358.5
  0
LINE
  5
D4
  8
0
  6
CONTINUOUS
 62
     7
 10
274.7501876371
 20
392.6118569857
 30
0.0
 11
281.0038995164
 21
392.6118569857
 31
0.0
  0
ARC
  5
D5
  8
0
  6
CONTINUOUS
 62
     7
 10
274.7501876859
 20
398.6118582374
 30
0.0
 40
6.0
 50
181.5
 51
270.0
  0
LINE
  5
D6
  8
0
  6
CONTINUOUS
 62
     7
 10
304.9972286614
 20
377.6379930263
 30
0.0
 11
313.8248576949
 21
377.6379930263
 31
0.0
  0
LINE
  5
D7
  8
0
  6
CONTINUOUS
 62
     7
 10
317.1196688132
 20
369.637991715
 30
0.0
 11
313.8248576949
 21
377.6379930263
 31
0.0
  0
LINE
  5
D8
  8
0
  6
CONTINUOUS
 62
     7
 10
320.4144799316
 20
377.6379930263
 30
0.0
 11
317.1196688132
 21
369.637991715
 31
0.0
  0
LINE
  5
D9
  8
0
  6
CONTINUOUS
 62
     7
 10
320.4144799316
 20
377.6379930263
 30
0.0
 11
329.2421089651
 21
377.6379930263
 31
0.0
  0
LINE
  5
DA
  8
0
  6
CONTINUOUS
 62
     7
 10
329.2421089651
 20
375.2665626293
 30
0.0
 11
329.2421089651
 21
377.6379930263
 31
0.0
  0
LINE
  5
DB
  8
0
  6
CONTINUOUS
 62
     7
 10
322.0584067682
 20
375.2665626293
 30
0.0
 11
329.2421089651
 21
375.2665626293
 31
0.0
  0
LINE
  5
DC
  8
0
  6
CONTINUOUS
 62
     7
 10
318.3289815139
 20
366.2094207888
 30
0.0
 11
322.0584067682
 21
375.2665626293
 31
0.0
  0
LINE
  5
DD
  8
0
  6
CONTINUOUS
 62
     7
 10
315.9103561126
 20
366.2094207888
 30
0.0
 11
318.3289815139
 21
366.2094207888
 31
0.0
  0
LINE
  5
DE
  8
0
  6
CONTINUOUS
 62
     7
 10
312.1809308583
 20
375.2665626293
 30
0.0
 11
315.9103561126
 21
366.2094207888
 31
0.0
  0
LINE
  5
DF
  8
0
  6
CONTINUOUS
 62
     7
 10
304.9972286614
 20
375.2665626293
 30
0.0
 11
312.1809308583
 21
375.2665626293
 31
0.0
  0
LINE
  5
E0
  8
0
  6
CONTINUOUS
 62
     7
 10
304.9972286614
 20
377.6379930263
 30
0.0
 11
304.9972286614
 21
375.2665626293
 31
0.0
  0
LINE
  5
E1
  8
0
  6
CONTINUOUS
 62
     7
 10
320.3764628785
 20
377.6379930263
 30
0.0
 11
317.1196688132
 21
369.637991715
 31
0.0
  0
LINE
  5
E2
  8
0
  6
CONTINUOUS
 62
     7
 10
320.3764628785
 20
377.6379930263
 30
0.0
 11
320.4144799316
 21
377.6379930263
 31
0.0
  0
LINE
  5
E3
  8
0
  6
CONTINUOUS
 62
     7
 10
313.862874748
 20
377.6379930263
 30
0.0
 11
313.8248576949
 21
377.6379930263
 31
0.0
  0
LINE
  5
E4
  8
0
  6
CONTINUOUS
 62
     7
 10
317.1196688132
 20
369.637991715
 30
0.0
 11
313.862874748
 21
377.6379930263
 31
0.0
  0
LINE
  5
E5
  8
0
  6
CONTINUOUS
 62
     7
 10
314.9117616637
 20
366.2094207888
 30
0.0
 11
311.5593461486
 21
374.3522795325
 31
0.0
  0
LINE
  5
E6
  8
0
  6
CONTINUOUS
 62
     7
 10
311.6235035638
 20
374.3522795325
 30
0.0
 11
311.5593461486
 21
374.3522795325
 31
0.0
  0
LINE
  5
E7
  8
0
  6
CONTINUOUS
 62
     7
 10
314.937237527
 20
366.2094207888
 30
0.0
 11
311.6235035638
 21
374.3522795325
 31
0.0
  0
LINE
  5
E8
  8
0
  6
CONTINUOUS
 62
     7
 10
304.9972286614
 20
372.0665606147
 30
0.0
 11
307.2636496442
 21
372.0665606147
 31
0.0
  0
LINE
  5
E9
  8
0
  6
CONTINUOUS
 62
     7
 10
304.9972286614
 20
374.3522795325
 30
0.0
 11
304.9972286614
 21
372.0665606147
 31
0.0
  0
LINE
  5
EA
  8
0
  6
CONTINUOUS
 62
     7
 10
304.9972286614
 20
374.3522795325
 30
0.0
 11
311.5593461486
 21
374.3522795325
 31
0.0
  0
LINE
  5
EB
  8
0
  6
CONTINUOUS
 62
     7
 10
312.3224103989
 20
366.2094207888
 30
0.0
 11
314.9117616637
 21
366.2094207888
 31
0.0
  0
LINE
  5
EC
  8
0
  6
CONTINUOUS
 62
     7
 10
311.8049913252
 20
367.4665647035
 30
0.0
 11
312.3224103989
 21
366.2094207888
 31
0.0
  0
LINE
  5
ED
  8
0
  6
CONTINUOUS
 62
     7
 10
308.0449771302
 20
367.4665647035
 30
0.0
 11
311.8049913252
 21
367.4665647035
 31
0.0
  0
LINE
  5
EE
  8
0
  6
CONTINUOUS
 62
     7
 10
307.5580286028
 20
366.2094207888
 30
0.0
 11
308.0449771302
 21
367.4665647035
 31
0.0
  0
LINE
  5
EF
  8
0
  6
CONTINUOUS
 62
     7
 10
304.9972286614
 20
366.2094207888
 30
0.0
 11
307.5580286028
 21
366.2094207888
 31
0.0
  0
LINE
  5
F0
  8
0
  6
CONTINUOUS
 62
     7
 10
307.2636496442
 20
372.0665606147
 30
0.0
 11
304.9972286614
 21
366.2094207888
 31
0.0
  0
LINE
  5
F1
  8
0
  6
CONTINUOUS
 62
     7
 10
308.6391898038
 20
369.637991715
 30
0.0
 11
310.9114702026
 21
369.637991715
 31
0.0
  0
LINE
  5
F2
  8
0
  6
CONTINUOUS
 62
     7
 10
310.9114702026
 20
369.637991715
 30
0.0
 11
309.7416126335
 21
372.4820645934
 31
0.0
  0
LINE
  5
F3
  8
0
  6
CONTINUOUS
 62
     7
 10
309.7416126335
 20
372.4820645934
 30
0.0
 11
308.6391898038
 21
369.637991715
 31
0.0
  0
LINE
  5
F4
  8
0
  6
CONTINUOUS
 62
     7
 10
322.6158340627
 20
374.3522795325
 30
0.0
 11
319.3021000994
 21
366.2094207888
 31
0.0
  0
LINE
  5
F5
  8
0
  6
CONTINUOUS
 62
     7
 10
322.6799914779
 20
374.3522795325
 30
0.0
 11
322.6158340627
 21
374.3522795325
 31
0.0
  0
LINE
  5
F6
  8
0
  6
CONTINUOUS
 62
     7
 10
322.6799914779
 20
374.3522795325
 30
0.0
 11
319.3275759628
 21
366.2094207888
 31
0.0
  0
LINE
  5
F7
  8
0
  6
CONTINUOUS
 62
     7
 10
329.2421089651
 20
372.0665606147
 30
0.0
 11
329.2421089651
 21
374.3522795325
 31
0.0
  0
LINE
  5
F8
  8
0
  6
CONTINUOUS
 62
     7
 10
328.5512436347
 20
372.0665606147
 30
0.0
 11
329.2421089651
 21
372.0665606147
 31
0.0
  0
ARC
  5
F9
  8
0
  6
CONTINUOUS
 62
     7
 10
325.1759147953
 20
373.3747136233
 30
0.0
 40
3.619959815798215
 50
281.7670315705
 51
338.8155057216
  0
LINE
  5
FA
  8
0
  6
CONTINUOUS
 62
     7
 10
328.6664109843
 20
366.2094207888
 30
0.0
 11
325.9141432287
 21
369.830827642
 31
0.0
  0
LINE
  5
FB
  8
0
  6
CONTINUOUS
 62
     7
 10
325.6714554669
 20
366.2094207888
 30
0.0
 11
328.6664109843
 21
366.2094207888
 31
0.0
  0
LINE
  5
FC
  8
0
  6
CONTINUOUS
 62
     7
 10
323.2345377261
 20
369.4111513382
 30
0.0
 11
325.6714554669
 21
366.2094207888
 31
0.0
  0
LINE
  5
FD
  8
0
  6
CONTINUOUS
 62
     7
 10
321.9169272276
 20
366.2094207888
 30
0.0
 11
323.2345377261
 21
369.4111513382
 31
0.0
  0
LINE
  5
FE
  8
0
  6
CONTINUOUS
 62
     7
 10
322.6799914779
 20
374.3522795325
 30
0.0
 11
325.2666803243
 21
374.3522795325
 31
0.0
  0
LINE
  5
FF
  8
0
  6
CONTINUOUS
 62
     7
 10
324.0456093269
 20
371.3827537781
 30
0.0
 11
325.2666803243
 21
374.3522795325
 31
0.0
  0
ARC
  5
100
  8
0
  6
CONTINUOUS
 62
     7
 10
323.9541612208
 20
374.3652116212
 30
0.0
 40
2.983859504413798
 50
271.7562526312
 51
359.7516785159
  0
LINE
  5
101
  8
0
  6
CONTINUOUS
 62
     7
 10
326.9379927011
 20
374.3522795325
 30
0.0
 11
329.2421089651
 21
374.3522795325
 31
0.0
  0
LINE
  5
102
  8
0
  6
CONTINUOUS
 62
     7
 10
319.3275759628
 20
366.2094207888
 30
0.0
 11
321.9169272276
 21
366.2094207888
 31
0.0
  0
LINE
  5
103
  8
0
  6
CONTINUOUS
 62
     7
 10
323.2095899226
 20
369.3505334144
 30
0.0
 11
325.5727818402
 21
366.2094207888
 31
0.0
  0
LINE
  5
104
  8
0
  6
CONTINUOUS
 62
     7
 10
325.6714554669
 20
366.2094207888
 30
0.0
 11
325.5727818402
 21
366.2094207888
 31
0.0
  0
ARC
  5
105
  8
0
  6
CONTINUOUS
 62
     7
 10
323.8722426507
 20
374.3411462947
 30
0.0
 40
2.952483100544409
 50
273.4564300055
 51
0.2160517191
  0
LINE
  5
106
  8
0
  6
CONTINUOUS
 62
     7
 10
326.9379927011
 20
374.3522795325
 30
0.0
 11
326.8247047605
 21
374.3522795325
 31
0.0
  0
LINE
  5
107
  8
0
  6
CONTINUOUS
 62
     7
 10
309.7856884057
 20
372.3749177938
 30
0.0
 11
308.7370420041
 21
369.637991715
 31
0.0
  0
LINE
  5
108
  8
0
  6
CONTINUOUS
 62
     7
 10
307.6683549376
 20
366.2094207888
 30
0.0
 11
308.1496857273
 21
367.4665647035
 31
0.0
  0
LINE
  5
109
  8
0
  6
CONTINUOUS
 62
     7
 10
307.6683549376
 20
366.2094207888
 30
0.0
 11
307.5580286028
 21
366.2094207888
 31
0.0
  0
POLYLINE
  5
10A
  8
0
  6
CONTINUOUS
 62
     7
 66
     1
 10
0.0
 20
0.0
 30
0.0
  0
VERTEX
  5
4E1
  8
0
  6
CONTINUOUS
 62
     7
 10
288.3636333214
 20
397.1836971527
 30
0.0
  0
VERTEX
  5
4E2
  8
0
  6
CONTINUOUS
 62
     7
 10
288.8621907847
 20
397.8875087982
 30
0.0
  0
VERTEX
  5
4E3
  8
0
  6
CONTINUOUS
 62
     7
 10
289.3509209322
 20
398.5991659051
 30
0.0
  0
VERTEX
  5
4E4
  8
0
  6
CONTINUOUS
 62
     7
 10
289.359593408
 20
398.6118616944
 30
0.0
  0
SEQEND
  5
B78
  8
0
  6
CONTINUOUS
 62
     7
  0
POLYLINE
  5
10B
  8
0
  6
CONTINUOUS
 62
     7
 66
     1
 10
0.0
 20
0.0
 30
0.0
  0
VERTEX
  5
4E5
  8
0
  6
CONTINUOUS
 62
     7
 10
345.8757043051
 20
397.1836971527
 30
0.0
  0
VERTEX
  5
4E6
  8
0
  6
CONTINUOUS
 62
     7
 10
345.3771468418
 20
397.8875087982
 30
0.0
  0
VERTEX
  5
4E7
  8
0
  6
CONTINUOUS
 62
     7
 10
344.8884166943
 20
398.5991659051
 30
0.0
  0
VERTEX
  5
4E8
  8
0
  6
CONTINUOUS
 62
     7
 10
344.8797442185
 20
398.6118616944
 30
0.0
  0
SEQEND
  5
B77
  8
0
  6
CONTINUOUS
 62
     7
  0
LINE
  5
10C
  8
0
  6
CONTINUOUS
 62
     7
 10
266.7683880942
 20
426.6118588334
 30
0.0
 11
259.6196677702
 21
426.6118588334
 31
0.0
  0
LINE
  5
10D
  8
0
  6
CONTINUOUS
 62
     7
 10
267.4631100314
 20
422.6118656283
 30
0.0
 11
267.276569845
 21
422.6118656283
 31
0.0
  0
LINE
  5
10E
  8
0
  6
CONTINUOUS
 62
     7
 10
367.4709495323
 20
426.6118588334
 30
0.0
 11
374.6196698563
 21
426.6118588334
 31
0.0
  0
LINE
  5
10F
  8
0
  6
CONTINUOUS
 62
     7
 10
366.7762275951
 20
422.6118656283
 30
0.0
 11
366.9627677815
 21
422.6118656283
 31
0.0
  0
POLYLINE
  5
110
  8
0
  6
CONTINUOUS
 62
     7
 66
     1
 10
0.0
 20
0.0
 30
0.0
  0
VERTEX
  5
4E9
  8
0
  6
CONTINUOUS
 62
     7
 10
282.082233222
 20
392.6118569857
 30
0.0
  0
VERTEX
  5
4EA
  8
0
  6
CONTINUOUS
 62
     7
 10
282.4915234165
 20
392.6331730967
 30
0.0
  0
VERTEX
  5
4EB
  8
0
  6
CONTINUOUS
 62
     7
 10
282.9069566148
 20
392.696339119
 30
0.0
  0
VERTEX
  5
4EC
  8
0
  6
CONTINUOUS
 62
     7
 10
283.3384905176
 20
392.8042533284
 30
0.0
  0
VERTEX
  5
4ED
  8
0
  6
CONTINUOUS
 62
     7
 10
283.7694320994
 20
392.953466106
 30
0.0
  0
VERTEX
  5
4EE
  8
0
  6
CONTINUOUS
 62
     7
 10
284.1828499155
 20
393.1351261621
 30
0.0
  0
VERTEX
  5
4EF
  8
0
  6
CONTINUOUS
 62
     7
 10
284.5899272876
 20
393.3507236129
 30
0.0
  0
VERTEX
  5
4F0
  8
0
  6
CONTINUOUS
 62
     7
 10
284.9972989576
 20
393.6035590654
 30
0.0
  0
VERTEX
  5
4F1
  8
0
  6
CONTINUOUS
 62
     7
 10
285.3938039558
 20
393.88593607
 30
0.0
  0
VERTEX
  5
4F2
  8
0
  6
CONTINUOUS
 62
     7
 10
285.9838452356
 20
394.3749698287
 30
0.0
  0
VERTEX
  5
4F3
  8
0
  6
CONTINUOUS
 62
     7
 10
286.5423984992
 20
394.9161576515
 30
0.0
  0
VERTEX
  5
4F4
  8
0
  6
CONTINUOUS
 62
     7
 10
287.0827369558
 20
395.5143349653
 30
0.0
  0
VERTEX
  5
4F5
  8
0
  6
CONTINUOUS
 62
     7
 10
287.5942342149
 20
396.1453171855
 30
0.0
  0
VERTEX
  5
4F6
  8
0
  6
CONTINUOUS
 62
     7
 10
288.3636333214
 20
397.1836971527
 30
0.0
  0
SEQEND
  5
B76
  8
0
  6
CONTINUOUS
 62
     7
  0
LINE
  5
111
  8
0
  6
CONTINUOUS
 62
     7
 10
281.0038995164
 20
392.6118569857
 30
0.0
 11
282.082233222
 21
392.6118569857
 31
0.0
  0
LINE
  5
112
  8
0
  6
CONTINUOUS
 62
     7
 10
353.2354381101
 20
392.6118569857
 30
0.0
 11
352.1571044045
 21
392.6118569857
 31
0.0
  0
POLYLINE
  5
113
  8
0
  6
CONTINUOUS
 62
     7
 66
     1
 10
0.0
 20
0.0
 30
0.0
  0
VERTEX
  5
4F7
  8
0
  6
CONTINUOUS
 62
     7
 10
352.1571044045
 20
392.6118569857
 30
0.0
  0
VERTEX
  5
4F8
  8
0
  6
CONTINUOUS
 62
     7
 10
351.74781421
 20
392.6331730967
 30
0.0
  0
VERTEX
  5
4F9
  8
0
  6
CONTINUOUS
 62
     7
 10
351.3323810117
 20
392.696339119
 30
0.0
  0
VERTEX
  5
4FA
  8
0
  6
CONTINUOUS
 62
     7
 10
350.9008471089
 20
392.8042533284
 30
0.0
  0
VERTEX
  5
4FB
  8
0
  6
CONTINUOUS
 62
     7
 10
350.4699055271
 20
392.953466106
 30
0.0
  0
VERTEX
  5
4FC
  8
0
  6
CONTINUOUS
 62
     7
 10
350.056487711
 20
393.1351261621
 30
0.0
  0
VERTEX
  5
4FD
  8
0
  6
CONTINUOUS
 62
     7
 10
349.6494103389
 20
393.3507236129
 30
0.0
  0
VERTEX
  5
4FE
  8
0
  6
CONTINUOUS
 62
     7
 10
349.2420386689
 20
393.6035590654
 30
0.0
  0
VERTEX
  5
4FF
  8
0
  6
CONTINUOUS
 62
     7
 10
348.8455336707
 20
393.88593607
 30
0.0
  0
VERTEX
  5
500
  8
0
  6
CONTINUOUS
 62
     7
 10
348.2554923909
 20
394.3749698287
 30
0.0
  0
VERTEX
  5
501
  8
0
  6
CONTINUOUS
 62
     7
 10
347.6969391273
 20
394.9161576515
 30
0.0
  0
VERTEX
  5
502
  8
0
  6
CONTINUOUS
 62
     7
 10
347.1566006707
 20
395.5143349653
 30
0.0
  0
VERTEX
  5
503
  8
0
  6
CONTINUOUS
 62
     7
 10
346.6451034116
 20
396.1453171855
 30
0.0
  0
VERTEX
  5
504
  8
0
  6
CONTINUOUS
 62
     7
 10
345.8757043051
 20
397.1836971527
 30
0.0
  0
SEQEND
  5
B75
  8
0
  6
CONTINUOUS
 62
     7
  0
POLYLINE
  5
114
  8
0
  6
CONTINUOUS
 62
     7
 66
     1
 10
0.0
 20
0.0
 30
0.0
  0
VERTEX
  5
505
  8
0
  6
CONTINUOUS
 62
     7
 10
266.9578377323
 20
430.4578634387
 30
0.0
  0
VERTEX
  5
506
  8
0
  6
CONTINUOUS
 62
     7
 10
267.0354876833
 20
430.4381939059
 30
0.0
  0
VERTEX
  5
507
  8
0
  6
CONTINUOUS
 62
     7
 10
267.1112675386
 20
430.3775461799
 30
0.0
  0
VERTEX
  5
508
  8
0
  6
CONTINUOUS
 62
     7
 10
267.1841416674
 20
430.2706601506
 30
0.0
  0
VERTEX
  5
509
  8
0
  6
CONTINUOUS
 62
     7
 10
267.2500569539
 20
430.110219348
 30
0.0
  0
VERTEX
  5
50A
  8
0
  6
CONTINUOUS
 62
     7
 10
267.3047963696
 20
429.8788490182
 30
0.0
  0
VERTEX
  5
50B
  8
0
  6
CONTINUOUS
 62
     7
 10
267.3327285962
 20
429.6285095101
 30
0.0
  0
VERTEX
  5
50C
  8
0
  6
CONTINUOUS
 62
     7
 10
267.3372473734
 20
429.3890478497
 30
0.0
  0
SEQEND
  5
B74
  8
0
  6
CONTINUOUS
 62
     7
  0
LINE
  5
115
  8
0
  6
CONTINUOUS
 62
     7
 10
265.7080959695
 20
430.4578634387
 30
0.0
 11
266.9578377323
 21
430.4578634387
 31
0.0
  0
LINE
  5
116
  8
0
  6
CONTINUOUS
 62
     7
 10
266.3044255393
 20
452.6118519193
 30
0.0
 11
265.7080959695
 21
430.4578634387
 31
0.0
  0
LINE
  5
117
  8
0
  6
CONTINUOUS
 62
     7
 10
266.3044255393
 20
452.6118519193
 30
0.0
 11
267.8396959024
 21
452.6118519193
 31
0.0
  0
POLYLINE
  5
118
  8
0
  6
CONTINUOUS
 62
     7
 66
     1
 10
0.0
 20
0.0
 30
0.0
  0
VERTEX
  5
50D
  8
0
  6
CONTINUOUS
 62
     7
 10
367.2814998942
 20
430.4578634387
 30
0.0
  0
VERTEX
  5
50E
  8
0
  6
CONTINUOUS
 62
     7
 10
367.2038499432
 20
430.4381939059
 30
0.0
  0
VERTEX
  5
50F
  8
0
  6
CONTINUOUS
 62
     7
 10
367.1280700879
 20
430.3775461799
 30
0.0
  0
VERTEX
  5
510
  8
0
  6
CONTINUOUS
 62
     7
 10
367.0551959591
 20
430.2706601506
 30
0.0
  0
VERTEX
  5
511
  8
0
  6
CONTINUOUS
 62
     7
 10
366.9892806726
 20
430.110219348
 30
0.0
  0
VERTEX
  5
512
  8
0
  6
CONTINUOUS
 62
     7
 10
366.9345412569
 20
429.8788490182
 30
0.0
  0
VERTEX
  5
513
  8
0
  6
CONTINUOUS
 62
     7
 10
366.9066090303
 20
429.6285095101
 30
0.0
  0
VERTEX
  5
514
  8
0
  6
CONTINUOUS
 62
     7
 10
366.9020902531
 20
429.3890478497
 30
0.0
  0
SEQEND
  5
B73
  8
0
  6
CONTINUOUS
 62
     7
  0
LINE
  5
119
  8
0
  6
CONTINUOUS
 62
     7
 10
368.531241657
 20
430.4578634387
 30
0.0
 11
367.2814998942
 21
430.4578634387
 31
0.0
  0
LINE
  5
11A
  8
0
  6
CONTINUOUS
 62
     7
 10
367.9349120872
 20
452.6118519193
 30
0.0
 11
368.531241657
 21
430.4578634387
 31
0.0
  0
LINE
  5
11B
  8
0
  6
CONTINUOUS
 62
     7
 10
367.9349120872
 20
452.6118519193
 30
0.0
 11
366.3996417241
 21
452.6118519193
 31
0.0
  0
LINE
  5
11C
  8
0
  6
CONTINUOUS
 62
     7
 10
343.2385582643
 20
255.4366583413
 30
0.0
 11
343.2141445743
 21
255.5713685637
 31
0.0
  0
LINE
  5
11D
  8
0
  6
CONTINUOUS
 62
     7
 10
291.0007793622
 20
255.4366583413
 30
0.0
 11
291.0251930522
 21
255.5713685637
 31
0.0
  0
LINE
  5
11E
  8
0
  6
CONTINUOUS
 62
     7
 10
260.4950253086
 20
412.6064660436
 30
0.0
 11
267.6180858331
 21
412.6064660436
 31
0.0
  0
LINE
  5
11F
  8
0
  6
CONTINUOUS
 62
     7
 10
259.6196677702
 20
422.6118656283
 30
0.0
 11
266.7677585201
 21
422.6118656283
 31
0.0
  0
LINE
  5
120
  8
0
  6
CONTINUOUS
 62
     7
 10
373.7443123179
 20
412.6064660436
 30
0.0
 11
366.6212517934
 21
412.6064660436
 31
0.0
  0
LINE
  5
121
  8
0
  6
CONTINUOUS
 62
     7
 10
374.6196698563
 20
422.6118656283
 30
0.0
 11
367.4715791063
 21
422.6118656283
 31
0.0
  0
ARC
  5
122
  8
0
  6
CONTINUOUS
 62
     7
 10
317.1196688132
 20
567.1043550912
 30
0.0
 40
97.6860014989342
 50
254.6118949462
 51
285.3881050538
  0
ARC
  5
123
  8
0
  6
CONTINUOUS
 62
     7
 10
270.6374547125
 20
341.1086238131
 30
0.0
 40
5.996831473419635
 50
269.9827139793
 51
333.672329381
  0
ARC
  5
124
  8
0
  6
CONTINUOUS
 62
     7
 10
363.6018829139
 20
341.1086238131
 30
0.0
 40
5.996831473419668
 50
206.327670619
 51
270.0172860207
  0
LINE
  5
125
  8
0
  6
CONTINUOUS
 62
     7
 10
363.6036921458
 20
335.1118596679
 30
0.0
 11
363.6059869247
 21
335.0848215109
 31
0.0
  0
ARC
  5
126
  8
0
  6
CONTINUOUS
 62
     7
 10
346.7125396289
 20
459.8891241929
 30
0.0
 40
13.53851017878704
 50
92.7660030464
 51
105.7342097275
  0
LINE
  5
127
  8
0
  6
CONTINUOUS
 62
     7
 10
347.0577426421
 20
473.4118612891
 30
0.0
 11
346.0592102425
 21
473.4118612891
 31
0.0
  0
ARC
  5
128
  8
0
  6
CONTINUOUS
 62
     7
 10
346.9514503924
 20
465.2136819786
 30
0.0
 40
8.19886833959016
 50
25.6224824309
 51
89.2571818867
  0
ARC
  5
129
  8
0
  6
CONTINUOUS
 62
     7
 10
287.5267979976
 20
459.8891241929
 30
0.0
 40
13.53851017878704
 50
74.2657902725
 51
87.2339969536
  0
ARC
  5
12A
  8
0
  6
CONTINUOUS
 62
     7
 10
287.2878872341
 20
465.2136819786
 30
0.0
 40
8.198868339590108
 50
90.7428181133
 51
154.3775175691
  0
LINE
  5
12B
  8
0
  6
CONTINUOUS
 62
     7
 10
287.1815949844
 20
473.4118612891
 30
0.0
 11
288.180127384
 21
473.4118612891
 31
0.0
  0
LINE
  5
12C
  8
0
  6
CONTINUOUS
 62
     7
 10
272.1196670251
 20
253.5071926599
 30
0.0
 11
264.1196694391
 21
253.5071926599
 31
0.0
  0
LINE
  5
12D
  8
0
  6
CONTINUOUS
 62
     7
 10
362.1196706014
 20
253.5071926599
 30
0.0
 11
370.1196681874
 21
253.5071926599
 31
0.0
  0
LINE
  5
12E
  8
0
  6
CONTINUOUS
 62
     7
 10
362.1196706014
 20
238.2770883327
 30
0.0
 11
272.1196670251
 21
238.2770883327
 31
0.0
  0
LINE
  5
12F
  8
0
  6
CONTINUOUS
 62
     7
 10
246.914010139
 20
286.6118582374
 30
0.0
 11
246.914010139
 21
335.1118596679
 31
0.0
  0
LINE
  5
130
  8
0
  6
CONTINUOUS
 62
     7
 10
246.914010139
 20
238.1118568068
 30
0.0
 11
246.914010139
 21
286.6118582374
 31
0.0
  0
LINE
  5
131
  8
0
  6
CONTINUOUS
 62
     7
 10
387.3253274875
 20
286.6118582374
 30
0.0
 11
387.3253274875
 21
335.1118596679
 31
0.0
  0
LINE
  5
132
  8
0
  6
CONTINUOUS
 62
     7
 10
387.3253274875
 20
238.1118568068
 30
0.0
 11
387.3253274875
 21
286.6118582374
 31
0.0
  0
LINE
  5
133
  8
0
  6
CONTINUOUS
 62
     7
 10
223.9696715193
 20
286.6118582374
 30
0.0
 11
223.9696715193
 21
331.0661534255
 31
0.0
  0
LINE
  5
134
  8
0
  6
CONTINUOUS
 62
     7
 10
223.9696715193
 20
242.1575630492
 30
0.0
 11
223.9696715193
 21
286.6118582374
 31
0.0
  0
LINE
  5
135
  8
0
  6
CONTINUOUS
 62
     7
 10
410.2696661072
 20
286.6118582374
 30
0.0
 11
410.2696661072
 21
331.0661534255
 31
0.0
  0
LINE
  5
136
  8
0
  6
CONTINUOUS
 62
     7
 10
410.2696661072
 20
242.1575630492
 30
0.0
 11
410.2696661072
 21
286.6118582374
 31
0.0
  0
LINE
  5
137
  8
0
  6
CONTINUOUS
 62
     7
 10
363.1196689027
 20
368.3889093285
 30
0.0
 11
363.1190840321
 21
368.3673995024
 31
0.0
  0
LINE
  5
138
  8
0
  6
CONTINUOUS
 62
     7
 10
271.1196687238
 20
368.3889093285
 30
0.0
 11
271.1202945726
 21
368.3658125287
 31
0.0
  0
POLYLINE
  5
139
  8
0
  6
CONTINUOUS
 62
     7
 66
     1
 10
0.0
 20
0.0
 30
0.0
  0
VERTEX
  5
515
  8
0
  6
CONTINUOUS
 62
     7
 10
354.3440658765
 20
468.7591972237
 30
0.0
  0
VERTEX
  5
516
  8
0
  6
CONTINUOUS
 62
     7
 10
354.6922762113
 20
468.0364462024
 30
0.0
  0
VERTEX
  5
517
  8
0
  6
CONTINUOUS
 62
     7
 10
355.0120029764
 20
467.3541220313
 30
0.0
  0
VERTEX
  5
518
  8
0
  6
CONTINUOUS
 62
     7
 10
355.3359802978
 20
466.6429790145
 30
0.0
  0
VERTEX
  5
519
  8
0
  6
CONTINUOUS
 62
     7
 10
355.615708621
 20
466.0118552333
 30
0.0
  0
VERTEX
  5
51A
  8
0
  6
CONTINUOUS
 62
     7
 10
355.7786379175
 20
465.6364055758
 30
0.0
  0
VERTEX
  5
51B
  8
0
  6
CONTINUOUS
 62
     7
 10
355.9172522443
 20
465.3122159129
 30
0.0
  0
VERTEX
  5
51C
  8
0
  6
CONTINUOUS
 62
     7
 10
356.0295548456
 20
465.0462003833
 30
0.0
  0
VERTEX
  5
51D
  8
0
  6
CONTINUOUS
 62
     7
 10
356.1006482856
 20
464.8762377387
 30
0.0
  0
VERTEX
  5
51E
  8
0
  6
CONTINUOUS
 62
     7
 10
356.1522994356
 20
464.751932252
 30
0.0
  0
VERTEX
  5
51F
  8
0
  6
CONTINUOUS
 62
     7
 10
356.1841022389
 20
464.6750869637
 30
0.0
  0
VERTEX
  5
520
  8
0
  6
CONTINUOUS
 62
     7
 10
356.1947826462
 20
464.6491887456
 30
0.0
  0
VERTEX
  5
521
  8
0
  6
CONTINUOUS
 62
     7
 10
356.1947789209
 20
464.6492036467
 30
0.0
  0
SEQEND
  5
B72
  8
0
  6
CONTINUOUS
 62
     7
  0
POLYLINE
  5
13A
  8
0
  6
CONTINUOUS
 62
     7
 66
     1
 10
0.0
 20
0.0
 30
0.0
  0
VERTEX
  5
522
  8
0
  6
CONTINUOUS
 62
     7
 10
279.89527175
 20
468.7591972237
 30
0.0
  0
VERTEX
  5
523
  8
0
  6
CONTINUOUS
 62
     7
 10
279.5470614152
 20
468.0364462024
 30
0.0
  0
VERTEX
  5
524
  8
0
  6
CONTINUOUS
 62
     7
 10
279.2273346501
 20
467.3541220313
 30
0.0
  0
VERTEX
  5
525
  8
0
  6
CONTINUOUS
 62
     7
 10
278.9033573287
 20
466.6429790145
 30
0.0
  0
VERTEX
  5
526
  8
0
  6
CONTINUOUS
 62
     7
 10
278.6236290055
 20
466.0118552333
 30
0.0
  0
VERTEX
  5
527
  8
0
  6
CONTINUOUS
 62
     7
 10
278.460699709
 20
465.6364055758
 30
0.0
  0
VERTEX
  5
528
  8
0
  6
CONTINUOUS
 62
     7
 10
278.3220853822
 20
465.3122159129
 30
0.0
  0
VERTEX
  5
529
  8
0
  6
CONTINUOUS
 62
     7
 10
278.2097827809
 20
465.0462003833
 30
0.0
  0
VERTEX
  5
52A
  8
0
  6
CONTINUOUS
 62
     7
 10
278.1386893408
 20
464.8762377387
 30
0.0
  0
VERTEX
  5
52B
  8
0
  6
CONTINUOUS
 62
     7
 10
278.0870381909
 20
464.751932252
 30
0.0
  0
VERTEX
  5
52C
  8
0
  6
CONTINUOUS
 62
     7
 10
278.0552353876
 20
464.6750869637
 30
0.0
  0
VERTEX
  5
52D
  8
0
  6
CONTINUOUS
 62
     7
 10
278.0445549803
 20
464.6491887456
 30
0.0
  0
VERTEX
  5
52E
  8
0
  6
CONTINUOUS
 62
     7
 10
278.0445587056
 20
464.6492036467
 30
0.0
  0
SEQEND
  5
B71
  8
0
  6
CONTINUOUS
 62
     7
  0
LINE
  5
13B
  8
0
  6
CONTINUOUS
 62
     7
 10
410.2721471505
 20
286.6118582374
 30
0.0
 11
410.2721471505
 21
242.1618583089
 31
0.0
  0
LINE
  5
13C
  8
0
  6
CONTINUOUS
 62
     7
 10
410.2721471505
 20
331.0618581658
 30
0.0
 11
410.2721471505
 21
286.6118582374
 31
0.0
  0
LINE
  5
13D
  8
0
  6
CONTINUOUS
 62
     7
 10
223.967190476
 20
242.1618583089
 30
0.0
 11
223.967190476
 21
331.0618581658
 31
0.0
  0
LINE
  5
13E
  8
0
  6
CONTINUOUS
 62
     7
 10
591.1381650882
 20
331.0618581658
 30
0.0
 11
591.1381650882
 21
242.1618583089
 31
0.0
  0
LINE
  5
13F
  8
0
  6
CONTINUOUS
 62
     7
 10
43.1011725383
 20
331.0618581658
 30
0.0
 11
43.1011725383
 21
242.1618583089
 31
0.0
  0
LINE
  5
140
  8
0
  6
CONTINUOUS
 62
     7
 10
592.1196747737
 20
329.361859191
 30
0.0
 11
592.1196747737
 21
243.8618572837
 31
0.0
  0
LINE
  5
141
  8
0
  6
CONTINUOUS
 62
     7
 10
42.1196628528
 20
329.361859191
 30
0.0
 11
42.1196628528
 21
243.8618572837
 31
0.0
  0
LINE
  5
142
  8
0
  6
CONTINUOUS
 62
     7
 10
278.6196690219
 20
486.6118612176
 30
0.0
 11
355.6196686046
 21
486.6118612176
 31
0.0
  0
LINE
  5
143
  8
0
  6
CONTINUOUS
 62
     7
 10
362.1196706014
 20
233.1118578499
 30
0.0
 11
370.1196681874
 21
233.1118578499
 31
0.0
  0
LINE
  5
144
  8
0
  6
CONTINUOUS
 62
     7
 10
370.1196681874
 20
233.1118578499
 30
0.0
 11
370.1196681874
 21
236.8883150106
 31
0.0
  0
LINE
  5
145
  8
0
  6
CONTINUOUS
 62
     7
 10
362.1196706014
 20
233.1118578499
 30
0.0
 11
362.1196706014
 21
236.8883150106
 31
0.0
  0
LINE
  5
146
  8
0
  6
CONTINUOUS
 62
     7
 10
272.1196670251
 20
233.1118578499
 30
0.0
 11
272.1196670251
 21
236.8883150106
 31
0.0
  0
LINE
  5
147
  8
0
  6
CONTINUOUS
 62
     7
 10
272.1196670251
 20
233.1118578499
 30
0.0
 11
264.1196694391
 21
233.1118578499
 31
0.0
  0
LINE
  5
148
  8
0
  6
CONTINUOUS
 62
     7
 10
264.1196694391
 20
233.1118578499
 30
0.0
 11
264.1196694391
 21
236.8883150106
 31
0.0
  0
LINE
  5
149
  8
0
  6
CONTINUOUS
 62
     7
 10
272.1196670251
 20
236.8883150106
 30
0.0
 11
272.1196670251
 21
253.5071926599
 31
0.0
  0
LINE
  5
14A
  8
0
  6
CONTINUOUS
 62
     7
 10
264.1196694391
 20
236.8883150106
 30
0.0
 11
264.1196694391
 21
253.5071926599
 31
0.0
  0
LINE
  5
14B
  8
0
  6
CONTINUOUS
 62
     7
 10
370.1196681874
 20
236.8883150106
 30
0.0
 11
370.1196681874
 21
253.5071926599
 31
0.0
  0
LINE
  5
14C
  8
0
  6
CONTINUOUS
 62
     7
 10
362.1196706014
 20
236.8883150106
 30
0.0
 11
362.1196706014
 21
253.5071926599
 31
0.0
  0
LINE
  5
14D
  8
0
  6
CONTINUOUS
 62
     7
 10
323.1196688654
 20
517.6118644362
 30
0.0
 11
311.1196687611
 21
517.6118644362
 31
0.0
  0
LINE
  5
14E
  8
0
  6
CONTINUOUS
 62
     7
 10
311.1196687611
 20
517.6118644362
 30
0.0
 11
311.1196687611
 21
486.6118612176
 31
0.0
  0
LINE
  5
14F
  8
0
  6
CONTINUOUS
 62
     7
 10
323.1196688654
 20
517.6118644362
 30
0.0
 11
323.1196688654
 21
486.6118612176
 31
0.0
  0
LINE
  5
150
  8
0
  6
CONTINUOUS
 62
     7
 10
288.6459171938
 20
503.4910025483
 30
0.0
 11
311.1196687611
 21
503.4910025483
 31
0.0
  0
LINE
  5
151
  8
0
  6
CONTINUOUS
 62
     7
 10
323.1196688654
 20
503.4910025483
 30
0.0
 11
345.5934204327
 21
503.4910025483
 31
0.0
  0
LINE
  5
152
  8
0
  6
CONTINUOUS
 62
     7
 10
323.1196688654
 20
537.6118453627
 30
0.0
 11
311.1196687611
 21
537.6118453627
 31
0.0
  0
LINE
  5
153
  8
0
  6
CONTINUOUS
 62
     7
 10
311.1196687611
 20
537.6118453627
 30
0.0
 11
311.1196687611
 21
517.6118644362
 31
0.0
  0
LINE
  5
154
  8
0
  6
CONTINUOUS
 62
     7
 10
323.1196688654
 20
537.6118453627
 30
0.0
 11
323.1196688654
 21
517.6118644362
 31
0.0
  0
LINE
  5
155
  8
0
  6
CONTINUOUS
 62
     7
 10
292.9665628987
 20
531.6118630057
 30
0.0
 11
311.1196687611
 21
531.6118630057
 31
0.0
  0
LINE
  5
156
  8
0
  6
CONTINUOUS
 62
     7
 10
323.1196688654
 20
531.6118630057
 30
0.0
 11
341.2727747278
 21
531.6118630057
 31
0.0
  0
LINE
  5
157
  8
0
  6
CONTINUOUS
 62
     7
 10
323.1196688654
 20
537.6118453627
 30
0.0
 11
339.9696681814
 21
537.6118453627
 31
0.0
  0
LINE
  5
158
  8
0
  6
CONTINUOUS
 62
     7
 10
294.2696694451
 20
537.6118453627
 30
0.0
 11
311.1196687611
 21
537.6118453627
 31
0.0
  0
POLYLINE
  5
159
  8
0
  6
CONTINUOUS
 62
     7
 66
     1
 10
0.0
 20
0.0
 30
0.0
  0
VERTEX
  5
52F
  8
0
  6
CONTINUOUS
 62
     7
 10
304.8196692186
 20
547.0963450557
 30
0.0
  0
VERTEX
  5
530
  8
0
  6
CONTINUOUS
 62
     7
 10
304.8225125464
 20
547.0991762763
 30
0.0
  0
VERTEX
  5
531
  8
0
  6
CONTINUOUS
 62
     7
 10
304.8452591689
 20
547.1219154483
 30
0.0
  0
VERTEX
  5
532
  8
0
  6
CONTINUOUS
 62
     7
 10
304.8907077106
 20
547.1673639899
 30
0.0
  0
VERTEX
  5
533
  8
0
  6
CONTINUOUS
 62
     7
 10
304.9587771462
 20
547.2354324942
 30
0.0
  0
VERTEX
  5
534
  8
0
  6
CONTINUOUS
 62
     7
 10
305.0493398847
 20
547.326001752
 30
0.0
  0
VERTEX
  5
535
  8
0
  6
CONTINUOUS
 62
     7
 10
305.162228288
 20
547.4388929492
 30
0.0
  0
VERTEX
  5
536
  8
0
  6
CONTINUOUS
 62
     7
 10
305.2972337397
 20
547.5738974696
 30
0.0
  0
VERTEX
  5
537
  8
0
  6
CONTINUOUS
 62
     7
 10
305.4541075768
 20
547.7307768947
 30
0.0
  0
VERTEX
  5
538
  8
0
  6
CONTINUOUS
 62
     7
 10
305.6325592267
 20
547.9092332011
 30
0.0
  0
VERTEX
  5
539
  8
0
  6
CONTINUOUS
 62
     7
 10
305.8322571384
 20
548.1089087611
 30
0.0
  0
VERTEX
  5
53A
  8
0
  6
CONTINUOUS
 62
     7
 10
306.0528334396
 20
548.3295055514
 30
0.0
  0
VERTEX
  5
53B
  8
0
  6
CONTINUOUS
 62
     7
 10
306.293880211
 20
548.5705467349
 30
0.0
  0
VERTEX
  5
53C
  8
0
  6
CONTINUOUS
 62
     7
 10
306.5549504178
 20
548.831615079
 30
0.0
  0
VERTEX
  5
53D
  8
0
  6
CONTINUOUS
 62
     7
 10
306.8355625661
 20
549.1122337466
 30
0.0
  0
VERTEX
  5
53E
  8
0
  6
CONTINUOUS
 62
     7
 10
307.1351969781
 20
549.4118662959
 30
0.0
  0
SEQEND
  5
B70
  8
0
  6
CONTINUOUS
 62
     7
  0
POLYLINE
  5
15A
  8
0
  6
CONTINUOUS
 62
     7
 66
     1
 10
0.0
 20
0.0
 30
0.0
  0
VERTEX
  5
53F
  8
0
  6
CONTINUOUS
 62
     7
 10
308.4222549738
 20
578.8903566485
 30
0.0
  0
VERTEX
  5
540
  8
0
  6
CONTINUOUS
 62
     7
 10
308.1909945401
 20
573.5936196929
 30
0.0
  0
VERTEX
  5
541
  8
0
  6
CONTINUOUS
 62
     7
 10
307.9662216993
 20
568.4454473143
 30
0.0
  0
VERTEX
  5
542
  8
0
  6
CONTINUOUS
 62
     7
 10
307.7480994331
 20
563.4496244079
 30
0.0
  0
VERTEX
  5
543
  8
0
  6
CONTINUOUS
 62
     7
 10
307.5367860662
 20
558.6097570544
 30
0.0
  0
VERTEX
  5
544
  8
0
  6
CONTINUOUS
 62
     7
 10
307.3324352669
 20
553.9293619281
 30
0.0
  0
VERTEX
  5
545
  8
0
  6
CONTINUOUS
 62
     7
 10
307.1351969781
 20
549.4118662959
 30
0.0
  0
SEQEND
  5
B6F
  8
0
  6
CONTINUOUS
 62
     7
  0
POLYLINE
  5
15B
  8
0
  6
CONTINUOUS
 62
     7
 66
     1
 10
0.0
 20
0.0
 30
0.0
  0
VERTEX
  5
546
  8
0
  6
CONTINUOUS
 62
     7
 10
309.9363326261
 20
549.4118662959
 30
0.0
  0
VERTEX
  5
547
  8
0
  6
CONTINUOUS
 62
     7
 10
309.6698318774
 20
553.9293619281
 30
0.0
  0
VERTEX
  5
548
  8
0
  6
CONTINUOUS
 62
     7
 10
309.4087444412
 20
558.6097570544
 30
0.0
  0
VERTEX
  5
549
  8
0
  6
CONTINUOUS
 62
     7
 10
309.1532593759
 20
563.4496244079
 30
0.0
  0
VERTEX
  5
54A
  8
0
  6
CONTINUOUS
 62
     7
 10
308.9035624804
 20
568.4454473143
 30
0.0
  0
VERTEX
  5
54B
  8
0
  6
CONTINUOUS
 62
     7
 10
308.6598353626
 20
573.5936196929
 30
0.0
  0
VERTEX
  5
54C
  8
0
  6
CONTINUOUS
 62
     7
 10
308.4222549738
 20
578.8903566485
 30
0.0
  0
SEQEND
  5
B6E
  8
0
  6
CONTINUOUS
 62
     7
  0
ARC
  5
15C
  8
0
  6
CONTINUOUS
 62
     7
 10
317.1196688132
 20
559.3963259022
 30
0.0
 40
12.29998993526886
 50
234.2668087946
 51
305.7331912054
  0
POLYLINE
  5
15D
  8
0
  6
CONTINUOUS
 62
     7
 66
     1
 10
0.0
 20
0.0
 30
0.0
  0
VERTEX
  5
54D
  8
0
  6
CONTINUOUS
 62
     7
 10
325.8170826526
 20
578.8903566485
 30
0.0
  0
VERTEX
  5
54E
  8
0
  6
CONTINUOUS
 62
     7
 10
325.5795022639
 20
573.5936196929
 30
0.0
  0
VERTEX
  5
54F
  8
0
  6
CONTINUOUS
 62
     7
 10
325.3357751461
 20
568.4454473143
 30
0.0
  0
VERTEX
  5
550
  8
0
  6
CONTINUOUS
 62
     7
 10
325.0860782506
 20
563.4496244079
 30
0.0
  0
VERTEX
  5
551
  8
0
  6
CONTINUOUS
 62
     7
 10
324.8305931853
 20
558.6097570544
 30
0.0
  0
VERTEX
  5
552
  8
0
  6
CONTINUOUS
 62
     7
 10
324.5695057491
 20
553.9293619281
 30
0.0
  0
VERTEX
  5
553
  8
0
  6
CONTINUOUS
 62
     7
 10
324.3030050004
 20
549.4118662959
 30
0.0
  0
SEQEND
  5
B6D
  8
0
  6
CONTINUOUS
 62
     7
  0
POLYLINE
  5
15E
  8
0
  6
CONTINUOUS
 62
     7
 66
     1
 10
0.0
 20
0.0
 30
0.0
  0
VERTEX
  5
554
  8
0
  6
CONTINUOUS
 62
     7
 10
327.1041406484
 20
549.4118662959
 30
0.0
  0
VERTEX
  5
555
  8
0
  6
CONTINUOUS
 62
     7
 10
326.9069023596
 20
553.9293619281
 30
0.0
  0
VERTEX
  5
556
  8
0
  6
CONTINUOUS
 62
     7
 10
326.7025515603
 20
558.6097570544
 30
0.0
  0
VERTEX
  5
557
  8
0
  6
CONTINUOUS
 62
     7
 10
326.4912381934
 20
563.4496244079
 30
0.0
  0
VERTEX
  5
558
  8
0
  6
CONTINUOUS
 62
     7
 10
326.2731159272
 20
568.4454473143
 30
0.0
  0
VERTEX
  5
559
  8
0
  6
CONTINUOUS
 62
     7
 10
326.0483430864
 20
573.5936196929
 30
0.0
  0
VERTEX
  5
55A
  8
0
  6
CONTINUOUS
 62
     7
 10
325.8170826526
 20
578.8903566485
 30
0.0
  0
SEQEND
  5
B6C
  8
0
  6
CONTINUOUS
 62
     7
  0
POLYLINE
  5
15F
  8
0
  6
CONTINUOUS
 62
     7
 66
     1
 10
0.0
 20
0.0
 30
0.0
  0
VERTEX
  5
55B
  8
0
  6
CONTINUOUS
 62
     7
 10
327.1041406484
 20
549.4118662959
 30
0.0
  0
VERTEX
  5
55C
  8
0
  6
CONTINUOUS
 62
     7
 10
327.4037750604
 20
549.1122337466
 30
0.0
  0
VERTEX
  5
55D
  8
0
  6
CONTINUOUS
 62
     7
 10
327.6843872087
 20
548.831615079
 30
0.0
  0
VERTEX
  5
55E
  8
0
  6
CONTINUOUS
 62
     7
 10
327.9454574155
 20
548.5705467349
 30
0.0
  0
VERTEX
  5
55F
  8
0
  6
CONTINUOUS
 62
     7
 10
328.1865041869
 20
548.3295055514
 30
0.0
  0
VERTEX
  5
560
  8
0
  6
CONTINUOUS
 62
     7
 10
328.4070804881
 20
548.1089087611
 30
0.0
  0
VERTEX
  5
561
  8
0
  6
CONTINUOUS
 62
     7
 10
328.6067783998
 20
547.9092332011
 30
0.0
  0
VERTEX
  5
562
  8
0
  6
CONTINUOUS
 62
     7
 10
328.7852300497
 20
547.7307768947
 30
0.0
  0
VERTEX
  5
563
  8
0
  6
CONTINUOUS
 62
     7
 10
328.9421038868
 20
547.5738974696
 30
0.0
  0
VERTEX
  5
564
  8
0
  6
CONTINUOUS
 62
     7
 10
329.0771093385
 20
547.4388929492
 30
0.0
  0
VERTEX
  5
565
  8
0
  6
CONTINUOUS
 62
     7
 10
329.1899977418
 20
547.326001752
 30
0.0
  0
VERTEX
  5
566
  8
0
  6
CONTINUOUS
 62
     7
 10
329.2805604803
 20
547.2354324942
 30
0.0
  0
VERTEX
  5
567
  8
0
  6
CONTINUOUS
 62
     7
 10
329.3486299159
 20
547.1673639899
 30
0.0
  0
VERTEX
  5
568
  8
0
  6
CONTINUOUS
 62
     7
 10
329.3940784576
 20
547.1219154483
 30
0.0
  0
VERTEX
  5
569
  8
0
  6
CONTINUOUS
 62
     7
 10
329.4168250801
 20
547.0991762763
 30
0.0
  0
VERTEX
  5
56A
  8
0
  6
CONTINUOUS
 62
     7
 10
329.4196684079
 20
547.0963450557
 30
0.0
  0
SEQEND
  5
B6B
  8
0
  6
CONTINUOUS
 62
     7
  0
LINE
  5
160
  8
0
  6
CONTINUOUS
 62
     7
 10
309.9363326261
 20
549.4118662959
 30
0.0
 11
324.3030050004
 21
549.4118662959
 31
0.0
  0
LINE
  5
161
  8
0
  6
CONTINUOUS
 62
     7
 10
308.4222549738
 20
578.8903566485
 30
0.0
 11
308.6196683513
 21
583.4118457919
 31
0.0
  0
LINE
  5
162
  8
0
  6
CONTINUOUS
 62
     7
 10
308.6196683513
 20
583.4118457919
 30
0.0
 11
325.6196692752
 21
583.4118457919
 31
0.0
  0
LINE
  5
163
  8
0
  6
CONTINUOUS
 62
     7
 10
325.8170826526
 20
578.8903566485
 30
0.0
 11
325.6196692752
 21
583.4118457919
 31
0.0
  0
LINE
  5
164
  8
0
  6
CONTINUOUS
 62
     7
 10
272.1196670251
 20
233.1118578499
 30
0.0
 11
362.1196706014
 21
233.1118578499
 31
0.0
  0
LINE
  5
165
  8
0
  6
CONTINUOUS
 62
     7
 10
287.987753393
 20
517.6118644362
 30
0.0
 11
283.253941329
 21
486.6118612176
 31
0.0
  0
LINE
  5
166
  8
0
  6
CONTINUOUS
 62
     7
 10
288.1389070468
 20
537.6118453627
 30
0.0
 11
287.987753393
 21
517.6118644362
 31
0.0
  0
LINE
  5
167
  8
0
  6
CONTINUOUS
 62
     7
 10
294.2696694451
 20
537.6118453627
 30
0.0
 11
288.1389070468
 21
537.6118453627
 31
0.0
  0
LINE
  5
168
  8
0
  6
CONTINUOUS
 62
     7
 10
346.1004305797
 20
537.6118453627
 30
0.0
 11
346.2515842335
 21
517.6118644362
 31
0.0
  0
LINE
  5
169
  8
0
  6
CONTINUOUS
 62
     7
 10
346.2515842335
 20
517.6118644362
 30
0.0
 11
350.9853962975
 21
486.6118612176
 31
0.0
  0
LINE
  5
16A
  8
0
  6
CONTINUOUS
 62
     7
 10
339.9696681814
 20
537.6118453627
 30
0.0
 11
346.1004305797
 21
537.6118453627
 31
0.0
  0
LINE
  5
16B
  8
0
  6
CONTINUOUS
 62
     8
 10
358.4447387772
 20
412.6064660436
 30
0.0
 11
358.7047528641
 21
422.6118656283
 31
0.0
  0
LINE
  5
16C
  8
0
  6
CONTINUOUS
 62
     8
 10
275.7945988493
 20
412.6064660436
 30
0.0
 11
275.5345847624
 21
422.6118656283
 31
0.0
  0
LINE
  5
16D
  8
0
  6
CONTINUOUS
 62
     8
 10
275.5958024578
 20
429.3449553138
 30
0.0
 11
275.5319323557
 21
426.6118588334
 31
0.0
  0
LINE
  5
16E
  8
0
  6
CONTINUOUS
 62
     8
 10
275.5958024578
 20
429.3449553138
 30
0.0
 11
358.6435351687
 21
429.3449553138
 31
0.0
  0
LINE
  5
16F
  8
0
  6
CONTINUOUS
 62
     8
 10
358.6435351687
 20
429.3449553138
 30
0.0
 11
358.7074052708
 21
426.6118588334
 31
0.0
  0
ARC
  5
170
  8
0
  6
CONTINUOUS
 62
     8
 10
338.8605230848
 20
429.1958756669
 30
0.0
 40
19.78357378869326
 50
0.4317579579
 51
3.6573624813
  0
ARC
  5
171
  8
0
  6
CONTINUOUS
 62
     8
 10
295.3788145417
 20
429.1958756669
 30
0.0
 40
19.78357378869332
 50
176.3426375187
 51
179.5682420421
  0
LINE
  5
172
  8
0
  6
CONTINUOUS
 62
     8
 10
349.7599397021
 20
434.3840362912
 30
0.0
 11
284.4793979244
 21
434.3840362912
 31
0.0
  0
LINE
  5
173
  8
0
  6
CONTINUOUS
 62
     8
 10
276.204853894
 20
411.8090602046
 30
0.0
 11
275.7945988493
 21
412.6064660436
 31
0.0
  0
LINE
  5
174
  8
0
  6
CONTINUOUS
 62
     8
 10
358.0344837325
 20
411.8090602046
 30
0.0
 11
358.4447387772
 21
412.6064660436
 31
0.0
  0
POLYLINE
  5
175
  8
0
  6
CONTINUOUS
 62
     8
 66
     1
 10
0.0
 20
0.0
 30
0.0
  0
VERTEX
  5
56B
  8
0
  6
CONTINUOUS
 62
     8
 10
275.5958024578
 20
429.3449553138
 30
0.0
  0
VERTEX
  5
56C
  8
0
  6
CONTINUOUS
 62
     8
 10
274.6691811996
 20
429.3623300677
 30
0.0
  0
VERTEX
  5
56D
  8
0
  6
CONTINUOUS
 62
     8
 10
273.9805948155
 20
429.3899121171
 30
0.0
  0
SEQEND
  5
B6A
  8
0
  6
CONTINUOUS
 62
     8
  0
LINE
  5
176
  8
0
  6
CONTINUOUS
 62
     8
 10
266.7683880942
 20
426.6118588334
 30
0.0
 11
266.8277729469
 21
429.3449553138
 31
0.0
  0
POLYLINE
  5
177
  8
0
  6
CONTINUOUS
 62
     8
 66
     1
 10
0.0
 20
0.0
 30
0.0
  0
VERTEX
  5
56E
  8
0
  6
CONTINUOUS
 62
     8
 10
267.3372473734
 20
429.3890478497
 30
0.0
  0
VERTEX
  5
56F
  8
0
  6
CONTINUOUS
 62
     8
 10
267.0952599662
 20
429.3624194747
 30
0.0
  0
VERTEX
  5
570
  8
0
  6
CONTINUOUS
 62
     8
 10
266.8277729469
 20
429.3449553138
 30
0.0
  0
SEQEND
  5
B69
  8
0
  6
CONTINUOUS
 62
     8
  0
POLYLINE
  5
178
  8
0
  6
CONTINUOUS
 62
     8
 66
     1
 10
0.0
 20
0.0
 30
0.0
  0
VERTEX
  5
571
  8
0
  6
CONTINUOUS
 62
     8
 10
366.9020902531
 20
429.3890478497
 30
0.0
  0
VERTEX
  5
572
  8
0
  6
CONTINUOUS
 62
     8
 10
367.1440776603
 20
429.3624194747
 30
0.0
  0
VERTEX
  5
573
  8
0
  6
CONTINUOUS
 62
     8
 10
367.4115646796
 20
429.3449553138
 30
0.0
  0
SEQEND
  5
B68
  8
0
  6
CONTINUOUS
 62
     8
  0
LINE
  5
179
  8
0
  6
CONTINUOUS
 62
     8
 10
367.4709495323
 20
426.6118588334
 30
0.0
 11
367.4115646796
 21
429.3449553138
 31
0.0
  0
POLYLINE
  5
17A
  8
0
  6
CONTINUOUS
 62
     8
 66
     1
 10
0.0
 20
0.0
 30
0.0
  0
VERTEX
  5
574
  8
0
  6
CONTINUOUS
 62
     8
 10
358.6435351687
 20
429.3449553138
 30
0.0
  0
VERTEX
  5
575
  8
0
  6
CONTINUOUS
 62
     8
 10
359.5701564269
 20
429.3623300677
 30
0.0
  0
VERTEX
  5
576
  8
0
  6
CONTINUOUS
 62
     8
 10
360.258742811
 20
429.3899121171
 30
0.0
  0
SEQEND
  5
B67
  8
0
  6
CONTINUOUS
 62
     8
  0
LINE
  5
17B
  8
0
  6
CONTINUOUS
 62
     8
 10
366.6212517934
 20
412.6064660436
 30
0.0
 11
367.4715791063
 21
422.6118656283
 31
0.0
  0
LINE
  5
17C
  8
0
  6
CONTINUOUS
 62
     8
 10
267.6180858331
 20
412.6064660436
 30
0.0
 11
266.7677585201
 21
422.6118656283
 31
0.0
  0
LINE
  5
17D
  8
0
  6
CONTINUOUS
 62
     8
 10
365.653153153
 20
412.0310875064
 30
0.0
 11
366.6212517934
 21
412.6064660436
 31
0.0
  0
LINE
  5
17E
  8
0
  6
CONTINUOUS
 62
     8
 10
268.5861844735
 20
412.0310875064
 30
0.0
 11
267.6180858331
 21
412.6064660436
 31
0.0
  0
LINE
  5
17F
  8
0
  6
CONTINUOUS
 62
     8
 10
286.1380610781
 20
398.4547960049
 30
0.0
 11
268.7522430139
 21
398.4547960049
 31
0.0
  0
LINE
  5
180
  8
0
  6
CONTINUOUS
 62
     8
 10
286.3767627793
 20
407.6759847289
 30
0.0
 11
286.1380610781
 21
398.4547960049
 31
0.0
  0
LINE
  5
181
  8
0
  6
CONTINUOUS
 62
     8
 10
348.1012765484
 20
398.4547960049
 30
0.0
 11
365.4870946126
 21
398.4547960049
 31
0.0
  0
LINE
  5
182
  8
0
  6
CONTINUOUS
 62
     8
 10
347.8625748472
 20
407.6759847289
 30
0.0
 11
348.1012765484
 21
398.4547960049
 31
0.0
  0
ARC
  5
183
  8
0
  6
CONTINUOUS
 62
     8
 10
353.6954873907
 20
398.1932506794
 30
0.0
 40
5.600321500150343
 50
177.3232079592
 51
265.2880173019
  0
ARC
  5
184
  8
0
  6
CONTINUOUS
 62
     8
 10
280.5438502358
 20
398.1932506794
 30
0.0
 40
5.600321500150343
 50
274.7119826981
 51
2.6767920408
  0
POLYLINE
  5
185
  8
0
  6
CONTINUOUS
 62
     8
 66
     1
 10
0.0
 20
0.0
 30
0.0
  0
VERTEX
  5
577
  8
0
  6
CONTINUOUS
 62
     8
 10
301.4093596654
 20
282.247597765
 30
0.0
  0
VERTEX
  5
578
  8
0
  6
CONTINUOUS
 62
     8
 10
300.2068191933
 20
282.3254111631
 30
0.0
  0
VERTEX
  5
579
  8
0
  6
CONTINUOUS
 62
     8
 10
299.0120235996
 20
282.459157001
 30
0.0
  0
VERTEX
  5
57A
  8
0
  6
CONTINUOUS
 62
     8
 10
297.8352081196
 20
282.6474373637
 30
0.0
  0
VERTEX
  5
57B
  8
0
  6
CONTINUOUS
 62
     8
 10
296.6866061257
 20
282.8888550343
 30
0.0
  0
VERTEX
  5
57C
  8
0
  6
CONTINUOUS
 62
     8
 10
295.576447265
 20
283.1820123306
 30
0.0
  0
VERTEX
  5
57D
  8
0
  6
CONTINUOUS
 62
     8
 10
294.5429977195
 20
283.5145950725
 30
0.0
  0
VERTEX
  5
57E
  8
0
  6
CONTINUOUS
 62
     8
 10
293.5484364795
 20
283.8946959877
 30
0.0
  0
VERTEX
  5
57F
  8
0
  6
CONTINUOUS
 62
     8
 10
292.6004041152
 20
284.3188556785
 30
0.0
  0
VERTEX
  5
580
  8
0
  6
CONTINUOUS
 62
     8
 10
291.7065411972
 20
284.7836155619
 30
0.0
  0
VERTEX
  5
581
  8
0
  6
CONTINUOUS
 62
     8
 10
290.8744882958
 20
285.2855162404
 30
0.0
  0
VERTEX
  5
582
  8
0
  6
CONTINUOUS
 62
     8
 10
290.2461510318
 20
285.7193508593
 30
0.0
  0
VERTEX
  5
583
  8
0
  6
CONTINUOUS
 62
     8
 10
289.6605055945
 20
286.1755436811
 30
0.0
  0
VERTEX
  5
584
  8
0
  6
CONTINUOUS
 62
     8
 10
289.1206626015
 20
286.6515459486
 30
0.0
  0
VERTEX
  5
585
  8
0
  6
CONTINUOUS
 62
     8
 10
288.736037554
 20
287.031914841
 30
0.0
  0
VERTEX
  5
586
  8
0
  6
CONTINUOUS
 62
     8
 10
288.3804027157
 20
287.4223832682
 30
0.0
  0
VERTEX
  5
587
  8
0
  6
CONTINUOUS
 62
     8
 10
288.051865639
 20
287.8255312739
 30
0.0
  0
VERTEX
  5
588
  8
0
  6
CONTINUOUS
 62
     8
 10
287.7542894499
 20
288.2370782958
 30
0.0
  0
VERTEX
  5
589
  8
0
  6
CONTINUOUS
 62
     8
 10
287.7442386167
 20
288.2519285835
 30
0.0
  0
SEQEND
  5
B66
  8
0
  6
CONTINUOUS
 62
     8
  0
ARC
  5
186
  8
0
  6
CONTINUOUS
 62
     8
 10
279.6967063482
 20
382.4085356377
 30
0.0
 40
94.4998911510574
 50
274.8851778096
 51
282.7700492311
  0
ARC
  5
187
  8
0
  6
CONTINUOUS
 62
     8
 10
378.862988024
 20
294.2735867131
 30
0.0
 40
78.38168763226432
 50
182.945329207
 51
188.8256688681
  0
POLYLINE
  5
188
  8
0
  6
CONTINUOUS
 62
     8
 66
     1
 10
0.0
 20
0.0
 30
0.0
  0
VERTEX
  5
58A
  8
0
  6
CONTINUOUS
 62
     8
 10
282.1484353559
 20
315.0467681175
 30
0.0
  0
VERTEX
  5
58B
  8
0
  6
CONTINUOUS
 62
     8
 10
282.5443890112
 20
313.1969361043
 30
0.0
  0
VERTEX
  5
58C
  8
0
  6
CONTINUOUS
 62
     8
 10
283.0142673271
 20
310.9382125026
 30
0.0
  0
VERTEX
  5
58D
  8
0
  6
CONTINUOUS
 62
     8
 10
283.482297899
 20
308.6462648993
 30
0.0
  0
VERTEX
  5
58E
  8
0
  6
CONTINUOUS
 62
     8
 10
283.9507419782
 20
306.3303953445
 30
0.0
  0
VERTEX
  5
58F
  8
0
  6
CONTINUOUS
 62
     8
 10
284.3946289437
 20
304.1333811766
 30
0.0
  0
VERTEX
  5
590
  8
0
  6
CONTINUOUS
 62
     8
 10
284.8439697342
 20
301.9181205368
 30
0.0
  0
VERTEX
  5
591
  8
0
  6
CONTINUOUS
 62
     8
 10
285.2998707609
 20
299.6882055363
 30
0.0
  0
VERTEX
  5
592
  8
0
  6
CONTINUOUS
 62
     8
 10
285.7634458857
 20
297.4472245609
 30
0.0
  0
VERTEX
  5
593
  8
0
  6
CONTINUOUS
 62
     8
 10
286.2443361597
 20
295.1573975792
 30
0.0
  0
VERTEX
  5
594
  8
0
  6
CONTINUOUS
 62
     8
 10
286.7350127714
 20
292.8588939307
 30
0.0
  0
VERTEX
  5
595
  8
0
  6
CONTINUOUS
 62
     8
 10
287.2351050543
 20
290.5557313411
 30
0.0
  0
VERTEX
  5
596
  8
0
  6
CONTINUOUS
 62
     8
 10
287.7442386167
 20
288.2519285835
 30
0.0
  0
SEQEND
  5
B65
  8
0
  6
CONTINUOUS
 62
     8
  0
ARC
  5
189
  8
0
  6
CONTINUOUS
 62
     8
 10
309.141298871
 20
240.1742276299
 30
0.0
 40
79.98683526372359
 50
100.3735527408
 51
109.7828797443
  0
POLYLINE
  5
18A
  8
0
  6
CONTINUOUS
 62
     8
 66
     1
 10
0.0
 20
0.0
 30
0.0
  0
VERTEX
  5
597
  8
0
  6
CONTINUOUS
 62
     8
 10
300.5848411637
 20
290.2460961545
 30
0.0
  0
VERTEX
  5
598
  8
0
  6
CONTINUOUS
 62
     8
 10
299.8094871806
 20
293.2685538603
 30
0.0
  0
VERTEX
  5
599
  8
0
  6
CONTINUOUS
 62
     8
 10
299.1095256226
 20
296.3101039117
 30
0.0
  0
VERTEX
  5
59A
  8
0
  6
CONTINUOUS
 62
     8
 10
298.479159938
 20
299.3666608294
 30
0.0
  0
VERTEX
  5
59B
  8
0
  6
CONTINUOUS
 62
     8
 10
297.9052454399
 20
302.4440179056
 30
0.0
  0
VERTEX
  5
59C
  8
0
  6
CONTINUOUS
 62
     8
 10
297.3649330603
 20
305.5277126318
 30
0.0
  0
VERTEX
  5
59D
  8
0
  6
CONTINUOUS
 62
     8
 10
296.8321178274
 20
308.6126963085
 30
0.0
  0
VERTEX
  5
59E
  8
0
  6
CONTINUOUS
 62
     8
 10
296.3732142167
 20
311.1847876048
 30
0.0
  0
VERTEX
  5
59F
  8
0
  6
CONTINUOUS
 62
     8
 10
295.8823550658
 20
313.7506781554
 30
0.0
  0
VERTEX
  5
5A0
  8
0
  6
CONTINUOUS
 62
     8
 10
295.3420054333
 20
316.3095744735
 30
0.0
  0
VERTEX
  5
5A1
  8
0
  6
CONTINUOUS
 62
     8
 10
294.7384599762
 20
318.8536534494
 30
0.0
  0
SEQEND
  5
B64
  8
0
  6
CONTINUOUS
 62
     8
  0
POLYLINE
  5
18B
  8
0
  6
CONTINUOUS
 62
     8
 66
     1
 10
0.0
 20
0.0
 30
0.0
  0
VERTEX
  5
5A2
  8
0
  6
CONTINUOUS
 62
     8
 10
333.6544964628
 20
290.2460961545
 30
0.0
  0
VERTEX
  5
5A3
  8
0
  6
CONTINUOUS
 62
     8
 10
334.4298504459
 20
293.2685538603
 30
0.0
  0
VERTEX
  5
5A4
  8
0
  6
CONTINUOUS
 62
     8
 10
335.1298120039
 20
296.3101039117
 30
0.0
  0
VERTEX
  5
5A5
  8
0
  6
CONTINUOUS
 62
     8
 10
335.7601776885
 20
299.3666608294
 30
0.0
  0
VERTEX
  5
5A6
  8
0
  6
CONTINUOUS
 62
     8
 10
336.3340921866
 20
302.4440179056
 30
0.0
  0
VERTEX
  5
5A7
  8
0
  6
CONTINUOUS
 62
     8
 10
336.8744045662
 20
305.5277126318
 30
0.0
  0
VERTEX
  5
5A8
  8
0
  6
CONTINUOUS
 62
     8
 10
337.4072197991
 20
308.6126963085
 30
0.0
  0
VERTEX
  5
5A9
  8
0
  6
CONTINUOUS
 62
     8
 10
337.8661234098
 20
311.1847876048
 30
0.0
  0
VERTEX
  5
5AA
  8
0
  6
CONTINUOUS
 62
     8
 10
338.3569825607
 20
313.7506781554
 30
0.0
  0
VERTEX
  5
5AB
  8
0
  6
CONTINUOUS
 62
     8
 10
338.8973321932
 20
316.3095744735
 30
0.0
  0
VERTEX
  5
5AC
  8
0
  6
CONTINUOUS
 62
     8
 10
339.5008776503
 20
318.8536534494
 30
0.0
  0
SEQEND
  5
B63
  8
0
  6
CONTINUOUS
 62
     8
  0
ARC
  5
18C
  8
0
  6
CONTINUOUS
 62
     8
 10
325.0980387555
 20
240.1742276299
 30
0.0
 40
79.98683526372358
 50
70.2171202557
 51
79.6264472592
  0
POLYLINE
  5
18D
  8
0
  6
CONTINUOUS
 62
     8
 66
     1
 10
0.0
 20
0.0
 30
0.0
  0
VERTEX
  5
5AD
  8
0
  6
CONTINUOUS
 62
     8
 10
352.0908910947
 20
315.0467141008
 30
0.0
  0
VERTEX
  5
5AE
  8
0
  6
CONTINUOUS
 62
     8
 10
351.6949486153
 20
313.1969361043
 30
0.0
  0
VERTEX
  5
5AF
  8
0
  6
CONTINUOUS
 62
     8
 10
351.2250702994
 20
310.9382125026
 30
0.0
  0
VERTEX
  5
5B0
  8
0
  6
CONTINUOUS
 62
     8
 10
350.7570397275
 20
308.6462648993
 30
0.0
  0
VERTEX
  5
5B1
  8
0
  6
CONTINUOUS
 62
     8
 10
350.2885956483
 20
306.3303953445
 30
0.0
  0
VERTEX
  5
5B2
  8
0
  6
CONTINUOUS
 62
     8
 10
349.8447086828
 20
304.1333811766
 30
0.0
  0
VERTEX
  5
5B3
  8
0
  6
CONTINUOUS
 62
     8
 10
349.3953678923
 20
301.9181205368
 30
0.0
  0
VERTEX
  5
5B4
  8
0
  6
CONTINUOUS
 62
     8
 10
348.9394668656
 20
299.6882055363
 30
0.0
  0
VERTEX
  5
5B5
  8
0
  6
CONTINUOUS
 62
     8
 10
348.4758917408
 20
297.4472245609
 30
0.0
  0
VERTEX
  5
5B6
  8
0
  6
CONTINUOUS
 62
     8
 10
347.9950014668
 20
295.1573975792
 30
0.0
  0
VERTEX
  5
5B7
  8
0
  6
CONTINUOUS
 62
     8
 10
347.5043248551
 20
292.8588939307
 30
0.0
  0
VERTEX
  5
5B8
  8
0
  6
CONTINUOUS
 62
     8
 10
347.0042325722
 20
290.5557313411
 30
0.0
  0
VERTEX
  5
5B9
  8
0
  6
CONTINUOUS
 62
     8
 10
346.4950990098
 20
288.2519285835
 30
0.0
  0
SEQEND
  5
B62
  8
0
  6
CONTINUOUS
 62
     8
  0
ARC
  5
18E
  8
0
  6
CONTINUOUS
 62
     8
 10
354.5426312783
 20
382.4085356377
 30
0.0
 40
94.4998911510574
 50
257.2299507689
 51
265.1148221904
  0
POLYLINE
  5
18F
  8
0
  6
CONTINUOUS
 62
     8
 66
     1
 10
0.0
 20
0.0
 30
0.0
  0
VERTEX
  5
5BA
  8
0
  6
CONTINUOUS
 62
     8
 10
332.8299779611
 20
282.247597765
 30
0.0
  0
VERTEX
  5
5BB
  8
0
  6
CONTINUOUS
 62
     8
 10
334.0325184332
 20
282.3254111631
 30
0.0
  0
VERTEX
  5
5BC
  8
0
  6
CONTINUOUS
 62
     8
 10
335.2273140269
 20
282.459157001
 30
0.0
  0
VERTEX
  5
5BD
  8
0
  6
CONTINUOUS
 62
     8
 10
336.4041295068
 20
282.6474373637
 30
0.0
  0
VERTEX
  5
5BE
  8
0
  6
CONTINUOUS
 62
     8
 10
337.5527315008
 20
282.8888550343
 30
0.0
  0
VERTEX
  5
5BF
  8
0
  6
CONTINUOUS
 62
     8
 10
338.6628903614
 20
283.1820123306
 30
0.0
  0
VERTEX
  5
5C0
  8
0
  6
CONTINUOUS
 62
     8
 10
339.6963399069
 20
283.5145950725
 30
0.0
  0
VERTEX
  5
5C1
  8
0
  6
CONTINUOUS
 62
     8
 10
340.690901147
 20
283.8946959877
 30
0.0
  0
VERTEX
  5
5C2
  8
0
  6
CONTINUOUS
 62
     8
 10
341.6389335113
 20
284.3188556785
 30
0.0
  0
VERTEX
  5
5C3
  8
0
  6
CONTINUOUS
 62
     8
 10
342.5327964293
 20
284.7836155619
 30
0.0
  0
VERTEX
  5
5C4
  8
0
  6
CONTINUOUS
 62
     8
 10
343.3648493307
 20
285.2855162404
 30
0.0
  0
VERTEX
  5
5C5
  8
0
  6
CONTINUOUS
 62
     8
 10
343.9931865947
 20
285.7193508593
 30
0.0
  0
VERTEX
  5
5C6
  8
0
  6
CONTINUOUS
 62
     8
 10
344.578832032
 20
286.1755436811
 30
0.0
  0
VERTEX
  5
5C7
  8
0
  6
CONTINUOUS
 62
     8
 10
345.118675025
 20
286.6515459486
 30
0.0
  0
VERTEX
  5
5C8
  8
0
  6
CONTINUOUS
 62
     8
 10
345.5033000725
 20
287.031914841
 30
0.0
  0
VERTEX
  5
5C9
  8
0
  6
CONTINUOUS
 62
     8
 10
345.8589349108
 20
287.4223832682
 30
0.0
  0
VERTEX
  5
5CA
  8
0
  6
CONTINUOUS
 62
     8
 10
346.1874719875
 20
287.8255312739
 30
0.0
  0
VERTEX
  5
5CB
  8
0
  6
CONTINUOUS
 62
     8
 10
346.4850481765
 20
288.2370782958
 30
0.0
  0
VERTEX
  5
5CC
  8
0
  6
CONTINUOUS
 62
     8
 10
346.4950990098
 20
288.2519285835
 30
0.0
  0
SEQEND
  5
B61
  8
0
  6
CONTINUOUS
 62
     8
  0
ARC
  5
190
  8
0
  6
CONTINUOUS
 62
     8
 10
255.3763496025
 20
294.2735867131
 30
0.0
 40
78.38168763226437
 50
351.1743311319
 51
357.054670793
  0
POLYLINE
  5
191
  8
0
  6
CONTINUOUS
 62
     8
 66
     1
 10
0.0
 20
0.0
 30
0.0
  0
VERTEX
  5
5CD
  8
0
  6
CONTINUOUS
 62
     8
 10
294.7384599762
 20
318.8536534494
 30
0.0
  0
VERTEX
  5
5CE
  8
0
  6
CONTINUOUS
 62
     8
 10
291.5428538041
 20
331.5172115749
 30
0.0
  0
VERTEX
  5
5CF
  8
0
  6
CONTINUOUS
 62
     8
 10
288.3636333214
 20
344.1187883204
 30
0.0
  0
SEQEND
  5
B60
  8
0
  6
CONTINUOUS
 62
     8
  0
LINE
  5
192
  8
0
  6
CONTINUOUS
 62
     8
 10
288.3636333214
 20
344.1187883204
 30
0.0
 11
288.3636333214
 21
397.1836971527
 31
0.0
  0
LINE
  5
193
  8
0
  6
CONTINUOUS
 62
     8
 10
289.359593408
 20
398.6118616944
 30
0.0
 11
289.5667623894
 21
406.4723285323
 31
0.0
  0
LINE
  5
194
  8
0
  6
CONTINUOUS
 62
     8
 10
344.8797442185
 20
398.6118616944
 30
0.0
 11
344.6725752371
 21
406.4723285323
 31
0.0
  0
LINE
  5
195
  8
0
  6
CONTINUOUS
 62
     8
 10
345.8757043051
 20
344.1187883204
 30
0.0
 11
345.8757043051
 21
397.1836971527
 31
0.0
  0
POLYLINE
  5
196
  8
0
  6
CONTINUOUS
 62
     8
 66
     1
 10
0.0
 20
0.0
 30
0.0
  0
VERTEX
  5
5D0
  8
0
  6
CONTINUOUS
 62
     8
 10
339.5008776503
 20
318.8536534494
 30
0.0
  0
VERTEX
  5
5D1
  8
0
  6
CONTINUOUS
 62
     8
 10
342.6964838224
 20
331.5172115749
 30
0.0
  0
VERTEX
  5
5D2
  8
0
  6
CONTINUOUS
 62
     8
 10
345.8757043051
 20
344.1187883204
 30
0.0
  0
SEQEND
  5
B5F
  8
0
  6
CONTINUOUS
 62
     8
  0
LINE
  5
197
  8
0
  6
CONTINUOUS
 62
     8
 10
333.423703553
 20
290.2679668682
 30
0.0
 11
333.6544964628
 21
290.2460961545
 31
0.0
  0
ARC
  5
198
  8
0
  6
CONTINUOUS
 62
     8
 10
317.1196688132
 20
171.8499886011
 30
0.0
 40
119.5350957905162
 50
82.1606843426
 51
97.8393156574
  0
LINE
  5
199
  8
0
  6
CONTINUOUS
 62
     8
 10
300.8156340735
 20
290.2679668682
 30
0.0
 11
300.5848411637
 21
290.2460961545
 31
0.0
  0
ARC
  5
19A
  8
0
  6
CONTINUOUS
 62
     8
 10
380.8142611356
 20
301.8849207905
 30
0.0
 40
80.83770129250662
 50
188.262419027
 51
194.0696898129
  0
ARC
  5
19B
  8
0
  6
CONTINUOUS
 62
     8
 10
253.4250764909
 20
301.8849207905
 30
0.0
 40
80.83770129250665
 50
345.9303101871
 51
351.737580973
  0
ARC
  5
19C
  8
0
  6
CONTINUOUS
 62
     8
 10
317.1196688132
 20
185.8147868334
 30
0.0
 40
97.53520379563997
 50
81.3209273747
 51
98.6790726253
  0
LINE
  5
19D
  8
0
  6
CONTINUOUS
 62
     8
 10
331.8377077745
 20
282.2331217526
 30
0.0
 11
332.8299779611
 21
282.247597765
 31
0.0
  0
LINE
  5
19E
  8
0
  6
CONTINUOUS
 62
     8
 10
302.401629852
 20
282.2331217526
 30
0.0
 11
301.4093596654
 21
282.247597765
 31
0.0
  0
ARC
  5
19F
  8
0
  6
CONTINUOUS
 62
     8
 10
279.1762246754
 20
574.3636861992
 30
0.0
 40
176.0465984207318
 50
272.2663765471
 51
273.3161101975
  0
ARC
  5
1A0
  8
0
  6
CONTINUOUS
 62
     8
 10
355.0631129511
 20
574.3636861992
 30
0.0
 40
176.0465984207318
 50
266.6838898025
 51
267.7336234529
  0
POLYLINE
  5
1A1
  8
0
  6
CONTINUOUS
 62
     8
 66
     1
 10
0.0
 20
0.0
 30
0.0
  0
VERTEX
  5
5D3
  8
0
  6
CONTINUOUS
 62
     8
 10
345.8757043051
 20
344.1187883204
 30
0.0
  0
VERTEX
  5
5D4
  8
0
  6
CONTINUOUS
 62
     8
 10
346.5522524135
 20
343.9603740757
 30
0.0
  0
VERTEX
  5
5D5
  8
0
  6
CONTINUOUS
 62
     8
 10
347.2201559859
 20
343.8022839313
 30
0.0
  0
VERTEX
  5
5D6
  8
0
  6
CONTINUOUS
 62
     8
 10
347.8780422526
 20
343.6448419875
 30
0.0
  0
VERTEX
  5
5D7
  8
0
  6
CONTINUOUS
 62
     8
 10
348.5245626586
 20
343.4883723443
 30
0.0
  0
VERTEX
  5
5D8
  8
0
  6
CONTINUOUS
 62
     8
 10
349.1583872752
 20
343.3331991022
 30
0.0
  0
VERTEX
  5
5D9
  8
0
  6
CONTINUOUS
 62
     8
 10
349.7782197015
 20
343.1796351856
 30
0.0
  0
VERTEX
  5
5DA
  8
0
  6
CONTINUOUS
 62
     8
 10
350.3827821629
 20
343.0280009693
 30
0.0
  0
VERTEX
  5
5DB
  8
0
  6
CONTINUOUS
 62
     8
 10
350.970837863
 20
342.8786056524
 30
0.0
  0
VERTEX
  5
5DC
  8
0
  6
CONTINUOUS
 62
     8
 10
351.5411798077
 20
342.7317547089
 30
0.0
  0
VERTEX
  5
5DD
  8
0
  6
CONTINUOUS
 62
     8
 10
352.0926345306
 20
342.5877498871
 30
0.0
  0
VERTEX
  5
5DE
  8
0
  6
CONTINUOUS
 62
     8
 10
352.6240695434
 20
342.4468892103
 30
0.0
  0
VERTEX
  5
5DF
  8
0
  6
CONTINUOUS
 62
     8
 10
353.1344007867
 20
342.3094595259
 30
0.0
  0
VERTEX
  5
5E0
  8
0
  6
CONTINUOUS
 62
     8
 10
353.6225702779
 20
342.1757439559
 30
0.0
  0
VERTEX
  5
5E1
  8
0
  6
CONTINUOUS
 62
     8
 10
354.08758709
 20
342.0460181719
 30
0.0
  0
VERTEX
  5
5E2
  8
0
  6
CONTINUOUS
 62
     8
 10
354.528490098
 20
341.9205466693
 30
0.0
  0
VERTEX
  5
5E3
  8
0
  6
CONTINUOUS
 62
     8
 10
354.9443740564
 20
341.799582768
 30
0.0
  0
VERTEX
  5
5E4
  8
0
  6
CONTINUOUS
 62
     8
 10
355.3343895989
 20
341.6833835131
 30
0.0
  0
VERTEX
  5
5E5
  8
0
  6
CONTINUOUS
 62
     8
 10
355.6977357881
 20
341.5721798724
 30
0.0
  0
VERTEX
  5
5E6
  8
0
  6
CONTINUOUS
 62
     8
 10
356.0336601155
 20
341.4662065392
 30
0.0
  0
VERTEX
  5
5E7
  8
0
  6
CONTINUOUS
 62
     8
 10
356.3414808529
 20
341.3656758552
 30
0.0
  0
VERTEX
  5
5E8
  8
0
  6
CONTINUOUS
 62
     8
 10
356.6205609756
 20
341.2707964366
 30
0.0
  0
VERTEX
  5
5E9
  8
0
  6
CONTINUOUS
 62
     8
 10
356.8703305142
 20
341.1817619985
 30
0.0
  0
VERTEX
  5
5EA
  8
0
  6
CONTINUOUS
 62
     8
 10
357.090279104
 20
341.0987550801
 30
0.0
  0
VERTEX
  5
5EB
  8
0
  6
CONTINUOUS
 62
     8
 10
357.2799485343
 20
341.0219470447
 30
0.0
  0
VERTEX
  5
5EC
  8
0
  6
CONTINUOUS
 62
     8
 10
357.4389551001
 20
340.9514943546
 30
0.0
  0
VERTEX
  5
5ED
  8
0
  6
CONTINUOUS
 62
     8
 10
357.5669709759
 20
340.8875460213
 30
0.0
  0
VERTEX
  5
5EE
  8
0
  6
CONTINUOUS
 62
     8
 10
357.6637316661
 20
340.8302287048
 30
0.0
  0
VERTEX
  5
5EF
  8
0
  6
CONTINUOUS
 62
     8
 10
357.7290397303
 20
340.779657889
 30
0.0
  0
VERTEX
  5
5F0
  8
0
  6
CONTINUOUS
 62
     8
 10
357.7627647834
 20
340.7359453326
 30
0.0
  0
VERTEX
  5
5F1
  8
0
  6
CONTINUOUS
 62
     8
 10
357.7668961303
 20
340.7057220524
 30
0.0
  0
SEQEND
  5
B5E
  8
0
  6
CONTINUOUS
 62
     8
  0
POLYLINE
  5
1A2
  8
0
  6
CONTINUOUS
 62
     8
 66
     1
 10
0.0
 20
0.0
 30
0.0
  0
VERTEX
  5
5F2
  8
0
  6
CONTINUOUS
 62
     8
 10
288.3636333214
 20
344.1187883204
 30
0.0
  0
VERTEX
  5
5F3
  8
0
  6
CONTINUOUS
 62
     8
 10
287.687085213
 20
343.9603740757
 30
0.0
  0
VERTEX
  5
5F4
  8
0
  6
CONTINUOUS
 62
     8
 10
287.0191816406
 20
343.8022839313
 30
0.0
  0
VERTEX
  5
5F5
  8
0
  6
CONTINUOUS
 62
     8
 10
286.3612953739
 20
343.6448419875
 30
0.0
  0
VERTEX
  5
5F6
  8
0
  6
CONTINUOUS
 62
     8
 10
285.7147749679
 20
343.4883723443
 30
0.0
  0
VERTEX
  5
5F7
  8
0
  6
CONTINUOUS
 62
     8
 10
285.0809503513
 20
343.3331991022
 30
0.0
  0
VERTEX
  5
5F8
  8
0
  6
CONTINUOUS
 62
     8
 10
284.4611179249
 20
343.1796351856
 30
0.0
  0
VERTEX
  5
5F9
  8
0
  6
CONTINUOUS
 62
     8
 10
283.8565554636
 20
343.0280009693
 30
0.0
  0
VERTEX
  5
5FA
  8
0
  6
CONTINUOUS
 62
     8
 10
283.2684997635
 20
342.8786056524
 30
0.0
  0
VERTEX
  5
5FB
  8
0
  6
CONTINUOUS
 62
     8
 10
282.6981578188
 20
342.7317547089
 30
0.0
  0
VERTEX
  5
5FC
  8
0
  6
CONTINUOUS
 62
     8
 10
282.1467030959
 20
342.5877498871
 30
0.0
  0
VERTEX
  5
5FD
  8
0
  6
CONTINUOUS
 62
     8
 10
281.6152680831
 20
342.4468892103
 30
0.0
  0
VERTEX
  5
5FE
  8
0
  6
CONTINUOUS
 62
     8
 10
281.1049368398
 20
342.3094595259
 30
0.0
  0
VERTEX
  5
5FF
  8
0
  6
CONTINUOUS
 62
     8
 10
280.6167673485
 20
342.1757439559
 30
0.0
  0
VERTEX
  5
600
  8
0
  6
CONTINUOUS
 62
     8
 10
280.1517505365
 20
342.0460181719
 30
0.0
  0
VERTEX
  5
601
  8
0
  6
CONTINUOUS
 62
     8
 10
279.7108475285
 20
341.9205466693
 30
0.0
  0
VERTEX
  5
602
  8
0
  6
CONTINUOUS
 62
     8
 10
279.2949635701
 20
341.799582768
 30
0.0
  0
VERTEX
  5
603
  8
0
  6
CONTINUOUS
 62
     8
 10
278.9049480276
 20
341.6833835131
 30
0.0
  0
VERTEX
  5
604
  8
0
  6
CONTINUOUS
 62
     8
 10
278.5416018384
 20
341.5721798724
 30
0.0
  0
VERTEX
  5
605
  8
0
  6
CONTINUOUS
 62
     8
 10
278.205677511
 20
341.4662065392
 30
0.0
  0
VERTEX
  5
606
  8
0
  6
CONTINUOUS
 62
     8
 10
277.8978567736
 20
341.3656758552
 30
0.0
  0
VERTEX
  5
607
  8
0
  6
CONTINUOUS
 62
     8
 10
277.6187766509
 20
341.2707964366
 30
0.0
  0
VERTEX
  5
608
  8
0
  6
CONTINUOUS
 62
     8
 10
277.3690071123
 20
341.1817619985
 30
0.0
  0
VERTEX
  5
609
  8
0
  6
CONTINUOUS
 62
     8
 10
277.1490585225
 20
341.0987550801
 30
0.0
  0
VERTEX
  5
60A
  8
0
  6
CONTINUOUS
 62
     8
 10
276.9593890922
 20
341.0219470447
 30
0.0
  0
VERTEX
  5
60B
  8
0
  6
CONTINUOUS
 62
     8
 10
276.8003825264
 20
340.9514943546
 30
0.0
  0
VERTEX
  5
60C
  8
0
  6
CONTINUOUS
 62
     8
 10
276.6723666506
 20
340.8875460213
 30
0.0
  0
VERTEX
  5
60D
  8
0
  6
CONTINUOUS
 62
     8
 10
276.5756059604
 20
340.8302287048
 30
0.0
  0
VERTEX
  5
60E
  8
0
  6
CONTINUOUS
 62
     8
 10
276.5102978962
 20
340.779657889
 30
0.0
  0
VERTEX
  5
60F
  8
0
  6
CONTINUOUS
 62
     8
 10
276.4765728431
 20
340.7359453326
 30
0.0
  0
VERTEX
  5
610
  8
0
  6
CONTINUOUS
 62
     8
 10
276.4724414962
 20
340.7057220524
 30
0.0
  0
SEQEND
  5
B5D
  8
0
  6
CONTINUOUS
 62
     8
  0
ARC
  5
1A3
  8
0
  6
CONTINUOUS
 62
     8
 10
272.9941978226
 20
429.1883439518
 30
0.0
 40
6.168413318426949
 50
168.1230959581
 51
178.5451470389
  0
ARC
  5
1A4
  8
0
  6
CONTINUOUS
 62
     8
 10
361.2451398039
 20
429.1883439518
 30
0.0
 40
6.168413318426949
 50
1.4548529611
 51
11.8769040419
  0
POLYLINE
  5
1A5
  8
0
  6
CONTINUOUS
 62
     8
 66
     1
 10
0.0
 20
0.0
 30
0.0
  0
VERTEX
  5
611
  8
0
  6
CONTINUOUS
 62
     8
 10
291.2019878792
 20
255.5527402496
 30
0.0
  0
VERTEX
  5
612
  8
0
  6
CONTINUOUS
 62
     8
 10
291.3392145353
 20
256.0013825482
 30
0.0
  0
VERTEX
  5
613
  8
0
  6
CONTINUOUS
 62
     8
 10
291.5660642253
 20
256.4294556564
 30
0.0
  0
VERTEX
  5
614
  8
0
  6
CONTINUOUS
 62
     8
 10
291.8536380099
 20
256.8434453046
 30
0.0
  0
VERTEX
  5
615
  8
0
  6
CONTINUOUS
 62
     8
 10
292.1730444001
 20
257.2498372233
 30
0.0
  0
VERTEX
  5
616
  8
0
  6
CONTINUOUS
 62
     8
 10
292.4953881817
 20
257.6551152801
 30
0.0
  0
VERTEX
  5
617
  8
0
  6
CONTINUOUS
 62
     8
 10
292.7917760031
 20
258.0657652056
 30
0.0
  0
VERTEX
  5
618
  8
0
  6
CONTINUOUS
 62
     8
 10
294.3263925778
 20
260.4470210558
 30
0.0
  0
VERTEX
  5
619
  8
0
  6
CONTINUOUS
 62
     8
 10
295.1421044933
 20
261.7669919914
 30
0.0
  0
VERTEX
  5
61A
  8
0
  6
CONTINUOUS
 62
     8
 10
295.9326744245
 20
263.0958905851
 30
0.0
  0
VERTEX
  5
61B
  8
0
  6
CONTINUOUS
 62
     8
 10
296.9584163444
 20
264.9166373944
 30
0.0
  0
VERTEX
  5
61C
  8
0
  6
CONTINUOUS
 62
     8
 10
297.9223482477
 20
266.7579422181
 30
0.0
  0
VERTEX
  5
61D
  8
0
  6
CONTINUOUS
 62
     8
 10
298.8163210617
 20
268.6195219344
 30
0.0
  0
VERTEX
  5
61E
  8
0
  6
CONTINUOUS
 62
     8
 10
299.6321875768
 20
270.501087833
 30
0.0
  0
VERTEX
  5
61F
  8
0
  6
CONTINUOUS
 62
     8
 10
300.2337102013
 20
272.0494125446
 30
0.0
  0
VERTEX
  5
620
  8
0
  6
CONTINUOUS
 62
     8
 10
300.7738679813
 20
273.6124568095
 30
0.0
  0
VERTEX
  5
621
  8
0
  6
CONTINUOUS
 62
     8
 10
301.2472219931
 20
275.1883160731
 30
0.0
  0
VERTEX
  5
622
  8
0
  6
CONTINUOUS
 62
     8
 10
301.6483351754
 20
276.7750895059
 30
0.0
  0
VERTEX
  5
623
  8
0
  6
CONTINUOUS
 62
     8
 10
301.9717713984
 20
278.3708734846
 30
0.0
  0
VERTEX
  5
624
  8
0
  6
CONTINUOUS
 62
     8
 10
302.1263960915
 20
279.3318358658
 30
0.0
  0
VERTEX
  5
625
  8
0
  6
CONTINUOUS
 62
     8
 10
302.2502945902
 20
280.2954008279
 30
0.0
  0
VERTEX
  5
626
  8
0
  6
CONTINUOUS
 62
     8
 10
302.3425318467
 20
281.263505522
 30
0.0
  0
VERTEX
  5
627
  8
0
  6
CONTINUOUS
 62
     8
 10
302.401629852
 20
282.2331217526
 30
0.0
  0
SEQEND
  5
B5C
  8
0
  6
CONTINUOUS
 62
     8
  0
LINE
  5
1A6
  8
0
  6
CONTINUOUS
 62
     8
 10
291.0250719803
 20
255.5713816023
 30
0.0
 11
291.2019878792
 21
255.5527402496
 31
0.0
  0
ARC
  5
1A7
  8
0
  6
CONTINUOUS
 62
     8
 10
-178.7297379341
 20
224.9165668276
 30
0.0
 40
470.7540109737525
 50
3.7337385721
 51
7.7320355527
  0
ARC
  5
1A8
  8
0
  6
CONTINUOUS
 62
     8
 10
812.9690755606
 20
224.9165668276
 30
0.0
 40
470.7540109737525
 50
172.2679644473
 51
176.2662614279
  0
LINE
  5
1A9
  8
0
  6
CONTINUOUS
 62
     8
 10
343.2142656462
 20
255.5713816023
 30
0.0
 11
343.0373497473
 21
255.5527402496
 31
0.0
  0
POLYLINE
  5
1AA
  8
0
  6
CONTINUOUS
 62
     8
 66
     1
 10
0.0
 20
0.0
 30
0.0
  0
VERTEX
  5
628
  8
0
  6
CONTINUOUS
 62
     8
 10
343.0373497473
 20
255.5527402496
 30
0.0
  0
VERTEX
  5
629
  8
0
  6
CONTINUOUS
 62
     8
 10
342.9001230912
 20
256.0013825482
 30
0.0
  0
VERTEX
  5
62A
  8
0
  6
CONTINUOUS
 62
     8
 10
342.6732734012
 20
256.4294556564
 30
0.0
  0
VERTEX
  5
62B
  8
0
  6
CONTINUOUS
 62
     8
 10
342.3856996166
 20
256.8434453046
 30
0.0
  0
VERTEX
  5
62C
  8
0
  6
CONTINUOUS
 62
     8
 10
342.0662932264
 20
257.2498372233
 30
0.0
  0
VERTEX
  5
62D
  8
0
  6
CONTINUOUS
 62
     8
 10
341.7439494448
 20
257.6551152801
 30
0.0
  0
VERTEX
  5
62E
  8
0
  6
CONTINUOUS
 62
     8
 10
341.4475616234
 20
258.0657652056
 30
0.0
  0
VERTEX
  5
62F
  8
0
  6
CONTINUOUS
 62
     8
 10
339.9129450487
 20
260.4470210558
 30
0.0
  0
VERTEX
  5
630
  8
0
  6
CONTINUOUS
 62
     8
 10
339.0972331332
 20
261.7669919914
 30
0.0
  0
VERTEX
  5
631
  8
0
  6
CONTINUOUS
 62
     8
 10
338.3066632019
 20
263.0958905851
 30
0.0
  0
VERTEX
  5
632
  8
0
  6
CONTINUOUS
 62
     8
 10
337.2809212821
 20
264.9166373944
 30
0.0
  0
VERTEX
  5
633
  8
0
  6
CONTINUOUS
 62
     8
 10
336.3169893788
 20
266.7579422181
 30
0.0
  0
VERTEX
  5
634
  8
0
  6
CONTINUOUS
 62
     8
 10
335.4230165647
 20
268.6195219344
 30
0.0
  0
VERTEX
  5
635
  8
0
  6
CONTINUOUS
 62
     8
 10
334.6071500497
 20
270.501087833
 30
0.0
  0
VERTEX
  5
636
  8
0
  6
CONTINUOUS
 62
     8
 10
334.0056274252
 20
272.0494125446
 30
0.0
  0
VERTEX
  5
637
  8
0
  6
CONTINUOUS
 62
     8
 10
333.4654696452
 20
273.6124568095
 30
0.0
  0
VERTEX
  5
638
  8
0
  6
CONTINUOUS
 62
     8
 10
332.9921156334
 20
275.1883160731
 30
0.0
  0
VERTEX
  5
639
  8
0
  6
CONTINUOUS
 62
     8
 10
332.5910024511
 20
276.7750895059
 30
0.0
  0
VERTEX
  5
63A
  8
0
  6
CONTINUOUS
 62
     8
 10
332.2675662281
 20
278.3708734846
 30
0.0
  0
VERTEX
  5
63B
  8
0
  6
CONTINUOUS
 62
     8
 10
332.112941535
 20
279.3318358658
 30
0.0
  0
VERTEX
  5
63C
  8
0
  6
CONTINUOUS
 62
     8
 10
331.9890430363
 20
280.2954008279
 30
0.0
  0
VERTEX
  5
63D
  8
0
  6
CONTINUOUS
 62
     8
 10
331.8968057798
 20
281.263505522
 30
0.0
  0
VERTEX
  5
63E
  8
0
  6
CONTINUOUS
 62
     8
 10
331.8377077745
 20
282.2331217526
 30
0.0
  0
SEQEND
  5
B5B
  8
0
  6
CONTINUOUS
 62
     8
  0
LINE
  5
1AB
  8
0
  6
CONTINUOUS
 62
     8
 10
343.7735937702
 20
447.5842448359
 30
0.0
 11
290.4657438563
 21
447.5842448359
 31
0.0
  0
POLYLINE
  5
1AC
  8
0
  6
CONTINUOUS
 62
     8
 66
     1
 10
0.0
 20
0.0
 30
0.0
  0
VERTEX
  5
63F
  8
0
  6
CONTINUOUS
 62
     8
 10
288.3636333214
 20
344.1187883204
 30
0.0
  0
VERTEX
  5
640
  8
0
  6
CONTINUOUS
 62
     8
 10
287.659328075
 20
344.2538710719
 30
0.0
  0
VERTEX
  5
641
  8
0
  6
CONTINUOUS
 62
     8
 10
286.9635462927
 20
344.3873780256
 30
0.0
  0
VERTEX
  5
642
  8
0
  6
CONTINUOUS
 62
     8
 10
286.2776346671
 20
344.5190446859
 30
0.0
  0
VERTEX
  5
643
  8
0
  6
CONTINUOUS
 62
     8
 10
285.602926852
 20
344.6486214584
 30
0.0
  0
VERTEX
  5
644
  8
0
  6
CONTINUOUS
 62
     8
 10
284.9407266991
 20
344.7758512979
 30
0.0
  0
VERTEX
  5
645
  8
0
  6
CONTINUOUS
 62
     8
 10
284.2923212962
 20
344.9004920607
 30
0.0
  0
VERTEX
  5
646
  8
0
  6
CONTINUOUS
 62
     8
 10
283.6589660661
 20
345.0223016029
 30
0.0
  0
VERTEX
  5
647
  8
0
  6
CONTINUOUS
 62
     8
 10
283.0418903547
 20
345.1410452312
 30
0.0
  0
VERTEX
  5
648
  8
0
  6
CONTINUOUS
 62
     8
 10
282.4422862547
 20
345.2564882522
 30
0.0
  0
VERTEX
  5
649
  8
0
  6
CONTINUOUS
 62
     8
 10
281.8613235073
 20
345.368410874
 30
0.0
  0
VERTEX
  5
64A
  8
0
  6
CONTINUOUS
 62
     8
 10
281.3001196997
 20
345.4765933042
 30
0.0
  0
VERTEX
  5
64B
  8
0
  6
CONTINUOUS
 62
     8
 10
280.7597700672
 20
345.5808269268
 30
0.0
  0
VERTEX
  5
64C
  8
0
  6
CONTINUOUS
 62
     8
 10
280.2413176911
 20
345.680910576
 30
0.0
  0
VERTEX
  5
64D
  8
0
  6
CONTINUOUS
 62
     8
 10
279.7457683997
 20
345.7766468113
 30
0.0
  0
VERTEX
  5
64E
  8
0
  6
CONTINUOUS
 62
     8
 10
279.274083318
 20
345.867856819
 30
0.0
  0
VERTEX
  5
64F
  8
0
  6
CONTINUOUS
 62
     8
 10
278.8271788674
 20
345.9543580597
 30
0.0
  0
VERTEX
  5
650
  8
0
  6
CONTINUOUS
 62
     8
 10
278.4059155898
 20
346.0359828955
 30
0.0
  0
VERTEX
  5
651
  8
0
  6
CONTINUOUS
 62
     8
 10
278.0111167746
 20
346.1125785893
 30
0.0
  0
VERTEX
  5
652
  8
0
  6
CONTINUOUS
 62
     8
 10
277.6435461061
 20
346.183988679
 30
0.0
  0
VERTEX
  5
653
  8
0
  6
CONTINUOUS
 62
     8
 10
277.3039113896
 20
346.2500827795
 30
0.0
  0
VERTEX
  5
654
  8
0
  6
CONTINUOUS
 62
     8
 10
276.9928757267
 20
346.3107267803
 30
0.0
  0
VERTEX
  5
655
  8
0
  6
CONTINUOUS
 62
     8
 10
276.7110426145
 20
346.365801472
 30
0.0
  0
VERTEX
  5
656
  8
0
  6
CONTINUOUS
 62
     8
 10
276.4589559453
 20
346.4152099973
 30
0.0
  0
VERTEX
  5
657
  8
0
  6
CONTINUOUS
 62
     8
 10
276.2371074574
 20
346.4588443225
 30
0.0
  0
VERTEX
  5
658
  8
0
  6
CONTINUOUS
 62
     8
 10
276.045921834
 20
346.496629942
 30
0.0
  0
VERTEX
  5
659
  8
0
  6
CONTINUOUS
 62
     8
 10
275.8857753294
 20
346.5284886247
 30
0.0
  0
SEQEND
  5
B5A
  8
0
  6
CONTINUOUS
 62
     8
  0
LINE
  5
1AD
  8
0
  6
CONTINUOUS
 62
     8
 10
275.8857753294
 20
346.5284886247
 30
0.0
 11
275.8857753294
 21
392.6118569857
 31
0.0
  0
LINE
  5
1AE
  8
0
  6
CONTINUOUS
 62
     8
 10
358.3535622971
 20
346.5284886247
 30
0.0
 11
358.3535622971
 21
392.6118569857
 31
0.0
  0
POLYLINE
  5
1AF
  8
0
  6
CONTINUOUS
 62
     8
 66
     1
 10
0.0
 20
0.0
 30
0.0
  0
VERTEX
  5
65A
  8
0
  6
CONTINUOUS
 62
     8
 10
345.8757043051
 20
344.1187883204
 30
0.0
  0
VERTEX
  5
65B
  8
0
  6
CONTINUOUS
 62
     8
 10
346.5800095515
 20
344.2538710719
 30
0.0
  0
VERTEX
  5
65C
  8
0
  6
CONTINUOUS
 62
     8
 10
347.2757913338
 20
344.3873780256
 30
0.0
  0
VERTEX
  5
65D
  8
0
  6
CONTINUOUS
 62
     8
 10
347.9617029594
 20
344.5190446859
 30
0.0
  0
VERTEX
  5
65E
  8
0
  6
CONTINUOUS
 62
     8
 10
348.6364107745
 20
344.6486214584
 30
0.0
  0
VERTEX
  5
65F
  8
0
  6
CONTINUOUS
 62
     8
 10
349.2986109274
 20
344.7758512979
 30
0.0
  0
VERTEX
  5
660
  8
0
  6
CONTINUOUS
 62
     8
 10
349.9470163303
 20
344.9004920607
 30
0.0
  0
VERTEX
  5
661
  8
0
  6
CONTINUOUS
 62
     8
 10
350.5803715604
 20
345.0223016029
 30
0.0
  0
VERTEX
  5
662
  8
0
  6
CONTINUOUS
 62
     8
 10
351.1974472718
 20
345.1410452312
 30
0.0
  0
VERTEX
  5
663
  8
0
  6
CONTINUOUS
 62
     8
 10
351.7970513718
 20
345.2564882522
 30
0.0
  0
VERTEX
  5
664
  8
0
  6
CONTINUOUS
 62
     8
 10
352.3780141192
 20
345.368410874
 30
0.0
  0
VERTEX
  5
665
  8
0
  6
CONTINUOUS
 62
     8
 10
352.9392179268
 20
345.4765933042
 30
0.0
  0
VERTEX
  5
666
  8
0
  6
CONTINUOUS
 62
     8
 10
353.4795675593
 20
345.5808269268
 30
0.0
  0
VERTEX
  5
667
  8
0
  6
CONTINUOUS
 62
     8
 10
353.9980199354
 20
345.680910576
 30
0.0
  0
VERTEX
  5
668
  8
0
  6
CONTINUOUS
 62
     8
 10
354.4935692268
 20
345.7766468113
 30
0.0
  0
VERTEX
  5
669
  8
0
  6
CONTINUOUS
 62
     8
 10
354.9652543085
 20
345.867856819
 30
0.0
  0
VERTEX
  5
66A
  8
0
  6
CONTINUOUS
 62
     8
 10
355.4121587591
 20
345.9543580597
 30
0.0
  0
VERTEX
  5
66B
  8
0
  6
CONTINUOUS
 62
     8
 10
355.8334220367
 20
346.0359828955
 30
0.0
  0
VERTEX
  5
66C
  8
0
  6
CONTINUOUS
 62
     8
 10
356.2282208519
 20
346.1125785893
 30
0.0
  0
VERTEX
  5
66D
  8
0
  6
CONTINUOUS
 62
     8
 10
356.5957915204
 20
346.183988679
 30
0.0
  0
VERTEX
  5
66E
  8
0
  6
CONTINUOUS
 62
     8
 10
356.9354262369
 20
346.2500827795
 30
0.0
  0
VERTEX
  5
66F
  8
0
  6
CONTINUOUS
 62
     8
 10
357.2464618998
 20
346.3107267803
 30
0.0
  0
VERTEX
  5
670
  8
0
  6
CONTINUOUS
 62
     8
 10
357.528295012
 20
346.365801472
 30
0.0
  0
VERTEX
  5
671
  8
0
  6
CONTINUOUS
 62
     8
 10
357.7803816812
 20
346.4152099973
 30
0.0
  0
VERTEX
  5
672
  8
0
  6
CONTINUOUS
 62
     8
 10
358.0022301691
 20
346.4588443225
 30
0.0
  0
VERTEX
  5
673
  8
0
  6
CONTINUOUS
 62
     8
 10
358.1934157925
 20
346.496629942
 30
0.0
  0
VERTEX
  5
674
  8
0
  6
CONTINUOUS
 62
     8
 10
358.3535622971
 20
346.5284886247
 30
0.0
  0
SEQEND
  5
B59
  8
0
  6
CONTINUOUS
 62
     8
  0
LINE
  5
1B0
  8
0
  6
CONTINUOUS
 62
     8
 10
291.0007793622
 20
255.4366583413
 30
0.0
 11
343.2385582643
 21
255.4366583413
 31
0.0
  0
ARC
  5
1B1
  8
0
  6
CONTINUOUS
 62
     8
 10
284.0975934352
 20
344.9596381207
 30
0.0
 40
8.360337822589063
 50
169.1840964268
 51
191.8234377381
  0
ARC
  5
1B2
  8
0
  6
CONTINUOUS
 62
     8
 10
350.1417441913
 20
344.9596381207
 30
0.0
 40
8.360337822588951
 50
348.1765622619
 51
10.8159035732
  0
LINE
  5
1B3
  8
0
  6
CONTINUOUS
 62
     8
 10
374.5480995791
 20
429.3449553138
 30
0.0
 11
367.4115646796
 21
429.3449553138
 31
0.0
  0
LINE
  5
1B4
  8
0
  6
CONTINUOUS
 62
     8
 10
259.6912380474
 20
429.3449553138
 30
0.0
 11
266.8277729469
 21
429.3449553138
 31
0.0
  0
LINE
  5
1B5
  8
0
  6
CONTINUOUS
 62
     8
 10
368.4303198176
 20
434.3840362912
 30
0.0
 11
371.5501573103
 21
434.3840362912
 31
0.0
  0
LINE
  5
1B6
  8
0
  6
CONTINUOUS
 62
     8
 10
265.8090178089
 20
434.3840362912
 30
0.0
 11
262.6891803162
 21
434.3840362912
 31
0.0
  0
ARC
  5
1B7
  8
0
  6
CONTINUOUS
 62
     8
 10
388.7207320395
 20
454.2129370541
 30
0.0
 40
99.30070358572912
 50
169.1410706104
 51
180.9238544418
  0
ARC
  5
1B8
  8
0
  6
CONTINUOUS
 62
     8
 10
245.518605587
 20
454.2129370541
 30
0.0
 40
99.30070358572907
 50
359.0761455582
 51
10.8589293896
  0
POLYLINE
  5
1B9
  8
0
  6
CONTINUOUS
 62
     8
 66
     1
 10
0.0
 20
0.0
 30
0.0
  0
VERTEX
  5
675
  8
0
  6
CONTINUOUS
 62
     8
 10
270.6333507018
 20
335.0848215109
 30
0.0
  0
VERTEX
  5
676
  8
0
  6
CONTINUOUS
 62
     8
 10
270.6323746758
 20
335.0733103639
 30
0.0
  0
VERTEX
  5
677
  8
0
  6
CONTINUOUS
 62
     8
 10
270.6556242125
 20
334.9568242615
 30
0.0
  0
VERTEX
  5
678
  8
0
  6
CONTINUOUS
 62
     8
 10
270.7053940909
 20
334.7612204438
 30
0.0
  0
VERTEX
  5
679
  8
0
  6
CONTINUOUS
 62
     8
 10
270.7816843109
 20
334.4854483789
 30
0.0
  0
VERTEX
  5
67A
  8
0
  6
CONTINUOUS
 62
     8
 10
270.8245624023
 20
334.335308004
 30
0.0
  0
VERTEX
  5
67B
  8
0
  6
CONTINUOUS
 62
     8
 10
270.8727862852
 20
334.1687465495
 30
0.0
  0
VERTEX
  5
67C
  8
0
  6
CONTINUOUS
 62
     8
 10
270.9263559597
 20
333.9856969601
 30
0.0
  0
VERTEX
  5
67D
  8
0
  6
CONTINUOUS
 62
     8
 10
270.9852714257
 20
333.7860996312
 30
0.0
  0
VERTEX
  5
67E
  8
0
  6
CONTINUOUS
 62
     8
 10
271.0495364087
 20
333.5698912328
 30
0.0
  0
VERTEX
  5
67F
  8
0
  6
CONTINUOUS
 62
     8
 10
271.1191434579
 20
333.3370307868
 30
0.0
  0
VERTEX
  5
680
  8
0
  6
CONTINUOUS
 62
     8
 10
271.1940962987
 20
333.0874698645
 30
0.0
  0
VERTEX
  5
681
  8
0
  6
CONTINUOUS
 62
     8
 10
271.3648710566
 20
332.5210357493
 30
0.0
  0
VERTEX
  5
682
  8
0
  6
CONTINUOUS
 62
     8
 10
271.5594280677
 20
331.8758638984
 30
0.0
  0
VERTEX
  5
683
  8
0
  6
CONTINUOUS
 62
     8
 10
271.7777710574
 20
331.1495254224
 30
0.0
  0
VERTEX
  5
684
  8
0
  6
CONTINUOUS
 62
     8
 10
272.0198963003
 20
330.3397702461
 30
0.0
  0
VERTEX
  5
685
  8
0
  6
CONTINUOUS
 62
     8
 10
272.252637537
 20
329.5565205103
 30
0.0
  0
VERTEX
  5
686
  8
0
  6
CONTINUOUS
 62
     8
 10
272.5038003342
 20
328.7057573384
 30
0.0
  0
VERTEX
  5
687
  8
0
  6
CONTINUOUS
 62
     8
 10
272.5726250725
 20
328.4716377443
 30
0.0
  0
VERTEX
  5
688
  8
0
  6
CONTINUOUS
 62
     8
 10
272.6427089589
 20
328.2327833062
 30
0.0
  0
VERTEX
  5
689
  8
0
  6
CONTINUOUS
 62
     8
 10
272.714059444
 20
327.989179123
 30
0.0
  0
VERTEX
  5
68A
  8
0
  6
CONTINUOUS
 62
     8
 10
272.7866765278
 20
327.7408102935
 30
0.0
  0
VERTEX
  5
68B
  8
0
  6
CONTINUOUS
 62
     8
 10
272.8605527597
 20
327.487654466
 30
0.0
  0
VERTEX
  5
68C
  8
0
  6
CONTINUOUS
 62
     8
 10
272.935691865
 20
327.2297004646
 30
0.0
  0
VERTEX
  5
68D
  8
0
  6
CONTINUOUS
 62
     8
 10
273.2228037136
 20
326.2398424035
 30
0.0
  0
VERTEX
  5
68E
  8
0
  6
CONTINUOUS
 62
     8
 10
273.5326733606
 20
325.1625815814
 30
0.0
  0
VERTEX
  5
68F
  8
0
  6
CONTINUOUS
 62
     8
 10
273.8653008061
 20
323.9941852575
 30
0.0
  0
VERTEX
  5
690
  8
0
  6
CONTINUOUS
 62
     8
 10
274.22068605
 20
322.7311553841
 30
0.0
  0
VERTEX
  5
691
  8
0
  6
CONTINUOUS
 62
     8
 10
274.5522517877
 20
321.5388352459
 30
0.0
  0
VERTEX
  5
692
  8
0
  6
CONTINUOUS
 62
     8
 10
274.9014418738
 20
320.2687235957
 30
0.0
  0
VERTEX
  5
693
  8
0
  6
CONTINUOUS
 62
     8
 10
275.2233069556
 20
319.0852659231
 30
0.0
  0
VERTEX
  5
694
  8
0
  6
CONTINUOUS
 62
     8
 10
275.2602879124
 20
318.9485365933
 30
0.0
  0
VERTEX
  5
695
  8
0
  6
CONTINUOUS
 62
     8
 10
275.2974402325
 20
318.8110137766
 30
0.0
  0
VERTEX
  5
696
  8
0
  6
CONTINUOUS
 62
     8
 10
275.334763916
 20
318.6726974731
 30
0.0
  0
VERTEX
  5
697
  8
0
  6
CONTINUOUS
 62
     8
 10
275.3722589629
 20
318.5335914081
 30
0.0
  0
VERTEX
  5
698
  8
0
  6
CONTINUOUS
 62
     8
 10
275.4099253731
 20
318.3936881309
 30
0.0
  0
VERTEX
  5
699
  8
0
  6
CONTINUOUS
 62
     8
 10
275.4477668719
 20
318.2529876417
 30
0.0
  0
VERTEX
  5
69A
  8
0
  6
CONTINUOUS
 62
     8
 10
275.4857760089
 20
318.1114899403
 30
0.0
  0
VERTEX
  5
69B
  8
0
  6
CONTINUOUS
 62
     8
 10
275.7159058171
 20
317.2526726907
 30
0.0
  0
VERTEX
  5
69C
  8
0
  6
CONTINUOUS
 62
     8
 10
275.9714085775
 20
316.2930975145
 30
0.0
  0
VERTEX
  5
69D
  8
0
  6
CONTINUOUS
 62
     8
 10
276.2522880154
 20
315.2283462172
 30
0.0
  0
VERTEX
  5
69E
  8
0
  6
CONTINUOUS
 62
     8
 10
276.5585366802
 20
314.0539391374
 30
0.0
  0
VERTEX
  5
69F
  8
0
  6
CONTINUOUS
 62
     8
 10
276.8901620226
 20
312.7654171025
 30
0.0
  0
VERTEX
  5
6A0
  8
0
  6
CONTINUOUS
 62
     8
 10
277.1494794803
 20
311.7454624211
 30
0.0
  0
VERTEX
  5
6A1
  8
0
  6
CONTINUOUS
 62
     8
 10
277.4224426763
 20
310.6601773238
 30
0.0
  0
VERTEX
  5
6A2
  8
0
  6
CONTINUOUS
 62
     8
 10
277.7090516107
 20
309.5080269909
 30
0.0
  0
VERTEX
  5
6A3
  8
0
  6
CONTINUOUS
 62
     8
 10
278.1082686203
 20
307.8824257886
 30
0.0
  0
VERTEX
  5
6A4
  8
0
  6
CONTINUOUS
 62
     8
 10
278.1623076813
 20
307.660586614
 30
0.0
  0
VERTEX
  5
6A5
  8
0
  6
CONTINUOUS
 62
     8
 10
278.2167527991
 20
307.4366501009
 30
0.0
  0
VERTEX
  5
6A6
  8
0
  6
CONTINUOUS
 62
     8
 10
278.2716076987
 20
307.2106143868
 30
0.0
  0
VERTEX
  5
6A7
  8
0
  6
CONTINUOUS
 62
     8
 10
278.326868655
 20
306.9824738836
 30
0.0
  0
VERTEX
  5
6A8
  8
0
  6
CONTINUOUS
 62
     8
 10
278.3825393932
 20
306.7522211408
 30
0.0
  0
VERTEX
  5
6A9
  8
0
  6
CONTINUOUS
 62
     8
 10
278.4386161881
 20
306.5198524332
 30
0.0
  0
VERTEX
  5
6AA
  8
0
  6
CONTINUOUS
 62
     8
 10
278.8441401141
 20
304.8376175052
 30
0.0
  0
VERTEX
  5
6AB
  8
0
  6
CONTINUOUS
 62
     8
 10
279.2652208524
 20
303.0906593835
 30
0.0
  0
VERTEX
  5
6AC
  8
0
  6
CONTINUOUS
 62
     8
 10
279.701858403
 20
301.2798740005
 30
0.0
  0
VERTEX
  5
6AD
  8
0
  6
CONTINUOUS
 62
     8
 10
280.1540527659
 20
299.4065111911
 30
0.0
  0
VERTEX
  5
6AE
  8
0
  6
CONTINUOUS
 62
     8
 10
280.316926183
 20
298.7324897608
 30
0.0
  0
VERTEX
  5
6AF
  8
0
  6
CONTINUOUS
 62
     8
 10
280.4817255752
 20
298.0509944668
 30
0.0
  0
VERTEX
  5
6B0
  8
0
  6
CONTINUOUS
 62
     8
 10
280.6484546678
 20
297.3621175101
 30
0.0
  0
VERTEX
  5
6B1
  8
0
  6
CONTINUOUS
 62
     8
 10
280.8100242334
 20
296.6951871699
 30
0.0
  0
VERTEX
  5
6B2
  8
0
  6
CONTINUOUS
 62
     8
 10
280.9345197098
 20
296.18185148
 30
0.0
  0
VERTEX
  5
6B3
  8
0
  6
CONTINUOUS
 62
     8
 10
281.1949696558
 20
295.1092640346
 30
0.0
  0
VERTEX
  5
6B4
  8
0
  6
CONTINUOUS
 62
     8
 10
281.4764972942
 20
293.9511401987
 30
0.0
  0
VERTEX
  5
6B5
  8
0
  6
CONTINUOUS
 62
     8
 10
281.80418873
 20
292.6041036321
 30
0.0
  0
VERTEX
  5
6B6
  8
0
  6
CONTINUOUS
 62
     8
 10
282.1564596312
 20
291.1569405755
 30
0.0
  0
VERTEX
  5
6B7
  8
0
  6
CONTINUOUS
 62
     8
 10
282.5333137231
 20
289.6100263519
 30
0.0
  0
VERTEX
  5
6B8
  8
0
  6
CONTINUOUS
 62
     8
 10
282.6657477932
 20
289.0668138338
 30
0.0
  0
VERTEX
  5
6B9
  8
0
  6
CONTINUOUS
 62
     8
 10
282.8009646552
 20
288.5124326626
 30
0.0
  0
VERTEX
  5
6BA
  8
0
  6
CONTINUOUS
 62
     8
 10
282.9389717596
 20
287.9469389504
 30
0.0
  0
VERTEX
  5
6BB
  8
0
  6
CONTINUOUS
 62
     8
 10
283.0797653811
 20
287.3703969003
 30
0.0
  0
VERTEX
  5
6BC
  8
0
  6
CONTINUOUS
 62
     8
 10
283.2233492451
 20
286.7828797375
 30
0.0
  0
VERTEX
  5
6BD
  8
0
  6
CONTINUOUS
 62
     8
 10
283.3978753703
 20
286.0691654555
 30
0.0
  0
VERTEX
  5
6BE
  8
0
  6
CONTINUOUS
 62
     8
 10
283.5771996694
 20
285.3359075438
 30
0.0
  0
VERTEX
  5
6BF
  8
0
  6
CONTINUOUS
 62
     8
 10
283.8771525936
 20
284.1099129932
 30
0.0
  0
VERTEX
  5
6C0
  8
0
  6
CONTINUOUS
 62
     8
 10
284.1511178928
 20
282.9912071524
 30
0.0
  0
VERTEX
  5
6C1
  8
0
  6
CONTINUOUS
 62
     8
 10
284.3990992921
 20
281.9799314661
 30
0.0
  0
VERTEX
  5
6C2
  8
0
  6
CONTINUOUS
 62
     8
 10
284.6210893409
 20
281.0759697517
 30
0.0
  0
VERTEX
  5
6C3
  8
0
  6
CONTINUOUS
 62
     8
 10
284.81709549
 20
280.2790221235
 30
0.0
  0
VERTEX
  5
6C4
  8
0
  6
CONTINUOUS
 62
     8
 10
284.9871177392
 20
279.5886680892
 30
0.0
  0
VERTEX
  5
6C5
  8
0
  6
CONTINUOUS
 62
     8
 10
285.131148638
 20
279.0044261551
 30
0.0
  0
VERTEX
  5
6C6
  8
0
  6
CONTINUOUS
 62
     8
 10
285.225711407
 20
278.6210341787
 30
0.0
  0
VERTEX
  5
6C7
  8
0
  6
CONTINUOUS
 62
     8
 10
285.3043671863
 20
278.3020524716
 30
0.0
  0
VERTEX
  5
6C8
  8
0
  6
CONTINUOUS
 62
     8
 10
285.3258025067
 20
278.2150706684
 30
0.0
  0
VERTEX
  5
6C9
  8
0
  6
CONTINUOUS
 62
     8
 10
285.3566069322
 20
278.0900163984
 30
0.0
  0
VERTEX
  5
6CA
  8
0
  6
CONTINUOUS
 62
     8
 10
285.4135889726
 20
277.8586879781
 30
0.0
  0
VERTEX
  5
6CB
  8
0
  6
CONTINUOUS
 62
     8
 10
285.4702096598
 20
277.6288599184
 30
0.0
  0
VERTEX
  5
6CC
  8
0
  6
CONTINUOUS
 62
     8
 10
285.5264652686
 20
277.4005331507
 30
0.0
  0
VERTEX
  5
6CD
  8
0
  6
CONTINUOUS
 62
     8
 10
285.7731986957
 20
276.3995811751
 30
0.0
  0
VERTEX
  5
6CE
  8
0
  6
CONTINUOUS
 62
     8
 10
286.0127162354
 20
275.4287053308
 30
0.0
  0
VERTEX
  5
6CF
  8
0
  6
CONTINUOUS
 62
     8
 10
286.4224758165
 20
273.769937869
 30
0.0
  0
VERTEX
  5
6D0
  8
0
  6
CONTINUOUS
 62
     8
 10
286.8092205541
 20
272.2070929071
 30
0.0
  0
VERTEX
  5
6D1
  8
0
  6
CONTINUOUS
 62
     8
 10
286.9976755398
 20
271.4465013182
 30
0.0
  0
VERTEX
  5
6D2
  8
0
  6
CONTINUOUS
 62
     8
 10
287.1801383959
 20
270.7106074726
 30
0.0
  0
VERTEX
  5
6D3
  8
0
  6
CONTINUOUS
 62
     8
 10
287.3566128479
 20
269.9992670154
 30
0.0
  0
VERTEX
  5
6D4
  8
0
  6
CONTINUOUS
 62
     8
 10
287.5736855136
 20
269.1246061062
 30
0.0
  0
VERTEX
  5
6D5
  8
0
  6
CONTINUOUS
 62
     8
 10
287.7880163657
 20
268.2613799756
 30
0.0
  0
VERTEX
  5
6D6
  8
0
  6
CONTINUOUS
 62
     8
 10
287.9986517297
 20
267.4135467445
 30
0.0
  0
VERTEX
  5
6D7
  8
0
  6
CONTINUOUS
 62
     8
 10
288.2055934684
 20
266.5812014079
 30
0.0
  0
VERTEX
  5
6D8
  8
0
  6
CONTINUOUS
 62
     8
 10
288.6621687727
 20
264.7475017643
 30
0.0
  0
VERTEX
  5
6D9
  8
0
  6
CONTINUOUS
 62
     8
 10
289.0996556895
 20
262.9947638547
 30
0.0
  0
VERTEX
  5
6DA
  8
0
  6
CONTINUOUS
 62
     8
 10
289.5180560814
 20
261.3231217897
 30
0.0
  0
VERTEX
  5
6DB
  8
0
  6
CONTINUOUS
 62
     8
 10
289.9173699485
 20
259.7322998976
 30
0.0
  0
VERTEX
  5
6DC
  8
0
  6
CONTINUOUS
 62
     8
 10
290.2975935655
 20
258.2216555661
 30
0.0
  0
VERTEX
  5
6DD
  8
0
  6
CONTINUOUS
 62
     8
 10
290.6587306576
 20
256.7902034557
 30
0.0
  0
VERTEX
  5
6DE
  8
0
  6
CONTINUOUS
 62
     8
 10
291.0007793622
 20
255.4366583413
 30
0.0
  0
SEQEND
  5
B58
  8
0
  6
CONTINUOUS
 62
     8
  0
POLYLINE
  5
1BA
  8
0
  6
CONTINUOUS
 62
     8
 66
     1
 10
0.0
 20
0.0
 30
0.0
  0
VERTEX
  5
6DF
  8
0
  6
CONTINUOUS
 62
     8
 10
363.6059869247
 20
335.0848215109
 30
0.0
  0
VERTEX
  5
6E0
  8
0
  6
CONTINUOUS
 62
     8
 10
363.6069629507
 20
335.0733103639
 30
0.0
  0
VERTEX
  5
6E1
  8
0
  6
CONTINUOUS
 62
     8
 10
363.583713414
 20
334.9568242615
 30
0.0
  0
VERTEX
  5
6E2
  8
0
  6
CONTINUOUS
 62
     8
 10
363.5339435356
 20
334.7612204438
 30
0.0
  0
VERTEX
  5
6E3
  8
0
  6
CONTINUOUS
 62
     8
 10
363.4576533156
 20
334.4854483789
 30
0.0
  0
VERTEX
  5
6E4
  8
0
  6
CONTINUOUS
 62
     8
 10
363.4147752242
 20
334.335308004
 30
0.0
  0
VERTEX
  5
6E5
  8
0
  6
CONTINUOUS
 62
     8
 10
363.3665513413
 20
334.1687465495
 30
0.0
  0
VERTEX
  5
6E6
  8
0
  6
CONTINUOUS
 62
     8
 10
363.3129816668
 20
333.9856969601
 30
0.0
  0
VERTEX
  5
6E7
  8
0
  6
CONTINUOUS
 62
     8
 10
363.2540662008
 20
333.7860996312
 30
0.0
  0
VERTEX
  5
6E8
  8
0
  6
CONTINUOUS
 62
     8
 10
363.1898012178
 20
333.5698912328
 30
0.0
  0
VERTEX
  5
6E9
  8
0
  6
CONTINUOUS
 62
     8
 10
363.1201941686
 20
333.3370307868
 30
0.0
  0
VERTEX
  5
6EA
  8
0
  6
CONTINUOUS
 62
     8
 10
363.0452413278
 20
333.0874698645
 30
0.0
  0
VERTEX
  5
6EB
  8
0
  6
CONTINUOUS
 62
     8
 10
362.8744665699
 20
332.5210357493
 30
0.0
  0
VERTEX
  5
6EC
  8
0
  6
CONTINUOUS
 62
     8
 10
362.6799095588
 20
331.8758638984
 30
0.0
  0
VERTEX
  5
6ED
  8
0
  6
CONTINUOUS
 62
     8
 10
362.4615665691
 20
331.1495254224
 30
0.0
  0
VERTEX
  5
6EE
  8
0
  6
CONTINUOUS
 62
     8
 10
362.2194413262
 20
330.3397702461
 30
0.0
  0
VERTEX
  5
6EF
  8
0
  6
CONTINUOUS
 62
     8
 10
361.9867000895
 20
329.5565205103
 30
0.0
  0
VERTEX
  5
6F0
  8
0
  6
CONTINUOUS
 62
     8
 10
361.7355372923
 20
328.7057573384
 30
0.0
  0
VERTEX
  5
6F1
  8
0
  6
CONTINUOUS
 62
     8
 10
361.666712554
 20
328.4716377443
 30
0.0
  0
VERTEX
  5
6F2
  8
0
  6
CONTINUOUS
 62
     8
 10
361.5966286676
 20
328.2327833062
 30
0.0
  0
VERTEX
  5
6F3
  8
0
  6
CONTINUOUS
 62
     8
 10
361.5252781825
 20
327.989179123
 30
0.0
  0
VERTEX
  5
6F4
  8
0
  6
CONTINUOUS
 62
     8
 10
361.4526610987
 20
327.7408102935
 30
0.0
  0
VERTEX
  5
6F5
  8
0
  6
CONTINUOUS
 62
     8
 10
361.3787848668
 20
327.487654466
 30
0.0
  0
VERTEX
  5
6F6
  8
0
  6
CONTINUOUS
 62
     8
 10
361.3036457615
 20
327.2297004646
 30
0.0
  0
VERTEX
  5
6F7
  8
0
  6
CONTINUOUS
 62
     8
 10
361.0165339129
 20
326.2398424035
 30
0.0
  0
VERTEX
  5
6F8
  8
0
  6
CONTINUOUS
 62
     8
 10
360.7066642659
 20
325.1625815814
 30
0.0
  0
VERTEX
  5
6F9
  8
0
  6
CONTINUOUS
 62
     8
 10
360.3740368204
 20
323.9941852575
 30
0.0
  0
VERTEX
  5
6FA
  8
0
  6
CONTINUOUS
 62
     8
 10
360.0186515765
 20
322.7311553841
 30
0.0
  0
VERTEX
  5
6FB
  8
0
  6
CONTINUOUS
 62
     8
 10
359.6870858388
 20
321.5388352459
 30
0.0
  0
VERTEX
  5
6FC
  8
0
  6
CONTINUOUS
 62
     8
 10
359.3378957527
 20
320.2687235957
 30
0.0
  0
VERTEX
  5
6FD
  8
0
  6
CONTINUOUS
 62
     8
 10
359.0160306709
 20
319.0852659231
 30
0.0
  0
VERTEX
  5
6FE
  8
0
  6
CONTINUOUS
 62
     8
 10
358.9790497141
 20
318.9485365933
 30
0.0
  0
VERTEX
  5
6FF
  8
0
  6
CONTINUOUS
 62
     8
 10
358.941897394
 20
318.8110137766
 30
0.0
  0
VERTEX
  5
700
  8
0
  6
CONTINUOUS
 62
     8
 10
358.9045737105
 20
318.6726974731
 30
0.0
  0
VERTEX
  5
701
  8
0
  6
CONTINUOUS
 62
     8
 10
358.8670786636
 20
318.5335914081
 30
0.0
  0
VERTEX
  5
702
  8
0
  6
CONTINUOUS
 62
     8
 10
358.8294122534
 20
318.3936881309
 30
0.0
  0
VERTEX
  5
703
  8
0
  6
CONTINUOUS
 62
     8
 10
358.7915707545
 20
318.2529876417
 30
0.0
  0
VERTEX
  5
704
  8
0
  6
CONTINUOUS
 62
     8
 10
358.7535616176
 20
318.1114899403
 30
0.0
  0
VERTEX
  5
705
  8
0
  6
CONTINUOUS
 62
     8
 10
358.5234318094
 20
317.2526726907
 30
0.0
  0
VERTEX
  5
706
  8
0
  6
CONTINUOUS
 62
     8
 10
358.267929049
 20
316.2930975145
 30
0.0
  0
VERTEX
  5
707
  8
0
  6
CONTINUOUS
 62
     8
 10
357.9870496111
 20
315.2283462172
 30
0.0
  0
VERTEX
  5
708
  8
0
  6
CONTINUOUS
 62
     8
 10
357.6808009463
 20
314.0539391374
 30
0.0
  0
VERTEX
  5
709
  8
0
  6
CONTINUOUS
 62
     8
 10
357.3491756039
 20
312.7654171025
 30
0.0
  0
VERTEX
  5
70A
  8
0
  6
CONTINUOUS
 62
     8
 10
357.0898581462
 20
311.7454624211
 30
0.0
  0
VERTEX
  5
70B
  8
0
  6
CONTINUOUS
 62
     8
 10
356.8168949502
 20
310.6601773238
 30
0.0
  0
VERTEX
  5
70C
  8
0
  6
CONTINUOUS
 62
     8
 10
356.5302860158
 20
309.5080269909
 30
0.0
  0
VERTEX
  5
70D
  8
0
  6
CONTINUOUS
 62
     8
 10
356.1310690062
 20
307.8824257886
 30
0.0
  0
VERTEX
  5
70E
  8
0
  6
CONTINUOUS
 62
     8
 10
356.0770299452
 20
307.660586614
 30
0.0
  0
VERTEX
  5
70F
  8
0
  6
CONTINUOUS
 62
     8
 10
356.0225848274
 20
307.4366501009
 30
0.0
  0
VERTEX
  5
710
  8
0
  6
CONTINUOUS
 62
     8
 10
355.9677299278
 20
307.2106143868
 30
0.0
  0
VERTEX
  5
711
  8
0
  6
CONTINUOUS
 62
     8
 10
355.9124689715
 20
306.9824738836
 30
0.0
  0
VERTEX
  5
712
  8
0
  6
CONTINUOUS
 62
     8
 10
355.8567982333
 20
306.7522211408
 30
0.0
  0
VERTEX
  5
713
  8
0
  6
CONTINUOUS
 62
     8
 10
355.8007214384
 20
306.5198524332
 30
0.0
  0
VERTEX
  5
714
  8
0
  6
CONTINUOUS
 62
     8
 10
355.3951975124
 20
304.8376175052
 30
0.0
  0
VERTEX
  5
715
  8
0
  6
CONTINUOUS
 62
     8
 10
354.9741167741
 20
303.0906593835
 30
0.0
  0
VERTEX
  5
716
  8
0
  6
CONTINUOUS
 62
     8
 10
354.5374792235
 20
301.2798740005
 30
0.0
  0
VERTEX
  5
717
  8
0
  6
CONTINUOUS
 62
     8
 10
354.0852848606
 20
299.4065111911
 30
0.0
  0
VERTEX
  5
718
  8
0
  6
CONTINUOUS
 62
     8
 10
353.9224114435
 20
298.7324897608
 30
0.0
  0
VERTEX
  5
719
  8
0
  6
CONTINUOUS
 62
     8
 10
353.7576120513
 20
298.0509944668
 30
0.0
  0
VERTEX
  5
71A
  8
0
  6
CONTINUOUS
 62
     8
 10
353.5908829587
 20
297.3621175101
 30
0.0
  0
VERTEX
  5
71B
  8
0
  6
CONTINUOUS
 62
     8
 10
353.4293133931
 20
296.6951871699
 30
0.0
  0
VERTEX
  5
71C
  8
0
  6
CONTINUOUS
 62
     8
 10
353.3048179167
 20
296.18185148
 30
0.0
  0
VERTEX
  5
71D
  8
0
  6
CONTINUOUS
 62
     8
 10
353.0443679707
 20
295.1092640346
 30
0.0
  0
VERTEX
  5
71E
  8
0
  6
CONTINUOUS
 62
     8
 10
352.7628403323
 20
293.9511401987
 30
0.0
  0
VERTEX
  5
71F
  8
0
  6
CONTINUOUS
 62
     8
 10
352.4351488965
 20
292.6041036321
 30
0.0
  0
VERTEX
  5
720
  8
0
  6
CONTINUOUS
 62
     8
 10
352.0828779953
 20
291.1569405755
 30
0.0
  0
VERTEX
  5
721
  8
0
  6
CONTINUOUS
 62
     8
 10
351.7060239034
 20
289.6100263519
 30
0.0
  0
VERTEX
  5
722
  8
0
  6
CONTINUOUS
 62
     8
 10
351.5735898333
 20
289.0668138338
 30
0.0
  0
VERTEX
  5
723
  8
0
  6
CONTINUOUS
 62
     8
 10
351.4383729713
 20
288.5124326626
 30
0.0
  0
VERTEX
  5
724
  8
0
  6
CONTINUOUS
 62
     8
 10
351.3003658669
 20
287.9469389504
 30
0.0
  0
VERTEX
  5
725
  8
0
  6
CONTINUOUS
 62
     8
 10
351.1595722454
 20
287.3703969003
 30
0.0
  0
VERTEX
  5
726
  8
0
  6
CONTINUOUS
 62
     8
 10
351.0159883814
 20
286.7828797375
 30
0.0
  0
VERTEX
  5
727
  8
0
  6
CONTINUOUS
 62
     8
 10
350.8414622562
 20
286.0691654555
 30
0.0
  0
VERTEX
  5
728
  8
0
  6
CONTINUOUS
 62
     8
 10
350.6621379571
 20
285.3359075438
 30
0.0
  0
VERTEX
  5
729
  8
0
  6
CONTINUOUS
 62
     8
 10
350.3621850329
 20
284.1099129932
 30
0.0
  0
VERTEX
  5
72A
  8
0
  6
CONTINUOUS
 62
     8
 10
350.0882197337
 20
282.9912071524
 30
0.0
  0
VERTEX
  5
72B
  8
0
  6
CONTINUOUS
 62
     8
 10
349.8402383344
 20
281.9799314661
 30
0.0
  0
VERTEX
  5
72C
  8
0
  6
CONTINUOUS
 62
     8
 10
349.6182482856
 20
281.0759697517
 30
0.0
  0
VERTEX
  5
72D
  8
0
  6
CONTINUOUS
 62
     8
 10
349.4222421365
 20
280.2790221235
 30
0.0
  0
VERTEX
  5
72E
  8
0
  6
CONTINUOUS
 62
     8
 10
349.2522198873
 20
279.5886680892
 30
0.0
  0
VERTEX
  5
72F
  8
0
  6
CONTINUOUS
 62
     8
 10
349.1081889885
 20
279.0044261551
 30
0.0
  0
VERTEX
  5
730
  8
0
  6
CONTINUOUS
 62
     8
 10
349.0136262195
 20
278.6210341787
 30
0.0
  0
VERTEX
  5
731
  8
0
  6
CONTINUOUS
 62
     8
 10
348.9349704402
 20
278.3020524716
 30
0.0
  0
VERTEX
  5
732
  8
0
  6
CONTINUOUS
 62
     8
 10
348.9135351198
 20
278.2150706684
 30
0.0
  0
VERTEX
  5
733
  8
0
  6
CONTINUOUS
 62
     8
 10
348.8827306943
 20
278.0900163984
 30
0.0
  0
VERTEX
  5
734
  8
0
  6
CONTINUOUS
 62
     8
 10
348.8257486539
 20
277.8586879781
 30
0.0
  0
VERTEX
  5
735
  8
0
  6
CONTINUOUS
 62
     8
 10
348.7691279667
 20
277.6288599184
 30
0.0
  0
VERTEX
  5
736
  8
0
  6
CONTINUOUS
 62
     8
 10
348.7128723579
 20
277.4005331507
 30
0.0
  0
VERTEX
  5
737
  8
0
  6
CONTINUOUS
 62
     8
 10
348.4661389308
 20
276.3995811751
 30
0.0
  0
VERTEX
  5
738
  8
0
  6
CONTINUOUS
 62
     8
 10
348.2266213911
 20
275.4287053308
 30
0.0
  0
VERTEX
  5
739
  8
0
  6
CONTINUOUS
 62
     8
 10
347.81686181
 20
273.769937869
 30
0.0
  0
VERTEX
  5
73A
  8
0
  6
CONTINUOUS
 62
     8
 10
347.4301170724
 20
272.2070929071
 30
0.0
  0
VERTEX
  5
73B
  8
0
  6
CONTINUOUS
 62
     8
 10
347.2416620867
 20
271.4465013182
 30
0.0
  0
VERTEX
  5
73C
  8
0
  6
CONTINUOUS
 62
     8
 10
347.0591992306
 20
270.7106074726
 30
0.0
  0
VERTEX
  5
73D
  8
0
  6
CONTINUOUS
 62
     8
 10
346.8827247786
 20
269.9992670154
 30
0.0
  0
VERTEX
  5
73E
  8
0
  6
CONTINUOUS
 62
     8
 10
346.6656521129
 20
269.1246061062
 30
0.0
  0
VERTEX
  5
73F
  8
0
  6
CONTINUOUS
 62
     8
 10
346.4513212608
 20
268.2613799756
 30
0.0
  0
VERTEX
  5
740
  8
0
  6
CONTINUOUS
 62
     8
 10
346.2406858968
 20
267.4135467445
 30
0.0
  0
VERTEX
  5
741
  8
0
  6
CONTINUOUS
 62
     8
 10
346.033744158
 20
266.5812014079
 30
0.0
  0
VERTEX
  5
742
  8
0
  6
CONTINUOUS
 62
     8
 10
345.5771688538
 20
264.7475017643
 30
0.0
  0
VERTEX
  5
743
  8
0
  6
CONTINUOUS
 62
     8
 10
345.139681937
 20
262.9947638547
 30
0.0
  0
VERTEX
  5
744
  8
0
  6
CONTINUOUS
 62
     8
 10
344.7212815451
 20
261.3231217897
 30
0.0
  0
VERTEX
  5
745
  8
0
  6
CONTINUOUS
 62
     8
 10
344.321967678
 20
259.7322998976
 30
0.0
  0
VERTEX
  5
746
  8
0
  6
CONTINUOUS
 62
     8
 10
343.941744061
 20
258.2216555661
 30
0.0
  0
VERTEX
  5
747
  8
0
  6
CONTINUOUS
 62
     8
 10
343.5806069689
 20
256.7902034557
 30
0.0
  0
VERTEX
  5
748
  8
0
  6
CONTINUOUS
 62
     8
 10
343.2385582643
 20
255.4366583413
 30
0.0
  0
SEQEND
  5
B57
  8
0
  6
CONTINUOUS
 62
     8
  0
POLYLINE
  5
1BB
  8
0
  6
CONTINUOUS
 62
     8
 66
     1
 10
0.0
 20
0.0
 30
0.0
  0
VERTEX
  5
749
  8
0
  6
CONTINUOUS
 62
     8
 10
356.0068678277
 20
452.6118519193
 30
0.0
  0
VERTEX
  5
74A
  8
0
  6
CONTINUOUS
 62
     8
 10
355.9585470872
 20
453.7842305785
 30
0.0
  0
VERTEX
  5
74B
  8
0
  6
CONTINUOUS
 62
     8
 10
355.8612164276
 20
455.4775389319
 30
0.0
  0
VERTEX
  5
74C
  8
0
  6
CONTINUOUS
 62
     8
 10
355.7620529251
 20
456.8561049586
 30
0.0
  0
VERTEX
  5
74D
  8
0
  6
CONTINUOUS
 62
     8
 10
355.6503985243
 20
458.1790598517
 30
0.0
  0
VERTEX
  5
74E
  8
0
  6
CONTINUOUS
 62
     8
 10
355.529088171
 20
459.4419183617
 30
0.0
  0
VERTEX
  5
74F
  8
0
  6
CONTINUOUS
 62
     8
 10
355.4009717124
 20
460.6402399426
 30
0.0
  0
VERTEX
  5
750
  8
0
  6
CONTINUOUS
 62
     8
 10
355.2646596151
 20
461.8053766375
 30
0.0
  0
VERTEX
  5
751
  8
0
  6
CONTINUOUS
 62
     8
 10
355.127144249
 20
462.8970655089
 30
0.0
  0
VERTEX
  5
752
  8
0
  6
CONTINUOUS
 62
     8
 10
354.9918007271
 20
463.9106871968
 30
0.0
  0
VERTEX
  5
753
  8
0
  6
CONTINUOUS
 62
     8
 10
354.8620004373
 20
464.8416521436
 30
0.0
  0
VERTEX
  5
754
  8
0
  6
CONTINUOUS
 62
     8
 10
354.7297191041
 20
465.7643916493
 30
0.0
  0
VERTEX
  5
755
  8
0
  6
CONTINUOUS
 62
     8
 10
354.6114932912
 20
466.5820034629
 30
0.0
  0
VERTEX
  5
756
  8
0
  6
CONTINUOUS
 62
     8
 10
354.5110669153
 20
467.2899576312
 30
0.0
  0
VERTEX
  5
757
  8
0
  6
CONTINUOUS
 62
     8
 10
354.4479940252
 20
467.7588673716
 30
0.0
  0
VERTEX
  5
758
  8
0
  6
CONTINUOUS
 62
     8
 10
354.3985296207
 20
468.1606175786
 30
0.0
  0
VERTEX
  5
759
  8
0
  6
CONTINUOUS
 62
     8
 10
354.3635863977
 20
468.4943588858
 30
0.0
  0
VERTEX
  5
75A
  8
0
  6
CONTINUOUS
 62
     8
 10
354.3440658765
 20
468.7591972237
 30
0.0
  0
SEQEND
  5
B56
  8
0
  6
CONTINUOUS
 62
     8
  0
POLYLINE
  5
1BC
  8
0
  6
CONTINUOUS
 62
     8
 66
     1
 10
0.0
 20
0.0
 30
0.0
  0
VERTEX
  5
75B
  8
0
  6
CONTINUOUS
 62
     8
 10
278.2324697988
 20
452.6118519193
 30
0.0
  0
VERTEX
  5
75C
  8
0
  6
CONTINUOUS
 62
     8
 10
278.2807905393
 20
453.7842305785
 30
0.0
  0
VERTEX
  5
75D
  8
0
  6
CONTINUOUS
 62
     8
 10
278.3781211989
 20
455.4775389319
 30
0.0
  0
VERTEX
  5
75E
  8
0
  6
CONTINUOUS
 62
     8
 10
278.4772847014
 20
456.8561049586
 30
0.0
  0
VERTEX
  5
75F
  8
0
  6
CONTINUOUS
 62
     8
 10
278.5889391022
 20
458.1790598517
 30
0.0
  0
VERTEX
  5
760
  8
0
  6
CONTINUOUS
 62
     8
 10
278.7102494555
 20
459.4419183617
 30
0.0
  0
VERTEX
  5
761
  8
0
  6
CONTINUOUS
 62
     8
 10
278.8383659141
 20
460.6402399426
 30
0.0
  0
VERTEX
  5
762
  8
0
  6
CONTINUOUS
 62
     8
 10
278.9746780114
 20
461.8053766375
 30
0.0
  0
VERTEX
  5
763
  8
0
  6
CONTINUOUS
 62
     8
 10
279.1121933775
 20
462.8970655089
 30
0.0
  0
VERTEX
  5
764
  8
0
  6
CONTINUOUS
 62
     8
 10
279.2475368993
 20
463.9106871968
 30
0.0
  0
VERTEX
  5
765
  8
0
  6
CONTINUOUS
 62
     8
 10
279.3773371892
 20
464.8416521436
 30
0.0
  0
VERTEX
  5
766
  8
0
  6
CONTINUOUS
 62
     8
 10
279.5096185224
 20
465.7643916493
 30
0.0
  0
VERTEX
  5
767
  8
0
  6
CONTINUOUS
 62
     8
 10
279.6278443353
 20
466.5820034629
 30
0.0
  0
VERTEX
  5
768
  8
0
  6
CONTINUOUS
 62
     8
 10
279.7282707112
 20
467.2899576312
 30
0.0
  0
VERTEX
  5
769
  8
0
  6
CONTINUOUS
 62
     8
 10
279.7913436012
 20
467.7588673716
 30
0.0
  0
VERTEX
  5
76A
  8
0
  6
CONTINUOUS
 62
     8
 10
279.8408080058
 20
468.1606175786
 30
0.0
  0
VERTEX
  5
76B
  8
0
  6
CONTINUOUS
 62
     8
 10
279.8757512288
 20
468.4943588858
 30
0.0
  0
VERTEX
  5
76C
  8
0
  6
CONTINUOUS
 62
     8
 10
279.89527175
 20
468.7591972237
 30
0.0
  0
SEQEND
  5
B55
  8
0
  6
CONTINUOUS
 62
     8
  0
ARC
  5
1BD
  8
0
  6
CONTINUOUS
 62
     8
 10
-90.4004490184
 20
455.8176177185
 30
0.0
 40
461.8704108403348
 50
346.3126918324
 51
349.0884887103
  0
ARC
  5
1BE
  8
0
  6
CONTINUOUS
 62
     8
 10
724.6397866449
 20
455.8176177185
 30
0.0
 40
461.8704108403348
 50
190.9115112897
 51
193.6873081676
  0
LINE
  5
1BF
  8
0
  6
CONTINUOUS
 62
     8
 10
362.1196706014
 20
236.8883150106
 30
0.0
 11
370.1196681874
 21
236.8883150106
 31
0.0
  0
LINE
  5
1C0
  8
0
  6
CONTINUOUS
 62
     8
 10
272.1196670251
 20
236.8883150106
 30
0.0
 11
264.1196694391
 21
236.8883150106
 31
0.0
  0
LINE
  5
1C1
  8
0
  6
CONTINUOUS
 62
     8
 10
289.9706732648
 20
528.7688704615
 30
0.0
 11
311.1196687611
 21
528.7688704615
 31
0.0
  0
LINE
  5
1C2
  8
0
  6
CONTINUOUS
 62
     8
 10
323.1196688654
 20
528.7688704615
 30
0.0
 11
344.2686643617
 21
528.7688704615
 31
0.0
  0
LINE
  5
1C3
  8
FORMAT
  6
CENTERX2
 10
37.4912510876
 20
286.6118582374
 30
0.0
 11
596.9200370386
 21
286.6118582374
 31
0.0
  0
LINE
  5
1C4
  8
FORMAT
  6
CENTERX2
 10
317.1196688132
 20
588.0415134923
 30
0.0
 11
317.1196688132
 21
226.665600357
 31
0.0
  0
LINE
  5
1C5
  8
0
  6
CONTINUOUS
 62
     7
 10
686.3005095026
 20
442.4133183843
 30
0.0
 11
686.0334508916
 21
452.6118519193
 31
0.0
  0
LINE
  5
1C6
  8
0
  6
CONTINUOUS
 62
     7
 10
775.6046064993
 20
452.6118519193
 30
0.0
 11
775.3375478884
 21
442.4133183843
 31
0.0
  0
LINE
  5
1C7
  8
0
  6
CONTINUOUS
 62
     7
 10
664.1077370247
 20
411.5865262633
 30
0.0
 11
664.451603671
 21
398.4547960049
 31
0.0
  0
LINE
  5
1C8
  8
0
  6
CONTINUOUS
 62
     7
 10
797.18645372
 20
398.4547960049
 30
0.0
 11
797.5303203663
 21
411.5865262633
 31
0.0
  0
ARC
  5
1C9
  8
0
  6
CONTINUOUS
 62
     7
 10
670.4495475681
 20
398.6118582374
 30
0.0
 40
6.0
 50
181.5
 51
270.0
  0
ARC
  5
1CA
  8
0
  6
CONTINUOUS
 62
     7
 10
791.1885098229
 20
398.6118582374
 30
0.0
 40
6.0
 50
270.0
 51
358.5
  0
LINE
  5
1CB
  8
0
  6
CONTINUOUS
 62
     7
 10
655.8190257153
 20
426.6118588334
 30
0.0
 11
655.9237734279
 21
422.6118656283
 31
0.0
  0
LINE
  5
1CC
  8
0
  6
CONTINUOUS
 62
     7
 10
805.7142839631
 20
422.6118656283
 30
0.0
 11
805.8190316757
 21
426.6118588334
 31
0.0
  0
LINE
  5
1CD
  8
0
  6
CONTINUOUS
 62
     7
 10
655.8905959925
 20
429.3449553138
 30
0.0
 11
655.8190257153
 21
426.6118588334
 31
0.0
  0
LINE
  5
1CE
  8
0
  6
CONTINUOUS
 62
     7
 10
805.8190316757
 20
426.6118588334
 30
0.0
 11
805.7474613985
 21
429.3449553138
 31
0.0
  0
LINE
  5
1CF
  8
0
  6
CONTINUOUS
 62
     7
 10
655.8190257153
 20
422.6118656283
 30
0.0
 11
656.694386979
 21
412.6064660436
 31
0.0
  0
LINE
  5
1D0
  8
0
  6
CONTINUOUS
 62
     7
 10
804.943670412
 20
412.6064660436
 30
0.0
 11
805.8190316757
 21
422.6118656283
 31
0.0
  0
ARC
  5
1D1
  8
0
  6
CONTINUOUS
 62
     7
 10
661.888541208
 20
429.18788969
 30
0.0
 40
6.0
 50
120.0
 51
178.5
  0
ARC
  5
1D2
  8
0
  6
CONTINUOUS
 62
     7
 10
799.749516183
 20
429.18788969
 30
0.0
 40
6.000000000000042
 50
1.5
 51
60.0
  0
LINE
  5
1D3
  8
0
  6
CONTINUOUS
 62
     7
 10
656.694386979
 20
412.6064660436
 30
0.0
 11
664.1944170794
 21
408.2763227111
 31
0.0
  0
LINE
  5
1D4
  8
0
  6
CONTINUOUS
 62
     7
 10
797.4436403116
 20
408.2763227111
 30
0.0
 11
804.943670412
 21
412.6064660436
 31
0.0
  0
LINE
  5
1D5
  8
0
  6
CONTINUOUS
 62
     7
 10
769.7692782482
 20
469.4175603276
 30
0.0
 11
769.3190284869
 21
486.6118612176
 31
0.0
  0
LINE
  5
1D6
  8
0
  6
CONTINUOUS
 62
     7
 10
692.3190289041
 20
486.6118612176
 30
0.0
 11
691.8687791428
 21
469.4175603276
 31
0.0
  0
LINE
  5
1D7
  8
0
  6
CONTINUOUS
 62
     7
 10
661.2646774253
 20
435.7559116965
 30
0.0
 11
658.8885382613
 21
434.3840362912
 31
0.0
  0
LINE
  5
1D8
  8
0
  6
CONTINUOUS
 62
     7
 10
802.7495191297
 20
434.3840362912
 30
0.0
 11
800.3733799657
 21
435.7559116965
 31
0.0
  0
ARC
  5
1D9
  8
0
  6
CONTINUOUS
 62
     7
 10
721.3190286955
 20
422.6118582374
 30
0.0
 40
55.30000000000005
 50
122.1782348292
 51
147.1463209526
  0
ARC
  5
1DA
  8
0
  6
CONTINUOUS
 62
     7
 10
740.3190286955
 20
422.6118582374
 30
0.0
 40
55.30000000000015
 50
32.8536790474
 51
57.8218610838
  0
LINE
  5
1DB
  8
0
  6
CONTINUOUS
 62
     7
 10
667.3190266689
 20
393.4932755714
 30
0.0
 11
667.3190266689
 21
291.3852338156
 31
0.0
  0
LINE
  5
1DC
  8
0
  6
CONTINUOUS
 62
     7
 10
794.3190307221
 20
377.6379930263
 30
0.0
 11
794.3190307221
 21
393.4932755714
 31
0.0
  0
LINE
  5
1DD
  8
0
  6
CONTINUOUS
 62
     7
 10
794.3190307221
 20
291.3852338156
 30
0.0
 11
794.3190307221
 21
366.2094207888
 31
0.0
  0
LINE
  5
1DE
  8
0
  6
CONTINUOUS
 62
     7
 10
702.345277076
 20
503.4910025483
 30
0.0
 11
699.3690290352
 21
486.6118612176
 31
0.0
  0
LINE
  5
1DF
  8
0
  6
CONTINUOUS
 62
     7
 10
703.670033147
 20
528.7688704615
 30
0.0
 11
702.345277076
 21
503.4910025483
 31
0.0
  0
ARC
  5
1E0
  8
0
  6
CONTINUOUS
 62
     7
 10
706.6659223956
 20
528.6118582374
 30
0.0
 40
3.0
 50
90.0
 51
177.0
  0
LINE
  5
1E1
  8
0
  6
CONTINUOUS
 62
     7
 10
707.9690293273
 20
537.6118453627
 30
0.0
 11
706.9110673716
 21
531.6118630057
 31
0.0
  0
ARC
  5
1E2
  8
0
  6
CONTINUOUS
 62
     7
 10
679.8190286955
 20
291.3852336927
 30
0.0
 40
12.50000000000006
 50
180.0193131719
 51
220.0
  0
ARC
  5
1E3
  8
0
  6
CONTINUOUS
 62
     7
 10
781.8190286955
 20
291.3852336927
 30
0.0
 40
12.49999999999999
 50
320.0
 51
359.9811073398
  0
LINE
  5
1E4
  8
0
  6
CONTINUOUS
 62
     7
 10
743.1190282902
 20
537.6118453627
 30
0.0
 11
743.1190282902
 21
547.0963450557
 31
0.0
  0
LINE
  5
1E5
  8
0
  6
CONTINUOUS
 62
     7
 10
718.5190291008
 20
547.0963450557
 30
0.0
 11
718.5190291008
 21
537.6118453627
 31
0.0
  0
LINE
  5
1E6
  8
0
  6
CONTINUOUS
 62
     7
 10
795.8190263113
 20
366.2094207888
 30
0.0
 11
795.8190263113
 21
369.637991715
 31
0.0
  0
CIRCLE
  5
1E7
  8
0
  6
CONTINUOUS
 62
     7
 10
730.8190286955
 20
286.6118582374
 30
0.0
 40
41.25
  0
CIRCLE
  5
1E8
  8
0
  6
CONTINUOUS
 62
     7
 10
730.8190286955
 20
286.6118582374
 30
0.0
 40
42.75
  0
CIRCLE
  5
1E9
  8
0
  6
CONTINUOUS
 62
     7
 10
730.8190286955
 20
286.6118582374
 30
0.0
 40
44.45000000000005
  0
CIRCLE
  5
1EA
  8
0
  6
CONTINUOUS
 62
     7
 10
730.8190286955
 20
286.6118582374
 30
0.0
 40
40.0
  0
CIRCLE
  5
1EB
  8
0
  6
CONTINUOUS
 62
     7
 10
730.8190286955
 20
286.6118582374
 30
0.0
 40
44.45429399400234
  0
CIRCLE
  5
1EC
  8
0
  6
CONTINUOUS
 62
     7
 10
730.8190286955
 20
286.6118582374
 30
0.0
 40
48.5
  0
LINE
  5
1ED
  8
0
  6
CONTINUOUS
 62
     7
 10
671.6724195382
 20
412.6064660436
 30
0.0
 11
789.9656378528
 21
412.6064660436
 31
0.0
  0
POLYLINE
  5
1EE
  8
0
  6
CONTINUOUS
 62
     7
 66
     1
 10
0.0
 20
0.0
 30
0.0
  0
VERTEX
  5
76D
  8
0
  6
CONTINUOUS
 62
     7
 10
789.7290297648
 20
412.0310875064
 30
0.0
  0
VERTEX
  5
76E
  8
0
  6
CONTINUOUS
 62
     7
 10
788.7828470072
 20
411.9810941106
 30
0.0
  0
VERTEX
  5
76F
  8
0
  6
CONTINUOUS
 62
     7
 10
787.8190287253
 20
411.8774714356
 30
0.0
  0
SEQEND
  5
B54
  8
0
  6
CONTINUOUS
 62
     7
  0
ARC
  5
1EF
  8
0
  6
CONTINUOUS
 62
     7
 10
730.8190286955
 20
828.7096580116
 30
0.0
 40
420.711387733997
 50
262.2133453028
 51
277.7866546972
  0
POLYLINE
  5
1F0
  8
0
  6
CONTINUOUS
 62
     7
 66
     1
 10
0.0
 20
0.0
 30
0.0
  0
VERTEX
  5
770
  8
0
  6
CONTINUOUS
 62
     7
 10
671.9090276262
 20
412.0310875064
 30
0.0
  0
VERTEX
  5
771
  8
0
  6
CONTINUOUS
 62
     7
 10
672.8552103838
 20
411.9810941106
 30
0.0
  0
VERTEX
  5
772
  8
0
  6
CONTINUOUS
 62
     7
 10
673.8190286657
 20
411.8774714356
 30
0.0
  0
SEQEND
  5
B53
  8
0
  6
CONTINUOUS
 62
     7
  0
LINE
  5
1F1
  8
0
  6
CONTINUOUS
 62
     7
 10
671.464593043
 20
422.6118656283
 30
0.0
 11
790.173464348
 21
422.6118656283
 31
0.0
  0
POLYLINE
  5
1F2
  8
0
  6
CONTINUOUS
 62
     7
 66
     1
 10
0.0
 20
0.0
 30
0.0
  0
VERTEX
  5
773
  8
0
  6
CONTINUOUS
 62
     7
 10
792.5267302295
 20
422.6118656283
 30
0.0
  0
VERTEX
  5
774
  8
0
  6
CONTINUOUS
 62
     7
 10
792.2888145646
 20
423.3908387309
 30
0.0
  0
VERTEX
  5
775
  8
0
  6
CONTINUOUS
 62
     7
 10
792.0231901905
 20
424.1617354041
 30
0.0
  0
VERTEX
  5
776
  8
0
  6
CONTINUOUS
 62
     7
 10
791.7122066816
 20
424.9114575272
 30
0.0
  0
VERTEX
  5
777
  8
0
  6
CONTINUOUS
 62
     7
 10
791.3382210633
 20
425.6269218808
 30
0.0
  0
VERTEX
  5
778
  8
0
  6
CONTINUOUS
 62
     7
 10
791.1170431277
 20
425.9659829026
 30
0.0
  0
VERTEX
  5
779
  8
0
  6
CONTINUOUS
 62
     7
 10
790.8566304347
 20
426.2726189977
 30
0.0
  0
VERTEX
  5
77A
  8
0
  6
CONTINUOUS
 62
     7
 10
790.5953199467
 20
426.482770074
 30
0.0
  0
VERTEX
  5
77B
  8
0
  6
CONTINUOUS
 62
     7
 10
790.4436894557
 20
426.55894481
 30
0.0
  0
VERTEX
  5
77C
  8
0
  6
CONTINUOUS
 62
     7
 10
790.2809650501
 20
426.6037526017
 30
0.0
  0
VERTEX
  5
77D
  8
0
  6
CONTINUOUS
 62
     7
 10
790.1760459742
 20
426.6118588334
 30
0.0
  0
SEQEND
  5
B52
  8
0
  6
CONTINUOUS
 62
     7
  0
LINE
  5
1F3
  8
0
  6
CONTINUOUS
 62
     7
 10
792.5267302295
 20
422.6118656283
 30
0.0
 11
791.7900130948
 21
422.6118656283
 31
0.0
  0
LINE
  5
1F4
  8
0
  6
CONTINUOUS
 62
     7
 10
669.8480442962
 20
422.6118656283
 30
0.0
 11
669.1113271615
 21
422.6118656283
 31
0.0
  0
POLYLINE
  5
1F5
  8
0
  6
CONTINUOUS
 62
     7
 66
     1
 10
0.0
 20
0.0
 30
0.0
  0
VERTEX
  5
77E
  8
0
  6
CONTINUOUS
 62
     7
 10
669.1113271615
 20
422.6118656283
 30
0.0
  0
VERTEX
  5
77F
  8
0
  6
CONTINUOUS
 62
     7
 10
669.3492428264
 20
423.3908387309
 30
0.0
  0
VERTEX
  5
780
  8
0
  6
CONTINUOUS
 62
     7
 10
669.6148672005
 20
424.1617354041
 30
0.0
  0
VERTEX
  5
781
  8
0
  6
CONTINUOUS
 62
     7
 10
669.9258507093
 20
424.9114575272
 30
0.0
  0
VERTEX
  5
782
  8
0
  6
CONTINUOUS
 62
     7
 10
670.2998363277
 20
425.6269218808
 30
0.0
  0
VERTEX
  5
783
  8
0
  6
CONTINUOUS
 62
     7
 10
670.5210142633
 20
425.9659829026
 30
0.0
  0
VERTEX
  5
784
  8
0
  6
CONTINUOUS
 62
     7
 10
670.7814269563
 20
426.2726189977
 30
0.0
  0
VERTEX
  5
785
  8
0
  6
CONTINUOUS
 62
     7
 10
671.0427374443
 20
426.482770074
 30
0.0
  0
VERTEX
  5
786
  8
0
  6
CONTINUOUS
 62
     7
 10
671.1943679353
 20
426.55894481
 30
0.0
  0
VERTEX
  5
787
  8
0
  6
CONTINUOUS
 62
     7
 10
671.3570923409
 20
426.6037526017
 30
0.0
  0
VERTEX
  5
788
  8
0
  6
CONTINUOUS
 62
     7
 10
671.4620114168
 20
426.6118588334
 30
0.0
  0
SEQEND
  5
B51
  8
0
  6
CONTINUOUS
 62
     7
  0
LINE
  5
1F6
  8
0
  6
CONTINUOUS
 62
     7
 10
790.1760459742
 20
426.6118588334
 30
0.0
 11
671.4620114168
 21
426.6118588334
 31
0.0
  0
ARC
  5
1F7
  8
0
  6
CONTINUOUS
 62
     7
 10
776.605761181
 20
425.9971907209
 30
0.0
 40
9.252551856417467
 50
28.8227698373
 51
65.0173802345
  0
LINE
  5
1F8
  8
0
  6
CONTINUOUS
 62
     7
 10
784.7120621106
 20
430.4578634387
 30
0.0
 11
790.085804542
 21
430.4578634387
 31
0.0
  0
LINE
  5
1F9
  8
0
  6
CONTINUOUS
 62
     7
 10
676.9259952804
 20
430.4578634387
 30
0.0
 11
671.552252849
 21
430.4578634387
 31
0.0
  0
ARC
  5
1FA
  8
0
  6
CONTINUOUS
 62
     7
 10
685.03229621
 20
425.9971907209
 30
0.0
 40
9.252551856417467
 50
114.9826197655
 51
151.1772301627
  0
POLYLINE
  5
1FB
  8
0
  6
CONTINUOUS
 62
     7
 66
     1
 10
0.0
 20
0.0
 30
0.0
  0
VERTEX
  5
789
  8
0
  6
CONTINUOUS
 62
     7
 10
780.5135146579
 20
434.3840362912
 30
0.0
  0
VERTEX
  5
78A
  8
0
  6
CONTINUOUS
 62
     7
 10
779.8486732742
 20
434.7515138274
 30
0.0
  0
VERTEX
  5
78B
  8
0
  6
CONTINUOUS
 62
     7
 10
779.2249069413
 20
435.1352485305
 30
0.0
  0
VERTEX
  5
78C
  8
0
  6
CONTINUOUS
 62
     7
 10
778.6347464522
 20
435.5400236731
 30
0.0
  0
VERTEX
  5
78D
  8
0
  6
CONTINUOUS
 62
     7
 10
778.0897737345
 20
435.95794164
 30
0.0
  0
VERTEX
  5
78E
  8
0
  6
CONTINUOUS
 62
     7
 10
777.4512925049
 20
436.5175845509
 30
0.0
  0
VERTEX
  5
78F
  8
0
  6
CONTINUOUS
 62
     7
 10
776.89268895
 20
437.0929183846
 30
0.0
  0
VERTEX
  5
790
  8
0
  6
CONTINUOUS
 62
     7
 10
776.4054023525
 20
437.6946123725
 30
0.0
  0
VERTEX
  5
791
  8
0
  6
CONTINUOUS
 62
     7
 10
776.0048814913
 20
438.3056344872
 30
0.0
  0
VERTEX
  5
792
  8
0
  6
CONTINUOUS
 62
     7
 10
775.6916702589
 20
438.9245840197
 30
0.0
  0
VERTEX
  5
793
  8
0
  6
CONTINUOUS
 62
     7
 10
775.4682161709
 20
439.5460667497
 30
0.0
  0
VERTEX
  5
794
  8
0
  6
CONTINUOUS
 62
     7
 10
775.3338374993
 20
440.18090092
 30
0.0
  0
VERTEX
  5
795
  8
0
  6
CONTINUOUS
 62
     7
 10
775.2957650324
 20
440.8110561257
 30
0.0
  0
SEQEND
  5
B50
  8
0
  6
CONTINUOUS
 62
     7
  0
POLYLINE
  5
1FC
  8
0
  6
CONTINUOUS
 62
     7
 66
     1
 10
0.0
 20
0.0
 30
0.0
  0
VERTEX
  5
796
  8
0
  6
CONTINUOUS
 62
     7
 10
681.1245427331
 20
434.3840362912
 30
0.0
  0
VERTEX
  5
797
  8
0
  6
CONTINUOUS
 62
     7
 10
681.7893841168
 20
434.7515138274
 30
0.0
  0
VERTEX
  5
798
  8
0
  6
CONTINUOUS
 62
     7
 10
682.4131504497
 20
435.1352485305
 30
0.0
  0
VERTEX
  5
799
  8
0
  6
CONTINUOUS
 62
     7
 10
683.0033109387
 20
435.5400236731
 30
0.0
  0
VERTEX
  5
79A
  8
0
  6
CONTINUOUS
 62
     7
 10
683.5482836565
 20
435.95794164
 30
0.0
  0
VERTEX
  5
79B
  8
0
  6
CONTINUOUS
 62
     7
 10
684.1867648861
 20
436.5175845509
 30
0.0
  0
VERTEX
  5
79C
  8
0
  6
CONTINUOUS
 62
     7
 10
684.745368441
 20
437.0929183846
 30
0.0
  0
VERTEX
  5
79D
  8
0
  6
CONTINUOUS
 62
     7
 10
685.2326550385
 20
437.6946123725
 30
0.0
  0
VERTEX
  5
79E
  8
0
  6
CONTINUOUS
 62
     7
 10
685.6331758997
 20
438.3056344872
 30
0.0
  0
VERTEX
  5
79F
  8
0
  6
CONTINUOUS
 62
     7
 10
685.9463871321
 20
438.9245840197
 30
0.0
  0
VERTEX
  5
7A0
  8
0
  6
CONTINUOUS
 62
     7
 10
686.1698412201
 20
439.5460667497
 30
0.0
  0
VERTEX
  5
7A1
  8
0
  6
CONTINUOUS
 62
     7
 10
686.3042198917
 20
440.18090092
 30
0.0
  0
VERTEX
  5
7A2
  8
0
  6
CONTINUOUS
 62
     7
 10
686.3422923585
 20
440.8110561257
 30
0.0
  0
SEQEND
  5
B4F
  8
0
  6
CONTINUOUS
 62
     7
  0
LINE
  5
1FD
  8
0
  6
CONTINUOUS
 62
     7
 10
775.2957650324
 20
440.8110561257
 30
0.0
 11
686.3422923585
 21
440.8110561257
 31
0.0
  0
ARC
  5
1FE
  8
0
  6
CONTINUOUS
 62
     7
 10
693.8190286955
 20
236.1118582374
 30
0.0
 40
3.0
 50
165.0
 51
270.0
  0
LINE
  5
1FF
  8
0
  6
CONTINUOUS
 62
     7
 10
690.9212515554
 20
236.8883150106
 30
0.0
 11
695.3742661377
 21
253.5071926599
 31
0.0
  0
LINE
  5
200
  8
0
  6
CONTINUOUS
 62
     7
 10
770.7168058356
 20
236.8883150106
 30
0.0
 11
766.2637912532
 21
253.5071926599
 31
0.0
  0
ARC
  5
201
  8
0
  6
CONTINUOUS
 62
     7
 10
767.8190286955
 20
236.1118582374
 30
0.0
 40
3.0
 50
270.0
 51
15.0
  0
LINE
  5
202
  8
0
  6
CONTINUOUS
 62
     7
 10
767.8190291723
 20
233.1118578499
 30
0.0
 11
693.8190282187
 21
233.1118578499
 31
0.0
  0
LINE
  5
203
  8
0
  6
CONTINUOUS
 62
     7
 10
686.3003902933
 20
442.4133183843
 30
0.0
 11
686.3135293922
 21
441.9150086528
 31
0.0
  0
LINE
  5
204
  8
0
  6
CONTINUOUS
 62
     7
 10
686.3135293922
 20
441.9150086528
 30
0.0
 11
686.3422923585
 21
440.8110561257
 31
0.0
  0
LINE
  5
205
  8
0
  6
CONTINUOUS
 62
     7
 10
676.9161456129
 20
452.6118519193
 30
0.0
 11
676.9259952804
 21
430.4578634387
 31
0.0
  0
LINE
  5
206
  8
0
  6
CONTINUOUS
 62
     7
 10
686.0334508916
 20
452.6118519193
 30
0.0
 11
676.9161456129
 21
452.6118519193
 31
0.0
  0
LINE
  5
207
  8
0
  6
CONTINUOUS
 62
     7
 10
784.7219117781
 20
452.6118519193
 30
0.0
 11
784.7120621106
 21
430.4578634387
 31
0.0
  0
LINE
  5
208
  8
0
  6
CONTINUOUS
 62
     7
 10
775.3245279988
 20
441.9150086528
 30
0.0
 11
775.2957650324
 21
440.8110561257
 31
0.0
  0
LINE
  5
209
  8
0
  6
CONTINUOUS
 62
     7
 10
775.3376670977
 20
442.4133183843
 30
0.0
 11
775.3245279988
 21
441.9150086528
 31
0.0
  0
LINE
  5
20A
  8
0
  6
CONTINUOUS
 62
     7
 10
775.6046064993
 20
452.6118519193
 30
0.0
 11
784.7219117781
 21
452.6118519193
 31
0.0
  0
POLYLINE
  5
20B
  8
0
  6
CONTINUOUS
 62
     7
 66
     1
 10
0.0
 20
0.0
 30
0.0
  0
VERTEX
  5
7A3
  8
0
  6
CONTINUOUS
 62
     7
 10
671.552252849
 20
430.4578634387
 30
0.0
  0
VERTEX
  5
7A4
  8
0
  6
CONTINUOUS
 62
     7
 10
671.2330662509
 20
430.4381939059
 30
0.0
  0
VERTEX
  5
7A5
  8
0
  6
CONTINUOUS
 62
     7
 10
670.9187746843
 20
430.3775461799
 30
0.0
  0
VERTEX
  5
7A6
  8
0
  6
CONTINUOUS
 62
     7
 10
670.6129022738
 20
430.2706601506
 30
0.0
  0
VERTEX
  5
7A7
  8
0
  6
CONTINUOUS
 62
     7
 10
670.3307376107
 20
430.110219348
 30
0.0
  0
VERTEX
  5
7A8
  8
0
  6
CONTINUOUS
 62
     7
 10
670.0868912837
 20
429.8788490182
 30
0.0
  0
VERTEX
  5
7A9
  8
0
  6
CONTINUOUS
 62
     7
 10
669.9486457607
 20
429.6285095101
 30
0.0
  0
VERTEX
  5
7AA
  8
0
  6
CONTINUOUS
 62
     7
 10
669.9049369296
 20
429.3890478497
 30
0.0
  0
SEQEND
  5
B4E
  8
0
  6
CONTINUOUS
 62
     7
  0
POLYLINE
  5
20C
  8
0
  6
CONTINUOUS
 62
     7
 66
     1
 10
0.0
 20
0.0
 30
0.0
  0
VERTEX
  5
7AB
  8
0
  6
CONTINUOUS
 62
     7
 10
669.9049369296
 20
429.3890478497
 30
0.0
  0
VERTEX
  5
7AC
  8
0
  6
CONTINUOUS
 62
     7
 10
669.977073451
 20
432.7653678542
 30
0.0
  0
VERTEX
  5
7AD
  8
0
  6
CONTINUOUS
 62
     7
 10
670.4015404781
 20
452.6118519193
 30
0.0
  0
SEQEND
  5
B4D
  8
0
  6
CONTINUOUS
 62
     7
  0
LINE
  5
20D
  8
0
  6
CONTINUOUS
 62
     7
 10
676.9161456129
 20
452.6118519193
 30
0.0
 11
670.4015404781
 21
452.6118519193
 31
0.0
  0
LINE
  5
20E
  8
0
  6
CONTINUOUS
 62
     7
 10
784.7219117781
 20
452.6118519193
 30
0.0
 11
791.2365169128
 21
452.6118519193
 31
0.0
  0
POLYLINE
  5
20F
  8
0
  6
CONTINUOUS
 62
     7
 66
     1
 10
0.0
 20
0.0
 30
0.0
  0
VERTEX
  5
7AE
  8
0
  6
CONTINUOUS
 62
     7
 10
791.7331204614
 20
429.3890478497
 30
0.0
  0
VERTEX
  5
7AF
  8
0
  6
CONTINUOUS
 62
     7
 10
791.66098394
 20
432.7653678542
 30
0.0
  0
VERTEX
  5
7B0
  8
0
  6
CONTINUOUS
 62
     7
 10
791.2365169128
 20
452.6118519193
 30
0.0
  0
SEQEND
  5
B4C
  8
0
  6
CONTINUOUS
 62
     7
  0
POLYLINE
  5
210
  8
0
  6
CONTINUOUS
 62
     7
 66
     1
 10
0.0
 20
0.0
 30
0.0
  0
VERTEX
  5
7B1
  8
0
  6
CONTINUOUS
 62
     7
 10
790.085804542
 20
430.4578634387
 30
0.0
  0
VERTEX
  5
7B2
  8
0
  6
CONTINUOUS
 62
     7
 10
790.40499114
 20
430.4381939059
 30
0.0
  0
VERTEX
  5
7B3
  8
0
  6
CONTINUOUS
 62
     7
 10
790.7192827066
 20
430.3775461799
 30
0.0
  0
VERTEX
  5
7B4
  8
0
  6
CONTINUOUS
 62
     7
 10
791.0251551172
 20
430.2706601506
 30
0.0
  0
VERTEX
  5
7B5
  8
0
  6
CONTINUOUS
 62
     7
 10
791.3073197803
 20
430.110219348
 30
0.0
  0
VERTEX
  5
7B6
  8
0
  6
CONTINUOUS
 62
     7
 10
791.5511661073
 20
429.8788490182
 30
0.0
  0
VERTEX
  5
7B7
  8
0
  6
CONTINUOUS
 62
     7
 10
791.6894116303
 20
429.6285095101
 30
0.0
  0
VERTEX
  5
7B8
  8
0
  6
CONTINUOUS
 62
     7
 10
791.7331204614
 20
429.3890478497
 30
0.0
  0
SEQEND
  5
B4B
  8
0
  6
CONTINUOUS
 62
     7
  0
LINE
  5
211
  8
0
  6
CONTINUOUS
 62
     7
 10
663.003635486
 20
422.6118656283
 30
0.0
 11
669.1113271615
 21
422.6118656283
 31
0.0
  0
ARC
  5
212
  8
0
  6
CONTINUOUS
 62
     7
 10
653.4104772031
 20
422.6307581516
 30
0.0
 40
9.593176886183802
 50
359.8871632871
 51
24.5188718948
  0
POLYLINE
  5
213
  8
0
  6
CONTINUOUS
 62
     7
 66
     1
 10
0.0
 20
0.0
 30
0.0
  0
VERTEX
  5
7B9
  8
0
  6
CONTINUOUS
 62
     7
 10
663.2820189795
 20
452.6118519193
 30
0.0
  0
VERTEX
  5
7BA
  8
0
  6
CONTINUOUS
 62
     7
 10
662.8222436508
 20
429.6175422555
 30
0.0
  0
VERTEX
  5
7BB
  8
0
  6
CONTINUOUS
 62
     7
 10
662.8176987967
 20
429.3899121171
 30
0.0
  0
SEQEND
  5
B4A
  8
0
  6
CONTINUOUS
 62
     7
  0
LINE
  5
214
  8
0
  6
CONTINUOUS
 62
     7
 10
670.4015404781
 20
452.6118519193
 30
0.0
 11
663.2820189795
 21
452.6118519193
 31
0.0
  0
LINE
  5
215
  8
0
  6
CONTINUOUS
 62
     7
 10
791.2365169128
 20
452.6118519193
 30
0.0
 11
798.3560384115
 21
452.6118519193
 31
0.0
  0
POLYLINE
  5
216
  8
0
  6
CONTINUOUS
 62
     7
 66
     1
 10
0.0
 20
0.0
 30
0.0
  0
VERTEX
  5
7BC
  8
0
  6
CONTINUOUS
 62
     7
 10
798.3560384115
 20
452.6118519193
 30
0.0
  0
VERTEX
  5
7BD
  8
0
  6
CONTINUOUS
 62
     7
 10
798.8158137402
 20
429.6175422555
 30
0.0
  0
VERTEX
  5
7BE
  8
0
  6
CONTINUOUS
 62
     7
 10
798.8203585943
 20
429.3899121171
 30
0.0
  0
SEQEND
  5
B49
  8
0
  6
CONTINUOUS
 62
     7
  0
ARC
  5
217
  8
0
  6
CONTINUOUS
 62
     7
 10
808.2275801879
 20
422.6307581516
 30
0.0
 40
9.593176886184029
 50
155.4811281052
 51
180.1128367129
  0
LINE
  5
218
  8
0
  6
CONTINUOUS
 62
     7
 10
798.634421905
 20
422.6118656283
 30
0.0
 11
792.5267302295
 21
422.6118656283
 31
0.0
  0
LINE
  5
219
  8
0
  6
CONTINUOUS
 62
     7
 10
662.9736096462
 20
412.6064660436
 30
0.0
 11
671.6724195382
 21
412.6064660436
 31
0.0
  0
LINE
  5
21A
  8
0
  6
CONTINUOUS
 62
     7
 10
662.137766262
 20
422.6118656283
 30
0.0
 11
662.7614022097
 21
422.6118656283
 31
0.0
  0
LINE
  5
21B
  8
0
  6
CONTINUOUS
 62
     7
 10
669.8480442962
 20
422.6118656283
 30
0.0
 11
671.464593043
 21
422.6118656283
 31
0.0
  0
LINE
  5
21C
  8
0
  6
CONTINUOUS
 62
     7
 10
798.6644477448
 20
412.6064660436
 30
0.0
 11
789.9656378528
 21
412.6064660436
 31
0.0
  0
LINE
  5
21D
  8
0
  6
CONTINUOUS
 62
     7
 10
799.500291129
 20
422.6118656283
 30
0.0
 11
798.8766551813
 21
422.6118656283
 31
0.0
  0
LINE
  5
21E
  8
0
  6
CONTINUOUS
 62
     7
 10
791.7900130948
 20
422.6118656283
 30
0.0
 11
790.173464348
 21
422.6118656283
 31
0.0
  0
ARC
  5
21F
  8
0
  6
CONTINUOUS
 62
     7
 10
669.391458237
 20
367.6422155785
 30
0.0
 40
44.46020812660255
 50
86.7538771486
 51
96.5855797803
  0
ARC
  5
220
  8
0
  6
CONTINUOUS
 62
     7
 10
792.246599154
 20
367.6422155785
 30
0.0
 40
44.46020812660257
 50
83.4144202197
 51
93.2461228514
  0
ARC
  5
221
  8
0
  6
CONTINUOUS
 62
     7
 10
664.3226329106
 20
411.6021178343
 30
0.0
 40
0.2091327155485864
 50
98.2997059606
 51
184.2305356118
  0
ARC
  5
222
  8
0
  6
CONTINUOUS
 62
     7
 10
797.3154244804
 20
411.6021178343
 30
0.0
 40
0.2091327155485864
 50
355.7694643882
 51
81.7002940394
  0
LINE
  5
223
  8
0
  6
CONTINUOUS
 62
     7
 10
673.8190286657
 20
392.6118569857
 30
0.0
 11
670.4495482942
 21
392.6118569857
 31
0.0
  0
LINE
  5
224
  8
0
  6
CONTINUOUS
 62
     7
 10
689.3633090755
 20
392.6118569857
 30
0.0
 11
673.8190286657
 21
392.6118569857
 31
0.0
  0
LINE
  5
225
  8
0
  6
CONTINUOUS
 62
     7
 10
772.2747483155
 20
392.6118569857
 30
0.0
 11
787.8190287253
 21
392.6118569857
 31
0.0
  0
POLYLINE
  5
226
  8
0
  6
CONTINUOUS
 62
     7
 66
     1
 10
0.0
 20
0.0
 30
0.0
  0
VERTEX
  5
7BF
  8
0
  6
CONTINUOUS
 62
     7
 10
772.2747483155
 20
392.6118569857
 30
0.0
  0
VERTEX
  5
7C0
  8
0
  6
CONTINUOUS
 62
     7
 10
769.316681554
 20
392.6329272276
 30
0.0
  0
VERTEX
  5
7C1
  8
0
  6
CONTINUOUS
 62
     7
 10
766.3529635271
 20
392.6905500179
 30
0.0
  0
VERTEX
  5
7C2
  8
0
  6
CONTINUOUS
 62
     7
 10
763.3811802467
 20
392.7767904883
 30
0.0
  0
VERTEX
  5
7C3
  8
0
  6
CONTINUOUS
 62
     7
 10
760.4049117168
 20
392.8845705872
 30
0.0
  0
VERTEX
  5
7C4
  8
0
  6
CONTINUOUS
 62
     7
 10
755.5049032768
 20
393.0907430535
 30
0.0
  0
VERTEX
  5
7C5
  8
0
  6
CONTINUOUS
 62
     7
 10
750.5943410894
 20
393.30987953
 30
0.0
  0
VERTEX
  5
7C6
  8
0
  6
CONTINUOUS
 62
     7
 10
745.6753187677
 20
393.5159998423
 30
0.0
  0
VERTEX
  5
7C7
  8
0
  6
CONTINUOUS
 62
     7
 10
741.9658711976
 20
393.6467128282
 30
0.0
  0
VERTEX
  5
7C8
  8
0
  6
CONTINUOUS
 62
     7
 10
738.2521712085
 20
393.7473478204
 30
0.0
  0
VERTEX
  5
7C9
  8
0
  6
CONTINUOUS
 62
     7
 10
734.535972481
 20
393.8120337611
 30
0.0
  0
VERTEX
  5
7CA
  8
0
  6
CONTINUOUS
 62
     7
 10
730.8190286955
 20
393.834899593
 30
0.0
  0
VERTEX
  5
7CB
  8
0
  6
CONTINUOUS
 62
     7
 10
727.8186628925
 20
393.8205572253
 30
0.0
  0
VERTEX
  5
7CC
  8
0
  6
CONTINUOUS
 62
     7
 10
724.8190286433
 20
393.7784614449
 30
0.0
  0
VERTEX
  5
7CD
  8
0
  6
CONTINUOUS
 62
     7
 10
721.8180223232
 20
393.7103705889
 30
0.0
  0
VERTEX
  5
7CE
  8
0
  6
CONTINUOUS
 62
     7
 10
718.8190285912
 20
393.6197193747
 30
0.0
  0
VERTEX
  5
7CF
  8
0
  6
CONTINUOUS
 62
     7
 10
713.894796451
 20
393.4323521739
 30
0.0
  0
VERTEX
  5
7D0
  8
0
  6
CONTINUOUS
 62
     7
 10
708.9782980135
 20
393.2178648597
 30
0.0
  0
VERTEX
  5
7D1
  8
0
  6
CONTINUOUS
 62
     7
 10
704.0717591396
 20
393.0011200195
 30
0.0
  0
VERTEX
  5
7D2
  8
0
  6
CONTINUOUS
 62
     7
 10
700.3842917135
 20
392.8515421635
 30
0.0
  0
VERTEX
  5
7D3
  8
0
  6
CONTINUOUS
 62
     7
 10
696.7026338777
 20
392.7275943046
 30
0.0
  0
VERTEX
  5
7D4
  8
0
  6
CONTINUOUS
 62
     7
 10
693.0284247598
 20
392.6430972701
 30
0.0
  0
VERTEX
  5
7D5
  8
0
  6
CONTINUOUS
 62
     7
 10
689.3633090755
 20
392.6118569857
 30
0.0
  0
SEQEND
  5
B48
  8
0
  6
CONTINUOUS
 62
     7
  0
LINE
  5
227
  8
0
  6
CONTINUOUS
 62
     7
 10
787.8190287253
 20
392.6118569857
 30
0.0
 11
791.1885090968
 21
392.6118569857
 31
0.0
  0
POLYLINE
  5
228
  8
0
  6
CONTINUOUS
 62
     7
 66
     1
 10
0.0
 20
0.0
 30
0.0
  0
VERTEX
  5
7D6
  8
0
  6
CONTINUOUS
 62
     7
 10
730.8190286955
 20
342.4114430731
 30
0.0
  0
VERTEX
  5
7D7
  8
0
  6
CONTINUOUS
 62
     7
 10
730.8190900395
 20
341.760776419
 30
0.0
  0
VERTEX
  5
7D8
  8
0
  6
CONTINUOUS
 62
     7
 10
730.8192118678
 20
341.0893189197
 30
0.0
  0
VERTEX
  5
7D9
  8
0
  6
CONTINUOUS
 62
     7
 10
730.8193174705
 20
340.4099265521
 30
0.0
  0
VERTEX
  5
7DA
  8
0
  6
CONTINUOUS
 62
     7
 10
730.8193578253
 20
339.736442495
 30
0.0
  0
VERTEX
  5
7DB
  8
0
  6
CONTINUOUS
 62
     7
 10
730.819316375
 20
339.0827397292
 30
0.0
  0
VERTEX
  5
7DC
  8
0
  6
CONTINUOUS
 62
     7
 10
730.8192104911
 20
338.4617338365
 30
0.0
  0
VERTEX
  5
7DD
  8
0
  6
CONTINUOUS
 62
     7
 10
730.8190893576
 20
337.8844963795
 30
0.0
  0
VERTEX
  5
7DE
  8
0
  6
CONTINUOUS
 62
     7
 10
730.8190286955
 20
337.359610427
 30
0.0
  0
VERTEX
  5
7DF
  8
0
  6
CONTINUOUS
 62
     7
 10
730.8190369243
 20
337.339385826
 30
0.0
  0
VERTEX
  5
7E0
  8
0
  6
CONTINUOUS
 62
     7
 10
730.8190610828
 20
337.3140501266
 30
0.0
  0
VERTEX
  5
7E1
  8
0
  6
CONTINUOUS
 62
     7
 10
730.8191002397
 20
337.2836815601
 30
0.0
  0
VERTEX
  5
7E2
  8
0
  6
CONTINUOUS
 62
     7
 10
730.8191532831
 20
337.2483583575
 30
0.0
  0
VERTEX
  5
7E3
  8
0
  6
CONTINUOUS
 62
     7
 10
730.8192189281
 20
337.2081922775
 30
0.0
  0
VERTEX
  5
7E4
  8
0
  6
CONTINUOUS
 62
     7
 10
730.8192957266
 20
337.1632950788
 30
0.0
  0
VERTEX
  5
7E5
  8
0
  6
CONTINUOUS
 62
     7
 10
730.8195114173
 20
337.0396005398
 30
0.0
  0
VERTEX
  5
7E6
  8
0
  6
CONTINUOUS
 62
     7
 10
730.8197561285
 20
336.8927272445
 30
0.0
  0
VERTEX
  5
7E7
  8
0
  6
CONTINUOUS
 62
     7
 10
730.8201805036
 20
336.5825558489
 30
0.0
  0
VERTEX
  5
7E8
  8
0
  6
CONTINUOUS
 62
     7
 10
730.8204556744
 20
336.2314658647
 30
0.0
  0
VERTEX
  5
7E9
  8
0
  6
CONTINUOUS
 62
     7
 10
730.8204857003
 20
335.9572397953
 30
0.0
  0
VERTEX
  5
7EA
  8
0
  6
CONTINUOUS
 62
     7
 10
730.8203318376
 20
335.6941299921
 30
0.0
  0
VERTEX
  5
7EB
  8
0
  6
CONTINUOUS
 62
     7
 10
730.8200110007
 20
335.4604537075
 30
0.0
  0
VERTEX
  5
7EC
  8
0
  6
CONTINUOUS
 62
     7
 10
730.8195929793
 20
335.2747964149
 30
0.0
  0
VERTEX
  5
7ED
  8
0
  6
CONTINUOUS
 62
     7
 10
730.8192052721
 20
335.1541305369
 30
0.0
  0
VERTEX
  5
7EE
  8
0
  6
CONTINUOUS
 62
     7
 10
730.8190286955
 20
335.1117926126
 30
0.0
  0
SEQEND
  5
B47
  8
0
  6
CONTINUOUS
 62
     7
  0
LINE
  5
229
  8
0
  6
CONTINUOUS
 62
     7
 10
693.6658740839
 20
255.4366583413
 30
0.0
 11
693.5528376004
 21
255.5713685637
 31
0.0
  0
LINE
  5
22A
  8
0
  6
CONTINUOUS
 62
     7
 10
767.9721833071
 20
255.4366583413
 30
0.0
 11
768.0852197906
 21
255.5713685637
 31
0.0
  0
LINE
  5
22B
  8
0
  6
CONTINUOUS
 62
     7
 10
730.8190286955
 20
368.3889093285
 30
0.0
 11
730.8190286955
 21
364.963542152
 31
0.0
  0
LINE
  5
22C
  8
0
  6
CONTINUOUS
 62
     7
 10
730.8190286955
 20
364.963542152
 30
0.0
 11
730.8190286955
 21
342.4114430731
 31
0.0
  0
LINE
  5
22D
  8
0
  6
CONTINUOUS
 62
     7
 10
655.8190257153
 20
426.6118588334
 30
0.0
 11
662.1385858258
 21
426.6118588334
 31
0.0
  0
LINE
  5
22E
  8
0
  6
CONTINUOUS
 62
     7
 10
662.7614022097
 20
422.6118656283
 30
0.0
 11
663.003635486
 21
422.6118656283
 31
0.0
  0
LINE
  5
22F
  8
0
  6
CONTINUOUS
 62
     7
 10
805.8190316757
 20
426.6118588334
 30
0.0
 11
799.4994715652
 21
426.6118588334
 31
0.0
  0
LINE
  5
230
  8
0
  6
CONTINUOUS
 62
     7
 10
798.8766551813
 20
422.6118656283
 30
0.0
 11
798.634421905
 21
422.6118656283
 31
0.0
  0
POLYLINE
  5
231
  8
0
  6
CONTINUOUS
 62
     7
 66
     1
 10
0.0
 20
0.0
 30
0.0
  0
VERTEX
  5
7EF
  8
0
  6
CONTINUOUS
 62
     7
 10
662.8176987967
 20
429.3899121171
 30
0.0
  0
VERTEX
  5
7F0
  8
0
  6
CONTINUOUS
 62
     7
 10
662.814636608
 20
429.5634361392
 30
0.0
  0
VERTEX
  5
7F1
  8
0
  6
CONTINUOUS
 62
     7
 10
662.7898783287
 20
429.7875347024
 30
0.0
  0
VERTEX
  5
7F2
  8
0
  6
CONTINUOUS
 62
     7
 10
662.7611190876
 20
429.9241783505
 30
0.0
  0
VERTEX
  5
7F3
  8
0
  6
CONTINUOUS
 62
     7
 10
662.7256096205
 20
430.0424339658
 30
0.0
  0
VERTEX
  5
7F4
  8
0
  6
CONTINUOUS
 62
     7
 10
662.6640380224
 20
430.1860662585
 30
0.0
  0
VERTEX
  5
7F5
  8
0
  6
CONTINUOUS
 62
     7
 10
662.5957683524
 20
430.2948894387
 30
0.0
  0
VERTEX
  5
7F6
  8
0
  6
CONTINUOUS
 62
     7
 10
662.4813423356
 20
430.4062756186
 30
0.0
  0
VERTEX
  5
7F7
  8
0
  6
CONTINUOUS
 62
     7
 10
662.3623789152
 20
430.4545702821
 30
0.0
  0
VERTEX
  5
7F8
  8
0
  6
CONTINUOUS
 62
     7
 10
662.3215348324
 20
430.4578634387
 30
0.0
  0
SEQEND
  5
B46
  8
0
  6
CONTINUOUS
 62
     7
  0
LINE
  5
232
  8
0
  6
CONTINUOUS
 62
     7
 10
662.3215348324
 20
430.4578634387
 30
0.0
 11
661.1234740218
 21
430.4578634387
 31
0.0
  0
LINE
  5
233
  8
0
  6
CONTINUOUS
 62
     7
 10
661.7139250835
 20
452.6118519193
 30
0.0
 11
661.1234740218
 21
430.4578634387
 31
0.0
  0
LINE
  5
234
  8
0
  6
CONTINUOUS
 62
     7
 10
663.2820189795
 20
452.6118519193
 30
0.0
 11
661.7139250835
 21
452.6118519193
 31
0.0
  0
POLYLINE
  5
235
  8
0
  6
CONTINUOUS
 62
     7
 66
     1
 10
0.0
 20
0.0
 30
0.0
  0
VERTEX
  5
7F9
  8
0
  6
CONTINUOUS
 62
     7
 10
798.8203585943
 20
429.3899121171
 30
0.0
  0
VERTEX
  5
7FA
  8
0
  6
CONTINUOUS
 62
     7
 10
798.823420783
 20
429.5634361392
 30
0.0
  0
VERTEX
  5
7FB
  8
0
  6
CONTINUOUS
 62
     7
 10
798.8481790623
 20
429.7875347024
 30
0.0
  0
VERTEX
  5
7FC
  8
0
  6
CONTINUOUS
 62
     7
 10
798.8769383034
 20
429.9241783505
 30
0.0
  0
VERTEX
  5
7FD
  8
0
  6
CONTINUOUS
 62
     7
 10
798.9124477705
 20
430.0424339658
 30
0.0
  0
VERTEX
  5
7FE
  8
0
  6
CONTINUOUS
 62
     7
 10
798.9740193686
 20
430.1860662585
 30
0.0
  0
VERTEX
  5
7FF
  8
0
  6
CONTINUOUS
 62
     7
 10
799.0422890386
 20
430.2948894387
 30
0.0
  0
VERTEX
  5
800
  8
0
  6
CONTINUOUS
 62
     7
 10
799.1567150554
 20
430.4062756186
 30
0.0
  0
VERTEX
  5
801
  8
0
  6
CONTINUOUS
 62
     7
 10
799.2756784758
 20
430.4545702821
 30
0.0
  0
VERTEX
  5
802
  8
0
  6
CONTINUOUS
 62
     7
 10
799.3165225586
 20
430.4578634387
 30
0.0
  0
SEQEND
  5
B45
  8
0
  6
CONTINUOUS
 62
     7
  0
LINE
  5
236
  8
0
  6
CONTINUOUS
 62
     7
 10
799.9241323074
 20
452.6118519193
 30
0.0
 11
800.5145833692
 21
430.4578634387
 31
0.0
  0
LINE
  5
237
  8
0
  6
CONTINUOUS
 62
     7
 10
799.3165225586
 20
430.4578634387
 30
0.0
 11
800.5145833692
 21
430.4578634387
 31
0.0
  0
LINE
  5
238
  8
0
  6
CONTINUOUS
 62
     7
 10
798.3560384115
 20
452.6118519193
 30
0.0
 11
799.9241323074
 21
452.6118519193
 31
0.0
  0
POLYLINE
  5
239
  8
0
  6
CONTINUOUS
 62
     7
 66
     1
 10
0.0
 20
0.0
 30
0.0
  0
VERTEX
  5
803
  8
0
  6
CONTINUOUS
 62
     7
 10
742.3433269238
 20
468.7591972237
 30
0.0
  0
VERTEX
  5
804
  8
0
  6
CONTINUOUS
 62
     7
 10
741.221751911
 20
468.0357160455
 30
0.0
  0
VERTEX
  5
805
  8
0
  6
CONTINUOUS
 62
     7
 10
740.0659163347
 20
467.3541220313
 30
0.0
  0
VERTEX
  5
806
  8
0
  6
CONTINUOUS
 62
     7
 10
738.9753273552
 20
466.7739006167
 30
0.0
  0
VERTEX
  5
807
  8
0
  6
CONTINUOUS
 62
     7
 10
737.8495190157
 20
466.2423016911
 30
0.0
  0
VERTEX
  5
808
  8
0
  6
CONTINUOUS
 62
     7
 10
736.6917746937
 20
465.7700242883
 30
0.0
  0
VERTEX
  5
809
  8
0
  6
CONTINUOUS
 62
     7
 10
735.505379164
 20
465.3677674418
 30
0.0
  0
VERTEX
  5
80A
  8
0
  6
CONTINUOUS
 62
     7
 10
734.2936160373
 20
465.0462003833
 30
0.0
  0
VERTEX
  5
80B
  8
0
  6
CONTINUOUS
 62
     7
 10
733.1485535348
 20
464.8289861565
 30
0.0
  0
VERTEX
  5
80C
  8
0
  6
CONTINUOUS
 62
     7
 10
731.9868366564
 20
464.6949800139
 30
0.0
  0
VERTEX
  5
80D
  8
0
  6
CONTINUOUS
 62
     7
 10
730.8192286955
 20
464.6491887456
 30
0.0
  0
VERTEX
  5
80E
  8
0
  6
CONTINUOUS
 62
     7
 10
729.7116948854
 20
464.6915080434
 30
0.0
  0
VERTEX
  5
80F
  8
0
  6
CONTINUOUS
 62
     7
 10
728.6069601638
 20
464.814606536
 30
0.0
  0
VERTEX
  5
810
  8
0
  6
CONTINUOUS
 62
     7
 10
727.5127280833
 20
465.0126578694
 30
0.0
  0
VERTEX
  5
811
  8
0
  6
CONTINUOUS
 62
     7
 10
726.4367028935
 20
465.2798058873
 30
0.0
  0
VERTEX
  5
812
  8
0
  6
CONTINUOUS
 62
     7
 10
725.3865873305
 20
465.6102242356
 30
0.0
  0
VERTEX
  5
813
  8
0
  6
CONTINUOUS
 62
     7
 10
724.0938217243
 20
466.1091151124
 30
0.0
  0
VERTEX
  5
814
  8
0
  6
CONTINUOUS
 62
     7
 10
722.8375066867
 20
466.6853430158
 30
0.0
  0
VERTEX
  5
815
  8
0
  6
CONTINUOUS
 62
     7
 10
721.6183896041
 20
467.3270466214
 30
0.0
  0
VERTEX
  5
816
  8
0
  6
CONTINUOUS
 62
     7
 10
720.4372155344
 20
468.0223050004
 30
0.0
  0
VERTEX
  5
817
  8
0
  6
CONTINUOUS
 62
     7
 10
719.2947304672
 20
468.7591972237
 30
0.0
  0
SEQEND
  5
B44
  8
0
  6
CONTINUOUS
 62
     7
  0
ARC
  5
23A
  8
0
  6
CONTINUOUS
 62
     7
 10
705.2829614683
 20
461.4599491264
 30
0.0
 40
11.95785696212634
 50
91.8067478676
 51
106.5846790417
  0
LINE
  5
23B
  8
0
  6
CONTINUOUS
 62
     7
 10
706.0663186809
 20
473.4118612891
 30
0.0
 11
704.9059484949
 21
473.4118612891
 31
0.0
  0
ARC
  5
23C
  8
0
  6
CONTINUOUS
 62
     7
 10
704.0360384412
 20
446.5076055895
 30
0.0
 40
26.98075263218895
 50
55.5602089762
 51
85.684458723
  0
ARC
  5
23D
  8
0
  6
CONTINUOUS
 62
     7
 10
756.3550959227
 20
461.4599491264
 30
0.0
 40
11.95785696212634
 50
73.4153209583
 51
88.1932521324
  0
ARC
  5
23E
  8
0
  6
CONTINUOUS
 62
     7
 10
757.6020189498
 20
446.5076055895
 30
0.0
 40
26.98075263218895
 50
94.315541277
 51
124.4397910238
  0
LINE
  5
23F
  8
0
  6
CONTINUOUS
 62
     7
 10
755.5717387101
 20
473.4118612891
 30
0.0
 11
756.732108896
 21
473.4118612891
 31
0.0
  0
LINE
  5
240
  8
0
  6
CONTINUOUS
 62
     7
 10
656.694386979
 20
412.6064660436
 30
0.0
 11
662.9736096462
 21
412.6064660436
 31
0.0
  0
LINE
  5
241
  8
0
  6
CONTINUOUS
 62
     7
 10
655.8190257153
 20
422.6118656283
 30
0.0
 11
662.137766262
 21
422.6118656283
 31
0.0
  0
LINE
  5
242
  8
0
  6
CONTINUOUS
 62
     7
 10
804.943670412
 20
412.6064660436
 30
0.0
 11
798.6644477448
 21
412.6064660436
 31
0.0
  0
LINE
  5
243
  8
0
  6
CONTINUOUS
 62
     7
 10
805.8190316757
 20
422.6118656283
 30
0.0
 11
799.500291129
 21
422.6118656283
 31
0.0
  0
LINE
  5
244
  8
0
  6
CONTINUOUS
 62
     7
 10
730.8190286955
 20
486.6118612176
 30
0.0
 11
769.3190284869
 21
486.6118612176
 31
0.0
  0
LINE
  5
245
  8
0
  6
CONTINUOUS
 62
     7
 10
692.3190289041
 20
486.6118612176
 30
0.0
 11
730.8190286955
 21
486.6118612176
 31
0.0
  0
POLYLINE
  5
246
  8
0
  6
CONTINUOUS
 62
     7
 66
     1
 10
0.0
 20
0.0
 30
0.0
  0
VERTEX
  5
818
  8
0
  6
CONTINUOUS
 62
     7
 10
701.8698052367
 20
472.9203464871
 30
0.0
  0
VERTEX
  5
819
  8
0
  6
CONTINUOUS
 62
     7
 10
700.6600470146
 20
472.5439729577
 30
0.0
  0
VERTEX
  5
81A
  8
0
  6
CONTINUOUS
 62
     7
 10
699.5169007083
 20
472.176540125
 30
0.0
  0
VERTEX
  5
81B
  8
0
  6
CONTINUOUS
 62
     7
 10
698.4442331692
 20
471.8212964421
 30
0.0
  0
VERTEX
  5
81C
  8
0
  6
CONTINUOUS
 62
     7
 10
697.4236675402
 20
471.4738609677
 30
0.0
  0
VERTEX
  5
81D
  8
0
  6
CONTINUOUS
 62
     7
 10
696.4807034334
 20
471.1445751077
 30
0.0
  0
VERTEX
  5
81E
  8
0
  6
CONTINUOUS
 62
     7
 10
695.6191182932
 20
470.8367171174
 30
0.0
  0
VERTEX
  5
81F
  8
0
  6
CONTINUOUS
 62
     7
 10
694.7545082172
 20
470.5210658198
 30
0.0
  0
VERTEX
  5
820
  8
0
  6
CONTINUOUS
 62
     7
 10
693.9968996545
 20
470.2388229257
 30
0.0
  0
VERTEX
  5
821
  8
0
  6
CONTINUOUS
 62
     7
 10
693.3506884476
 20
469.9938925391
 30
0.0
  0
VERTEX
  5
822
  8
0
  6
CONTINUOUS
 62
     7
 10
692.9288179478
 20
469.8319467193
 30
0.0
  0
VERTEX
  5
823
  8
0
  6
CONTINUOUS
 62
     7
 10
692.5758839449
 20
469.695198763
 30
0.0
  0
VERTEX
  5
824
  8
0
  6
CONTINUOUS
 62
     7
 10
692.2931418618
 20
469.584736455
 30
0.0
  0
VERTEX
  5
825
  8
0
  6
CONTINUOUS
 62
     7
 10
692.0818396708
 20
469.5016773826
 30
0.0
  0
VERTEX
  5
826
  8
0
  6
CONTINUOUS
 62
     7
 10
691.922281762
 20
469.4387199765
 30
0.0
  0
VERTEX
  5
827
  8
0
  6
CONTINUOUS
 62
     7
 10
691.8687791428
 20
469.4175454265
 30
0.0
  0
VERTEX
  5
828
  8
0
  6
CONTINUOUS
 62
     7
 10
691.8687865933
 20
469.4175454265
 30
0.0
  0
SEQEND
  5
B43
  8
0
  6
CONTINUOUS
 62
     7
  0
POLYLINE
  5
247
  8
0
  6
CONTINUOUS
 62
     7
 66
     1
 10
0.0
 20
0.0
 30
0.0
  0
VERTEX
  5
829
  8
0
  6
CONTINUOUS
 62
     7
 10
759.7682521543
 20
472.9203464871
 30
0.0
  0
VERTEX
  5
82A
  8
0
  6
CONTINUOUS
 62
     7
 10
760.9780103764
 20
472.5439729577
 30
0.0
  0
VERTEX
  5
82B
  8
0
  6
CONTINUOUS
 62
     7
 10
762.1211566826
 20
472.176540125
 30
0.0
  0
VERTEX
  5
82C
  8
0
  6
CONTINUOUS
 62
     7
 10
763.1938242218
 20
471.8212964421
 30
0.0
  0
VERTEX
  5
82D
  8
0
  6
CONTINUOUS
 62
     7
 10
764.2143898508
 20
471.4738609677
 30
0.0
  0
VERTEX
  5
82E
  8
0
  6
CONTINUOUS
 62
     7
 10
765.1573539576
 20
471.1445751077
 30
0.0
  0
VERTEX
  5
82F
  8
0
  6
CONTINUOUS
 62
     7
 10
766.0189390978
 20
470.8367171174
 30
0.0
  0
VERTEX
  5
830
  8
0
  6
CONTINUOUS
 62
     7
 10
766.8835491737
 20
470.5210658198
 30
0.0
  0
VERTEX
  5
831
  8
0
  6
CONTINUOUS
 62
     7
 10
767.6411577365
 20
470.2388229257
 30
0.0
  0
VERTEX
  5
832
  8
0
  6
CONTINUOUS
 62
     7
 10
768.2873689434
 20
469.9938925391
 30
0.0
  0
VERTEX
  5
833
  8
0
  6
CONTINUOUS
 62
     7
 10
768.7092394432
 20
469.8319467193
 30
0.0
  0
VERTEX
  5
834
  8
0
  6
CONTINUOUS
 62
     7
 10
769.0621734461
 20
469.695198763
 30
0.0
  0
VERTEX
  5
835
  8
0
  6
CONTINUOUS
 62
     7
 10
769.3449155292
 20
469.584736455
 30
0.0
  0
VERTEX
  5
836
  8
0
  6
CONTINUOUS
 62
     7
 10
769.5562177202
 20
469.5016773826
 30
0.0
  0
VERTEX
  5
837
  8
0
  6
CONTINUOUS
 62
     7
 10
769.715775629
 20
469.4387199765
 30
0.0
  0
VERTEX
  5
838
  8
0
  6
CONTINUOUS
 62
     7
 10
769.7692782482
 20
469.4175454265
 30
0.0
  0
VERTEX
  5
839
  8
0
  6
CONTINUOUS
 62
     7
 10
769.7692707976
 20
469.4175454265
 30
0.0
  0
SEQEND
  5
B42
  8
0
  6
CONTINUOUS
 62
     7
  0
LINE
  5
248
  8
0
  6
CONTINUOUS
 62
     7
 10
720.9279126352
 20
517.6118644362
 30
0.0
 11
710.535607194
 21
517.6118644362
 31
0.0
  0
LINE
  5
249
  8
0
  6
CONTINUOUS
 62
     7
 10
720.9279126352
 20
517.6118644362
 30
0.0
 11
718.1948440945
 21
486.6118612176
 31
0.0
  0
LINE
  5
24A
  8
0
  6
CONTINUOUS
 62
     7
 10
710.535607194
 20
517.6118644362
 30
0.0
 11
707.8025386533
 21
486.6118612176
 31
0.0
  0
LINE
  5
24B
  8
0
  6
CONTINUOUS
 62
     7
 10
721.0151812857
 20
537.6118453627
 30
0.0
 11
720.9279126352
 21
517.6118644362
 31
0.0
  0
LINE
  5
24C
  8
0
  6
CONTINUOUS
 62
     7
 10
724.9910881607
 20
537.6118453627
 30
0.0
 11
721.0151812857
 21
537.6118453627
 31
0.0
  0
LINE
  5
24D
  8
0
  6
CONTINUOUS
 62
     7
 10
724.9910881607
 20
537.6118453627
 30
0.0
 11
724.4437652504
 21
531.6118630057
 31
0.0
  0
POLYLINE
  5
24E
  8
0
  6
CONTINUOUS
 62
     7
 66
     1
 10
0.0
 20
0.0
 30
0.0
  0
VERTEX
  5
83A
  8
0
  6
CONTINUOUS
 62
     7
 10
724.317184077
 20
531.6118630057
 30
0.0
  0
VERTEX
  5
83B
  8
0
  6
CONTINUOUS
 62
     7
 10
724.1955789602
 20
531.6025944835
 30
0.0
  0
VERTEX
  5
83C
  8
0
  6
CONTINUOUS
 62
     7
 10
723.929489856
 20
531.5157952195
 30
0.0
  0
VERTEX
  5
83D
  8
0
  6
CONTINUOUS
 62
     7
 10
723.6745696379
 20
531.3404383546
 30
0.0
  0
VERTEX
  5
83E
  8
0
  6
CONTINUOUS
 62
     7
 10
723.4412803179
 20
531.0829015857
 30
0.0
  0
VERTEX
  5
83F
  8
0
  6
CONTINUOUS
 62
     7
 10
723.2334873503
 20
530.749398697
 30
0.0
  0
VERTEX
  5
840
  8
0
  6
CONTINUOUS
 62
     7
 10
723.0622250451
 20
530.3586902505
 30
0.0
  0
VERTEX
  5
841
  8
0
  6
CONTINUOUS
 62
     7
 10
722.9269844344
 20
529.9151273852
 30
0.0
  0
VERTEX
  5
842
  8
0
  6
CONTINUOUS
 62
     7
 10
722.8348095765
 20
529.4443251973
 30
0.0
  0
VERTEX
  5
843
  8
0
  6
CONTINUOUS
 62
     7
 10
722.7839770591
 20
528.9490702039
 30
0.0
  0
VERTEX
  5
844
  8
0
  6
CONTINUOUS
 62
     7
 10
722.77633742
 20
528.7688704615
 30
0.0
  0
SEQEND
  5
B41
  8
0
  6
CONTINUOUS
 62
     7
  0
LINE
  5
24F
  8
0
  6
CONTINUOUS
 62
     7
 10
722.77633742
 20
528.7688704615
 30
0.0
 11
722.0979750952
 21
503.4910025483
 31
0.0
  0
LINE
  5
250
  8
0
  6
CONTINUOUS
 62
     7
 10
722.0979750952
 20
503.4910025483
 30
0.0
 11
720.5790019458
 21
486.6118612176
 31
0.0
  0
LINE
  5
251
  8
0
  6
CONTINUOUS
 62
     7
 10
693.5528301498
 20
255.5713816023
 30
0.0
 11
693.5684689185
 21
255.5527402496
 31
0.0
  0
POLYLINE
  5
252
  8
0
  6
CONTINUOUS
 62
     7
 66
     1
 10
0.0
 20
0.0
 30
0.0
  0
VERTEX
  5
845
  8
0
  6
CONTINUOUS
 62
     7
 10
693.5684689185
 20
255.5527402496
 30
0.0
  0
VERTEX
  5
846
  8
0
  6
CONTINUOUS
 62
     7
 10
693.1920134327
 20
256.0013825482
 30
0.0
  0
VERTEX
  5
847
  8
0
  6
CONTINUOUS
 62
     7
 10
692.8328172168
 20
256.4294556564
 30
0.0
  0
VERTEX
  5
848
  8
0
  6
CONTINUOUS
 62
     7
 10
692.485441347
 20
256.8434453046
 30
0.0
  0
VERTEX
  5
849
  8
0
  6
CONTINUOUS
 62
     7
 10
692.1444357237
 20
257.2498372233
 30
0.0
  0
VERTEX
  5
84A
  8
0
  6
CONTINUOUS
 62
     7
 10
691.8043688735
 20
257.6551152801
 30
0.0
  0
VERTEX
  5
84B
  8
0
  6
CONTINUOUS
 62
     7
 10
691.4597906968
 20
258.0657652056
 30
0.0
  0
VERTEX
  5
84C
  8
0
  6
CONTINUOUS
 62
     7
 10
689.4616790911
 20
260.4470210558
 30
0.0
  0
VERTEX
  5
84D
  8
0
  6
CONTINUOUS
 62
     7
 10
688.354094406
 20
261.7669919914
 30
0.0
  0
VERTEX
  5
84E
  8
0
  6
CONTINUOUS
 62
     7
 10
687.2390144369
 20
263.0958905851
 30
0.0
  0
VERTEX
  5
84F
  8
0
  6
CONTINUOUS
 62
     7
 10
685.711228182
 20
264.9166373944
 30
0.0
  0
VERTEX
  5
850
  8
0
  6
CONTINUOUS
 62
     7
 10
684.1661863824
 20
266.7579422181
 30
0.0
  0
VERTEX
  5
851
  8
0
  6
CONTINUOUS
 62
     7
 10
682.6041386327
 20
268.6195219344
 30
0.0
  0
VERTEX
  5
852
  8
0
  6
CONTINUOUS
 62
     7
 10
681.0253159007
 20
270.501087833
 30
0.0
  0
VERTEX
  5
853
  8
0
  6
CONTINUOUS
 62
     7
 10
679.7261171838
 20
272.0494125446
 30
0.0
  0
VERTEX
  5
854
  8
0
  6
CONTINUOUS
 62
     7
 10
678.4145691296
 20
273.6124568095
 30
0.0
  0
VERTEX
  5
855
  8
0
  6
CONTINUOUS
 62
     7
 10
677.0922661623
 20
275.1883160731
 30
0.0
  0
VERTEX
  5
856
  8
0
  6
CONTINUOUS
 62
     7
 10
675.7608027062
 20
276.7750895059
 30
0.0
  0
VERTEX
  5
857
  8
0
  6
CONTINUOUS
 62
     7
 10
674.421780636
 20
278.3708734846
 30
0.0
  0
VERTEX
  5
858
  8
0
  6
CONTINUOUS
 62
     7
 10
673.6154378256
 20
279.3318358658
 30
0.0
  0
VERTEX
  5
859
  8
0
  6
CONTINUOUS
 62
     7
 10
672.8069119951
 20
280.2954008279
 30
0.0
  0
VERTEX
  5
85A
  8
0
  6
CONTINUOUS
 62
     7
 10
671.9945751926
 20
281.263505522
 30
0.0
  0
VERTEX
  5
85B
  8
0
  6
CONTINUOUS
 62
     7
 10
671.1809717914
 20
282.2331217526
 30
0.0
  0
SEQEND
  5
B40
  8
0
  6
CONTINUOUS
 62
     7
  0
POLYLINE
  5
253
  8
0
  6
CONTINUOUS
 62
     7
 66
     1
 10
0.0
 20
0.0
 30
0.0
  0
VERTEX
  5
85C
  8
0
  6
CONTINUOUS
 62
     7
 10
768.0695884725
 20
255.5527402496
 30
0.0
  0
VERTEX
  5
85D
  8
0
  6
CONTINUOUS
 62
     7
 10
768.4460439583
 20
256.0013825482
 30
0.0
  0
VERTEX
  5
85E
  8
0
  6
CONTINUOUS
 62
     7
 10
768.8052401742
 20
256.4294556564
 30
0.0
  0
VERTEX
  5
85F
  8
0
  6
CONTINUOUS
 62
     7
 10
769.152616044
 20
256.8434453046
 30
0.0
  0
VERTEX
  5
860
  8
0
  6
CONTINUOUS
 62
     7
 10
769.4936216673
 20
257.2498372233
 30
0.0
  0
VERTEX
  5
861
  8
0
  6
CONTINUOUS
 62
     7
 10
769.8336885175
 20
257.6551152801
 30
0.0
  0
VERTEX
  5
862
  8
0
  6
CONTINUOUS
 62
     7
 10
770.1782666942
 20
258.0657652056
 30
0.0
  0
VERTEX
  5
863
  8
0
  6
CONTINUOUS
 62
     7
 10
772.1763782999
 20
260.4470210558
 30
0.0
  0
VERTEX
  5
864
  8
0
  6
CONTINUOUS
 62
     7
 10
773.2839629849
 20
261.7669919914
 30
0.0
  0
VERTEX
  5
865
  8
0
  6
CONTINUOUS
 62
     7
 10
774.3990429541
 20
263.0958905851
 30
0.0
  0
VERTEX
  5
866
  8
0
  6
CONTINUOUS
 62
     7
 10
775.926829209
 20
264.9166373944
 30
0.0
  0
VERTEX
  5
867
  8
0
  6
CONTINUOUS
 62
     7
 10
777.4718710085
 20
266.7579422181
 30
0.0
  0
VERTEX
  5
868
  8
0
  6
CONTINUOUS
 62
     7
 10
779.0339187583
 20
268.6195219344
 30
0.0
  0
VERTEX
  5
869
  8
0
  6
CONTINUOUS
 62
     7
 10
780.6127414903
 20
270.501087833
 30
0.0
  0
VERTEX
  5
86A
  8
0
  6
CONTINUOUS
 62
     7
 10
781.9119402072
 20
272.0494125446
 30
0.0
  0
VERTEX
  5
86B
  8
0
  6
CONTINUOUS
 62
     7
 10
783.2234882614
 20
273.6124568095
 30
0.0
  0
VERTEX
  5
86C
  8
0
  6
CONTINUOUS
 62
     7
 10
784.5457912287
 20
275.1883160731
 30
0.0
  0
VERTEX
  5
86D
  8
0
  6
CONTINUOUS
 62
     7
 10
785.8772546848
 20
276.7750895059
 30
0.0
  0
VERTEX
  5
86E
  8
0
  6
CONTINUOUS
 62
     7
 10
787.216276755
 20
278.3708734846
 30
0.0
  0
VERTEX
  5
86F
  8
0
  6
CONTINUOUS
 62
     7
 10
788.0226195654
 20
279.3318358658
 30
0.0
  0
VERTEX
  5
870
  8
0
  6
CONTINUOUS
 62
     7
 10
788.8311453959
 20
280.2954008279
 30
0.0
  0
VERTEX
  5
871
  8
0
  6
CONTINUOUS
 62
     7
 10
789.6434821984
 20
281.263505522
 30
0.0
  0
VERTEX
  5
872
  8
0
  6
CONTINUOUS
 62
     7
 10
790.4570855996
 20
282.2331217526
 30
0.0
  0
SEQEND
  5
B3F
  8
0
  6
CONTINUOUS
 62
     7
  0
LINE
  5
254
  8
0
  6
CONTINUOUS
 62
     7
 10
768.0852272412
 20
255.5713816023
 30
0.0
 11
768.0695884725
 21
255.5527402496
 31
0.0
  0
POLYLINE
  5
255
  8
0
  6
CONTINUOUS
 62
     7
 66
     1
 10
0.0
 20
0.0
 30
0.0
  0
VERTEX
  5
873
  8
0
  6
CONTINUOUS
 62
     7
 10
758.6534422686
 20
503.4910025483
 30
0.0
  0
VERTEX
  5
874
  8
0
  6
CONTINUOUS
 62
     7
 10
759.9911735257
 20
496.0671248322
 30
0.0
  0
VERTEX
  5
875
  8
0
  6
CONTINUOUS
 62
     7
 10
761.6913867047
 20
486.6118612176
 30
0.0
  0
SEQEND
  5
B3E
  8
0
  6
CONTINUOUS
 62
     7
  0
LINE
  5
256
  8
0
  6
CONTINUOUS
 62
     7
 10
722.0979750952
 20
503.4910025483
 30
0.0
 11
758.6534422686
 21
503.4910025483
 31
0.0
  0
LINE
  5
257
  8
0
  6
CONTINUOUS
 62
     7
 10
710.6228758445
 20
537.6118453627
 30
0.0
 11
710.535607194
 21
517.6118644362
 31
0.0
  0
LINE
  5
258
  8
0
  6
CONTINUOUS
 62
     7
 10
721.0151812857
 20
537.6118453627
 30
0.0
 11
710.6228758445
 21
537.6118453627
 31
0.0
  0
LINE
  5
259
  8
0
  6
CONTINUOUS
 62
     7
 10
793.7591270408
 20
374.3522795325
 30
0.0
 11
793.7591270408
 21
372.0665606147
 31
0.0
  0
LINE
  5
25A
  8
0
  6
CONTINUOUS
 62
     7
 10
793.9491913518
 20
372.0665606147
 30
0.0
 11
793.7591270408
 21
366.2094207888
 31
0.0
  0
LINE
  5
25B
  8
0
  6
CONTINUOUS
 62
     7
 10
793.7591270408
 20
377.6379930263
 30
0.0
 11
793.7591270408
 21
375.2665626293
 31
0.0
  0
LINE
  5
25C
  8
0
  6
CONTINUOUS
 62
     7
 10
794.226263543
 20
375.2665626293
 30
0.0
 11
794.2350701293
 21
374.3522795325
 31
0.0
  0
POLYLINE
  5
25D
  8
0
  6
CONTINUOUS
 62
     7
 66
     1
 10
0.0
 20
0.0
 30
0.0
  0
VERTEX
  5
876
  8
0
  6
CONTINUOUS
 62
     7
 10
757.2967157563
 20
528.7688704615
 30
0.0
  0
VERTEX
  5
877
  8
0
  6
CONTINUOUS
 62
     7
 10
758.2966861179
 20
510.1435365563
 30
0.0
  0
VERTEX
  5
878
  8
0
  6
CONTINUOUS
 62
     7
 10
758.6534422686
 20
503.4910025483
 30
0.0
  0
SEQEND
  5
B3D
  8
0
  6
CONTINUOUS
 62
     7
  0
ARC
  5
25E
  8
0
  6
CONTINUOUS
 62
     7
 10
754.26005114
 20
528.5689582443
 30
0.0
 40
3.043237895162232
 50
3.7665081312
 51
90.8477796365
  0
LINE
  5
25F
  8
0
  6
CONTINUOUS
 62
     7
 10
724.317184077
 20
531.6118630057
 30
0.0
 11
754.2150233736
 21
531.6118630057
 31
0.0
  0
POLYLINE
  5
260
  8
0
  6
CONTINUOUS
 62
     7
 66
     1
 10
0.0
 20
0.0
 30
0.0
  0
VERTEX
  5
879
  8
0
  6
CONTINUOUS
 62
     7
 10
752.8672152063
 20
537.6118453627
 30
0.0
  0
VERTEX
  5
87A
  8
0
  6
CONTINUOUS
 62
     7
 10
753.2619935324
 20
535.4502084142
 30
0.0
  0
VERTEX
  5
87B
  8
0
  6
CONTINUOUS
 62
     7
 10
753.9618600955
 20
531.6118630057
 30
0.0
  0
SEQEND
  5
B3C
  8
0
  6
CONTINUOUS
 62
     7
  0
LINE
  5
261
  8
0
  6
CONTINUOUS
 62
     7
 10
724.9910881607
 20
537.6118453627
 30
0.0
 11
752.8672152063
 21
537.6118453627
 31
0.0
  0
LINE
  5
262
  8
0
  6
CONTINUOUS
 62
     7
 10
702.345277076
 20
503.4910025483
 30
0.0
 11
709.290663605
 21
503.4910025483
 31
0.0
  0
LINE
  5
263
  8
0
  6
CONTINUOUS
 62
     7
 10
706.6659227809
 20
531.6118630057
 30
0.0
 11
710.5966963669
 21
531.6118630057
 31
0.0
  0
LINE
  5
264
  8
0
  6
CONTINUOUS
 62
     7
 10
707.9690293273
 20
537.6118453627
 30
0.0
 11
710.6228758445
 21
537.6118453627
 31
0.0
  0
POLYLINE
  5
265
  8
0
  6
CONTINUOUS
 62
     7
 66
     1
 10
0.0
 20
0.0
 30
0.0
  0
VERTEX
  5
87C
  8
0
  6
CONTINUOUS
 62
     7
 10
671.1809717914
 20
282.2331217526
 30
0.0
  0
VERTEX
  5
87D
  8
0
  6
CONTINUOUS
 62
     7
 10
670.8109051785
 20
282.6741509547
 30
0.0
  0
VERTEX
  5
87E
  8
0
  6
CONTINUOUS
 62
     7
 10
670.5330953797
 20
283.0052312406
 30
0.0
  0
VERTEX
  5
87F
  8
0
  6
CONTINUOUS
 62
     7
 10
670.3477659127
 20
283.2260988129
 30
0.0
  0
VERTEX
  5
880
  8
0
  6
CONTINUOUS
 62
     7
 10
670.2550620636
 20
283.3365767205
 30
0.0
  0
VERTEX
  5
881
  8
0
  6
CONTINUOUS
 62
     7
 10
670.2434726855
 20
283.3503884671
 30
0.0
  0
SEQEND
  5
B3B
  8
0
  6
CONTINUOUS
 62
     7
  0
POLYLINE
  5
266
  8
0
  6
CONTINUOUS
 62
     7
 66
     1
 10
0.0
 20
0.0
 30
0.0
  0
VERTEX
  5
882
  8
0
  6
CONTINUOUS
 62
     7
 10
790.4570855996
 20
282.2331217526
 30
0.0
  0
VERTEX
  5
883
  8
0
  6
CONTINUOUS
 62
     7
 10
790.8271522125
 20
282.6741509547
 30
0.0
  0
VERTEX
  5
884
  8
0
  6
CONTINUOUS
 62
     7
 10
791.1049620112
 20
283.0052312406
 30
0.0
  0
VERTEX
  5
885
  8
0
  6
CONTINUOUS
 62
     7
 10
791.2902914783
 20
283.2260988129
 30
0.0
  0
VERTEX
  5
886
  8
0
  6
CONTINUOUS
 62
     7
 10
791.3829953274
 20
283.3365767205
 30
0.0
  0
VERTEX
  5
887
  8
0
  6
CONTINUOUS
 62
     7
 10
791.3945847055
 20
283.3503884671
 30
0.0
  0
SEQEND
  5
B3A
  8
0
  6
CONTINUOUS
 62
     7
  0
POLYLINE
  5
267
  8
0
  6
CONTINUOUS
 62
     7
 66
     1
 10
0.0
 20
0.0
 30
0.0
  0
VERTEX
  5
888
  8
0
  6
CONTINUOUS
 62
     7
 10
722.1216148561
 20
578.8903566485
 30
0.0
  0
VERTEX
  5
889
  8
0
  6
CONTINUOUS
 62
     7
 10
721.8903544223
 20
573.5936196929
 30
0.0
  0
VERTEX
  5
88A
  8
0
  6
CONTINUOUS
 62
     7
 10
721.6655815816
 20
568.4454473143
 30
0.0
  0
VERTEX
  5
88B
  8
0
  6
CONTINUOUS
 62
     7
 10
721.4474593153
 20
563.4496244079
 30
0.0
  0
VERTEX
  5
88C
  8
0
  6
CONTINUOUS
 62
     7
 10
721.2361459484
 20
558.6097570544
 30
0.0
  0
VERTEX
  5
88D
  8
0
  6
CONTINUOUS
 62
     7
 10
721.0317951491
 20
553.9293619281
 30
0.0
  0
VERTEX
  5
88E
  8
0
  6
CONTINUOUS
 62
     7
 10
720.8345568603
 20
549.4118662959
 30
0.0
  0
SEQEND
  5
B39
  8
0
  6
CONTINUOUS
 62
     7
  0
POLYLINE
  5
268
  8
0
  6
CONTINUOUS
 62
     7
 66
     1
 10
0.0
 20
0.0
 30
0.0
  0
VERTEX
  5
88F
  8
0
  6
CONTINUOUS
 62
     7
 10
723.6356925083
 20
549.4118662959
 30
0.0
  0
VERTEX
  5
890
  8
0
  6
CONTINUOUS
 62
     7
 10
723.3691917596
 20
553.9293619281
 30
0.0
  0
VERTEX
  5
891
  8
0
  6
CONTINUOUS
 62
     7
 10
723.1081043234
 20
558.6097570544
 30
0.0
  0
VERTEX
  5
892
  8
0
  6
CONTINUOUS
 62
     7
 10
722.8526192581
 20
563.4496244079
 30
0.0
  0
VERTEX
  5
893
  8
0
  6
CONTINUOUS
 62
     7
 10
722.6029223627
 20
568.4454473143
 30
0.0
  0
VERTEX
  5
894
  8
0
  6
CONTINUOUS
 62
     7
 10
722.3591952449
 20
573.5936196929
 30
0.0
  0
VERTEX
  5
895
  8
0
  6
CONTINUOUS
 62
     7
 10
722.1216148561
 20
578.8903566485
 30
0.0
  0
SEQEND
  5
B38
  8
0
  6
CONTINUOUS
 62
     7
  0
ARC
  5
269
  8
0
  6
CONTINUOUS
 62
     7
 10
730.8190286955
 20
559.3963259022
 30
0.0
 40
12.29998993526886
 50
234.2668087946
 51
305.7331912054
  0
POLYLINE
  5
26A
  8
0
  6
CONTINUOUS
 62
     7
 66
     1
 10
0.0
 20
0.0
 30
0.0
  0
VERTEX
  5
896
  8
0
  6
CONTINUOUS
 62
     7
 10
739.5164425349
 20
578.8903566485
 30
0.0
  0
VERTEX
  5
897
  8
0
  6
CONTINUOUS
 62
     7
 10
739.2788621461
 20
573.5936196929
 30
0.0
  0
VERTEX
  5
898
  8
0
  6
CONTINUOUS
 62
     7
 10
739.0351350283
 20
568.4454473143
 30
0.0
  0
VERTEX
  5
899
  8
0
  6
CONTINUOUS
 62
     7
 10
738.7854381329
 20
563.4496244079
 30
0.0
  0
VERTEX
  5
89A
  8
0
  6
CONTINUOUS
 62
     7
 10
738.5299530676
 20
558.6097570544
 30
0.0
  0
VERTEX
  5
89B
  8
0
  6
CONTINUOUS
 62
     7
 10
738.2688656313
 20
553.9293619281
 30
0.0
  0
VERTEX
  5
89C
  8
0
  6
CONTINUOUS
 62
     7
 10
738.0023648826
 20
549.4118662959
 30
0.0
  0
SEQEND
  5
B37
  8
0
  6
CONTINUOUS
 62
     7
  0
POLYLINE
  5
26B
  8
0
  6
CONTINUOUS
 62
     7
 66
     1
 10
0.0
 20
0.0
 30
0.0
  0
VERTEX
  5
89D
  8
0
  6
CONTINUOUS
 62
     7
 10
740.8035005307
 20
549.4118662959
 30
0.0
  0
VERTEX
  5
89E
  8
0
  6
CONTINUOUS
 62
     7
 10
740.6062622419
 20
553.9293619281
 30
0.0
  0
VERTEX
  5
89F
  8
0
  6
CONTINUOUS
 62
     7
 10
740.4019114425
 20
558.6097570544
 30
0.0
  0
VERTEX
  5
8A0
  8
0
  6
CONTINUOUS
 62
     7
 10
740.1905980757
 20
563.4496244079
 30
0.0
  0
VERTEX
  5
8A1
  8
0
  6
CONTINUOUS
 62
     7
 10
739.9724758094
 20
568.4454473143
 30
0.0
  0
VERTEX
  5
8A2
  8
0
  6
CONTINUOUS
 62
     7
 10
739.7477029687
 20
573.5936196929
 30
0.0
  0
VERTEX
  5
8A3
  8
0
  6
CONTINUOUS
 62
     7
 10
739.5164425349
 20
578.8903566485
 30
0.0
  0
SEQEND
  5
B36
  8
0
  6
CONTINUOUS
 62
     7
  0
POLYLINE
  5
26C
  8
0
  6
CONTINUOUS
 62
     7
 66
     1
 10
0.0
 20
0.0
 30
0.0
  0
VERTEX
  5
8A4
  8
0
  6
CONTINUOUS
 62
     7
 10
740.8035005307
 20
549.4118662959
 30
0.0
  0
VERTEX
  5
8A5
  8
0
  6
CONTINUOUS
 62
     7
 10
741.1031349426
 20
549.1122337466
 30
0.0
  0
VERTEX
  5
8A6
  8
0
  6
CONTINUOUS
 62
     7
 10
741.383747091
 20
548.831615079
 30
0.0
  0
VERTEX
  5
8A7
  8
0
  6
CONTINUOUS
 62
     7
 10
741.6448172977
 20
548.5705467349
 30
0.0
  0
VERTEX
  5
8A8
  8
0
  6
CONTINUOUS
 62
     7
 10
741.8858640691
 20
548.3295055514
 30
0.0
  0
VERTEX
  5
8A9
  8
0
  6
CONTINUOUS
 62
     7
 10
742.1064403704
 20
548.1089087611
 30
0.0
  0
VERTEX
  5
8AA
  8
0
  6
CONTINUOUS
 62
     7
 10
742.3061382821
 20
547.9092332011
 30
0.0
  0
VERTEX
  5
8AB
  8
0
  6
CONTINUOUS
 62
     7
 10
742.4845899319
 20
547.7307768947
 30
0.0
  0
VERTEX
  5
8AC
  8
0
  6
CONTINUOUS
 62
     7
 10
742.641463769
 20
547.5738974696
 30
0.0
  0
VERTEX
  5
8AD
  8
0
  6
CONTINUOUS
 62
     7
 10
742.7764692208
 20
547.4388929492
 30
0.0
  0
VERTEX
  5
8AE
  8
0
  6
CONTINUOUS
 62
     7
 10
742.889357624
 20
547.326001752
 30
0.0
  0
VERTEX
  5
8AF
  8
0
  6
CONTINUOUS
 62
     7
 10
742.9799203625
 20
547.2354324942
 30
0.0
  0
VERTEX
  5
8B0
  8
0
  6
CONTINUOUS
 62
     7
 10
743.0479897982
 20
547.1673639899
 30
0.0
  0
VERTEX
  5
8B1
  8
0
  6
CONTINUOUS
 62
     7
 10
743.0934383398
 20
547.1219154483
 30
0.0
  0
VERTEX
  5
8B2
  8
0
  6
CONTINUOUS
 62
     7
 10
743.1161849624
 20
547.0991762763
 30
0.0
  0
VERTEX
  5
8B3
  8
0
  6
CONTINUOUS
 62
     7
 10
743.1190282902
 20
547.0963450557
 30
0.0
  0
SEQEND
  5
B35
  8
0
  6
CONTINUOUS
 62
     7
  0
POLYLINE
  5
26D
  8
0
  6
CONTINUOUS
 62
     7
 66
     1
 10
0.0
 20
0.0
 30
0.0
  0
VERTEX
  5
8B4
  8
0
  6
CONTINUOUS
 62
     7
 10
718.5190291008
 20
547.0963450557
 30
0.0
  0
VERTEX
  5
8B5
  8
0
  6
CONTINUOUS
 62
     7
 10
718.5218724286
 20
547.0991762763
 30
0.0
  0
VERTEX
  5
8B6
  8
0
  6
CONTINUOUS
 62
     7
 10
718.5446190512
 20
547.1219154483
 30
0.0
  0
VERTEX
  5
8B7
  8
0
  6
CONTINUOUS
 62
     7
 10
718.5900675928
 20
547.1673639899
 30
0.0
  0
VERTEX
  5
8B8
  8
0
  6
CONTINUOUS
 62
     7
 10
718.6581370285
 20
547.2354324942
 30
0.0
  0
VERTEX
  5
8B9
  8
0
  6
CONTINUOUS
 62
     7
 10
718.748699767
 20
547.326001752
 30
0.0
  0
VERTEX
  5
8BA
  8
0
  6
CONTINUOUS
 62
     7
 10
718.8615881702
 20
547.4388929492
 30
0.0
  0
VERTEX
  5
8BB
  8
0
  6
CONTINUOUS
 62
     7
 10
718.9965936219
 20
547.5738974696
 30
0.0
  0
VERTEX
  5
8BC
  8
0
  6
CONTINUOUS
 62
     7
 10
719.1534674591
 20
547.7307768947
 30
0.0
  0
VERTEX
  5
8BD
  8
0
  6
CONTINUOUS
 62
     7
 10
719.3319191089
 20
547.9092332011
 30
0.0
  0
VERTEX
  5
8BE
  8
0
  6
CONTINUOUS
 62
     7
 10
719.5316170206
 20
548.1089087611
 30
0.0
  0
VERTEX
  5
8BF
  8
0
  6
CONTINUOUS
 62
     7
 10
719.7521933219
 20
548.3295055514
 30
0.0
  0
VERTEX
  5
8C0
  8
0
  6
CONTINUOUS
 62
     7
 10
719.9932400933
 20
548.5705467349
 30
0.0
  0
VERTEX
  5
8C1
  8
0
  6
CONTINUOUS
 62
     7
 10
720.2543103
 20
548.831615079
 30
0.0
  0
VERTEX
  5
8C2
  8
0
  6
CONTINUOUS
 62
     7
 10
720.5349224484
 20
549.1122337466
 30
0.0
  0
VERTEX
  5
8C3
  8
0
  6
CONTINUOUS
 62
     7
 10
720.8345568603
 20
549.4118662959
 30
0.0
  0
SEQEND
  5
B34
  8
0
  6
CONTINUOUS
 62
     7
  0
LINE
  5
26E
  8
0
  6
CONTINUOUS
 62
     7
 10
723.6356925083
 20
549.4118662959
 30
0.0
 11
738.0023648826
 21
549.4118662959
 31
0.0
  0
LINE
  5
26F
  8
0
  6
CONTINUOUS
 62
     7
 10
795.4448730549
 20
372.0665606147
 30
0.0
 11
795.2525884708
 21
366.2094207888
 31
0.0
  0
LINE
  5
270
  8
0
  6
CONTINUOUS
 62
     7
 10
793.7591270408
 20
366.2094207888
 30
0.0
 11
795.2525884708
 21
366.2094207888
 31
0.0
  0
LINE
  5
271
  8
0
  6
CONTINUOUS
 62
     7
 10
795.2525884708
 20
372.0665606147
 30
0.0
 11
795.4448730549
 21
372.0665606147
 31
0.0
  0
LINE
  5
272
  8
0
  6
CONTINUOUS
 62
     7
 10
795.2525884708
 20
374.3522795325
 30
0.0
 11
795.2525884708
 21
372.0665606147
 31
0.0
  0
LINE
  5
273
  8
0
  6
CONTINUOUS
 62
     7
 10
795.2525884708
 20
374.3522795325
 30
0.0
 11
795.7000628909
 21
374.3522795325
 31
0.0
  0
LINE
  5
274
  8
0
  6
CONTINUOUS
 62
     7
 10
795.8002806505
 20
366.2094207888
 30
0.0
 11
795.7000628909
 21
374.3522795325
 31
0.0
  0
LINE
  5
275
  8
0
  6
CONTINUOUS
 62
     7
 10
795.7304836115
 20
366.2094207888
 30
0.0
 11
795.8002806505
 21
366.2094207888
 31
0.0
  0
LINE
  5
276
  8
0
  6
CONTINUOUS
 62
     7
 10
795.7103446921
 20
367.4665647035
 30
0.0
 11
795.7304836115
 21
366.2094207888
 31
0.0
  0
LINE
  5
277
  8
0
  6
CONTINUOUS
 62
     7
 10
795.5019146999
 20
367.4665647035
 30
0.0
 11
795.7103446921
 21
367.4665647035
 31
0.0
  0
LINE
  5
278
  8
0
  6
CONTINUOUS
 62
     7
 10
795.4669193229
 20
366.2094207888
 30
0.0
 11
795.5019146999
 21
367.4665647035
 31
0.0
  0
LINE
  5
279
  8
0
  6
CONTINUOUS
 62
     7
 10
795.5421254834
 20
369.637991715
 30
0.0
 11
795.6707076034
 21
369.637991715
 31
0.0
  0
LINE
  5
27A
  8
0
  6
CONTINUOUS
 62
     7
 10
795.6707076034
 20
369.637991715
 30
0.0
 11
795.6094936332
 21
372.4820645934
 31
0.0
  0
LINE
  5
27B
  8
0
  6
CONTINUOUS
 62
     7
 10
795.6094936332
 20
372.4820645934
 30
0.0
 11
795.5421254834
 21
369.637991715
 31
0.0
  0
LINE
  5
27C
  8
0
  6
CONTINUOUS
 62
     7
 10
795.2525884708
 20
366.2094207888
 30
0.0
 11
795.4669193229
 21
366.2094207888
 31
0.0
  0
LINE
  5
27D
  8
0
  6
CONTINUOUS
 62
     7
 10
795.2525884708
 20
377.6379930263
 30
0.0
 11
795.7772658071
 21
377.6379930263
 31
0.0
  0
LINE
  5
27E
  8
0
  6
CONTINUOUS
 62
     7
 10
795.8190263113
 20
369.637991715
 30
0.0
 11
795.7772658071
 21
377.6379930263
 31
0.0
  0
LINE
  5
27F
  8
0
  6
CONTINUOUS
 62
     7
 10
795.813401123
 20
366.2094207888
 30
0.0
 11
795.8190263113
 21
366.2094207888
 31
0.0
  0
LINE
  5
280
  8
0
  6
CONTINUOUS
 62
     7
 10
795.7251862487
 20
375.2665626293
 30
0.0
 11
795.813401123
 21
366.2094207888
 31
0.0
  0
LINE
  5
281
  8
0
  6
CONTINUOUS
 62
     7
 10
795.2525884708
 20
377.6379930263
 30
0.0
 11
795.2525884708
 21
375.2665626293
 31
0.0
  0
LINE
  5
282
  8
0
  6
CONTINUOUS
 62
     7
 10
795.2525884708
 20
375.2665626293
 30
0.0
 11
795.7251862487
 21
375.2665626293
 31
0.0
  0
LINE
  5
283
  8
0
  6
CONTINUOUS
 62
     7
 10
793.7591270408
 20
377.6379930263
 30
0.0
 11
795.2525884708
 21
377.6379930263
 31
0.0
  0
LINE
  5
284
  8
0
  6
CONTINUOUS
 62
     7
 10
793.7591270408
 20
375.2665626293
 30
0.0
 11
795.2525884708
 21
375.2665626293
 31
0.0
  0
LINE
  5
285
  8
0
  6
CONTINUOUS
 62
     7
 10
793.7591270408
 20
372.0665606147
 30
0.0
 11
795.2525884708
 21
372.0665606147
 31
0.0
  0
LINE
  5
286
  8
0
  6
CONTINUOUS
 62
     7
 10
793.7591270408
 20
374.3522795325
 30
0.0
 11
795.2525884708
 21
374.3522795325
 31
0.0
  0
LINE
  5
287
  8
0
  6
CONTINUOUS
 62
     7
 10
722.1216148561
 20
578.8903566485
 30
0.0
 11
722.3190282336
 21
583.4118457919
 31
0.0
  0
LINE
  5
288
  8
0
  6
CONTINUOUS
 62
     7
 10
722.3190282336
 20
583.4118457919
 30
0.0
 11
739.3190291574
 21
583.4118457919
 31
0.0
  0
LINE
  5
289
  8
0
  6
CONTINUOUS
 62
     7
 10
739.5164425349
 20
578.8903566485
 30
0.0
 11
739.3190291574
 21
583.4118457919
 31
0.0
  0
LINE
  5
28A
  8
0
  6
CONTINUOUS
 62
     7
 10
760.8190280249
 20
537.6118453627
 30
0.0
 11
760.993565326
 21
517.6118644362
 31
0.0
  0
LINE
  5
28B
  8
0
  6
CONTINUOUS
 62
     7
 10
760.993565326
 20
517.6118644362
 30
0.0
 11
766.45970427
 21
486.6118612176
 31
0.0
  0
LINE
  5
28C
  8
0
  6
CONTINUOUS
 62
     7
 10
752.8672152063
 20
537.6118453627
 30
0.0
 11
760.8190280249
 21
537.6118453627
 31
0.0
  0
LINE
  5
28D
  8
0
  6
CONTINUOUS
 62
     7
 10
795.4987034997
 20
366.2094207888
 30
0.0
 11
795.7304836115
 21
366.2094207888
 31
0.0
  0
LINE
  5
28E
  8
0
  6
CONTINUOUS
 62
     8
 10
671.9090276262
 20
412.0310875064
 30
0.0
 11
671.6724195382
 21
412.6064660436
 31
0.0
  0
LINE
  5
28F
  8
0
  6
CONTINUOUS
 62
     8
 10
789.7290297648
 20
412.0310875064
 30
0.0
 11
789.9656378528
 21
412.6064660436
 31
0.0
  0
LINE
  5
290
  8
0
  6
CONTINUOUS
 62
     8
 10
787.8190287253
 20
398.4547960049
 30
0.0
 11
787.8190287253
 21
411.8774714356
 31
0.0
  0
LINE
  5
291
  8
0
  6
CONTINUOUS
 62
     8
 10
673.8190286657
 20
398.4547960049
 30
0.0
 11
787.8190287253
 21
398.4547960049
 31
0.0
  0
LINE
  5
292
  8
0
  6
CONTINUOUS
 62
     8
 10
673.8190286657
 20
398.4547960049
 30
0.0
 11
673.8190286657
 21
411.8774714356
 31
0.0
  0
LINE
  5
293
  8
0
  6
CONTINUOUS
 62
     8
 10
789.9656378528
 20
412.6064660436
 30
0.0
 11
790.173464348
 21
422.6118656283
 31
0.0
  0
LINE
  5
294
  8
0
  6
CONTINUOUS
 62
     8
 10
671.6724195382
 20
412.6064660436
 30
0.0
 11
671.464593043
 21
422.6118656283
 31
0.0
  0
LINE
  5
295
  8
0
  6
CONTINUOUS
 62
     8
 10
671.4620114168
 20
426.6118588334
 30
0.0
 11
671.5204872986
 21
429.3449553138
 31
0.0
  0
LINE
  5
296
  8
0
  6
CONTINUOUS
 62
     8
 10
671.5204872986
 20
429.3449553138
 30
0.0
 11
790.1175700924
 21
429.3449553138
 31
0.0
  0
LINE
  5
297
  8
0
  6
CONTINUOUS
 62
     8
 10
790.1760459742
 20
426.6118588334
 30
0.0
 11
790.1175700924
 21
429.3449553138
 31
0.0
  0
ARC
  5
298
  8
0
  6
CONTINUOUS
 62
     8
 10
765.3903381033
 20
429.1960774708
 30
0.0
 40
24.72768016719451
 50
0.3449625497
 51
2.9249173535
  0
ARC
  5
299
  8
0
  6
CONTINUOUS
 62
     8
 10
696.2477192877
 20
429.1960774708
 30
0.0
 40
24.72768016719474
 50
177.0750826465
 51
179.6550374503
  0
LINE
  5
29A
  8
0
  6
CONTINUOUS
 62
     8
 10
780.5135146579
 20
434.3840362912
 30
0.0
 11
681.1245427331
 21
434.3840362912
 31
0.0
  0
POLYLINE
  5
29B
  8
0
  6
CONTINUOUS
 62
     8
 66
     1
 10
0.0
 20
0.0
 30
0.0
  0
VERTEX
  5
8C4
  8
0
  6
CONTINUOUS
 62
     8
 10
669.9049369296
 20
429.3890478497
 30
0.0
  0
VERTEX
  5
8C5
  8
0
  6
CONTINUOUS
 62
     8
 10
670.5817700228
 20
429.3624194747
 30
0.0
  0
VERTEX
  5
8C6
  8
0
  6
CONTINUOUS
 62
     8
 10
671.5204872986
 20
429.3449553138
 30
0.0
  0
SEQEND
  5
B33
  8
0
  6
CONTINUOUS
 62
     8
  0
LINE
  5
29C
  8
0
  6
CONTINUOUS
 62
     8
 10
662.1936754188
 20
429.3449553138
 30
0.0
 11
662.1385858258
 21
426.6118588334
 31
0.0
  0
POLYLINE
  5
29D
  8
0
  6
CONTINUOUS
 62
     8
 66
     1
 10
0.0
 20
0.0
 30
0.0
  0
VERTEX
  5
8C7
  8
0
  6
CONTINUOUS
 62
     8
 10
662.1936754188
 20
429.3449553138
 30
0.0
  0
VERTEX
  5
8C8
  8
0
  6
CONTINUOUS
 62
     8
 10
662.5210241279
 20
429.3623300677
 30
0.0
  0
VERTEX
  5
8C9
  8
0
  6
CONTINUOUS
 62
     8
 10
662.8176987967
 20
429.3899121171
 30
0.0
  0
SEQEND
  5
B32
  8
0
  6
CONTINUOUS
 62
     8
  0
POLYLINE
  5
29E
  8
0
  6
CONTINUOUS
 62
     8
 66
     1
 10
0.0
 20
0.0
 30
0.0
  0
VERTEX
  5
8CA
  8
0
  6
CONTINUOUS
 62
     8
 10
799.4443819722
 20
429.3449553138
 30
0.0
  0
VERTEX
  5
8CB
  8
0
  6
CONTINUOUS
 62
     8
 10
799.1170332631
 20
429.3623300677
 30
0.0
  0
VERTEX
  5
8CC
  8
0
  6
CONTINUOUS
 62
     8
 10
798.8203585943
 20
429.3899121171
 30
0.0
  0
SEQEND
  5
B31
  8
0
  6
CONTINUOUS
 62
     8
  0
LINE
  5
29F
  8
0
  6
CONTINUOUS
 62
     8
 10
799.4443819722
 20
429.3449553138
 30
0.0
 11
799.4994715652
 21
426.6118588334
 31
0.0
  0
POLYLINE
  5
2A0
  8
0
  6
CONTINUOUS
 62
     8
 66
     1
 10
0.0
 20
0.0
 30
0.0
  0
VERTEX
  5
8CD
  8
0
  6
CONTINUOUS
 62
     8
 10
791.7331204614
 20
429.3890478497
 30
0.0
  0
VERTEX
  5
8CE
  8
0
  6
CONTINUOUS
 62
     8
 10
791.0562873682
 20
429.3624194747
 30
0.0
  0
VERTEX
  5
8CF
  8
0
  6
CONTINUOUS
 62
     8
 10
790.1175700924
 20
429.3449553138
 30
0.0
  0
SEQEND
  5
B30
  8
0
  6
CONTINUOUS
 62
     8
  0
LINE
  5
2A1
  8
0
  6
CONTINUOUS
 62
     8
 10
662.9736096462
 20
412.6064660436
 30
0.0
 11
662.137766262
 21
422.6118656283
 31
0.0
  0
LINE
  5
2A2
  8
0
  6
CONTINUOUS
 62
     8
 10
798.6644477448
 20
412.6064660436
 30
0.0
 11
799.500291129
 21
422.6118656283
 31
0.0
  0
LINE
  5
2A3
  8
0
  6
CONTINUOUS
 62
     8
 10
664.2924443683
 20
411.8090602046
 30
0.0
 11
662.9736096462
 21
412.6064660436
 31
0.0
  0
LINE
  5
2A4
  8
0
  6
CONTINUOUS
 62
     8
 10
797.3456130227
 20
411.8090602046
 30
0.0
 11
798.6644477448
 21
412.6064660436
 31
0.0
  0
LINE
  5
2A5
  8
0
  6
CONTINUOUS
 62
     8
 10
664.451603671
 20
398.4547960049
 30
0.0
 11
673.8190286657
 21
398.4547960049
 31
0.0
  0
LINE
  5
2A6
  8
0
  6
CONTINUOUS
 62
     8
 10
797.18645372
 20
398.4547960049
 30
0.0
 11
787.8190287253
 21
398.4547960049
 31
0.0
  0
LINE
  5
2A7
  8
0
  6
CONTINUOUS
 62
     8
 10
673.8190286657
 20
392.6118569857
 30
0.0
 11
673.8190286657
 21
398.4547960049
 31
0.0
  0
LINE
  5
2A8
  8
0
  6
CONTINUOUS
 62
     8
 10
787.8190287253
 20
392.6118569857
 30
0.0
 11
787.8190287253
 21
398.4547960049
 31
0.0
  0
ARC
  5
2A9
  8
0
  6
CONTINUOUS
 62
     8
 10
747.1668077465
 20
299.1315833857
 30
0.0
 40
69.0782933738509
 50
189.0616687893
 51
219.0931014254
  0
ARC
  5
2AA
  8
0
  6
CONTINUOUS
 62
     8
 10
750.3973817613
 20
286.659642855
 30
0.0
 40
71.4644693606242
 50
156.2616173948
 51
178.7232984039
  0
ARC
  5
2AB
  8
0
  6
CONTINUOUS
 62
     8
 10
731.5266182888
 20
288.7755193872
 30
0.0
 40
53.64059090536102
 50
90.755828236
 51
150.2019674439
  0
ARC
  5
2AC
  8
0
  6
CONTINUOUS
 62
     8
 10
711.2406756296
 20
286.659642855
 30
0.0
 40
71.46446936062408
 50
1.2767015961
 51
23.7383826052
  0
ARC
  5
2AD
  8
0
  6
CONTINUOUS
 62
     8
 10
714.4712496444
 20
299.1315833857
 30
0.0
 40
69.07829337385098
 50
320.9068985746
 51
350.9383312107
  0
ARC
  5
2AE
  8
0
  6
CONTINUOUS
 62
     8
 10
730.1114391022
 20
288.7755193872
 30
0.0
 40
53.64059090536101
 50
29.7980325561
 51
89.244171764
  0
POLYLINE
  5
2AF
  8
0
  6
CONTINUOUS
 62
     8
 66
     1
 10
0.0
 20
0.0
 30
0.0
  0
VERTEX
  5
8D0
  8
0
  6
CONTINUOUS
 62
     8
 10
683.3773151835
 20
346.5284886247
 30
0.0
  0
VERTEX
  5
8D1
  8
0
  6
CONTINUOUS
 62
     8
 10
690.0823646089
 20
352.0936699992
 30
0.0
  0
VERTEX
  5
8D2
  8
0
  6
CONTINUOUS
 62
     8
 10
696.8207516572
 20
356.850143004
 30
0.0
  0
VERTEX
  5
8D3
  8
0
  6
CONTINUOUS
 62
     8
 10
703.586961036
 20
360.7940035349
 30
0.0
  0
VERTEX
  5
8D4
  8
0
  6
CONTINUOUS
 62
     8
 10
710.3754532388
 20
363.9220403915
 30
0.0
  0
VERTEX
  5
8D5
  8
0
  6
CONTINUOUS
 62
     8
 10
717.1806775829
 20
366.2316831237
 30
0.0
  0
VERTEX
  5
8D6
  8
0
  6
CONTINUOUS
 62
     8
 10
723.9970619654
 20
367.7210467344
 30
0.0
  0
VERTEX
  5
8D7
  8
0
  6
CONTINUOUS
 62
     8
 10
730.8190286955
 20
368.3889093285
 30
0.0
  0
SEQEND
  5
B2F
  8
0
  6
CONTINUOUS
 62
     8
  0
POLYLINE
  5
2B0
  8
0
  6
CONTINUOUS
 62
     8
 66
     1
 10
0.0
 20
0.0
 30
0.0
  0
VERTEX
  5
8D8
  8
0
  6
CONTINUOUS
 62
     8
 10
730.8190286955
 20
364.963542152
 30
0.0
  0
VERTEX
  5
8D9
  8
0
  6
CONTINUOUS
 62
     8
 10
724.4687456502
 20
364.2812775856
 30
0.0
  0
VERTEX
  5
8DA
  8
0
  6
CONTINUOUS
 62
     8
 10
718.1237394786
 20
362.7826081997
 30
0.0
  0
VERTEX
  5
8DB
  8
0
  6
CONTINUOUS
 62
     8
 10
711.7891692421
 20
360.4687335378
 30
0.0
  0
VERTEX
  5
8DC
  8
0
  6
CONTINUOUS
 62
     8
 10
705.4701884141
 20
357.3415534979
 30
0.0
  0
VERTEX
  5
8DD
  8
0
  6
CONTINUOUS
 62
     8
 10
699.1719351014
 20
353.403608728
 30
0.0
  0
VERTEX
  5
8DE
  8
0
  6
CONTINUOUS
 62
     8
 10
692.8995334407
 20
348.658091802
 30
0.0
  0
VERTEX
  5
8DF
  8
0
  6
CONTINUOUS
 62
     8
 10
686.6580814919
 20
343.1088732963
 30
0.0
  0
SEQEND
  5
B2E
  8
0
  6
CONTINUOUS
 62
     8
  0
ARC
  5
2B1
  8
0
  6
CONTINUOUS
 62
     8
 10
763.0098339247
 20
419.6440476117
 30
0.0
 40
108.1074604597165
 50
222.5569710537
 51
225.0687390015
  0
POLYLINE
  5
2B2
  8
0
  6
CONTINUOUS
 62
     8
 66
     1
 10
0.0
 20
0.0
 30
0.0
  0
VERTEX
  5
8E0
  8
0
  6
CONTINUOUS
 62
     8
 10
730.8190286955
 20
364.963542152
 30
0.0
  0
VERTEX
  5
8E1
  8
0
  6
CONTINUOUS
 62
     8
 10
737.1693117408
 20
364.2812775856
 30
0.0
  0
VERTEX
  5
8E2
  8
0
  6
CONTINUOUS
 62
     8
 10
743.5143179124
 20
362.7826081997
 30
0.0
  0
VERTEX
  5
8E3
  8
0
  6
CONTINUOUS
 62
     8
 10
749.8488881489
 20
360.4687335378
 30
0.0
  0
VERTEX
  5
8E4
  8
0
  6
CONTINUOUS
 62
     8
 10
756.1678689769
 20
357.3415534979
 30
0.0
  0
VERTEX
  5
8E5
  8
0
  6
CONTINUOUS
 62
     8
 10
762.4661222896
 20
353.403608728
 30
0.0
  0
VERTEX
  5
8E6
  8
0
  6
CONTINUOUS
 62
     8
 10
768.7385239502
 20
348.658091802
 30
0.0
  0
VERTEX
  5
8E7
  8
0
  6
CONTINUOUS
 62
     8
 10
774.9799758991
 20
343.1088732963
 30
0.0
  0
SEQEND
  5
B2D
  8
0
  6
CONTINUOUS
 62
     8
  0
POLYLINE
  5
2B3
  8
0
  6
CONTINUOUS
 62
     8
 66
     1
 10
0.0
 20
0.0
 30
0.0
  0
VERTEX
  5
8E8
  8
0
  6
CONTINUOUS
 62
     8
 10
778.2607422074
 20
346.5284886247
 30
0.0
  0
VERTEX
  5
8E9
  8
0
  6
CONTINUOUS
 62
     8
 10
771.5556927821
 20
352.0936699992
 30
0.0
  0
VERTEX
  5
8EA
  8
0
  6
CONTINUOUS
 62
     8
 10
764.8173057338
 20
356.850143004
 30
0.0
  0
VERTEX
  5
8EB
  8
0
  6
CONTINUOUS
 62
     8
 10
758.051096355
 20
360.7940035349
 30
0.0
  0
VERTEX
  5
8EC
  8
0
  6
CONTINUOUS
 62
     8
 10
751.2626041522
 20
363.9220403915
 30
0.0
  0
VERTEX
  5
8ED
  8
0
  6
CONTINUOUS
 62
     8
 10
744.4573798081
 20
366.2316831237
 30
0.0
  0
VERTEX
  5
8EE
  8
0
  6
CONTINUOUS
 62
     8
 10
737.6409954256
 20
367.7210467344
 30
0.0
  0
VERTEX
  5
8EF
  8
0
  6
CONTINUOUS
 62
     8
 10
730.8190286955
 20
368.3889093285
 30
0.0
  0
SEQEND
  5
B2C
  8
0
  6
CONTINUOUS
 62
     8
  0
ARC
  5
2B4
  8
0
  6
CONTINUOUS
 62
     8
 10
698.6282234663
 20
419.6440476117
 30
0.0
 40
108.1074604597164
 50
314.9312609985
 51
317.4430289463
  0
LINE
  5
2B5
  8
0
  6
CONTINUOUS
 62
     8
 10
778.2607422074
 20
346.5284886247
 30
0.0
 11
778.2607422074
 21
392.6118569857
 31
0.0
  0
LINE
  5
2B6
  8
0
  6
CONTINUOUS
 62
     8
 10
683.3773151835
 20
346.5284886247
 30
0.0
 11
683.3773151835
 21
392.6118569857
 31
0.0
  0
POLYLINE
  5
2B7
  8
0
  6
CONTINUOUS
 62
     8
 66
     1
 10
0.0
 20
0.0
 30
0.0
  0
VERTEX
  5
8F0
  8
0
  6
CONTINUOUS
 62
     8
 10
686.1150757274
 20
340.6991729921
 30
0.0
  0
VERTEX
  5
8F1
  8
0
  6
CONTINUOUS
 62
     8
 10
685.5119139751
 20
328.0975962466
 30
0.0
  0
VERTEX
  5
8F2
  8
0
  6
CONTINUOUS
 62
     8
 10
684.9795178374
 20
315.4340362584
 30
0.0
  0
SEQEND
  5
B2B
  8
0
  6
CONTINUOUS
 62
     8
  0
ARC
  5
2B8
  8
0
  6
CONTINUOUS
 62
     8
 10
691.0206350126
 20
340.8597773783
 30
0.0
 40
4.9081876155425
 50
152.7268238375
 51
181.8751517104
  0
ARC
  5
2B9
  8
0
  6
CONTINUOUS
 62
     8
 10
770.6174223784
 20
340.8597773783
 30
0.0
 40
4.908187615542298
 50
358.1248482896
 51
27.2731761625
  0
POLYLINE
  5
2BA
  8
0
  6
CONTINUOUS
 62
     8
 66
     1
 10
0.0
 20
0.0
 30
0.0
  0
VERTEX
  5
8F3
  8
0
  6
CONTINUOUS
 62
     8
 10
775.5229816636
 20
340.6991729921
 30
0.0
  0
VERTEX
  5
8F4
  8
0
  6
CONTINUOUS
 62
     8
 10
776.1261434158
 20
328.0975962466
 30
0.0
  0
VERTEX
  5
8F5
  8
0
  6
CONTINUOUS
 62
     8
 10
776.6585395536
 20
315.4340362584
 30
0.0
  0
SEQEND
  5
B2A
  8
0
  6
CONTINUOUS
 62
     8
  0
LINE
  5
2BB
  8
0
  6
CONTINUOUS
 62
     8
 10
775.3245279988
 20
441.9150086528
 30
0.0
 11
686.3135293922
 21
441.9150086528
 31
0.0
  0
ARC
  5
2BC
  8
0
  6
CONTINUOUS
 62
     8
 10
668.4614329361
 20
429.1886660973
 30
0.0
 40
6.269705783767306
 50
168.3207109966
 51
178.5716012127
  0
ARC
  5
2BD
  8
0
  6
CONTINUOUS
 62
     8
 10
793.1766244549
 20
429.1886660973
 30
0.0
 40
6.269705783767195
 50
1.4283987873
 51
11.6792890034
  0
POLYLINE
  5
2BE
  8
0
  6
CONTINUOUS
 62
     8
 66
     1
 10
0.0
 20
0.0
 30
0.0
  0
VERTEX
  5
8F6
  8
0
  6
CONTINUOUS
 62
     8
 10
686.2454199096
 20
444.4982590562
 30
0.0
  0
VERTEX
  5
8F7
  8
0
  6
CONTINUOUS
 62
     8
 10
687.3509519598
 20
446.4451106673
 30
0.0
  0
VERTEX
  5
8F8
  8
0
  6
CONTINUOUS
 62
     8
 10
688.5364175638
 20
448.3463945275
 30
0.0
  0
VERTEX
  5
8F9
  8
0
  6
CONTINUOUS
 62
     8
 10
689.7999801537
 20
450.1953902131
 30
0.0
  0
VERTEX
  5
8FA
  8
0
  6
CONTINUOUS
 62
     8
 10
691.1674932441
 20
452.0211102849
 30
0.0
  0
VERTEX
  5
8FB
  8
0
  6
CONTINUOUS
 62
     8
 10
692.6155694624
 20
453.7842305785
 30
0.0
  0
VERTEX
  5
8FC
  8
0
  6
CONTINUOUS
 62
     8
 10
694.1413999399
 20
455.4775389319
 30
0.0
  0
VERTEX
  5
8FD
  8
0
  6
CONTINUOUS
 62
     8
 10
695.4967462322
 20
456.8561049586
 30
0.0
  0
VERTEX
  5
8FE
  8
0
  6
CONTINUOUS
 62
     8
 10
696.9078005156
 20
458.1790598517
 30
0.0
  0
VERTEX
  5
8FF
  8
0
  6
CONTINUOUS
 62
     8
 10
698.3719737133
 20
459.4419183617
 30
0.0
  0
VERTEX
  5
900
  8
0
  6
CONTINUOUS
 62
     8
 10
699.886680474
 20
460.6402399426
 30
0.0
  0
VERTEX
  5
901
  8
0
  6
CONTINUOUS
 62
     8
 10
701.5010555139
 20
461.8053766375
 30
0.0
  0
VERTEX
  5
902
  8
0
  6
CONTINUOUS
 62
     8
 10
703.1684172204
 20
462.8970655089
 30
0.0
  0
VERTEX
  5
903
  8
0
  6
CONTINUOUS
 62
     8
 10
704.8843604377
 20
463.9106871968
 30
0.0
  0
VERTEX
  5
904
  8
0
  6
CONTINUOUS
 62
     8
 10
706.6444855979
 20
464.8416521436
 30
0.0
  0
VERTEX
  5
905
  8
0
  6
CONTINUOUS
 62
     8
 10
708.6238217404
 20
465.7643916493
 30
0.0
  0
VERTEX
  5
906
  8
0
  6
CONTINUOUS
 62
     8
 10
710.6513631394
 20
466.5820034629
 30
0.0
  0
VERTEX
  5
907
  8
0
  6
CONTINUOUS
 62
     8
 10
712.7189681729
 20
467.2899576312
 30
0.0
  0
VERTEX
  5
908
  8
0
  6
CONTINUOUS
 62
     8
 10
714.3373478999
 20
467.7588673716
 30
0.0
  0
VERTEX
  5
909
  8
0
  6
CONTINUOUS
 62
     8
 10
715.9757203287
 20
468.1606175786
 30
0.0
  0
VERTEX
  5
90A
  8
0
  6
CONTINUOUS
 62
     8
 10
717.6296570202
 20
468.4943588858
 30
0.0
  0
VERTEX
  5
90B
  8
0
  6
CONTINUOUS
 62
     8
 10
719.2947304672
 20
468.7591972237
 30
0.0
  0
SEQEND
  5
B29
  8
0
  6
CONTINUOUS
 62
     8
  0
POLYLINE
  5
2BF
  8
0
  6
CONTINUOUS
 62
     8
 66
     1
 10
0.0
 20
0.0
 30
0.0
  0
VERTEX
  5
90C
  8
0
  6
CONTINUOUS
 62
     8
 10
775.3926374814
 20
444.4982590562
 30
0.0
  0
VERTEX
  5
90D
  8
0
  6
CONTINUOUS
 62
     8
 10
774.2871054312
 20
446.4451106673
 30
0.0
  0
VERTEX
  5
90E
  8
0
  6
CONTINUOUS
 62
     8
 10
773.1016398272
 20
448.3463945275
 30
0.0
  0
VERTEX
  5
90F
  8
0
  6
CONTINUOUS
 62
     8
 10
771.8380772373
 20
450.1953902131
 30
0.0
  0
VERTEX
  5
910
  8
0
  6
CONTINUOUS
 62
     8
 10
770.4705641469
 20
452.0211102849
 30
0.0
  0
VERTEX
  5
911
  8
0
  6
CONTINUOUS
 62
     8
 10
769.0224879285
 20
453.7842305785
 30
0.0
  0
VERTEX
  5
912
  8
0
  6
CONTINUOUS
 62
     8
 10
767.4966574511
 20
455.4775389319
 30
0.0
  0
VERTEX
  5
913
  8
0
  6
CONTINUOUS
 62
     8
 10
766.1413111588
 20
456.8561049586
 30
0.0
  0
VERTEX
  5
914
  8
0
  6
CONTINUOUS
 62
     8
 10
764.7302568754
 20
458.1790598517
 30
0.0
  0
VERTEX
  5
915
  8
0
  6
CONTINUOUS
 62
     8
 10
763.2660836777
 20
459.4419183617
 30
0.0
  0
VERTEX
  5
916
  8
0
  6
CONTINUOUS
 62
     8
 10
761.751376917
 20
460.6402399426
 30
0.0
  0
VERTEX
  5
917
  8
0
  6
CONTINUOUS
 62
     8
 10
760.1370018771
 20
461.8053766375
 30
0.0
  0
VERTEX
  5
918
  8
0
  6
CONTINUOUS
 62
     8
 10
758.4696401706
 20
462.8970655089
 30
0.0
  0
VERTEX
  5
919
  8
0
  6
CONTINUOUS
 62
     8
 10
756.7536969533
 20
463.9106871968
 30
0.0
  0
VERTEX
  5
91A
  8
0
  6
CONTINUOUS
 62
     8
 10
754.9935717931
 20
464.8416521436
 30
0.0
  0
VERTEX
  5
91B
  8
0
  6
CONTINUOUS
 62
     8
 10
753.0142356506
 20
465.7643916493
 30
0.0
  0
VERTEX
  5
91C
  8
0
  6
CONTINUOUS
 62
     8
 10
750.9866942516
 20
466.5820034629
 30
0.0
  0
VERTEX
  5
91D
  8
0
  6
CONTINUOUS
 62
     8
 10
748.9190892181
 20
467.2899576312
 30
0.0
  0
VERTEX
  5
91E
  8
0
  6
CONTINUOUS
 62
     8
 10
747.300709491
 20
467.7588673716
 30
0.0
  0
VERTEX
  5
91F
  8
0
  6
CONTINUOUS
 62
     8
 10
745.6623370623
 20
468.1606175786
 30
0.0
  0
VERTEX
  5
920
  8
0
  6
CONTINUOUS
 62
     8
 10
744.0084003707
 20
468.4943588858
 30
0.0
  0
VERTEX
  5
921
  8
0
  6
CONTINUOUS
 62
     8
 10
742.3433269238
 20
468.7591972237
 30
0.0
  0
SEQEND
  5
B28
  8
0
  6
CONTINUOUS
 62
     8
  0
ARC
  5
2C0
  8
0
  6
CONTINUOUS
 62
     8
 10
725.2384960887
 20
421.4463525746
 30
0.0
 40
56.53023758521324
 50
114.4175849845
 51
146.5432949485
  0
ARC
  5
2C1
  8
0
  6
CONTINUOUS
 62
     8
 10
736.3995613023
 20
421.4463525746
 30
0.0
 40
56.5302375852132
 50
33.4567050515
 51
65.5824150155
  0
LINE
  5
2C2
  8
0
  6
CONTINUOUS
 62
     8
 10
662.1936754188
 20
429.3449553138
 30
0.0
 11
655.8905959925
 21
429.3449553138
 31
0.0
  0
LINE
  5
2C3
  8
0
  6
CONTINUOUS
 62
     8
 10
799.4443819722
 20
429.3449553138
 30
0.0
 11
805.7474613985
 21
429.3449553138
 31
0.0
  0
LINE
  5
2C4
  8
0
  6
CONTINUOUS
 62
     8
 10
658.8885382613
 20
434.3840362912
 30
0.0
 11
661.2264261445
 21
434.3840362912
 31
0.0
  0
LINE
  5
2C5
  8
0
  6
CONTINUOUS
 62
     8
 10
802.7495191297
 20
434.3840362912
 30
0.0
 11
800.4116312465
 21
434.3840362912
 31
0.0
  0
POLYLINE
  5
2C6
  8
0
  6
CONTINUOUS
 62
     8
 66
     1
 10
0.0
 20
0.0
 30
0.0
  0
VERTEX
  5
922
  8
0
  6
CONTINUOUS
 62
     8
 10
670.5778994462
 20
344.1187883204
 30
0.0
  0
VERTEX
  5
923
  8
0
  6
CONTINUOUS
 62
     8
 10
670.7560204765
 20
344.2538710719
 30
0.0
  0
VERTEX
  5
924
  8
0
  6
CONTINUOUS
 62
     8
 10
670.9649720093
 20
344.3873780256
 30
0.0
  0
VERTEX
  5
925
  8
0
  6
CONTINUOUS
 62
     8
 10
671.204347988
 20
344.5190446859
 30
0.0
  0
VERTEX
  5
926
  8
0
  6
CONTINUOUS
 62
     8
 10
671.4736864766
 20
344.6486214584
 30
0.0
  0
VERTEX
  5
927
  8
0
  6
CONTINUOUS
 62
     8
 10
671.7724622091
 20
344.7758512979
 30
0.0
  0
VERTEX
  5
928
  8
0
  6
CONTINUOUS
 62
     8
 10
672.1000977656
 20
344.9004920607
 30
0.0
  0
VERTEX
  5
929
  8
0
  6
CONTINUOUS
 62
     8
 10
672.4559561214
 20
345.0223016029
 30
0.0
  0
VERTEX
  5
92A
  8
0
  6
CONTINUOUS
 62
     8
 10
672.8393480977
 20
345.1410452312
 30
0.0
  0
VERTEX
  5
92B
  8
0
  6
CONTINUOUS
 62
     8
 10
673.2495323619
 20
345.2564882522
 30
0.0
  0
VERTEX
  5
92C
  8
0
  6
CONTINUOUS
 62
     8
 10
673.6857154271
 20
345.368410874
 30
0.0
  0
VERTEX
  5
92D
  8
0
  6
CONTINUOUS
 62
     8
 10
674.1470479271
 20
345.4765933042
 30
0.0
  0
VERTEX
  5
92E
  8
0
  6
CONTINUOUS
 62
     8
 10
674.6326320669
 20
345.5808269268
 30
0.0
  0
VERTEX
  5
92F
  8
0
  6
CONTINUOUS
 62
     8
 10
675.141536524
 20
345.680910576
 30
0.0
  0
VERTEX
  5
930
  8
0
  6
CONTINUOUS
 62
     8
 10
675.6727666458
 20
345.7766468113
 30
0.0
  0
VERTEX
  5
931
  8
0
  6
CONTINUOUS
 62
     8
 10
676.2252942523
 20
345.867856819
 30
0.0
  0
VERTEX
  5
932
  8
0
  6
CONTINUOUS
 62
     8
 10
676.7980501851
 20
345.9543580597
 30
0.0
  0
VERTEX
  5
933
  8
0
  6
CONTINUOUS
 62
     8
 10
677.3899243077
 20
346.0359828955
 30
0.0
  0
VERTEX
  5
934
  8
0
  6
CONTINUOUS
 62
     8
 10
677.9997655055
 20
346.1125785893
 30
0.0
  0
VERTEX
  5
935
  8
0
  6
CONTINUOUS
 62
     8
 10
678.6263965866
 20
346.183988679
 30
0.0
  0
VERTEX
  5
936
  8
0
  6
CONTINUOUS
 62
     8
 10
679.2685956558
 20
346.2500827795
 30
0.0
  0
VERTEX
  5
937
  8
0
  6
CONTINUOUS
 62
     8
 10
679.9251259169
 20
346.3107267803
 30
0.0
  0
VERTEX
  5
938
  8
0
  6
CONTINUOUS
 62
     8
 10
680.5947133204
 20
346.365801472
 30
0.0
  0
VERTEX
  5
939
  8
0
  6
CONTINUOUS
 62
     8
 10
681.2760540148
 20
346.4152099973
 30
0.0
  0
VERTEX
  5
93A
  8
0
  6
CONTINUOUS
 62
     8
 10
681.9678329727
 20
346.4588443225
 30
0.0
  0
VERTEX
  5
93B
  8
0
  6
CONTINUOUS
 62
     8
 10
682.6687053641
 20
346.496629942
 30
0.0
  0
VERTEX
  5
93C
  8
0
  6
CONTINUOUS
 62
     8
 10
683.3773151835
 20
346.5284886247
 30
0.0
  0
SEQEND
  5
B27
  8
0
  6
CONTINUOUS
 62
     8
  0
POLYLINE
  5
2C7
  8
0
  6
CONTINUOUS
 62
     8
 66
     1
 10
0.0
 20
0.0
 30
0.0
  0
VERTEX
  5
93D
  8
0
  6
CONTINUOUS
 62
     8
 10
670.5778994462
 20
344.1187883204
 30
0.0
  0
VERTEX
  5
93E
  8
0
  6
CONTINUOUS
 62
     8
 10
670.7498737475
 20
343.9603740757
 30
0.0
  0
VERTEX
  5
93F
  8
0
  6
CONTINUOUS
 62
     8
 10
670.9531069597
 20
343.8022839313
 30
0.0
  0
VERTEX
  5
940
  8
0
  6
CONTINUOUS
 62
     8
 10
671.1871743998
 20
343.6448419875
 30
0.0
  0
VERTEX
  5
941
  8
0
  6
CONTINUOUS
 62
     8
 10
671.4515992304
 20
343.4883723443
 30
0.0
  0
VERTEX
  5
942
  8
0
  6
CONTINUOUS
 62
     8
 10
671.7458375594
 20
343.3331991022
 30
0.0
  0
VERTEX
  5
943
  8
0
  6
CONTINUOUS
 62
     8
 10
672.0692858895
 20
343.1796351856
 30
0.0
  0
VERTEX
  5
944
  8
0
  6
CONTINUOUS
 62
     8
 10
672.4212811193
 20
343.0280009693
 30
0.0
  0
VERTEX
  5
945
  8
0
  6
CONTINUOUS
 62
     8
 10
672.8011005422
 20
342.8786056524
 30
0.0
  0
VERTEX
  5
946
  8
0
  6
CONTINUOUS
 62
     8
 10
673.2079618475
 20
342.7317547089
 30
0.0
  0
VERTEX
  5
947
  8
0
  6
CONTINUOUS
 62
     8
 10
673.6410342952
 20
342.5877498871
 30
0.0
  0
VERTEX
  5
948
  8
0
  6
CONTINUOUS
 62
     8
 10
674.0994275412
 20
342.4468892103
 30
0.0
  0
VERTEX
  5
949
  8
0
  6
CONTINUOUS
 62
     8
 10
674.5821990868
 20
342.3094595259
 30
0.0
  0
VERTEX
  5
94A
  8
0
  6
CONTINUOUS
 62
     8
 10
675.088358005
 20
342.1757439559
 30
0.0
  0
VERTEX
  5
94B
  8
0
  6
CONTINUOUS
 62
     8
 10
675.6168686649
 20
342.0460181719
 30
0.0
  0
VERTEX
  5
94C
  8
0
  6
CONTINUOUS
 62
     8
 10
676.1666395566
 20
341.9205466693
 30
0.0
  0
VERTEX
  5
94D
  8
0
  6
CONTINUOUS
 62
     8
 10
676.7365530929
 20
341.799582768
 30
0.0
  0
VERTEX
  5
94E
  8
0
  6
CONTINUOUS
 62
     8
 10
677.3254283568
 20
341.6833835131
 30
0.0
  0
VERTEX
  5
94F
  8
0
  6
CONTINUOUS
 62
     8
 10
677.9320658049
 20
341.5721798724
 30
0.0
  0
VERTEX
  5
950
  8
0
  6
CONTINUOUS
 62
     8
 10
678.5552100143
 20
341.4662065392
 30
0.0
  0
VERTEX
  5
951
  8
0
  6
CONTINUOUS
 62
     8
 10
679.1935943862
 20
341.3656758552
 30
0.0
  0
VERTEX
  5
952
  8
0
  6
CONTINUOUS
 62
     8
 10
679.8459001681
 20
341.2707964366
 30
0.0
  0
VERTEX
  5
953
  8
0
  6
CONTINUOUS
 62
     8
 10
680.5107899806
 20
341.1817619985
 30
0.0
  0
VERTEX
  5
954
  8
0
  6
CONTINUOUS
 62
     8
 10
681.1868966421
 20
341.0987550801
 30
0.0
  0
VERTEX
  5
955
  8
0
  6
CONTINUOUS
 62
     8
 10
681.8728380701
 20
341.0219470447
 30
0.0
  0
VERTEX
  5
956
  8
0
  6
CONTINUOUS
 62
     8
 10
682.5672061047
 20
340.9514943546
 30
0.0
  0
VERTEX
  5
957
  8
0
  6
CONTINUOUS
 62
     8
 10
683.2685702344
 20
340.8875460213
 30
0.0
  0
VERTEX
  5
958
  8
0
  6
CONTINUOUS
 62
     8
 10
683.9754962226
 20
340.8302287048
 30
0.0
  0
VERTEX
  5
959
  8
0
  6
CONTINUOUS
 62
     8
 10
684.6865274808
 20
340.779657889
 30
0.0
  0
VERTEX
  5
95A
  8
0
  6
CONTINUOUS
 62
     8
 10
685.4002111455
 20
340.7359453326
 30
0.0
  0
VERTEX
  5
95B
  8
0
  6
CONTINUOUS
 62
     8
 10
686.1150757274
 20
340.6991729921
 30
0.0
  0
SEQEND
  5
B26
  8
0
  6
CONTINUOUS
 62
     8
  0
POLYLINE
  5
2C8
  8
0
  6
CONTINUOUS
 62
     8
 66
     1
 10
0.0
 20
0.0
 30
0.0
  0
VERTEX
  5
95C
  8
0
  6
CONTINUOUS
 62
     8
 10
791.0601579448
 20
344.1187883204
 30
0.0
  0
VERTEX
  5
95D
  8
0
  6
CONTINUOUS
 62
     8
 10
790.8820369145
 20
344.2538710719
 30
0.0
  0
VERTEX
  5
95E
  8
0
  6
CONTINUOUS
 62
     8
 10
790.6730853817
 20
344.3873780256
 30
0.0
  0
VERTEX
  5
95F
  8
0
  6
CONTINUOUS
 62
     8
 10
790.4337094029
 20
344.5190446859
 30
0.0
  0
VERTEX
  5
960
  8
0
  6
CONTINUOUS
 62
     8
 10
790.1643709144
 20
344.6486214584
 30
0.0
  0
VERTEX
  5
961
  8
0
  6
CONTINUOUS
 62
     8
 10
789.8655951819
 20
344.7758512979
 30
0.0
  0
VERTEX
  5
962
  8
0
  6
CONTINUOUS
 62
     8
 10
789.5379596254
 20
344.9004920607
 30
0.0
  0
VERTEX
  5
963
  8
0
  6
CONTINUOUS
 62
     8
 10
789.1821012696
 20
345.0223016029
 30
0.0
  0
VERTEX
  5
964
  8
0
  6
CONTINUOUS
 62
     8
 10
788.7987092933
 20
345.1410452312
 30
0.0
  0
VERTEX
  5
965
  8
0
  6
CONTINUOUS
 62
     8
 10
788.3885250291
 20
345.2564882522
 30
0.0
  0
VERTEX
  5
966
  8
0
  6
CONTINUOUS
 62
     8
 10
787.9523419639
 20
345.368410874
 30
0.0
  0
VERTEX
  5
967
  8
0
  6
CONTINUOUS
 62
     8
 10
787.4910094639
 20
345.4765933042
 30
0.0
  0
VERTEX
  5
968
  8
0
  6
CONTINUOUS
 62
     8
 10
787.0054253241
 20
345.5808269268
 30
0.0
  0
VERTEX
  5
969
  8
0
  6
CONTINUOUS
 62
     8
 10
786.496520867
 20
345.680910576
 30
0.0
  0
VERTEX
  5
96A
  8
0
  6
CONTINUOUS
 62
     8
 10
785.9652907452
 20
345.7766468113
 30
0.0
  0
VERTEX
  5
96B
  8
0
  6
CONTINUOUS
 62
     8
 10
785.4127631387
 20
345.867856819
 30
0.0
  0
VERTEX
  5
96C
  8
0
  6
CONTINUOUS
 62
     8
 10
784.8400072059
 20
345.9543580597
 30
0.0
  0
VERTEX
  5
96D
  8
0
  6
CONTINUOUS
 62
     8
 10
784.2481330833
 20
346.0359828955
 30
0.0
  0
VERTEX
  5
96E
  8
0
  6
CONTINUOUS
 62
     8
 10
783.6382918855
 20
346.1125785893
 30
0.0
  0
VERTEX
  5
96F
  8
0
  6
CONTINUOUS
 62
     8
 10
783.0116608044
 20
346.183988679
 30
0.0
  0
VERTEX
  5
970
  8
0
  6
CONTINUOUS
 62
     8
 10
782.3694617352
 20
346.2500827795
 30
0.0
  0
VERTEX
  5
971
  8
0
  6
CONTINUOUS
 62
     8
 10
781.7129314741
 20
346.3107267803
 30
0.0
  0
VERTEX
  5
972
  8
0
  6
CONTINUOUS
 62
     8
 10
781.0433440706
 20
346.365801472
 30
0.0
  0
VERTEX
  5
973
  8
0
  6
CONTINUOUS
 62
     8
 10
780.3620033762
 20
346.4152099973
 30
0.0
  0
VERTEX
  5
974
  8
0
  6
CONTINUOUS
 62
     8
 10
779.6702244183
 20
346.4588443225
 30
0.0
  0
VERTEX
  5
975
  8
0
  6
CONTINUOUS
 62
     8
 10
778.9693520268
 20
346.496629942
 30
0.0
  0
VERTEX
  5
976
  8
0
  6
CONTINUOUS
 62
     8
 10
778.2607422074
 20
346.5284886247
 30
0.0
  0
SEQEND
  5
B25
  8
0
  6
CONTINUOUS
 62
     8
  0
POLYLINE
  5
2C9
  8
0
  6
CONTINUOUS
 62
     8
 66
     1
 10
0.0
 20
0.0
 30
0.0
  0
VERTEX
  5
977
  8
0
  6
CONTINUOUS
 62
     8
 10
791.0601579448
 20
344.1187883204
 30
0.0
  0
VERTEX
  5
978
  8
0
  6
CONTINUOUS
 62
     8
 10
790.8881836435
 20
343.9603740757
 30
0.0
  0
VERTEX
  5
979
  8
0
  6
CONTINUOUS
 62
     8
 10
790.6849504313
 20
343.8022839313
 30
0.0
  0
VERTEX
  5
97A
  8
0
  6
CONTINUOUS
 62
     8
 10
790.4508829912
 20
343.6448419875
 30
0.0
  0
VERTEX
  5
97B
  8
0
  6
CONTINUOUS
 62
     8
 10
790.1864581605
 20
343.4883723443
 30
0.0
  0
VERTEX
  5
97C
  8
0
  6
CONTINUOUS
 62
     8
 10
789.8922198316
 20
343.3331991022
 30
0.0
  0
VERTEX
  5
97D
  8
0
  6
CONTINUOUS
 62
     8
 10
789.5687715015
 20
343.1796351856
 30
0.0
  0
VERTEX
  5
97E
  8
0
  6
CONTINUOUS
 62
     8
 10
789.2167762717
 20
343.0280009693
 30
0.0
  0
VERTEX
  5
97F
  8
0
  6
CONTINUOUS
 62
     8
 10
788.8369568488
 20
342.8786056524
 30
0.0
  0
VERTEX
  5
980
  8
0
  6
CONTINUOUS
 62
     8
 10
788.4300955435
 20
342.7317547089
 30
0.0
  0
VERTEX
  5
981
  8
0
  6
CONTINUOUS
 62
     8
 10
787.9970230958
 20
342.5877498871
 30
0.0
  0
VERTEX
  5
982
  8
0
  6
CONTINUOUS
 62
     8
 10
787.5386298498
 20
342.4468892103
 30
0.0
  0
VERTEX
  5
983
  8
0
  6
CONTINUOUS
 62
     8
 10
787.0558583042
 20
342.3094595259
 30
0.0
  0
VERTEX
  5
984
  8
0
  6
CONTINUOUS
 62
     8
 10
786.549699386
 20
342.1757439559
 30
0.0
  0
VERTEX
  5
985
  8
0
  6
CONTINUOUS
 62
     8
 10
786.0211887261
 20
342.0460181719
 30
0.0
  0
VERTEX
  5
986
  8
0
  6
CONTINUOUS
 62
     8
 10
785.4714178344
 20
341.9205466693
 30
0.0
  0
VERTEX
  5
987
  8
0
  6
CONTINUOUS
 62
     8
 10
784.9015042981
 20
341.799582768
 30
0.0
  0
VERTEX
  5
988
  8
0
  6
CONTINUOUS
 62
     8
 10
784.3126290342
 20
341.6833835131
 30
0.0
  0
VERTEX
  5
989
  8
0
  6
CONTINUOUS
 62
     8
 10
783.7059915861
 20
341.5721798724
 30
0.0
  0
VERTEX
  5
98A
  8
0
  6
CONTINUOUS
 62
     8
 10
783.0828473767
 20
341.4662065392
 30
0.0
  0
VERTEX
  5
98B
  8
0
  6
CONTINUOUS
 62
     8
 10
782.4444630047
 20
341.3656758552
 30
0.0
  0
VERTEX
  5
98C
  8
0
  6
CONTINUOUS
 62
     8
 10
781.7921572229
 20
341.2707964366
 30
0.0
  0
VERTEX
  5
98D
  8
0
  6
CONTINUOUS
 62
     8
 10
781.1272674104
 20
341.1817619985
 30
0.0
  0
VERTEX
  5
98E
  8
0
  6
CONTINUOUS
 62
     8
 10
780.4511607489
 20
341.0987550801
 30
0.0
  0
VERTEX
  5
98F
  8
0
  6
CONTINUOUS
 62
     8
 10
779.7652193209
 20
341.0219470447
 30
0.0
  0
VERTEX
  5
990
  8
0
  6
CONTINUOUS
 62
     8
 10
779.0708512863
 20
340.9514943546
 30
0.0
  0
VERTEX
  5
991
  8
0
  6
CONTINUOUS
 62
     8
 10
778.3694871565
 20
340.8875460213
 30
0.0
  0
VERTEX
  5
992
  8
0
  6
CONTINUOUS
 62
     8
 10
777.6625611683
 20
340.8302287048
 30
0.0
  0
VERTEX
  5
993
  8
0
  6
CONTINUOUS
 62
     8
 10
776.9515299102
 20
340.779657889
 30
0.0
  0
VERTEX
  5
994
  8
0
  6
CONTINUOUS
 62
     8
 10
776.2378462454
 20
340.7359453326
 30
0.0
  0
VERTEX
  5
995
  8
0
  6
CONTINUOUS
 62
     8
 10
775.5229816636
 20
340.6991729921
 30
0.0
  0
SEQEND
  5
B24
  8
0
  6
CONTINUOUS
 62
     8
  0
LINE
  5
2CA
  8
0
  6
CONTINUOUS
 62
     8
 10
670.5778994462
 20
344.1187883204
 30
0.0
 11
670.5778994462
 21
392.6118569857
 31
0.0
  0
LINE
  5
2CB
  8
0
  6
CONTINUOUS
 62
     8
 10
791.0601579448
 20
344.1187883204
 30
0.0
 11
791.0601579448
 21
392.6118569857
 31
0.0
  0
POLYLINE
  5
2CC
  8
0
  6
CONTINUOUS
 62
     8
 66
     1
 10
0.0
 20
0.0
 30
0.0
  0
VERTEX
  5
996
  8
0
  6
CONTINUOUS
 62
     8
 10
669.28313755
 20
318.8536534494
 30
0.0
  0
VERTEX
  5
997
  8
0
  6
CONTINUOUS
 62
     8
 10
669.8901736042
 20
331.5172115749
 30
0.0
  0
VERTEX
  5
998
  8
0
  6
CONTINUOUS
 62
     8
 10
670.5778994462
 20
344.1187883204
 30
0.0
  0
SEQEND
  5
B23
  8
0
  6
CONTINUOUS
 62
     8
  0
POLYLINE
  5
2CD
  8
0
  6
CONTINUOUS
 62
     8
 66
     1
 10
0.0
 20
0.0
 30
0.0
  0
VERTEX
  5
999
  8
0
  6
CONTINUOUS
 62
     8
 10
669.28313755
 20
318.8536534494
 30
0.0
  0
VERTEX
  5
99A
  8
0
  6
CONTINUOUS
 62
     8
 10
669.5794732174
 20
318.5489805823
 30
0.0
  0
VERTEX
  5
99B
  8
0
  6
CONTINUOUS
 62
     8
 10
669.9940309724
 20
318.2466695493
 30
0.0
  0
VERTEX
  5
99C
  8
0
  6
CONTINUOUS
 62
     8
 10
670.5235996148
 20
317.9490598327
 30
0.0
  0
VERTEX
  5
99D
  8
0
  6
CONTINUOUS
 62
     8
 10
671.1640738746
 20
317.6584573871
 30
0.0
  0
VERTEX
  5
99E
  8
0
  6
CONTINUOUS
 62
     8
 10
671.9104991159
 20
317.3771122878
 30
0.0
  0
VERTEX
  5
99F
  8
0
  6
CONTINUOUS
 62
     8
 10
672.7570862373
 20
317.1072056925
 30
0.0
  0
VERTEX
  5
9A0
  8
0
  6
CONTINUOUS
 62
     8
 10
673.6972824534
 20
316.8508256262
 30
0.0
  0
VERTEX
  5
9A1
  8
0
  6
CONTINUOUS
 62
     8
 10
674.7238010963
 20
316.609961394
 30
0.0
  0
VERTEX
  5
9A2
  8
0
  6
CONTINUOUS
 62
     8
 10
675.8286961218
 20
316.3864756411
 30
0.0
  0
VERTEX
  5
9A3
  8
0
  6
CONTINUOUS
 62
     8
 10
677.0034068128
 20
316.1821006274
 30
0.0
  0
VERTEX
  5
9A4
  8
0
  6
CONTINUOUS
 62
     8
 10
678.2388285598
 20
315.9984214639
 30
0.0
  0
VERTEX
  5
9A5
  8
0
  6
CONTINUOUS
 62
     8
 10
679.5253985426
 20
315.8368574863
 30
0.0
  0
VERTEX
  5
9A6
  8
0
  6
CONTINUOUS
 62
     8
 10
680.8531516096
 20
315.6986622548
 30
0.0
  0
VERTEX
  5
9A7
  8
0
  6
CONTINUOUS
 62
     8
 10
682.2117947837
 20
315.5849049276
 30
0.0
  0
VERTEX
  5
9A8
  8
0
  6
CONTINUOUS
 62
     8
 10
683.5908115706
 20
315.4964683985
 30
0.0
  0
VERTEX
  5
9A9
  8
0
  6
CONTINUOUS
 62
     8
 10
684.9795178374
 20
315.4340362584
 30
0.0
  0
SEQEND
  5
B22
  8
0
  6
CONTINUOUS
 62
     8
  0
POLYLINE
  5
2CE
  8
0
  6
CONTINUOUS
 62
     8
 66
     1
 10
0.0
 20
0.0
 30
0.0
  0
VERTEX
  5
9AA
  8
0
  6
CONTINUOUS
 62
     8
 10
792.354919841
 20
318.8536534494
 30
0.0
  0
VERTEX
  5
9AB
  8
0
  6
CONTINUOUS
 62
     8
 10
791.7478837868
 20
331.5172115749
 30
0.0
  0
VERTEX
  5
9AC
  8
0
  6
CONTINUOUS
 62
     8
 10
791.0601579448
 20
344.1187883204
 30
0.0
  0
SEQEND
  5
B21
  8
0
  6
CONTINUOUS
 62
     8
  0
POLYLINE
  5
2CF
  8
0
  6
CONTINUOUS
 62
     8
 66
     1
 10
0.0
 20
0.0
 30
0.0
  0
VERTEX
  5
9AD
  8
0
  6
CONTINUOUS
 62
     8
 10
792.354919841
 20
318.8536534494
 30
0.0
  0
VERTEX
  5
9AE
  8
0
  6
CONTINUOUS
 62
     8
 10
792.0585841736
 20
318.5489805823
 30
0.0
  0
VERTEX
  5
9AF
  8
0
  6
CONTINUOUS
 62
     8
 10
791.6440264186
 20
318.2466695493
 30
0.0
  0
VERTEX
  5
9B0
  8
0
  6
CONTINUOUS
 62
     8
 10
791.1144577762
 20
317.9490598327
 30
0.0
  0
VERTEX
  5
9B1
  8
0
  6
CONTINUOUS
 62
     8
 10
790.4739835164
 20
317.6584573871
 30
0.0
  0
VERTEX
  5
9B2
  8
0
  6
CONTINUOUS
 62
     8
 10
789.7275582751
 20
317.3771122878
 30
0.0
  0
VERTEX
  5
9B3
  8
0
  6
CONTINUOUS
 62
     8
 10
788.8809711536
 20
317.1072056925
 30
0.0
  0
VERTEX
  5
9B4
  8
0
  6
CONTINUOUS
 62
     8
 10
787.9407749375
 20
316.8508256262
 30
0.0
  0
VERTEX
  5
9B5
  8
0
  6
CONTINUOUS
 62
     8
 10
786.9142562946
 20
316.609961394
 30
0.0
  0
VERTEX
  5
9B6
  8
0
  6
CONTINUOUS
 62
     8
 10
785.8093612691
 20
316.3864756411
 30
0.0
  0
VERTEX
  5
9B7
  8
0
  6
CONTINUOUS
 62
     8
 10
784.6346505782
 20
316.1821006274
 30
0.0
  0
VERTEX
  5
9B8
  8
0
  6
CONTINUOUS
 62
     8
 10
783.3992288312
 20
315.9984214639
 30
0.0
  0
VERTEX
  5
9B9
  8
0
  6
CONTINUOUS
 62
     8
 10
782.1126588484
 20
315.8368574863
 30
0.0
  0
VERTEX
  5
9BA
  8
0
  6
CONTINUOUS
 62
     8
 10
780.7849057814
 20
315.6986622548
 30
0.0
  0
VERTEX
  5
9BB
  8
0
  6
CONTINUOUS
 62
     8
 10
779.4262626072
 20
315.5849049276
 30
0.0
  0
VERTEX
  5
9BC
  8
0
  6
CONTINUOUS
 62
     8
 10
778.0472458204
 20
315.4964683985
 30
0.0
  0
VERTEX
  5
9BD
  8
0
  6
CONTINUOUS
 62
     8
 10
776.6585395536
 20
315.4340362584
 30
0.0
  0
SEQEND
  5
B20
  8
0
  6
CONTINUOUS
 62
     8
  0
POLYLINE
  5
2D0
  8
0
  6
CONTINUOUS
 62
     8
 66
     1
 10
0.0
 20
0.0
 30
0.0
  0
VERTEX
  5
9BE
  8
0
  6
CONTINUOUS
 62
     8
 10
668.3872834643
 20
290.2460961545
 30
0.0
  0
VERTEX
  5
9BF
  8
0
  6
CONTINUOUS
 62
     8
 10
668.4902467629
 20
293.2685538603
 30
0.0
  0
VERTEX
  5
9C0
  8
0
  6
CONTINUOUS
 62
     8
 10
668.5873688063
 20
296.3101039117
 30
0.0
  0
VERTEX
  5
9C1
  8
0
  6
CONTINUOUS
 62
     8
 10
668.6782360872
 20
299.3666608294
 30
0.0
  0
VERTEX
  5
9C2
  8
0
  6
CONTINUOUS
 62
     8
 10
668.7636234662
 20
302.4440179056
 30
0.0
  0
VERTEX
  5
9C3
  8
0
  6
CONTINUOUS
 62
     8
 10
668.8465111753
 20
305.5277126318
 30
0.0
  0
VERTEX
  5
9C4
  8
0
  6
CONTINUOUS
 62
     8
 10
668.9306319555
 20
308.6126963085
 30
0.0
  0
VERTEX
  5
9C5
  8
0
  6
CONTINUOUS
 62
     8
 10
669.0048434636
 20
311.1847876048
 30
0.0
  0
VERTEX
  5
9C6
  8
0
  6
CONTINUOUS
 62
     8
 10
669.0861330232
 20
313.7506781554
 30
0.0
  0
VERTEX
  5
9C7
  8
0
  6
CONTINUOUS
 62
     8
 10
669.1778533956
 20
316.3095744735
 30
0.0
  0
VERTEX
  5
9C8
  8
0
  6
CONTINUOUS
 62
     8
 10
669.28313755
 20
318.8536534494
 30
0.0
  0
SEQEND
  5
B1F
  8
0
  6
CONTINUOUS
 62
     8
  0
POLYLINE
  5
2D1
  8
0
  6
CONTINUOUS
 62
     8
 66
     1
 10
0.0
 20
0.0
 30
0.0
  0
VERTEX
  5
9C9
  8
0
  6
CONTINUOUS
 62
     8
 10
668.3872834643
 20
290.2460961545
 30
0.0
  0
VERTEX
  5
9CA
  8
0
  6
CONTINUOUS
 62
     8
 10
668.5857296785
 20
290.0144506188
 30
0.0
  0
VERTEX
  5
9CB
  8
0
  6
CONTINUOUS
 62
     8
 10
668.87576588
 20
289.7911429813
 30
0.0
  0
VERTEX
  5
9CC
  8
0
  6
CONTINUOUS
 62
     8
 10
669.2540430328
 20
289.5781401953
 30
0.0
  0
VERTEX
  5
9CD
  8
0
  6
CONTINUOUS
 62
     8
 10
669.717200925
 20
289.377409214
 30
0.0
  0
VERTEX
  5
9CE
  8
0
  6
CONTINUOUS
 62
     8
 10
670.2618830701
 20
289.1909172235
 30
0.0
  0
VERTEX
  5
9CF
  8
0
  6
CONTINUOUS
 62
     8
 10
670.8646871945
 20
289.025043085
 30
0.0
  0
VERTEX
  5
9D0
  8
0
  6
CONTINUOUS
 62
     8
 10
671.5414904853
 20
288.873011194
 30
0.0
  0
VERTEX
  5
9D1
  8
0
  6
CONTINUOUS
 62
     8
 10
672.2862765988
 20
288.7358965294
 30
0.0
  0
VERTEX
  5
9D2
  8
0
  6
CONTINUOUS
 62
     8
 10
673.0930254659
 20
288.6147731392
 30
0.0
  0
VERTEX
  5
9D3
  8
0
  6
CONTINUOUS
 62
     8
 10
673.955713292
 20
288.5107162351
 30
0.0
  0
VERTEX
  5
9D4
  8
0
  6
CONTINUOUS
 62
     8
 10
674.8612680337
 20
288.4250581905
 30
0.0
  0
VERTEX
  5
9D5
  8
0
  6
CONTINUOUS
 62
     8
 10
675.8187607726
 20
288.3560995746
 30
0.0
  0
VERTEX
  5
9D6
  8
0
  6
CONTINUOUS
 62
     8
 10
676.8204242786
 20
288.3041103546
 30
0.0
  0
VERTEX
  5
9D7
  8
0
  6
CONTINUOUS
 62
     8
 10
677.8584875962
 20
288.2693610795
 30
0.0
  0
VERTEX
  5
9D8
  8
0
  6
CONTINUOUS
 62
     8
 10
678.9251797697
 20
288.2521219494
 30
0.0
  0
VERTEX
  5
9D9
  8
0
  6
CONTINUOUS
 62
     8
 10
678.9506533047
 20
288.2519285835
 30
0.0
  0
SEQEND
  5
B1E
  8
0
  6
CONTINUOUS
 62
     8
  0
POLYLINE
  5
2D2
  8
0
  6
CONTINUOUS
 62
     8
 66
     1
 10
0.0
 20
0.0
 30
0.0
  0
VERTEX
  5
9DA
  8
0
  6
CONTINUOUS
 62
     8
 10
793.2507739266
 20
290.2460961545
 30
0.0
  0
VERTEX
  5
9DB
  8
0
  6
CONTINUOUS
 62
     8
 10
793.1478106281
 20
293.2685538603
 30
0.0
  0
VERTEX
  5
9DC
  8
0
  6
CONTINUOUS
 62
     8
 10
793.0506885847
 20
296.3101039117
 30
0.0
  0
VERTEX
  5
9DD
  8
0
  6
CONTINUOUS
 62
     8
 10
792.9598213038
 20
299.3666608294
 30
0.0
  0
VERTEX
  5
9DE
  8
0
  6
CONTINUOUS
 62
     8
 10
792.8744339248
 20
302.4440179056
 30
0.0
  0
VERTEX
  5
9DF
  8
0
  6
CONTINUOUS
 62
     8
 10
792.7915462157
 20
305.5277126318
 30
0.0
  0
VERTEX
  5
9E0
  8
0
  6
CONTINUOUS
 62
     8
 10
792.7074254355
 20
308.6126963085
 30
0.0
  0
VERTEX
  5
9E1
  8
0
  6
CONTINUOUS
 62
     8
 10
792.6332139274
 20
311.1847876048
 30
0.0
  0
VERTEX
  5
9E2
  8
0
  6
CONTINUOUS
 62
     8
 10
792.5519243678
 20
313.7506781554
 30
0.0
  0
VERTEX
  5
9E3
  8
0
  6
CONTINUOUS
 62
     8
 10
792.4602039954
 20
316.3095744735
 30
0.0
  0
VERTEX
  5
9E4
  8
0
  6
CONTINUOUS
 62
     8
 10
792.354919841
 20
318.8536534494
 30
0.0
  0
SEQEND
  5
B1D
  8
0
  6
CONTINUOUS
 62
     8
  0
POLYLINE
  5
2D3
  8
0
  6
CONTINUOUS
 62
     8
 66
     1
 10
0.0
 20
0.0
 30
0.0
  0
VERTEX
  5
9E5
  8
0
  6
CONTINUOUS
 62
     8
 10
793.2507739266
 20
290.2460961545
 30
0.0
  0
VERTEX
  5
9E6
  8
0
  6
CONTINUOUS
 62
     8
 10
793.0523277124
 20
290.0144506188
 30
0.0
  0
VERTEX
  5
9E7
  8
0
  6
CONTINUOUS
 62
     8
 10
792.762291511
 20
289.7911429813
 30
0.0
  0
VERTEX
  5
9E8
  8
0
  6
CONTINUOUS
 62
     8
 10
792.3840143582
 20
289.5781401953
 30
0.0
  0
VERTEX
  5
9E9
  8
0
  6
CONTINUOUS
 62
     8
 10
791.920856466
 20
289.377409214
 30
0.0
  0
VERTEX
  5
9EA
  8
0
  6
CONTINUOUS
 62
     8
 10
791.3761743208
 20
289.1909172235
 30
0.0
  0
VERTEX
  5
9EB
  8
0
  6
CONTINUOUS
 62
     8
 10
790.7733701965
 20
289.025043085
 30
0.0
  0
VERTEX
  5
9EC
  8
0
  6
CONTINUOUS
 62
     8
 10
790.0965669056
 20
288.873011194
 30
0.0
  0
VERTEX
  5
9ED
  8
0
  6
CONTINUOUS
 62
     8
 10
789.3517807921
 20
288.7358965294
 30
0.0
  0
VERTEX
  5
9EE
  8
0
  6
CONTINUOUS
 62
     8
 10
788.5450319251
 20
288.6147731392
 30
0.0
  0
VERTEX
  5
9EF
  8
0
  6
CONTINUOUS
 62
     8
 10
787.682344099
 20
288.5107162351
 30
0.0
  0
VERTEX
  5
9F0
  8
0
  6
CONTINUOUS
 62
     8
 10
786.7767893573
 20
288.4250581905
 30
0.0
  0
VERTEX
  5
9F1
  8
0
  6
CONTINUOUS
 62
     8
 10
785.8192966184
 20
288.3560995746
 30
0.0
  0
VERTEX
  5
9F2
  8
0
  6
CONTINUOUS
 62
     8
 10
784.8176331123
 20
288.3041103546
 30
0.0
  0
VERTEX
  5
9F3
  8
0
  6
CONTINUOUS
 62
     8
 10
783.7795697948
 20
288.2693610795
 30
0.0
  0
VERTEX
  5
9F4
  8
0
  6
CONTINUOUS
 62
     8
 10
782.7128776213
 20
288.2521219494
 30
0.0
  0
VERTEX
  5
9F5
  8
0
  6
CONTINUOUS
 62
     8
 10
782.6874040863
 20
288.2519285835
 30
0.0
  0
SEQEND
  5
B1C
  8
0
  6
CONTINUOUS
 62
     8
  0
POLYLINE
  5
2D4
  8
0
  6
CONTINUOUS
 62
     8
 66
     1
 10
0.0
 20
0.0
 30
0.0
  0
VERTEX
  5
9F6
  8
0
  6
CONTINUOUS
 62
     8
 10
671.2094739875
 20
282.247597765
 30
0.0
  0
VERTEX
  5
9F7
  8
0
  6
CONTINUOUS
 62
     8
 10
671.2815024754
 20
282.3068615457
 30
0.0
  0
VERTEX
  5
9F8
  8
0
  6
CONTINUOUS
 62
     8
 10
671.4029134115
 20
282.4032306148
 30
0.0
  0
VERTEX
  5
9F9
  8
0
  6
CONTINUOUS
 62
     8
 10
671.5728164515
 20
282.5363012439
 30
0.0
  0
VERTEX
  5
9FA
  8
0
  6
CONTINUOUS
 62
     8
 10
671.7999213239
 20
282.7131186554
 30
0.0
  0
VERTEX
  5
9FB
  8
0
  6
CONTINUOUS
 62
     8
 10
672.0776677927
 20
282.9287719855
 30
0.0
  0
VERTEX
  5
9FC
  8
0
  6
CONTINUOUS
 62
     8
 10
672.4041634103
 20
283.1820123306
 30
0.0
  0
VERTEX
  5
9FD
  8
0
  6
CONTINUOUS
 62
     8
 10
672.7513865432
 20
283.4512886534
 30
0.0
  0
VERTEX
  5
9FE
  8
0
  6
CONTINUOUS
 62
     8
 10
673.1389210424
 20
283.7518758083
 30
0.0
  0
VERTEX
  5
9FF
  8
0
  6
CONTINUOUS
 62
     8
 10
673.5646174153
 20
284.0821500344
 30
0.0
  0
VERTEX
  5
A00
  8
0
  6
CONTINUOUS
 62
     8
 10
674.0442373654
 20
284.4543789456
 30
0.0
  0
VERTEX
  5
A01
  8
0
  6
CONTINUOUS
 62
     8
 10
674.5620564422
 20
284.8563049397
 30
0.0
  0
VERTEX
  5
A02
  8
0
  6
CONTINUOUS
 62
     8
 10
675.1150869628
 20
285.2855162404
 30
0.0
  0
VERTEX
  5
A03
  8
0
  6
CONTINUOUS
 62
     8
 10
675.9613946876
 20
285.9420199588
 30
0.0
  0
VERTEX
  5
A04
  8
0
  6
CONTINUOUS
 62
     8
 10
676.4118605157
 20
286.2911684264
 30
0.0
  0
VERTEX
  5
A05
  8
0
  6
CONTINUOUS
 62
     8
 10
676.8772014281
 20
286.6515459486
 30
0.0
  0
VERTEX
  5
A06
  8
0
  6
CONTINUOUS
 62
     8
 10
677.3683399757
 20
287.0315034001
 30
0.0
  0
VERTEX
  5
A07
  8
0
  6
CONTINUOUS
 62
     8
 10
677.8742604753
 20
287.4223832682
 30
0.0
  0
VERTEX
  5
A08
  8
0
  6
CONTINUOUS
 62
     8
 10
678.3962965807
 20
287.8250894777
 30
0.0
  0
VERTEX
  5
A09
  8
0
  6
CONTINUOUS
 62
     8
 10
678.9313451251
 20
288.2370782958
 30
0.0
  0
VERTEX
  5
A0A
  8
0
  6
CONTINUOUS
 62
     8
 10
678.9506533047
 20
288.2519285835
 30
0.0
  0
SEQEND
  5
B1B
  8
0
  6
CONTINUOUS
 62
     8
  0
LINE
  5
2D5
  8
0
  6
CONTINUOUS
 62
     8
 10
671.1809717914
 20
282.2331217526
 30
0.0
 11
671.2094739875
 21
282.247597765
 31
0.0
  0
POLYLINE
  5
2D6
  8
0
  6
CONTINUOUS
 62
     8
 66
     1
 10
0.0
 20
0.0
 30
0.0
  0
VERTEX
  5
A0B
  8
0
  6
CONTINUOUS
 62
     8
 10
790.4285834035
 20
282.247597765
 30
0.0
  0
VERTEX
  5
A0C
  8
0
  6
CONTINUOUS
 62
     8
 10
790.3565549156
 20
282.3068615457
 30
0.0
  0
VERTEX
  5
A0D
  8
0
  6
CONTINUOUS
 62
     8
 10
790.2351439795
 20
282.4032306148
 30
0.0
  0
VERTEX
  5
A0E
  8
0
  6
CONTINUOUS
 62
     8
 10
790.0652409395
 20
282.5363012439
 30
0.0
  0
VERTEX
  5
A0F
  8
0
  6
CONTINUOUS
 62
     8
 10
789.8381360671
 20
282.7131186554
 30
0.0
  0
VERTEX
  5
A10
  8
0
  6
CONTINUOUS
 62
     8
 10
789.5603895983
 20
282.9287719855
 30
0.0
  0
VERTEX
  5
A11
  8
0
  6
CONTINUOUS
 62
     8
 10
789.2338939807
 20
283.1820123306
 30
0.0
  0
VERTEX
  5
A12
  8
0
  6
CONTINUOUS
 62
     8
 10
788.8866708478
 20
283.4512886534
 30
0.0
  0
VERTEX
  5
A13
  8
0
  6
CONTINUOUS
 62
     8
 10
788.4991363486
 20
283.7518758083
 30
0.0
  0
VERTEX
  5
A14
  8
0
  6
CONTINUOUS
 62
     8
 10
788.0734399756
 20
284.0821500344
 30
0.0
  0
VERTEX
  5
A15
  8
0
  6
CONTINUOUS
 62
     8
 10
787.5938200256
 20
284.4543789456
 30
0.0
  0
VERTEX
  5
A16
  8
0
  6
CONTINUOUS
 62
     8
 10
787.0760009488
 20
284.8563049397
 30
0.0
  0
VERTEX
  5
A17
  8
0
  6
CONTINUOUS
 62
     8
 10
786.5229704281
 20
285.2855162404
 30
0.0
  0
VERTEX
  5
A18
  8
0
  6
CONTINUOUS
 62
     8
 10
785.6766627034
 20
285.9420199588
 30
0.0
  0
VERTEX
  5
A19
  8
0
  6
CONTINUOUS
 62
     8
 10
785.2261968752
 20
286.2911684264
 30
0.0
  0
VERTEX
  5
A1A
  8
0
  6
CONTINUOUS
 62
     8
 10
784.7608559629
 20
286.6515459486
 30
0.0
  0
VERTEX
  5
A1B
  8
0
  6
CONTINUOUS
 62
     8
 10
784.2697174152
 20
287.0315034001
 30
0.0
  0
VERTEX
  5
A1C
  8
0
  6
CONTINUOUS
 62
     8
 10
783.7637969157
 20
287.4223832682
 30
0.0
  0
VERTEX
  5
A1D
  8
0
  6
CONTINUOUS
 62
     8
 10
783.2417608103
 20
287.8250894777
 30
0.0
  0
VERTEX
  5
A1E
  8
0
  6
CONTINUOUS
 62
     8
 10
782.7067122659
 20
288.2370782958
 30
0.0
  0
VERTEX
  5
A1F
  8
0
  6
CONTINUOUS
 62
     8
 10
782.6874040863
 20
288.2519285835
 30
0.0
  0
SEQEND
  5
B1A
  8
0
  6
CONTINUOUS
 62
     8
  0
LINE
  5
2D7
  8
0
  6
CONTINUOUS
 62
     8
 10
790.4570855996
 20
282.2331217526
 30
0.0
 11
790.4285834035
 21
282.247597765
 31
0.0
  0
ARC
  5
2D8
  8
0
  6
CONTINUOUS
 62
     8
 10
680.8335331698
 20
290.1404913385
 30
0.0
 40
12.44669771899236
 50
179.5138644011
 51
219.3558996904
  0
ARC
  5
2D9
  8
0
  6
CONTINUOUS
 62
     8
 10
780.8045242212
 20
290.1404913385
 30
0.0
 40
12.44669771899226
 50
320.6441003096
 51
0.4861355989
  0
LINE
  5
2DA
  8
0
  6
CONTINUOUS
 62
     8
 10
668.3575519225
 20
290.2679668682
 30
0.0
 11
668.3872834643
 21
290.2460961545
 31
0.0
  0
POLYLINE
  5
2DB
  8
0
  6
CONTINUOUS
 62
     8
 66
     1
 10
0.0
 20
0.0
 30
0.0
  0
VERTEX
  5
A20
  8
0
  6
CONTINUOUS
 62
     8
 10
667.3190266689
 20
291.3852338156
 30
0.0
  0
VERTEX
  5
A21
  8
0
  6
CONTINUOUS
 62
     8
 10
667.3318640193
 20
291.3714218361
 30
0.0
  0
VERTEX
  5
A22
  8
0
  6
CONTINUOUS
 62
     8
 10
667.4345553717
 20
291.2609441614
 30
0.0
  0
VERTEX
  5
A23
  8
0
  6
CONTINUOUS
 62
     8
 10
667.63985612
 20
291.0400763562
 30
0.0
  0
VERTEX
  5
A24
  8
0
  6
CONTINUOUS
 62
     8
 10
667.9476023516
 20
290.7089958375
 30
0.0
  0
VERTEX
  5
A25
  8
0
  6
CONTINUOUS
 62
     8
 10
668.3575519225
 20
290.2679668682
 30
0.0
  0
SEQEND
  5
B19
  8
0
  6
CONTINUOUS
 62
     8
  0
POLYLINE
  5
2DC
  8
0
  6
CONTINUOUS
 62
     8
 66
     1
 10
0.0
 20
0.0
 30
0.0
  0
VERTEX
  5
A26
  8
0
  6
CONTINUOUS
 62
     8
 10
794.3190307221
 20
291.3852338156
 30
0.0
  0
VERTEX
  5
A27
  8
0
  6
CONTINUOUS
 62
     8
 10
794.3061933717
 20
291.3714218361
 30
0.0
  0
VERTEX
  5
A28
  8
0
  6
CONTINUOUS
 62
     8
 10
794.2035020193
 20
291.2609441614
 30
0.0
  0
VERTEX
  5
A29
  8
0
  6
CONTINUOUS
 62
     8
 10
793.998201271
 20
291.0400763562
 30
0.0
  0
VERTEX
  5
A2A
  8
0
  6
CONTINUOUS
 62
     8
 10
793.6904550394
 20
290.7089958375
 30
0.0
  0
VERTEX
  5
A2B
  8
0
  6
CONTINUOUS
 62
     8
 10
793.2805054685
 20
290.2679668682
 30
0.0
  0
SEQEND
  5
B18
  8
0
  6
CONTINUOUS
 62
     8
  0
LINE
  5
2DD
  8
0
  6
CONTINUOUS
 62
     8
 10
793.2805054685
 20
290.2679668682
 30
0.0
 11
793.2507739266
 21
290.2460961545
 31
0.0
  0
LINE
  5
2DE
  8
0
  6
CONTINUOUS
 62
     8
 10
722.77633742
 20
528.7688704615
 30
0.0
 11
757.2967157563
 21
528.7688704615
 31
0.0
  0
LINE
  5
2DF
  8
0
  6
CONTINUOUS
 62
     8
 10
703.670033147
 20
528.7688704615
 30
0.0
 11
710.5842911502
 21
528.7688704615
 31
0.0
  0
ARC
  5
2E0
  8
0
  6
CONTINUOUS
 62
     8
 10
680.4780018476
 20
290.013562617
 30
0.0
 40
12.12311956183757
 50
178.7975570271
 51
219.9250797969
  0
ARC
  5
2E1
  8
0
  6
CONTINUOUS
 62
     8
 10
781.1600555434
 20
290.013562617
 30
0.0
 40
12.12311956183768
 50
320.0749202031
 51
1.2024429729
  0
INSERT
  5
2ED
  8
FORMAT
  2
SW_CENTERMARKSYMBOL_0
 10
730.8190286955
 20
286.6118582374
 30
0.0
  0
LINE
  5
2EE
  8
0
  6
CONTINUOUS
 62
     7
 10
264.3692862408
 20
144.099333022
 30
0.0
 11
246.914010139
 21
144.099333022
 31
0.0
  0
LINE
  5
2EF
  8
0
  6
CONTINUOUS
 62
     7
 10
387.3253274875
 20
144.099333022
 30
0.0
 11
369.8700513857
 21
144.099333022
 31
0.0
  0
LINE
  5
2F0
  8
0
  6
CONTINUOUS
 62
     7
 10
369.8700513857
 20
47.099330161
 30
0.0
 11
387.3253274875
 21
47.099330161
 31
0.0
  0
LINE
  5
2F1
  8
0
  6
CONTINUOUS
 62
     7
 10
246.914010139
 20
47.099330161
 30
0.0
 11
264.3692862408
 21
47.099330161
 31
0.0
  0
LINE
  5
2F2
  8
0
  6
CONTINUOUS
 62
     7
 10
387.3253274875
 20
47.099330161
 30
0.0
 11
410.2696661072
 21
51.1450364033
 31
0.0
  0
LINE
  5
2F3
  8
0
  6
CONTINUOUS
 62
     7
 10
410.2696661072
 20
140.0536267797
 30
0.0
 11
387.3253274875
 21
144.099333022
 31
0.0
  0
LINE
  5
2F4
  8
0
  6
CONTINUOUS
 62
     7
 10
246.914010139
 20
144.099333022
 30
0.0
 11
223.9696715193
 21
140.0536267797
 31
0.0
  0
LINE
  5
2F5
  8
0
  6
CONTINUOUS
 62
     7
 10
223.9696715193
 20
51.1450364033
 30
0.0
 11
246.914010139
 21
47.099330161
 31
0.0
  0
LINE
  5
2F6
  8
0
  6
CONTINUOUS
 62
     7
 10
410.2696661072
 20
51.1450364033
 30
0.0
 11
410.2721471505
 21
51.1493316631
 31
0.0
  0
LINE
  5
2F7
  8
0
  6
CONTINUOUS
 62
     7
 10
410.2721471505
 20
140.04933152
 30
0.0
 11
410.2696661072
 21
140.0536267797
 31
0.0
  0
LINE
  5
2F8
  8
0
  6
CONTINUOUS
 62
     7
 10
223.9696715193
 20
140.0536267797
 30
0.0
 11
223.967190476
 21
140.04933152
 31
0.0
  0
LINE
  5
2F9
  8
0
  6
CONTINUOUS
 62
     7
 10
223.967190476
 20
51.1493316631
 30
0.0
 11
223.9696715193
 21
51.1450364033
 31
0.0
  0
LINE
  5
2FA
  8
0
  6
CONTINUOUS
 62
     7
 10
223.967190476
 20
140.04933152
 30
0.0
 11
43.1011725383
 21
140.04933152
 31
0.0
  0
LINE
  5
2FB
  8
0
  6
CONTINUOUS
 62
     7
 10
43.1011725383
 20
51.1493316631
 30
0.0
 11
223.967190476
 21
51.1493316631
 31
0.0
  0
LINE
  5
2FC
  8
0
  6
CONTINUOUS
 62
     7
 10
591.1381650882
 20
140.04933152
 30
0.0
 11
410.2721471505
 21
140.04933152
 31
0.0
  0
LINE
  5
2FD
  8
0
  6
CONTINUOUS
 62
     7
 10
410.2721471505
 20
51.1493316631
 30
0.0
 11
591.1381650882
 21
51.1493316631
 31
0.0
  0
LINE
  5
2FE
  8
0
  6
CONTINUOUS
 62
     7
 10
43.1011725383
 20
140.04933152
 30
0.0
 11
42.1196628528
 21
138.3493325452
 31
0.0
  0
LINE
  5
2FF
  8
0
  6
CONTINUOUS
 62
     7
 10
42.1196628528
 20
52.8493306379
 30
0.0
 11
43.1011725383
 21
51.1493316631
 31
0.0
  0
LINE
  5
300
  8
0
  6
CONTINUOUS
 62
     7
 10
591.1381650882
 20
51.1493316631
 30
0.0
 11
592.1196747737
 21
52.8493306379
 31
0.0
  0
LINE
  5
301
  8
0
  6
CONTINUOUS
 62
     7
 10
592.1196747737
 20
138.3493325452
 30
0.0
 11
591.1381650882
 21
140.04933152
 31
0.0
  0
ARC
  5
302
  8
0
  6
CONTINUOUS
 62
     7
 10
317.1196620797
 20
95.5993165292
 30
0.0
 40
12.30001602122851
 50
45.0000274338
 51
54.2668575775
  0
LINE
  5
303
  8
0
  6
CONTINUOUS
 62
     7
 10
325.8170826526
 20
104.2967454309
 30
0.0
 11
325.6196692752
 21
104.0993320535
 31
0.0
  0
LINE
  5
304
  8
0
  6
CONTINUOUS
 62
     7
 10
325.6196692752
 20
104.0993320535
 30
0.0
 11
308.6196683513
 21
104.0993320535
 31
0.0
  0
LINE
  5
305
  8
0
  6
CONTINUOUS
 62
     7
 10
308.4222549738
 20
104.2967454309
 30
0.0
 11
308.6196683513
 21
104.0993320535
 31
0.0
  0
ARC
  5
306
  8
0
  6
CONTINUOUS
 62
     7
 10
317.1196755468
 20
95.5993165292
 30
0.0
 40
12.30001602122851
 50
125.7331424225
 51
134.9999725662
  0
LINE
  5
307
  8
0
  6
CONTINUOUS
 62
     7
 10
324.3030050004
 20
105.5838034267
 30
0.0
 11
309.9363326261
 21
105.5838034267
 31
0.0
  0
ARC
  5
308
  8
0
  6
CONTINUOUS
 62
     7
 10
317.1196537509
 20
95.599338325
 30
0.0
 40
12.30001602122848
 50
315.0000274338
 51
324.2668575775
  0
LINE
  5
309
  8
0
  6
CONTINUOUS
 62
     7
 10
325.8170826526
 20
86.9019177521
 30
0.0
 11
325.6196692752
 21
87.0993311296
 31
0.0
  0
LINE
  5
30A
  8
0
  6
CONTINUOUS
 62
     7
 10
325.6196692752
 20
87.0993311296
 30
0.0
 11
325.6196692752
 21
104.0993320535
 31
0.0
  0
ARC
  5
30B
  8
0
  6
CONTINUOUS
 62
     7
 10
317.1196537509
 20
95.599324858
 30
0.0
 40
12.3000160212285
 50
35.7331424225
 51
44.9999725662
  0
LINE
  5
30C
  8
0
  6
CONTINUOUS
 62
     7
 10
327.1041406484
 20
88.4159954044
 30
0.0
 11
327.1041406484
 21
102.7826677787
 31
0.0
  0
ARC
  5
30D
  8
0
  6
CONTINUOUS
 62
     7
 10
317.1196838756
 20
95.599324858
 30
0.0
 40
12.30001602122854
 50
135.0000274338
 51
144.2668575775
  0
LINE
  5
30E
  8
0
  6
CONTINUOUS
 62
     7
 10
308.6196683513
 20
104.0993320535
 30
0.0
 11
308.6196683513
 21
87.0993311296
 31
0.0
  0
LINE
  5
30F
  8
0
  6
CONTINUOUS
 62
     7
 10
308.4222549738
 20
86.9019177521
 30
0.0
 11
308.6196683513
 21
87.0993311296
 31
0.0
  0
ARC
  5
310
  8
0
  6
CONTINUOUS
 62
     7
 10
317.1196838756
 20
95.599338325
 30
0.0
 40
12.30001602122852
 50
215.7331424225
 51
224.9999725662
  0
LINE
  5
311
  8
0
  6
CONTINUOUS
 62
     7
 10
307.1351969781
 20
102.7826677787
 30
0.0
 11
307.1351969781
 21
88.4159954044
 31
0.0
  0
LINE
  5
312
  8
0
  6
CONTINUOUS
 62
     7
 10
308.6196683513
 20
87.0993311296
 30
0.0
 11
325.6196692752
 21
87.0993311296
 31
0.0
  0
ARC
  5
313
  8
0
  6
CONTINUOUS
 62
     7
 10
317.1196755468
 20
95.5993466539
 30
0.0
 40
12.30001602122849
 50
225.0000274338
 51
234.2668575775
  0
ARC
  5
314
  8
0
  6
CONTINUOUS
 62
     7
 10
317.1196620797
 20
95.5993466539
 30
0.0
 40
12.30001602122849
 50
305.7331424225
 51
314.9999725662
  0
LINE
  5
315
  8
0
  6
CONTINUOUS
 62
     7
 10
309.9363326261
 20
85.6148597563
 30
0.0
 11
324.3030050004
 21
85.6148597563
 31
0.0
  0
ARC
  5
316
  8
0
  6
CONTINUOUS
 62
     7
 10
317.1196688132
 20
95.5993339163
 30
0.0
 40
12.29999797492103
 50
54.2668357383
 51
125.7331642617
  0
ARC
  5
317
  8
0
  6
CONTINUOUS
 62
     7
 10
317.1196664885
 20
95.5993315915
 30
0.0
 40
12.29999797492107
 50
144.2668357383
 51
215.7331642617
  0
ARC
  5
318
  8
0
  6
CONTINUOUS
 62
     7
 10
317.119671138
 20
95.5993315915
 30
0.0
 40
12.29999797492102
 50
324.2668357383
 51
35.7331642617
  0
ARC
  5
319
  8
0
  6
CONTINUOUS
 62
     7
 10
317.1196688132
 20
95.5993292668
 30
0.0
 40
12.29999797492101
 50
234.2668357383
 51
305.7331642617
  0
LINE
  5
31A
  8
0
  6
CONTINUOUS
 62
     7
 10
323.1196688654
 20
73.5511450807
 30
0.0
 11
323.1196688654
 21
65.5993322621
 31
0.0
  0
LINE
  5
31B
  8
0
  6
CONTINUOUS
 62
     7
 10
323.1196688654
 20
65.5993322621
 30
0.0
 11
311.1196687611
 21
65.5993322621
 31
0.0
  0
LINE
  5
31C
  8
0
  6
CONTINUOUS
 62
     7
 10
311.1196687611
 20
73.5511450807
 30
0.0
 11
311.1196687611
 21
65.5993322621
 31
0.0
  0
ARC
  5
31D
  8
0
  6
CONTINUOUS
 62
     7
 10
317.1196688132
 20
95.5993315915
 30
0.0
 40
22.85
 50
165.2233275924
 51
254.7766724076
  0
LINE
  5
31E
  8
0
  6
CONTINUOUS
 62
     7
 10
295.0253799724
 20
101.4272721263
 30
0.0
 11
288.1389070468
 21
105.4031790013
 31
0.0
  0
LINE
  5
31F
  8
0
  6
CONTINUOUS
 62
     7
 10
288.1389070468
 20
105.4031790013
 30
0.0
 11
294.1389061676
 21
115.7954844425
 31
0.0
  0
LINE
  5
320
  8
0
  6
CONTINUOUS
 62
     7
 10
301.0253790932
 20
111.8195771019
 30
0.0
 11
294.1389061676
 21
115.7954844425
 31
0.0
  0
ARC
  5
321
  8
0
  6
CONTINUOUS
 62
     7
 10
317.1196688132
 20
95.5993315915
 30
0.0
 40
22.85000000000001
 50
45.2233275924
 51
134.7766724076
  0
LINE
  5
322
  8
0
  6
CONTINUOUS
 62
     7
 10
333.2139585333
 20
111.8195771019
 30
0.0
 11
340.1004314588
 21
115.7954844425
 31
0.0
  0
LINE
  5
323
  8
0
  6
CONTINUOUS
 62
     7
 10
340.1004314588
 20
115.7954844425
 30
0.0
 11
346.1004305797
 21
105.4031790013
 31
0.0
  0
LINE
  5
324
  8
0
  6
CONTINUOUS
 62
     7
 10
339.2139576541
 20
101.4272721263
 30
0.0
 11
346.1004305797
 21
105.4031790013
 31
0.0
  0
ARC
  5
325
  8
0
  6
CONTINUOUS
 62
     7
 10
317.1196688132
 20
95.5993315915
 30
0.0
 40
22.85000000000002
 50
285.2233275924
 51
14.7766724076
  0
ARC
  5
326
  8
0
  6
CONTINUOUS
 62
     7
 10
317.1196688132
 20
95.5993315915
 30
0.0
 40
23.90796188425077
 50
44.5344706119
 51
135.4655293881
  0
LINE
  5
327
  8
0
  6
CONTINUOUS
 62
     7
 10
340.1004314588
 20
115.7954844425
 30
0.0
 11
340.2515851127
 21
115.8827530931
 31
0.0
  0
LINE
  5
328
  8
0
  6
CONTINUOUS
 62
     7
 10
340.2515851127
 20
115.8827530931
 30
0.0
 11
346.2515842335
 21
105.4904476519
 31
0.0
  0
LINE
  5
329
  8
0
  6
CONTINUOUS
 62
     7
 10
346.1004305797
 20
105.4031790013
 30
0.0
 11
346.2515842335
 21
105.4904476519
 31
0.0
  0
LINE
  5
32A
  8
0
  6
CONTINUOUS
 62
     7
 10
294.1389061676
 20
115.7954844425
 30
0.0
 11
293.9877525138
 21
115.8827530931
 31
0.0
  0
LINE
  5
32B
  8
0
  6
CONTINUOUS
 62
     7
 10
288.1389070468
 20
105.4031790013
 30
0.0
 11
287.987753393
 21
105.4904476519
 31
0.0
  0
LINE
  5
32C
  8
0
  6
CONTINUOUS
 62
     7
 10
287.987753393
 20
105.4904476519
 30
0.0
 11
293.9877525138
 21
115.8827530931
 31
0.0
  0
ARC
  5
32D
  8
0
  6
CONTINUOUS
 62
     7
 10
317.1196688132
 20
95.5993315915
 30
0.0
 40
23.9079618842508
 50
284.5344706119
 51
15.4655293881
  0
ARC
  5
32E
  8
0
  6
CONTINUOUS
 62
     7
 10
317.1196688132
 20
95.5993315915
 30
0.0
 40
23.90796188425077
 50
164.5344706119
 51
255.4655293881
  0
LINE
  5
32F
  8
0
  6
CONTINUOUS
 62
     7
 10
323.1196688654
 20
65.424794961
 30
0.0
 11
311.1196687611
 21
65.424794961
 31
0.0
  0
LINE
  5
330
  8
0
  6
CONTINUOUS
 62
     7
 10
323.1196688654
 20
65.5993322621
 30
0.0
 11
323.1196688654
 21
65.424794961
 31
0.0
  0
LINE
  5
331
  8
0
  6
CONTINUOUS
 62
     7
 10
311.1196687611
 20
65.5993322621
 30
0.0
 11
311.1196687611
 21
65.424794961
 31
0.0
  0
ARC
  5
332
  8
0
  6
CONTINUOUS
 62
     7
 10
317.1196688132
 20
95.5993315915
 30
0.0
 40
28.47375166227179
 50
42.1645721565
 51
137.8354278435
  0
ARC
  5
333
  8
0
  6
CONTINUOUS
 62
     7
 10
317.1196688132
 20
95.5993315915
 30
0.0
 40
28.47375166227181
 50
282.1645721565
 51
17.8354278435
  0
ARC
  5
334
  8
0
  6
CONTINUOUS
 62
     7
 10
317.1196688132
 20
95.5993315915
 30
0.0
 40
28.47375166227179
 50
162.1645721565
 51
257.8354278435
  0
LINE
  5
335
  8
0
  6
CONTINUOUS
 62
     7
 10
350.9853962975
 20
108.2235161925
 30
0.0
 11
344.9853971766
 21
118.6158216337
 31
0.0
  0
LINE
  5
336
  8
0
  6
CONTINUOUS
 62
     7
 10
340.2515851127
 20
115.8827530931
 30
0.0
 11
344.9853971766
 21
118.6158216337
 31
0.0
  0
LINE
  5
337
  8
0
  6
CONTINUOUS
 62
     7
 10
346.2515842335
 20
105.4904476519
 30
0.0
 11
350.9853962975
 21
108.2235161925
 31
0.0
  0
LINE
  5
338
  8
0
  6
CONTINUOUS
 62
     7
 10
289.2539404499
 20
118.6158216337
 30
0.0
 11
283.253941329
 21
108.2235161925
 31
0.0
  0
LINE
  5
339
  8
0
  6
CONTINUOUS
 62
     7
 10
287.987753393
 20
105.4904476519
 30
0.0
 11
283.253941329
 21
108.2235161925
 31
0.0
  0
LINE
  5
33A
  8
0
  6
CONTINUOUS
 62
     7
 10
293.9877525138
 20
115.8827530931
 30
0.0
 11
289.2539404499
 21
118.6158216337
 31
0.0
  0
LINE
  5
33B
  8
0
  6
CONTINUOUS
 62
     7
 10
311.1196687611
 20
59.958656017
 30
0.0
 11
323.1196688654
 21
59.958656017
 31
0.0
  0
LINE
  5
33C
  8
0
  6
CONTINUOUS
 62
     7
 10
323.1196688654
 20
65.424794961
 30
0.0
 11
323.1196688654
 21
59.958656017
 31
0.0
  0
LINE
  5
33D
  8
0
  6
CONTINUOUS
 62
     7
 10
311.1196687611
 20
65.424794961
 30
0.0
 11
311.1196687611
 21
59.958656017
 31
0.0
  0
ARC
  5
33E
  8
0
  6
CONTINUOUS
 62
     7
 10
317.1196688132
 20
95.5993315915
 30
0.0
 40
31.45000000000003
 50
40.9982500652
 51
139.0017499348
  0
ARC
  5
33F
  8
0
  6
CONTINUOUS
 62
     7
 10
317.1196688132
 20
95.5993315915
 30
0.0
 40
31.45000000000002
 50
280.9982500652
 51
19.0017499348
  0
ARC
  5
340
  8
0
  6
CONTINUOUS
 62
     7
 10
317.1196688132
 20
95.5993315915
 30
0.0
 40
31.45000000000002
 50
160.9982500652
 51
259.0017499348
  0
CIRCLE
  5
341
  8
0
  6
CONTINUOUS
 62
     7
 10
317.1196688132
 20
95.5993315915
 30
0.0
 40
38.49999999999994
  0
ARC
  5
342
  8
0
  6
CONTINUOUS
 62
     7
 10
318.412019748
 20
94.4794226547
 30
0.0
 40
40.55551525524319
 50
132.1465080725
 51
138.1973062582
  0
ARC
  5
343
  8
0
  6
CONTINUOUS
 62
     7
 10
317.1196688132
 20
95.9455393701
 30
0.0
 40
38.60129425443716
 50
47.8154689976
 51
132.1845310024
  0
ARC
  5
344
  8
0
  6
CONTINUOUS
 62
     7
 10
315.8273178784
 20
94.4794226547
 30
0.0
 40
40.55551525524319
 50
41.8026937418
 51
47.8534919275
  0
ARC
  5
345
  8
0
  6
CONTINUOUS
 62
     7
 10
317.1196688132
 20
95.5993315915
 30
0.0
 40
38.84565416471327
 50
39.5838407256
 51
41.8419411186
  0
ARC
  5
346
  8
0
  6
CONTINUOUS
 62
     7
 10
315.8888697416
 20
94.5630670376
 30
0.0
 40
40.45454050142002
 50
18.0885130772
 51
39.6041909778
  0
ARC
  5
347
  8
0
  6
CONTINUOUS
 62
     7
 10
319.3526351667
 20
95.5993315915
 30
0.0
 40
36.84032671919991
 50
341.7708926774
 51
18.2291073226
  0
ARC
  5
348
  8
0
  6
CONTINUOUS
 62
     7
 10
315.8888697416
 20
96.6355961455
 30
0.0
 40
40.45454050142001
 50
320.3958090222
 51
341.9114869228
  0
ARC
  5
349
  8
0
  6
CONTINUOUS
 62
     7
 10
317.1196688132
 20
95.5993315915
 30
0.0
 40
38.84565416471328
 50
318.1580588814
 51
320.4161592744
  0
ARC
  5
34A
  8
0
  6
CONTINUOUS
 62
     7
 10
315.8273178784
 20
96.7192405284
 30
0.0
 40
40.55551525524319
 50
312.1465080725
 51
318.1973062582
  0
ARC
  5
34B
  8
0
  6
CONTINUOUS
 62
     7
 10
317.1196688132
 20
95.253123813
 30
0.0
 40
38.60129425443709
 50
227.8154689976
 51
312.1845310024
  0
ARC
  5
34C
  8
0
  6
CONTINUOUS
 62
     7
 10
318.412019748
 20
96.7192405284
 30
0.0
 40
40.55551525524319
 50
221.8026937418
 51
227.8534919275
  0
ARC
  5
34D
  8
0
  6
CONTINUOUS
 62
     7
 10
317.1196688132
 20
95.5993315915
 30
0.0
 40
38.84565416471328
 50
219.5838407256
 51
221.8419411186
  0
ARC
  5
34E
  8
0
  6
CONTINUOUS
 62
     7
 10
318.3504678849
 20
96.6355961455
 30
0.0
 40
40.45454050142006
 50
198.0885130772
 51
219.6041909778
  0
ARC
  5
34F
  8
0
  6
CONTINUOUS
 62
     7
 10
314.8867024598
 20
95.5993315915
 30
0.0
 40
36.84032671919991
 50
161.7708926774
 51
198.2291073226
  0
ARC
  5
350
  8
0
  6
CONTINUOUS
 62
     7
 10
318.3504678849
 20
94.5630670376
 30
0.0
 40
40.45454050142007
 50
140.3958090222
 51
161.9114869228
  0
ARC
  5
351
  8
0
  6
CONTINUOUS
 62
     7
 10
317.1196688132
 20
95.5993315915
 30
0.0
 40
38.84565416471327
 50
138.1580588814
 51
140.4161592744
  0
ARC
  5
352
  8
0
  6
CONTINUOUS
 62
     7
 10
317.1196688132
 20
30.5993315915
 30
0.0
 40
120.9552472816684
 50
103.1600938213
 51
103.2323554828
  0
ARC
  5
353
  8
0
  6
CONTINUOUS
 62
     7
 10
277.5015855068
 20
153.277148439
 30
0.0
 40
13.035520911647
 50
337.9244276842
 51
352.2843501059
  0
ARC
  5
354
  8
0
  6
CONTINUOUS
 62
     7
 10
356.7377521197
 20
153.277148439
 30
0.0
 40
13.03552091164705
 50
187.7156498941
 51
202.0755723158
  0
ARC
  5
355
  8
0
  6
CONTINUOUS
 62
     7
 10
317.1196688132
 20
30.5993315915
 30
0.0
 40
120.9552472816684
 50
76.7676445172
 51
76.8399061787
  0
ARC
  5
356
  8
0
  6
CONTINUOUS
 62
     7
 10
317.1196688132
 20
160.5993315915
 30
0.0
 40
120.9552472816684
 50
283.1600938213
 51
283.2323554828
  0
ARC
  5
357
  8
0
  6
CONTINUOUS
 62
     7
 10
356.7377521197
 20
37.921514744
 30
0.0
 40
13.03552091164706
 50
157.9244276842
 51
172.2843501059
  0
ARC
  5
358
  8
0
  6
CONTINUOUS
 62
     7
 10
277.5015855068
 20
37.921514744
 30
0.0
 40
13.035520911647
 50
7.7156498941
 51
22.0755723158
  0
ARC
  5
359
  8
0
  6
CONTINUOUS
 62
     7
 10
317.1196688132
 20
160.5993315915
 30
0.0
 40
120.9552472816684
 50
256.7676445172
 51
256.8399061787
  0
ARC
  5
35A
  8
0
  6
CONTINUOUS
 62
     7
 10
341.1578831122
 20
134.4706565459
 30
0.0
 40
14.3442984422961
 50
25.0506084995
 51
75.2647399564
  0
ARC
  5
35B
  8
0
  6
CONTINUOUS
 62
     7
 10
369.3303395831
 20
211.577637712
 30
0.0
 40
72.63670292501624
 50
257.9391509868
 51
259.4322708906
  0
ARC
  5
35C
  8
0
  6
CONTINUOUS
 62
     7
 10
338.3465522626
 20
113.8656263546
 30
0.0
 40
10.86086647750647
 50
36.6716357666
 51
44.7542752413
  0
ARC
  5
35D
  8
0
  6
CONTINUOUS
 62
     7
 10
264.9089980434
 20
211.577637712
 30
0.0
 40
72.63670292501624
 50
280.5677291094
 51
282.0608490132
  0
ARC
  5
35E
  8
0
  6
CONTINUOUS
 62
     7
 10
293.0814545143
 20
134.4706565459
 30
0.0
 40
14.34429844229614
 50
104.7352600436
 51
154.9493915005
  0
ARC
  5
35F
  8
0
  6
CONTINUOUS
 62
     7
 10
295.8927853639
 20
113.8656263546
 30
0.0
 40
10.86086647750652
 50
135.2457247587
 51
143.3283642334
  0
ARC
  5
360
  8
0
  6
CONTINUOUS
 62
     7
 10
369.3303395831
 20
-20.3789745289
 30
0.0
 40
72.63670292501624
 50
100.5677291094
 51
102.0608490132
  0
ARC
  5
361
  8
0
  6
CONTINUOUS
 62
     7
 10
341.1578831122
 20
56.7280066371
 30
0.0
 40
14.34429844229609
 50
284.7352600436
 51
334.9493915005
  0
ARC
  5
362
  8
0
  6
CONTINUOUS
 62
     7
 10
338.3465522626
 20
77.3330368285
 30
0.0
 40
10.86086647750647
 50
315.2457247587
 51
323.3283642334
  0
ARC
  5
363
  8
0
  6
CONTINUOUS
 62
     7
 10
293.0814545143
 20
56.7280066371
 30
0.0
 40
14.34429844229614
 50
205.0506084995
 51
255.2647399564
  0
ARC
  5
364
  8
0
  6
CONTINUOUS
 62
     7
 10
264.9089980434
 20
-20.3789745289
 30
0.0
 40
72.63670292501624
 50
77.9391509868
 51
79.4322708906
  0
ARC
  5
365
  8
0
  6
CONTINUOUS
 62
     7
 10
295.8927853639
 20
77.3330368285
 30
0.0
 40
10.86086647750651
 50
216.6716357666
 51
224.7542752413
  0
LINE
  5
366
  8
0
  6
CONTINUOUS
 62
     7
 10
278.2304022627
 20
51.0257228057
 30
0.0
 11
278.0932035463
 21
51.0938322882
 31
0.0
  0
LINE
  5
367
  8
0
  6
CONTINUOUS
 62
     7
 10
278.2304022627
 20
140.1729403774
 30
0.0
 11
278.0932035463
 21
140.1048308949
 31
0.0
  0
LINE
  5
368
  8
0
  6
CONTINUOUS
 62
     7
 10
356.0089353638
 20
140.1729403774
 30
0.0
 11
356.1461340802
 21
140.1048308949
 31
0.0
  0
LINE
  5
369
  8
0
  6
CONTINUOUS
 62
     7
 10
356.0089353638
 20
51.0257228057
 30
0.0
 11
356.1461340802
 21
51.0938322882
 31
0.0
  0
POLYLINE
  5
36A
  8
0
  6
CONTINUOUS
 62
     7
 66
     1
 10
0.0
 20
0.0
 30
0.0
  0
VERTEX
  5
A2C
  8
0
  6
CONTINUOUS
 62
     7
 10
274.5216000991
 20
163.1363413076
 30
0.0
  0
VERTEX
  5
A2D
  8
0
  6
CONTINUOUS
 62
     7
 10
273.9858921783
 20
163.5961166362
 30
0.0
  0
VERTEX
  5
A2E
  8
0
  6
CONTINUOUS
 62
     7
 10
273.9805948155
 20
163.6006614904
 30
0.0
  0
SEQEND
  5
B17
  8
0
  6
CONTINUOUS
 62
     7
  0
ARC
  5
36B
  8
0
  6
CONTINUOUS
 62
     7
 10
264.1967875322
 20
199.2422908704
 30
0.0
 40
36.96009510027388
 50
285.3498832417
 51
288.0284416727
  0
ARC
  5
36C
  8
0
  6
CONTINUOUS
 62
     7
 10
317.1196688132
 20
30.5993315915
 30
0.0
 40
139.7945451851662
 50
105.5225678585
 51
107.262549166
  0
LINE
  5
36D
  8
0
  6
CONTINUOUS
 62
     7
 10
279.7502014952
 20
164.7044352035
 30
0.0
 11
279.7081429677
 21
165.2948862652
 31
0.0
  0
ARC
  5
36E
  8
0
  6
CONTINUOUS
 62
     7
 10
317.1196688132
 20
30.5993315915
 30
0.0
 40
139.2144223529244
 50
105.570924283
 51
107.8176692165
  0
ARC
  5
36F
  8
0
  6
CONTINUOUS
 62
     7
 10
354.2769823795
 20
151.3346605761
 30
0.0
 40
12.99544091847766
 50
21.1181573927
 51
65.2495763455
  0
POLYLINE
  5
370
  8
0
  6
CONTINUOUS
 62
     7
 66
     1
 10
0.0
 20
0.0
 30
0.0
  0
VERTEX
  5
A2F
  8
0
  6
CONTINUOUS
 62
     7
 10
359.7177375274
 20
163.1363413076
 30
0.0
  0
VERTEX
  5
A30
  8
0
  6
CONTINUOUS
 62
     7
 10
360.2534454482
 20
163.5961166362
 30
0.0
  0
VERTEX
  5
A31
  8
0
  6
CONTINUOUS
 62
     7
 10
360.258742811
 20
163.6006614904
 30
0.0
  0
SEQEND
  5
B16
  8
0
  6
CONTINUOUS
 62
     7
  0
ARC
  5
371
  8
0
  6
CONTINUOUS
 62
     7
 10
351.3100335421
 20
140.530110209
 30
0.0
 40
24.87504091619799
 50
66.9235957474
 51
72.6996150432
  0
ARC
  5
372
  8
0
  6
CONTINUOUS
 62
     7
 10
354.9355433603
 20
151.9540458067
 30
0.0
 40
12.99447099288879
 50
24.3269784118
 51
61.8804134527
  0
ARC
  5
373
  8
0
  6
CONTINUOUS
 62
     7
 10
342.3956640141
 20
148.823592683
 30
0.0
 40
25.81434954188918
 50
13.7432581152
 51
19.1858094249
  0
POLYLINE
  5
374
  8
0
  6
CONTINUOUS
 62
     7
 66
     1
 10
0.0
 20
0.0
 30
0.0
  0
VERTEX
  5
A32
  8
0
  6
CONTINUOUS
 62
     7
 10
366.9020902531
 20
156.5134233574
 30
0.0
  0
VERTEX
  5
A33
  8
0
  6
CONTINUOUS
 62
     7
 10
366.8290559368
 20
156.4412868361
 30
0.0
  0
VERTEX
  5
A34
  8
0
  6
CONTINUOUS
 62
     7
 10
366.3996417241
 20
156.0168198089
 30
0.0
  0
SEQEND
  5
B15
  8
0
  6
CONTINUOUS
 62
     7
  0
ARC
  5
375
  8
0
  6
CONTINUOUS
 62
     7
 10
356.1196688132
 20
152.5993315915
 30
0.0
 40
12.21442235292463
 50
97.6714472549
 51
200.2184758788
  0
ARC
  5
376
  8
0
  6
CONTINUOUS
 62
     7
 10
317.1196688132
 20
30.5993315915
 30
0.0
 40
139.2144223529244
 50
72.1823307835
 51
74.429075717
  0
ARC
  5
377
  8
0
  6
CONTINUOUS
 62
     7
 10
124.6196688132
 20
95.5993315915
 30
0.0
 40
249.2144223529244
 50
12.4912891553
 51
14.0301088986
  0
ARC
  5
378
  8
0
  6
CONTINUOUS
 62
     7
 10
356.1196688132
 20
152.5993315915
 30
0.0
 40
12.21442235292463
 50
260.7337584775
 51
345.311584187
  0
ARC
  5
379
  8
0
  6
CONTINUOUS
 62
     7
 10
221.2172346927
 20
140.9067719488
 30
0.0
 40
123.0621340467494
 50
4.9507870137
 51
5.8839152884
  0
ARC
  5
37A
  8
0
  6
CONTINUOUS
 62
     7
 10
356.166188917
 20
152.7828266276
 30
0.0
 40
12.55694755263486
 50
120.6755321865
 51
176.6240319188
  0
ARC
  5
37B
  8
0
  6
CONTINUOUS
 62
     7
 10
356.7290421735
 20
151.6663930148
 30
0.0
 40
13.8045775731895
 50
99.1611318891
 51
120.320729521
  0
LINE
  5
37C
  8
0
  6
CONTINUOUS
 62
     7
 10
354.4891361313
 20
164.7044352035
 30
0.0
 11
354.5311946588
 21
165.2948862652
 31
0.0
  0
ARC
  5
37D
  8
0
  6
CONTINUOUS
 62
     7
 10
291.8436736124
 20
148.823592683
 30
0.0
 40
25.81434954188923
 50
160.8141905751
 51
166.2567418848
  0
ARC
  5
37E
  8
0
  6
CONTINUOUS
 62
     7
 10
279.3037942662
 20
151.9540458067
 30
0.0
 40
12.99447099288879
 50
118.1195865473
 51
155.6730215882
  0
ARC
  5
37F
  8
0
  6
CONTINUOUS
 62
     7
 10
282.9293040844
 20
140.530110209
 30
0.0
 40
24.87504091619799
 50
107.3003849568
 51
113.0764042526
  0
ARC
  5
380
  8
0
  6
CONTINUOUS
 62
     7
 10
279.9623552469
 20
151.3346605761
 30
0.0
 40
12.99544091847774
 50
114.7504236545
 51
158.8818426073
  0
POLYLINE
  5
381
  8
0
  6
CONTINUOUS
 62
     7
 66
     1
 10
0.0
 20
0.0
 30
0.0
  0
VERTEX
  5
A35
  8
0
  6
CONTINUOUS
 62
     7
 10
267.3372473734
 20
156.5134233574
 30
0.0
  0
VERTEX
  5
A36
  8
0
  6
CONTINUOUS
 62
     7
 10
267.4102816897
 20
156.4412868361
 30
0.0
  0
VERTEX
  5
A37
  8
0
  6
CONTINUOUS
 62
     7
 10
267.8396959024
 20
156.0168198089
 30
0.0
  0
SEQEND
  5
B14
  8
0
  6
CONTINUOUS
 62
     7
  0
ARC
  5
382
  8
0
  6
CONTINUOUS
 62
     7
 10
509.6196688132
 20
95.5993315915
 30
0.0
 40
249.2144223529244
 50
165.9698911014
 51
167.5087108447
  0
ARC
  5
383
  8
0
  6
CONTINUOUS
 62
     7
 10
278.1196688132
 20
152.5993315915
 30
0.0
 40
12.21442235292463
 50
339.7815241212
 51
82.3285527451
  0
ARC
  5
384
  8
0
  6
CONTINUOUS
 62
     7
 10
278.1196688132
 20
152.5993315915
 30
0.0
 40
12.21442235292463
 50
194.688415813
 51
279.2662415225
  0
ARC
  5
385
  8
0
  6
CONTINUOUS
 62
     7
 10
277.510295453
 20
151.6663930148
 30
0.0
 40
13.80457757318947
 50
59.679270479
 51
80.8388681109
  0
ARC
  5
386
  8
0
  6
CONTINUOUS
 62
     7
 10
278.0731487095
 20
152.7828266276
 30
0.0
 40
12.55694755263486
 50
3.3759680812
 51
59.3244678135
  0
ARC
  5
387
  8
0
  6
CONTINUOUS
 62
     7
 10
413.0221029338
 20
140.9067719488
 30
0.0
 40
123.0621340467494
 50
174.1160847116
 51
175.0492129863
  0
ARC
  5
388
  8
0
  6
CONTINUOUS
 62
     7
 10
317.1196688132
 20
30.5993315915
 30
0.0
 40
139.7945451851662
 50
72.737450834
 51
74.4774321415
  0
ARC
  5
389
  8
0
  6
CONTINUOUS
 62
     7
 10
370.0425500943
 20
199.2422908704
 30
0.0
 40
36.96009510027388
 50
251.9715583273
 51
254.6501167583
  0
ARC
  5
38A
  8
0
  6
CONTINUOUS
 62
     7
 10
392.5943707958
 20
161.5635161374
 30
0.0
 40
26.18390185917054
 50
191.1203298
 51
194.8200130741
  0
ARC
  5
38B
  8
0
  6
CONTINUOUS
 62
     7
 10
124.6196688132
 20
95.5993315915
 30
0.0
 40
249.794545185053
 50
12.4594993482
 51
13.7250025937
  0
LINE
  5
38C
  8
0
  6
CONTINUOUS
 62
     7
 10
367.9349120872
 20
149.5022146742
 30
0.0
 11
368.531241657
 21
149.4923650066
 31
0.0
  0
ARC
  5
38D
  8
0
  6
CONTINUOUS
 62
     7
 10
509.6196688132
 20
95.5993315915
 30
0.0
 40
249.7945451850531
 50
166.2749974063
 51
167.5405006518
  0
ARC
  5
38E
  8
0
  6
CONTINUOUS
 62
     7
 10
241.6449668307
 20
161.5635161374
 30
0.0
 40
26.18390185917051
 50
345.1799869259
 51
348.8796702
  0
LINE
  5
38F
  8
0
  6
CONTINUOUS
 62
     7
 10
266.3044255393
 20
149.5022146742
 30
0.0
 11
265.7080959695
 21
149.4923650066
 31
0.0
  0
ARC
  5
390
  8
0
  6
CONTINUOUS
 62
     7
 10
354.9683544691
 20
153.4689237178
 30
0.0
 40
14.13382213185438
 50
324.6614002751
 51
343.6591733645
  0
ARC
  5
391
  8
0
  6
CONTINUOUS
 62
     7
 10
356.3052378692
 20
152.639229199
 30
0.0
 40
12.56373080346285
 50
269.4544439497
 51
324.221583462
  0
LINE
  5
392
  8
0
  6
CONTINUOUS
 62
     7
 10
356.1461340802
 20
140.1048308949
 30
0.0
 11
356.1856109815
 21
140.0760679285
 31
0.0
  0
LINE
  5
393
  8
0
  6
CONTINUOUS
 62
     7
 10
278.0932035463
 20
140.1048308949
 30
0.0
 11
278.053726645
 21
140.0760679285
 31
0.0
  0
ARC
  5
394
  8
0
  6
CONTINUOUS
 62
     7
 10
277.9340997573
 20
152.639229199
 30
0.0
 40
12.56373080346285
 50
215.778416538
 51
270.5455560503
  0
ARC
  5
395
  8
0
  6
CONTINUOUS
 62
     7
 10
279.2709831574
 20
153.4689237178
 30
0.0
 40
14.13382213185433
 50
196.3408266355
 51
215.3385997249
  0
LINE
  5
396
  8
0
  6
CONTINUOUS
 62
     7
 10
266.3044255393
 20
41.6964485089
 30
0.0
 11
265.7080959695
 21
41.7062981765
 31
0.0
  0
ARC
  5
397
  8
0
  6
CONTINUOUS
 62
     7
 10
279.2709831574
 20
37.7297394653
 30
0.0
 40
14.13382213185433
 50
144.6614002751
 51
163.6591733645
  0
ARC
  5
398
  8
0
  6
CONTINUOUS
 62
     7
 10
277.9340997573
 20
38.559433984
 30
0.0
 40
12.56373080346287
 50
89.4544439497
 51
144.221583462
  0
LINE
  5
399
  8
0
  6
CONTINUOUS
 62
     7
 10
278.0932035463
 20
51.0938322882
 30
0.0
 11
278.053726645
 21
51.1225952546
 31
0.0
  0
ARC
  5
39A
  8
0
  6
CONTINUOUS
 62
     7
 10
278.1196688132
 20
38.5993315915
 30
0.0
 40
12.21442235292463
 50
80.7337584775
 51
165.311584187
  0
LINE
  5
39B
  8
0
  6
CONTINUOUS
 62
     7
 10
356.1461340802
 20
51.0938322882
 30
0.0
 11
356.1856109815
 21
51.1225952546
 31
0.0
  0
ARC
  5
39C
  8
0
  6
CONTINUOUS
 62
     7
 10
356.3052378692
 20
38.559433984
 30
0.0
 40
12.56373080346287
 50
35.778416538
 51
90.5455560503
  0
ARC
  5
39D
  8
0
  6
CONTINUOUS
 62
     7
 10
354.9683544691
 20
37.7297394653
 30
0.0
 40
14.13382213185438
 50
16.3408266355
 51
35.3385997249
  0
LINE
  5
39E
  8
0
  6
CONTINUOUS
 62
     7
 10
367.9349120872
 20
41.6964485089
 30
0.0
 11
368.531241657
 21
41.7062981765
 31
0.0
  0
ARC
  5
39F
  8
0
  6
CONTINUOUS
 62
     7
 10
356.1196688132
 20
38.5993315915
 30
0.0
 40
12.21442235292463
 50
14.688415813
 51
99.2662415225
  0
ARC
  5
3A0
  8
0
  6
CONTINUOUS
 62
     7
 10
124.6196688132
 20
95.5993315915
 30
0.0
 40
249.2144223529244
 50
345.9698911014
 51
347.5087108447
  0
ARC
  5
3A1
  8
0
  6
CONTINUOUS
 62
     7
 10
354.2769823795
 20
39.8640026069
 30
0.0
 40
12.99544091847765
 50
294.7504236545
 51
338.8818426073
  0
ARC
  5
3A2
  8
0
  6
CONTINUOUS
 62
     7
 10
317.1196688132
 20
160.5993315915
 30
0.0
 40
139.2144223529244
 50
285.570924283
 51
287.8176692165
  0
ARC
  5
3A3
  8
0
  6
CONTINUOUS
 62
     7
 10
356.1196688132
 20
38.5993315915
 30
0.0
 40
12.21442235292463
 50
159.7815241212
 51
262.3285527451
  0
ARC
  5
3A4
  8
0
  6
CONTINUOUS
 62
     7
 10
278.1196688132
 20
38.5993315915
 30
0.0
 40
12.21442235292463
 50
277.6714472549
 51
20.2184758788
  0
ARC
  5
3A5
  8
0
  6
CONTINUOUS
 62
     7
 10
317.1196688132
 20
160.5993315915
 30
0.0
 40
139.2144223529244
 50
252.1823307835
 51
254.429075717
  0
ARC
  5
3A6
  8
0
  6
CONTINUOUS
 62
     7
 10
279.9623552469
 20
39.8640026069
 30
0.0
 40
12.99544091847774
 50
201.1181573927
 51
245.2495763455
  0
ARC
  5
3A7
  8
0
  6
CONTINUOUS
 62
     7
 10
509.6196688132
 20
95.5993315915
 30
0.0
 40
249.2144223529244
 50
192.4912891553
 51
194.0301088986
  0
ARC
  5
3A8
  8
0
  6
CONTINUOUS
 62
     7
 10
124.6196688132
 20
95.5993315915
 30
0.0
 40
249.7945451850531
 50
346.2749974063
 51
347.5405006518
  0
ARC
  5
3A9
  8
0
  6
CONTINUOUS
 62
     7
 10
392.5943707958
 20
29.6351470457
 30
0.0
 40
26.18390185917053
 50
165.1799869259
 51
168.8796702
  0
POLYLINE
  5
3AA
  8
0
  6
CONTINUOUS
 62
     7
 66
     1
 10
0.0
 20
0.0
 30
0.0
  0
VERTEX
  5
A38
  8
0
  6
CONTINUOUS
 62
     7
 10
366.9020902531
 20
34.6852398257
 30
0.0
  0
VERTEX
  5
A39
  8
0
  6
CONTINUOUS
 62
     7
 10
366.8290559368
 20
34.757376347
 30
0.0
  0
VERTEX
  5
A3A
  8
0
  6
CONTINUOUS
 62
     7
 10
366.3996417241
 20
35.1818433742
 30
0.0
  0
SEQEND
  5
B13
  8
0
  6
CONTINUOUS
 62
     7
  0
ARC
  5
3AB
  8
0
  6
CONTINUOUS
 62
     7
 10
413.0221029338
 20
50.2918912343
 30
0.0
 40
123.0621340467494
 50
184.9507870137
 51
185.8839152884
  0
ARC
  5
3AC
  8
0
  6
CONTINUOUS
 62
     7
 10
278.0731487095
 20
38.4158365555
 30
0.0
 40
12.55694755263486
 50
300.6755321865
 51
356.6240319188
  0
ARC
  5
3AD
  8
0
  6
CONTINUOUS
 62
     7
 10
277.510295453
 20
39.5322701683
 30
0.0
 40
13.80457757318949
 50
279.1611318891
 51
300.320729521
  0
LINE
  5
3AE
  8
0
  6
CONTINUOUS
 62
     7
 10
279.7502014952
 20
26.4942279796
 30
0.0
 11
279.7081429677
 21
25.9037769179
 31
0.0
  0
LINE
  5
3AF
  8
0
  6
CONTINUOUS
 62
     7
 10
354.4891361313
 20
26.4942279796
 30
0.0
 11
354.5311946588
 21
25.9037769179
 31
0.0
  0
ARC
  5
3B0
  8
0
  6
CONTINUOUS
 62
     7
 10
356.7290421735
 20
39.5322701683
 30
0.0
 40
13.80457757318952
 50
239.679270479
 51
260.8388681109
  0
ARC
  5
3B1
  8
0
  6
CONTINUOUS
 62
     7
 10
356.166188917
 20
38.4158365555
 30
0.0
 40
12.55694755263486
 50
183.3759680812
 51
239.3244678135
  0
ARC
  5
3B2
  8
0
  6
CONTINUOUS
 62
     7
 10
221.2172346927
 20
50.2918912343
 30
0.0
 40
123.0621340467494
 50
354.1160847116
 51
355.0492129863
  0
POLYLINE
  5
3B3
  8
0
  6
CONTINUOUS
 62
     7
 66
     1
 10
0.0
 20
0.0
 30
0.0
  0
VERTEX
  5
A3B
  8
0
  6
CONTINUOUS
 62
     7
 10
267.3372473734
 20
34.6852398257
 30
0.0
  0
VERTEX
  5
A3C
  8
0
  6
CONTINUOUS
 62
     7
 10
267.4102816897
 20
34.757376347
 30
0.0
  0
VERTEX
  5
A3D
  8
0
  6
CONTINUOUS
 62
     7
 10
267.8396959024
 20
35.1818433742
 30
0.0
  0
SEQEND
  5
B12
  8
0
  6
CONTINUOUS
 62
     7
  0
ARC
  5
3B4
  8
0
  6
CONTINUOUS
 62
     7
 10
241.6449668307
 20
29.6351470457
 30
0.0
 40
26.1839018591705
 50
11.1203298
 51
14.8200130741
  0
ARC
  5
3B5
  8
0
  6
CONTINUOUS
 62
     7
 10
509.6196688132
 20
95.5993315915
 30
0.0
 40
249.7945451850531
 50
192.4594993482
 51
193.7250025937
  0
POLYLINE
  5
3B6
  8
0
  6
CONTINUOUS
 62
     7
 66
     1
 10
0.0
 20
0.0
 30
0.0
  0
VERTEX
  5
A3E
  8
0
  6
CONTINUOUS
 62
     7
 10
274.5216000991
 20
28.0623218755
 30
0.0
  0
VERTEX
  5
A3F
  8
0
  6
CONTINUOUS
 62
     7
 10
273.9858921783
 20
27.6025465469
 30
0.0
  0
VERTEX
  5
A40
  8
0
  6
CONTINUOUS
 62
     7
 10
273.9805948155
 20
27.5980016927
 30
0.0
  0
SEQEND
  5
B11
  8
0
  6
CONTINUOUS
 62
     7
  0
ARC
  5
3B7
  8
0
  6
CONTINUOUS
 62
     7
 10
282.9293040844
 20
50.668552974
 30
0.0
 40
24.875040916198
 50
246.9235957474
 51
252.6996150432
  0
ARC
  5
3B8
  8
0
  6
CONTINUOUS
 62
     7
 10
279.3037942662
 20
39.2446173764
 30
0.0
 40
12.9944709928888
 50
204.3269784118
 51
241.8804134527
  0
ARC
  5
3B9
  8
0
  6
CONTINUOUS
 62
     7
 10
291.8436736124
 20
42.3750705001
 30
0.0
 40
25.81434954188923
 50
193.7432581152
 51
199.1858094249
  0
ARC
  5
3BA
  8
0
  6
CONTINUOUS
 62
     7
 10
342.3956640141
 20
42.3750705001
 30
0.0
 40
25.81434954188917
 50
340.8141905751
 51
346.2567418848
  0
ARC
  5
3BB
  8
0
  6
CONTINUOUS
 62
     7
 10
354.9355433603
 20
39.2446173764
 30
0.0
 40
12.9944709928888
 50
298.1195865473
 51
335.6730215882
  0
ARC
  5
3BC
  8
0
  6
CONTINUOUS
 62
     7
 10
351.3100335421
 20
50.668552974
 30
0.0
 40
24.875040916198
 50
287.3003849568
 51
293.0764042526
  0
POLYLINE
  5
3BD
  8
0
  6
CONTINUOUS
 62
     7
 66
     1
 10
0.0
 20
0.0
 30
0.0
  0
VERTEX
  5
A41
  8
0
  6
CONTINUOUS
 62
     7
 10
359.7177375274
 20
28.0623218755
 30
0.0
  0
VERTEX
  5
A42
  8
0
  6
CONTINUOUS
 62
     7
 10
360.2534454482
 20
27.6025465469
 30
0.0
  0
VERTEX
  5
A43
  8
0
  6
CONTINUOUS
 62
     7
 10
360.258742811
 20
27.5980016927
 30
0.0
  0
SEQEND
  5
B10
  8
0
  6
CONTINUOUS
 62
     7
  0
ARC
  5
3BE
  8
0
  6
CONTINUOUS
 62
     7
 10
370.0425500943
 20
-8.0436276874
 30
0.0
 40
36.96009510027387
 50
105.3498832417
 51
108.0284416727
  0
ARC
  5
3BF
  8
0
  6
CONTINUOUS
 62
     7
 10
317.1196688132
 20
160.5993315915
 30
0.0
 40
139.7945451851662
 50
285.5225678585
 51
287.262549166
  0
ARC
  5
3C0
  8
0
  6
CONTINUOUS
 62
     7
 10
317.1196688132
 20
160.5993315915
 30
0.0
 40
139.7945451851662
 50
252.737450834
 51
254.4774321415
  0
ARC
  5
3C1
  8
0
  6
CONTINUOUS
 62
     7
 10
264.1967875322
 20
-8.0436276874
 30
0.0
 40
36.96009510027387
 50
71.9715583273
 51
74.6501167583
  0
ARC
  5
3C2
  8
0
  6
CONTINUOUS
 62
     7
 10
317.1196688132
 20
30.5993315915
 30
0.0
 40
125.7493650501637
 50
77.8291776606
 51
102.1708223394
  0
ARC
  5
3C3
  8
0
  6
CONTINUOUS
 62
     7
 10
317.1196688132
 20
160.5993315915
 30
0.0
 40
125.7493650501637
 50
257.8291776606
 51
282.1708223394
  0
ARC
  5
3C4
  8
0
  6
CONTINUOUS
 62
     7
 10
509.6196688132
 20
95.5993315915
 30
0.0
 40
235.7985696823886
 50
169.1276385777
 51
190.8723614223
  0
ARC
  5
3C5
  8
0
  6
CONTINUOUS
 62
     7
 10
124.6196688132
 20
95.5993315915
 30
0.0
 40
235.7985696823886
 50
349.1276385778
 51
10.8723614223
  0
ARC
  5
3C6
  8
0
  6
CONTINUOUS
 62
     7
 10
317.1196688132
 20
30.5993315915
 30
0.0
 40
140.0
 50
72.719179241
 51
107.280820759
  0
ARC
  5
3C7
  8
0
  6
CONTINUOUS
 62
     7
 10
124.6196688132
 20
95.5993315915
 30
0.0
 40
249.9999999999999
 50
346.265207421
 51
13.734792579
  0
ARC
  5
3C8
  8
0
  6
CONTINUOUS
 62
     7
 10
509.6196688132
 20
95.5993315915
 30
0.0
 40
249.9999999999999
 50
166.265207421
 51
193.734792579
  0
ARC
  5
3C9
  8
0
  6
CONTINUOUS
 62
     7
 10
317.1196688132
 20
160.5993315915
 30
0.0
 40
140.0
 50
252.719179241
 51
287.280820759
  0
LINE
  5
3CA
  8
0
  6
CONTINUOUS
 62
     7
 10
246.914010139
 20
47.099330161
 30
0.0
 11
246.914010139
 21
144.099333022
 31
0.0
  0
LINE
  5
3CB
  8
0
  6
CONTINUOUS
 62
     7
 10
387.3253274875
 20
47.099330161
 30
0.0
 11
387.3253274875
 21
144.099333022
 31
0.0
  0
LINE
  5
3CC
  8
0
  6
CONTINUOUS
 62
     7
 10
410.2696661072
 20
51.1450364033
 30
0.0
 11
410.2696661072
 21
140.0536267797
 31
0.0
  0
LINE
  5
3CD
  8
0
  6
CONTINUOUS
 62
     7
 10
223.9696715193
 20
51.1450364033
 30
0.0
 11
223.9696715193
 21
140.0536267797
 31
0.0
  0
LINE
  5
3CE
  8
0
  6
CONTINUOUS
 62
     7
 10
410.2721471505
 20
140.04933152
 30
0.0
 11
410.2721471505
 21
51.1493316631
 31
0.0
  0
LINE
  5
3CF
  8
0
  6
CONTINUOUS
 62
     7
 10
223.967190476
 20
51.1493316631
 30
0.0
 11
223.967190476
 21
140.04933152
 31
0.0
  0
LINE
  5
3D0
  8
0
  6
CONTINUOUS
 62
     7
 10
43.1011725383
 20
140.04933152
 30
0.0
 11
43.1011725383
 21
51.1493316631
 31
0.0
  0
LINE
  5
3D1
  8
0
  6
CONTINUOUS
 62
     7
 10
591.1381650882
 20
140.04933152
 30
0.0
 11
591.1381650882
 21
51.1493316631
 31
0.0
  0
LINE
  5
3D2
  8
0
  6
CONTINUOUS
 62
     7
 10
42.1196628528
 20
138.3493325452
 30
0.0
 11
42.1196628528
 21
52.8493306379
 31
0.0
  0
LINE
  5
3D3
  8
0
  6
CONTINUOUS
 62
     7
 10
592.1196747737
 20
138.3493325452
 30
0.0
 11
592.1196747737
 21
52.8493306379
 31
0.0
  0
ARC
  5
3D4
  8
0
  6
CONTINUOUS
 62
     8
 10
317.1196688132
 20
95.5993315915
 30
0.0
 40
27.14899490411917
 50
162.7679306608
 51
257.2320693392
  0
ARC
  5
3D5
  8
0
  6
CONTINUOUS
 62
     8
 10
317.1196688132
 20
95.5993315915
 30
0.0
 40
24.15310629985537
 50
164.3837547919
 51
255.6162452081
  0
ARC
  5
3D6
  8
0
  6
CONTINUOUS
 62
     8
 10
317.1196688132
 20
95.5993315915
 30
0.0
 40
27.14899490411917
 50
282.7679306608
 51
17.2320693392
  0
ARC
  5
3D7
  8
0
  6
CONTINUOUS
 62
     8
 10
317.1196688132
 20
95.5993315915
 30
0.0
 40
24.15310629985541
 50
284.3837547919
 51
15.6162452081
  0
ARC
  5
3D8
  8
0
  6
CONTINUOUS
 62
     8
 10
317.1196688132
 20
95.5993315915
 30
0.0
 40
27.14899490411916
 50
42.7679306608
 51
137.2320693392
  0
ARC
  5
3D9
  8
0
  6
CONTINUOUS
 62
     8
 10
317.1196688132
 20
95.5993315915
 30
0.0
 40
24.15310629985538
 50
44.3837547919
 51
135.6162452081
  0
ARC
  5
3DA
  8
0
  6
CONTINUOUS
 62
     8
 10
582.8370407225
 20
158.1461409471
 30
0.0
 40
293.5678217214694
 50
181.9136023809
 51
186.5716570855
  0
ARC
  5
3DB
  8
0
  6
CONTINUOUS
 62
     8
 10
317.1196688132
 20
30.5993315915
 30
0.0
 40
123.8403460658805
 50
77.5489851464
 51
102.4510148536
  0
ARC
  5
3DC
  8
0
  6
CONTINUOUS
 62
     8
 10
51.402296904
 20
158.1461409471
 30
0.0
 40
293.5678217214694
 50
353.4283429145
 51
358.0863976191
  0
ARC
  5
3DD
  8
0
  6
CONTINUOUS
 62
     8
 10
317.1196688132
 20
160.5993315915
 30
0.0
 40
123.8403460658805
 50
257.5489851464
 51
282.4510148536
  0
ARC
  5
3DE
  8
0
  6
CONTINUOUS
 62
     8
 10
582.8370407225
 20
33.052522236
 30
0.0
 40
293.567821721471
 50
173.4283429145
 51
178.0863976191
  0
ARC
  5
3DF
  8
0
  6
CONTINUOUS
 62
     8
 10
51.402296904
 20
33.052522236
 30
0.0
 40
293.567821721471
 50
1.9136023809
 51
6.5716570855
  0
POLYLINE
  5
3E0
  8
0
  6
CONTINUOUS
 62
     8
 66
     1
 10
0.0
 20
0.0
 30
0.0
  0
VERTEX
  5
A44
  8
0
  6
CONTINUOUS
 62
     8
 10
356.0089353638
 20
140.1729403774
 30
0.0
  0
VERTEX
  5
A45
  8
0
  6
CONTINUOUS
 62
     8
 10
356.0664836483
 20
139.0674083273
 30
0.0
  0
VERTEX
  5
A46
  8
0
  6
CONTINUOUS
 62
     8
 10
356.0877662318
 20
137.8819427232
 30
0.0
  0
VERTEX
  5
A47
  8
0
  6
CONTINUOUS
 62
     8
 10
356.0754466968
 20
136.6183801333
 30
0.0
  0
VERTEX
  5
A48
  8
0
  6
CONTINUOUS
 62
     8
 10
356.0312125998
 20
135.2508670429
 30
0.0
  0
VERTEX
  5
A49
  8
0
  6
CONTINUOUS
 62
     8
 10
355.9585470872
 20
133.8027908246
 30
0.0
  0
VERTEX
  5
A4A
  8
0
  6
CONTINUOUS
 62
     8
 10
355.8612164276
 20
132.2769603471
 30
0.0
  0
VERTEX
  5
A4B
  8
0
  6
CONTINUOUS
 62
     8
 10
355.7620529251
 20
130.9216140548
 30
0.0
  0
VERTEX
  5
A4C
  8
0
  6
CONTINUOUS
 62
     8
 10
355.6503985243
 20
129.5105597715
 30
0.0
  0
VERTEX
  5
A4D
  8
0
  6
CONTINUOUS
 62
     8
 10
355.529088171
 20
128.0463865737
 30
0.0
  0
VERTEX
  5
A4E
  8
0
  6
CONTINUOUS
 62
     8
 10
355.4009717124
 20
126.5316798131
 30
0.0
  0
VERTEX
  5
A4F
  8
0
  6
CONTINUOUS
 62
     8
 10
355.2646596151
 20
124.9173047731
 30
0.0
  0
VERTEX
  5
A50
  8
0
  6
CONTINUOUS
 62
     8
 10
355.127144249
 20
123.2499430666
 30
0.0
  0
VERTEX
  5
A51
  8
0
  6
CONTINUOUS
 62
     8
 10
354.9918007271
 20
121.5339998494
 30
0.0
  0
VERTEX
  5
A52
  8
0
  6
CONTINUOUS
 62
     8
 10
354.8620004373
 20
119.7738746892
 30
0.0
  0
VERTEX
  5
A53
  8
0
  6
CONTINUOUS
 62
     8
 10
354.7297191041
 20
117.7945385466
 30
0.0
  0
VERTEX
  5
A54
  8
0
  6
CONTINUOUS
 62
     8
 10
354.6114932912
 20
115.7669971476
 30
0.0
  0
VERTEX
  5
A55
  8
0
  6
CONTINUOUS
 62
     8
 10
354.5110669153
 20
113.6993921141
 30
0.0
  0
VERTEX
  5
A56
  8
0
  6
CONTINUOUS
 62
     8
 10
354.4479940252
 20
112.0810123871
 30
0.0
  0
VERTEX
  5
A57
  8
0
  6
CONTINUOUS
 62
     8
 10
354.3985296207
 20
110.4426399584
 30
0.0
  0
VERTEX
  5
A58
  8
0
  6
CONTINUOUS
 62
     8
 10
354.3635863977
 20
108.7887032668
 30
0.0
  0
VERTEX
  5
A59
  8
0
  6
CONTINUOUS
 62
     8
 10
354.3440658765
 20
107.1236298199
 30
0.0
  0
SEQEND
  5
B0F
  8
0
  6
CONTINUOUS
 62
     8
  0
POLYLINE
  5
3E1
  8
0
  6
CONTINUOUS
 62
     8
 66
     1
 10
0.0
 20
0.0
 30
0.0
  0
VERTEX
  5
A5A
  8
0
  6
CONTINUOUS
 62
     8
 10
278.2304022627
 20
140.1729403774
 30
0.0
  0
VERTEX
  5
A5B
  8
0
  6
CONTINUOUS
 62
     8
 10
278.1728539782
 20
139.0674083273
 30
0.0
  0
VERTEX
  5
A5C
  8
0
  6
CONTINUOUS
 62
     8
 10
278.1515713947
 20
137.8819427232
 30
0.0
  0
VERTEX
  5
A5D
  8
0
  6
CONTINUOUS
 62
     8
 10
278.1638909297
 20
136.6183801333
 30
0.0
  0
VERTEX
  5
A5E
  8
0
  6
CONTINUOUS
 62
     8
 10
278.2081250267
 20
135.2508670429
 30
0.0
  0
VERTEX
  5
A5F
  8
0
  6
CONTINUOUS
 62
     8
 10
278.2807905393
 20
133.8027908246
 30
0.0
  0
VERTEX
  5
A60
  8
0
  6
CONTINUOUS
 62
     8
 10
278.3781211989
 20
132.2769603471
 30
0.0
  0
VERTEX
  5
A61
  8
0
  6
CONTINUOUS
 62
     8
 10
278.4772847014
 20
130.9216140548
 30
0.0
  0
VERTEX
  5
A62
  8
0
  6
CONTINUOUS
 62
     8
 10
278.5889391022
 20
129.5105597715
 30
0.0
  0
VERTEX
  5
A63
  8
0
  6
CONTINUOUS
 62
     8
 10
278.7102494555
 20
128.0463865737
 30
0.0
  0
VERTEX
  5
A64
  8
0
  6
CONTINUOUS
 62
     8
 10
278.8383659141
 20
126.5316798131
 30
0.0
  0
VERTEX
  5
A65
  8
0
  6
CONTINUOUS
 62
     8
 10
278.9746780114
 20
124.9173047731
 30
0.0
  0
VERTEX
  5
A66
  8
0
  6
CONTINUOUS
 62
     8
 10
279.1121933775
 20
123.2499430666
 30
0.0
  0
VERTEX
  5
A67
  8
0
  6
CONTINUOUS
 62
     8
 10
279.2475368993
 20
121.5339998494
 30
0.0
  0
VERTEX
  5
A68
  8
0
  6
CONTINUOUS
 62
     8
 10
279.3773371892
 20
119.7738746892
 30
0.0
  0
VERTEX
  5
A69
  8
0
  6
CONTINUOUS
 62
     8
 10
279.5096185224
 20
117.7945385466
 30
0.0
  0
VERTEX
  5
A6A
  8
0
  6
CONTINUOUS
 62
     8
 10
279.6278443353
 20
115.7669971476
 30
0.0
  0
VERTEX
  5
A6B
  8
0
  6
CONTINUOUS
 62
     8
 10
279.7282707112
 20
113.6993921141
 30
0.0
  0
VERTEX
  5
A6C
  8
0
  6
CONTINUOUS
 62
     8
 10
279.7913436012
 20
112.0810123871
 30
0.0
  0
VERTEX
  5
A6D
  8
0
  6
CONTINUOUS
 62
     8
 10
279.8408080058
 20
110.4426399584
 30
0.0
  0
VERTEX
  5
A6E
  8
0
  6
CONTINUOUS
 62
     8
 10
279.8757512288
 20
108.7887032668
 30
0.0
  0
VERTEX
  5
A6F
  8
0
  6
CONTINUOUS
 62
     8
 10
279.89527175
 20
107.1236298199
 30
0.0
  0
SEQEND
  5
B0E
  8
0
  6
CONTINUOUS
 62
     8
  0
POLYLINE
  5
3E2
  8
0
  6
CONTINUOUS
 62
     8
 66
     1
 10
0.0
 20
0.0
 30
0.0
  0
VERTEX
  5
A70
  8
0
  6
CONTINUOUS
 62
     8
 10
356.0089353638
 20
51.0257228057
 30
0.0
  0
VERTEX
  5
A71
  8
0
  6
CONTINUOUS
 62
     8
 10
356.0664836483
 20
52.1312548558
 30
0.0
  0
VERTEX
  5
A72
  8
0
  6
CONTINUOUS
 62
     8
 10
356.0877662318
 20
53.3167204599
 30
0.0
  0
VERTEX
  5
A73
  8
0
  6
CONTINUOUS
 62
     8
 10
356.0754466968
 20
54.5802830498
 30
0.0
  0
VERTEX
  5
A74
  8
0
  6
CONTINUOUS
 62
     8
 10
356.0312125998
 20
55.9477961401
 30
0.0
  0
VERTEX
  5
A75
  8
0
  6
CONTINUOUS
 62
     8
 10
355.9585470872
 20
57.3958723585
 30
0.0
  0
VERTEX
  5
A76
  8
0
  6
CONTINUOUS
 62
     8
 10
355.8612164276
 20
58.921702836
 30
0.0
  0
VERTEX
  5
A77
  8
0
  6
CONTINUOUS
 62
     8
 10
355.7620529251
 20
60.2770491282
 30
0.0
  0
VERTEX
  5
A78
  8
0
  6
CONTINUOUS
 62
     8
 10
355.6503985243
 20
61.6881034116
 30
0.0
  0
VERTEX
  5
A79
  8
0
  6
CONTINUOUS
 62
     8
 10
355.529088171
 20
63.1522766094
 30
0.0
  0
VERTEX
  5
A7A
  8
0
  6
CONTINUOUS
 62
     8
 10
355.4009717124
 20
64.66698337
 30
0.0
  0
VERTEX
  5
A7B
  8
0
  6
CONTINUOUS
 62
     8
 10
355.2646596151
 20
66.2813584099
 30
0.0
  0
VERTEX
  5
A7C
  8
0
  6
CONTINUOUS
 62
     8
 10
355.127144249
 20
67.9487201164
 30
0.0
  0
VERTEX
  5
A7D
  8
0
  6
CONTINUOUS
 62
     8
 10
354.9918007271
 20
69.6646633337
 30
0.0
  0
VERTEX
  5
A7E
  8
0
  6
CONTINUOUS
 62
     8
 10
354.8620004373
 20
71.4247884939
 30
0.0
  0
VERTEX
  5
A7F
  8
0
  6
CONTINUOUS
 62
     8
 10
354.7297191041
 20
73.4041246365
 30
0.0
  0
VERTEX
  5
A80
  8
0
  6
CONTINUOUS
 62
     8
 10
354.6114932912
 20
75.4316660355
 30
0.0
  0
VERTEX
  5
A81
  8
0
  6
CONTINUOUS
 62
     8
 10
354.5110669153
 20
77.499271069
 30
0.0
  0
VERTEX
  5
A82
  8
0
  6
CONTINUOUS
 62
     8
 10
354.4479940252
 20
79.117650796
 30
0.0
  0
VERTEX
  5
A83
  8
0
  6
CONTINUOUS
 62
     8
 10
354.3985296207
 20
80.7560232247
 30
0.0
  0
VERTEX
  5
A84
  8
0
  6
CONTINUOUS
 62
     8
 10
354.3635863977
 20
82.4099599163
 30
0.0
  0
VERTEX
  5
A85
  8
0
  6
CONTINUOUS
 62
     8
 10
354.3440658765
 20
84.0750333632
 30
0.0
  0
SEQEND
  5
B0D
  8
0
  6
CONTINUOUS
 62
     8
  0
POLYLINE
  5
3E3
  8
0
  6
CONTINUOUS
 62
     8
 66
     1
 10
0.0
 20
0.0
 30
0.0
  0
VERTEX
  5
A86
  8
0
  6
CONTINUOUS
 62
     8
 10
278.2304022627
 20
51.0257228057
 30
0.0
  0
VERTEX
  5
A87
  8
0
  6
CONTINUOUS
 62
     8
 10
278.1728539782
 20
52.1312548558
 30
0.0
  0
VERTEX
  5
A88
  8
0
  6
CONTINUOUS
 62
     8
 10
278.1515713947
 20
53.3167204599
 30
0.0
  0
VERTEX
  5
A89
  8
0
  6
CONTINUOUS
 62
     8
 10
278.1638909297
 20
54.5802830498
 30
0.0
  0
VERTEX
  5
A8A
  8
0
  6
CONTINUOUS
 62
     8
 10
278.2081250267
 20
55.9477961401
 30
0.0
  0
VERTEX
  5
A8B
  8
0
  6
CONTINUOUS
 62
     8
 10
278.2807905393
 20
57.3958723585
 30
0.0
  0
VERTEX
  5
A8C
  8
0
  6
CONTINUOUS
 62
     8
 10
278.3781211989
 20
58.921702836
 30
0.0
  0
VERTEX
  5
A8D
  8
0
  6
CONTINUOUS
 62
     8
 10
278.4772847014
 20
60.2770491282
 30
0.0
  0
VERTEX
  5
A8E
  8
0
  6
CONTINUOUS
 62
     8
 10
278.5889391022
 20
61.6881034116
 30
0.0
  0
VERTEX
  5
A8F
  8
0
  6
CONTINUOUS
 62
     8
 10
278.7102494555
 20
63.1522766094
 30
0.0
  0
VERTEX
  5
A90
  8
0
  6
CONTINUOUS
 62
     8
 10
278.8383659141
 20
64.66698337
 30
0.0
  0
VERTEX
  5
A91
  8
0
  6
CONTINUOUS
 62
     8
 10
278.9746780114
 20
66.2813584099
 30
0.0
  0
VERTEX
  5
A92
  8
0
  6
CONTINUOUS
 62
     8
 10
279.1121933775
 20
67.9487201164
 30
0.0
  0
VERTEX
  5
A93
  8
0
  6
CONTINUOUS
 62
     8
 10
279.2475368993
 20
69.6646633337
 30
0.0
  0
VERTEX
  5
A94
  8
0
  6
CONTINUOUS
 62
     8
 10
279.3773371892
 20
71.4247884939
 30
0.0
  0
VERTEX
  5
A95
  8
0
  6
CONTINUOUS
 62
     8
 10
279.5096185224
 20
73.4041246365
 30
0.0
  0
VERTEX
  5
A96
  8
0
  6
CONTINUOUS
 62
     8
 10
279.6278443353
 20
75.4316660355
 30
0.0
  0
VERTEX
  5
A97
  8
0
  6
CONTINUOUS
 62
     8
 10
279.7282707112
 20
77.499271069
 30
0.0
  0
VERTEX
  5
A98
  8
0
  6
CONTINUOUS
 62
     8
 10
279.7913436012
 20
79.117650796
 30
0.0
  0
VERTEX
  5
A99
  8
0
  6
CONTINUOUS
 62
     8
 10
279.8408080058
 20
80.7560232247
 30
0.0
  0
VERTEX
  5
A9A
  8
0
  6
CONTINUOUS
 62
     8
 10
279.8757512288
 20
82.4099599163
 30
0.0
  0
VERTEX
  5
A9B
  8
0
  6
CONTINUOUS
 62
     8
 10
279.89527175
 20
84.0750333632
 30
0.0
  0
SEQEND
  5
B0C
  8
0
  6
CONTINUOUS
 62
     8
  0
ARC
  5
3E4
  8
0
  6
CONTINUOUS
 62
     8
 10
509.6196688132
 20
95.5993315915
 30
0.0
 40
235.7652313016616
 50
169.1189647199
 51
190.8810352801
  0
ARC
  5
3E5
  8
0
  6
CONTINUOUS
 62
     8
 10
124.6196688132
 20
95.5993315915
 30
0.0
 40
235.7652313016616
 50
349.1189647199
 51
10.8810352801
  0
POLYLINE
  5
3E6
  8
0
  6
CONTINUOUS
 62
     8
 66
     1
 10
0.0
 20
0.0
 30
0.0
  0
VERTEX
  5
A9C
  8
0
  6
CONTINUOUS
 62
     8
 10
358.6435351687
 20
164.2246848683
 30
0.0
  0
VERTEX
  5
A9D
  8
0
  6
CONTINUOUS
 62
     8
 10
359.5701564269
 20
163.8973361592
 30
0.0
  0
VERTEX
  5
A9E
  8
0
  6
CONTINUOUS
 62
     8
 10
360.258742811
 20
163.6006614904
 30
0.0
  0
SEQEND
  5
B0B
  8
0
  6
CONTINUOUS
 62
     8
  0
LINE
  5
3E7
  8
0
  6
CONTINUOUS
 62
     8
 10
358.6435351687
 20
164.2246848683
 30
0.0
 11
358.7074052708
 21
164.2797744612
 31
0.0
  0
LINE
  5
3E8
  8
0
  6
CONTINUOUS
 62
     8
 10
367.4709495323
 20
154.9563488702
 30
0.0
 11
367.4115646796
 21
154.8978729884
 31
0.0
  0
POLYLINE
  5
3E9
  8
0
  6
CONTINUOUS
 62
     8
 66
     1
 10
0.0
 20
0.0
 30
0.0
  0
VERTEX
  5
A9F
  8
0
  6
CONTINUOUS
 62
     8
 10
366.9020902531
 20
156.5134233574
 30
0.0
  0
VERTEX
  5
AA0
  8
0
  6
CONTINUOUS
 62
     8
 10
367.1440776603
 20
155.8365902643
 30
0.0
  0
VERTEX
  5
AA1
  8
0
  6
CONTINUOUS
 62
     8
 10
367.4115646796
 20
154.8978729884
 30
0.0
  0
SEQEND
  5
B0A
  8
0
  6
CONTINUOUS
 62
     8
  0
POLYLINE
  5
3EA
  8
0
  6
CONTINUOUS
 62
     8
 66
     1
 10
0.0
 20
0.0
 30
0.0
  0
VERTEX
  5
AA2
  8
0
  6
CONTINUOUS
 62
     8
 10
267.3372473734
 20
156.5134233574
 30
0.0
  0
VERTEX
  5
AA3
  8
0
  6
CONTINUOUS
 62
     8
 10
267.0952599662
 20
155.8365902643
 30
0.0
  0
VERTEX
  5
AA4
  8
0
  6
CONTINUOUS
 62
     8
 10
266.8277729469
 20
154.8978729884
 30
0.0
  0
SEQEND
  5
B09
  8
0
  6
CONTINUOUS
 62
     8
  0
LINE
  5
3EB
  8
0
  6
CONTINUOUS
 62
     8
 10
266.7683880942
 20
154.9563488702
 30
0.0
 11
266.8277729469
 21
154.8978729884
 31
0.0
  0
LINE
  5
3EC
  8
0
  6
CONTINUOUS
 62
     8
 10
275.5958024578
 20
164.2246848683
 30
0.0
 11
275.5319323557
 21
164.2797744612
 31
0.0
  0
POLYLINE
  5
3ED
  8
0
  6
CONTINUOUS
 62
     8
 66
     1
 10
0.0
 20
0.0
 30
0.0
  0
VERTEX
  5
AA5
  8
0
  6
CONTINUOUS
 62
     8
 10
275.5958024578
 20
164.2246848683
 30
0.0
  0
VERTEX
  5
AA6
  8
0
  6
CONTINUOUS
 62
     8
 10
274.6691811996
 20
163.8973361592
 30
0.0
  0
VERTEX
  5
AA7
  8
0
  6
CONTINUOUS
 62
     8
 10
273.9805948155
 20
163.6006614904
 30
0.0
  0
SEQEND
  5
B08
  8
0
  6
CONTINUOUS
 62
     8
  0
POLYLINE
  5
3EE
  8
0
  6
CONTINUOUS
 62
     8
 66
     1
 10
0.0
 20
0.0
 30
0.0
  0
VERTEX
  5
AA8
  8
0
  6
CONTINUOUS
 62
     8
 10
275.5958024578
 20
26.9739783148
 30
0.0
  0
VERTEX
  5
AA9
  8
0
  6
CONTINUOUS
 62
     8
 10
274.6691811996
 20
27.3013270239
 30
0.0
  0
VERTEX
  5
AAA
  8
0
  6
CONTINUOUS
 62
     8
 10
273.9805948155
 20
27.5980016927
 30
0.0
  0
SEQEND
  5
B07
  8
0
  6
CONTINUOUS
 62
     8
  0
LINE
  5
3EF
  8
0
  6
CONTINUOUS
 62
     8
 10
275.5958024578
 20
26.9739783148
 30
0.0
 11
275.5319323557
 21
26.9188887219
 31
0.0
  0
LINE
  5
3F0
  8
0
  6
CONTINUOUS
 62
     8
 10
266.7683880942
 20
36.2423143129
 30
0.0
 11
266.8277729469
 21
36.3007901947
 31
0.0
  0
POLYLINE
  5
3F1
  8
0
  6
CONTINUOUS
 62
     8
 66
     1
 10
0.0
 20
0.0
 30
0.0
  0
VERTEX
  5
AAB
  8
0
  6
CONTINUOUS
 62
     8
 10
267.3372473734
 20
34.6852398257
 30
0.0
  0
VERTEX
  5
AAC
  8
0
  6
CONTINUOUS
 62
     8
 10
267.0952599662
 20
35.3620729188
 30
0.0
  0
VERTEX
  5
AAD
  8
0
  6
CONTINUOUS
 62
     8
 10
266.8277729469
 20
36.3007901947
 30
0.0
  0
SEQEND
  5
B06
  8
0
  6
CONTINUOUS
 62
     8
  0
POLYLINE
  5
3F2
  8
0
  6
CONTINUOUS
 62
     8
 66
     1
 10
0.0
 20
0.0
 30
0.0
  0
VERTEX
  5
AAE
  8
0
  6
CONTINUOUS
 62
     8
 10
366.9020902531
 20
34.6852398257
 30
0.0
  0
VERTEX
  5
AAF
  8
0
  6
CONTINUOUS
 62
     8
 10
367.1440776603
 20
35.3620729188
 30
0.0
  0
VERTEX
  5
AB0
  8
0
  6
CONTINUOUS
 62
     8
 10
367.4115646796
 20
36.3007901947
 30
0.0
  0
SEQEND
  5
B05
  8
0
  6
CONTINUOUS
 62
     8
  0
LINE
  5
3F3
  8
0
  6
CONTINUOUS
 62
     8
 10
367.4709495323
 20
36.2423143129
 30
0.0
 11
367.4115646796
 21
36.3007901947
 31
0.0
  0
LINE
  5
3F4
  8
0
  6
CONTINUOUS
 62
     8
 10
358.6435351687
 20
26.9739783148
 30
0.0
 11
358.7074052708
 21
26.9188887219
 31
0.0
  0
POLYLINE
  5
3F5
  8
0
  6
CONTINUOUS
 62
     8
 66
     1
 10
0.0
 20
0.0
 30
0.0
  0
VERTEX
  5
AB1
  8
0
  6
CONTINUOUS
 62
     8
 10
358.6435351687
 20
26.9739783148
 30
0.0
  0
VERTEX
  5
AB2
  8
0
  6
CONTINUOUS
 62
     8
 10
359.5701564269
 20
27.3013270239
 30
0.0
  0
VERTEX
  5
AB3
  8
0
  6
CONTINUOUS
 62
     8
 10
360.258742811
 20
27.5980016927
 30
0.0
  0
SEQEND
  5
B04
  8
0
  6
CONTINUOUS
 62
     8
  0
ARC
  5
3F6
  8
0
  6
CONTINUOUS
 62
     8
 10
317.1196688132
 20
30.5993315915
 30
0.0
 40
136.9304874874752
 50
76.2095790751
 51
103.7904209249
  0
ARC
  5
3F7
  8
0
  6
CONTINUOUS
 62
     8
 10
317.1196688132
 20
160.5993315915
 30
0.0
 40
136.9304874874752
 50
256.2095790751
 51
283.7904209249
  0
ARC
  5
3F8
  8
0
  6
CONTINUOUS
 62
     8
 10
124.6196688132
 20
95.5993315915
 30
0.0
 40
246.9304874874752
 50
348.3899996153
 51
11.6100003847
  0
ARC
  5
3F9
  8
0
  6
CONTINUOUS
 62
     8
 10
509.6196688132
 20
95.5993315915
 30
0.0
 40
246.9304874874752
 50
168.3899996153
 51
191.6100003847
  0
POLYLINE
  5
3FA
  8
0
  6
CONTINUOUS
 62
     8
 66
     1
 10
0.0
 20
0.0
 30
0.0
  0
VERTEX
  5
AB4
  8
0
  6
CONTINUOUS
 62
     8
 10
275.5958024578
 20
164.2246848683
 30
0.0
  0
VERTEX
  5
AB5
  8
0
  6
CONTINUOUS
 62
     8
 10
275.5973782556
 20
164.2196110229
 30
0.0
  0
VERTEX
  5
AB6
  8
0
  6
CONTINUOUS
 62
     8
 10
275.5999300795
 20
164.2114079336
 30
0.0
  0
VERTEX
  5
AB7
  8
0
  6
CONTINUOUS
 62
     8
 10
275.6034504788
 20
164.2000756006
 30
0.0
  0
VERTEX
  5
AB8
  8
0
  6
CONTINUOUS
 62
     8
 10
275.6079394536
 20
164.1856289248
 30
0.0
  0
VERTEX
  5
AB9
  8
0
  6
CONTINUOUS
 62
     8
 10
275.6133970039
 20
164.1680679063
 30
0.0
  0
VERTEX
  5
ABA
  8
0
  6
CONTINUOUS
 62
     8
 10
275.6198156791
 20
164.1474074463
 30
0.0
  0
VERTEX
  5
ABB
  8
0
  6
CONTINUOUS
 62
     8
 10
275.6271954792
 20
164.1236549954
 30
0.0
  0
VERTEX
  5
ABC
  8
0
  6
CONTINUOUS
 62
     8
 10
275.6355326789
 20
164.0968254546
 30
0.0
  0
SEQEND
  5
B03
  8
0
  6
CONTINUOUS
 62
     8
  0
ARC
  5
3FB
  8
0
  6
CONTINUOUS
 62
     8
 10
317.1196688132
 20
30.5993315915
 30
0.0
 40
139.9284314373285
 50
72.737450834
 51
107.262549166
  0
POLYLINE
  5
3FC
  8
0
  6
CONTINUOUS
 62
     8
 66
     1
 10
0.0
 20
0.0
 30
0.0
  0
VERTEX
  5
ABD
  8
0
  6
CONTINUOUS
 62
     8
 10
358.6435351687
 20
164.2246848683
 30
0.0
  0
VERTEX
  5
ABE
  8
0
  6
CONTINUOUS
 62
     8
 10
358.6419593709
 20
164.2196110229
 30
0.0
  0
VERTEX
  5
ABF
  8
0
  6
CONTINUOUS
 62
     8
 10
358.639407547
 20
164.2114079336
 30
0.0
  0
VERTEX
  5
AC0
  8
0
  6
CONTINUOUS
 62
     8
 10
358.6358871477
 20
164.2000756006
 30
0.0
  0
VERTEX
  5
AC1
  8
0
  6
CONTINUOUS
 62
     8
 10
358.6313981729
 20
164.1856289248
 30
0.0
  0
VERTEX
  5
AC2
  8
0
  6
CONTINUOUS
 62
     8
 10
358.6259406226
 20
164.1680679063
 30
0.0
  0
VERTEX
  5
AC3
  8
0
  6
CONTINUOUS
 62
     8
 10
358.6195219474
 20
164.1474074463
 30
0.0
  0
VERTEX
  5
AC4
  8
0
  6
CONTINUOUS
 62
     8
 10
358.6121421473
 20
164.1236549954
 30
0.0
  0
VERTEX
  5
AC5
  8
0
  6
CONTINUOUS
 62
     8
 10
358.6038049476
 20
164.0968254546
 30
0.0
  0
SEQEND
  5
B02
  8
0
  6
CONTINUOUS
 62
     8
  0
POLYLINE
  5
3FD
  8
0
  6
CONTINUOUS
 62
     8
 66
     1
 10
0.0
 20
0.0
 30
0.0
  0
VERTEX
  5
AC6
  8
0
  6
CONTINUOUS
 62
     8
 10
266.9578377323
 20
36.3325557451
 30
0.0
  0
VERTEX
  5
AC7
  8
0
  6
CONTINUOUS
 62
     8
 10
266.9305462556
 20
36.3258912007
 30
0.0
  0
VERTEX
  5
AC8
  8
0
  6
CONTINUOUS
 62
     8
 10
266.9063840227
 20
36.3199903409
 30
0.0
  0
VERTEX
  5
AC9
  8
0
  6
CONTINUOUS
 62
     8
 10
266.8853659349
 20
36.3148568908
 30
0.0
  0
VERTEX
  5
ACA
  8
0
  6
CONTINUOUS
 62
     8
 10
266.8675031679
 20
36.3104945759
 30
0.0
  0
VERTEX
  5
ACB
  8
0
  6
CONTINUOUS
 62
     8
 10
266.8528068977
 20
36.3069033961
 30
0.0
  0
VERTEX
  5
ACC
  8
0
  6
CONTINUOUS
 62
     8
 10
266.8412808495
 20
36.3040908019
 30
0.0
  0
VERTEX
  5
ACD
  8
0
  6
CONTINUOUS
 62
     8
 10
266.8329361992
 20
36.3020530681
 30
0.0
  0
VERTEX
  5
ACE
  8
0
  6
CONTINUOUS
 62
     8
 10
266.8277729469
 20
36.3007901947
 30
0.0
  0
SEQEND
  5
B01
  8
0
  6
CONTINUOUS
 62
     8
  0
ARC
  5
3FE
  8
0
  6
CONTINUOUS
 62
     8
 10
509.6196688132
 20
95.5993315915
 30
0.0
 40
249.9284314373285
 50
166.2749974063
 51
193.7250025937
  0
POLYLINE
  5
3FF
  8
0
  6
CONTINUOUS
 62
     8
 66
     1
 10
0.0
 20
0.0
 30
0.0
  0
VERTEX
  5
ACF
  8
0
  6
CONTINUOUS
 62
     8
 10
266.9578377323
 20
154.866107438
 30
0.0
  0
VERTEX
  5
AD0
  8
0
  6
CONTINUOUS
 62
     8
 10
266.9305462556
 20
154.8727719824
 30
0.0
  0
VERTEX
  5
AD1
  8
0
  6
CONTINUOUS
 62
     8
 10
266.9063840227
 20
154.8786728422
 30
0.0
  0
VERTEX
  5
AD2
  8
0
  6
CONTINUOUS
 62
     8
 10
266.8853659349
 20
154.8838062922
 30
0.0
  0
VERTEX
  5
AD3
  8
0
  6
CONTINUOUS
 62
     8
 10
266.8675031679
 20
154.8881686072
 30
0.0
  0
VERTEX
  5
AD4
  8
0
  6
CONTINUOUS
 62
     8
 10
266.8528068977
 20
154.891759787
 30
0.0
  0
VERTEX
  5
AD5
  8
0
  6
CONTINUOUS
 62
     8
 10
266.8412808495
 20
154.8945723812
 30
0.0
  0
VERTEX
  5
AD6
  8
0
  6
CONTINUOUS
 62
     8
 10
266.8329361992
 20
154.896610115
 30
0.0
  0
VERTEX
  5
AD7
  8
0
  6
CONTINUOUS
 62
     8
 10
266.8277729469
 20
154.8978729884
 30
0.0
  0
SEQEND
  5
B00
  8
0
  6
CONTINUOUS
 62
     8
  0
POLYLINE
  5
400
  8
0
  6
CONTINUOUS
 62
     8
 66
     1
 10
0.0
 20
0.0
 30
0.0
  0
VERTEX
  5
AD8
  8
0
  6
CONTINUOUS
 62
     8
 10
367.2814998942
 20
154.866107438
 30
0.0
  0
VERTEX
  5
AD9
  8
0
  6
CONTINUOUS
 62
     8
 10
367.3087913709
 20
154.8727719824
 30
0.0
  0
VERTEX
  5
ADA
  8
0
  6
CONTINUOUS
 62
     8
 10
367.3329536038
 20
154.8786728422
 30
0.0
  0
VERTEX
  5
ADB
  8
0
  6
CONTINUOUS
 62
     8
 10
367.3539716916
 20
154.8838062922
 30
0.0
  0
VERTEX
  5
ADC
  8
0
  6
CONTINUOUS
 62
     8
 10
367.3718344586
 20
154.8881686072
 30
0.0
  0
VERTEX
  5
ADD
  8
0
  6
CONTINUOUS
 62
     8
 10
367.3865307288
 20
154.891759787
 30
0.0
  0
VERTEX
  5
ADE
  8
0
  6
CONTINUOUS
 62
     8
 10
367.398056777
 20
154.8945723812
 30
0.0
  0
VERTEX
  5
ADF
  8
0
  6
CONTINUOUS
 62
     8
 10
367.4064014273
 20
154.896610115
 30
0.0
  0
VERTEX
  5
AE0
  8
0
  6
CONTINUOUS
 62
     8
 10
367.4115646796
 20
154.8978729884
 30
0.0
  0
SEQEND
  5
AFF
  8
0
  6
CONTINUOUS
 62
     8
  0
ARC
  5
401
  8
0
  6
CONTINUOUS
 62
     8
 10
124.6196688132
 20
95.5993315915
 30
0.0
 40
249.9284314373284
 50
346.2749974063
 51
13.7250025937
  0
POLYLINE
  5
402
  8
0
  6
CONTINUOUS
 62
     8
 66
     1
 10
0.0
 20
0.0
 30
0.0
  0
VERTEX
  5
AE1
  8
0
  6
CONTINUOUS
 62
     8
 10
367.2814998942
 20
36.3325557451
 30
0.0
  0
VERTEX
  5
AE2
  8
0
  6
CONTINUOUS
 62
     8
 10
367.3087913709
 20
36.3258912007
 30
0.0
  0
VERTEX
  5
AE3
  8
0
  6
CONTINUOUS
 62
     8
 10
367.3329536038
 20
36.3199903409
 30
0.0
  0
VERTEX
  5
AE4
  8
0
  6
CONTINUOUS
 62
     8
 10
367.3539716916
 20
36.3148568908
 30
0.0
  0
VERTEX
  5
AE5
  8
0
  6
CONTINUOUS
 62
     8
 10
367.3718344586
 20
36.3104945759
 30
0.0
  0
VERTEX
  5
AE6
  8
0
  6
CONTINUOUS
 62
     8
 10
367.3865307288
 20
36.3069033961
 30
0.0
  0
VERTEX
  5
AE7
  8
0
  6
CONTINUOUS
 62
     8
 10
367.398056777
 20
36.3040908019
 30
0.0
  0
VERTEX
  5
AE8
  8
0
  6
CONTINUOUS
 62
     8
 10
367.4064014273
 20
36.3020530681
 30
0.0
  0
VERTEX
  5
AE9
  8
0
  6
CONTINUOUS
 62
     8
 10
367.4115646796
 20
36.3007901947
 30
0.0
  0
SEQEND
  5
AFE
  8
0
  6
CONTINUOUS
 62
     8
  0
POLYLINE
  5
403
  8
0
  6
CONTINUOUS
 62
     8
 66
     1
 10
0.0
 20
0.0
 30
0.0
  0
VERTEX
  5
AEA
  8
0
  6
CONTINUOUS
 62
     8
 10
358.6435351687
 20
26.9739783148
 30
0.0
  0
VERTEX
  5
AEB
  8
0
  6
CONTINUOUS
 62
     8
 10
358.6419593709
 20
26.9790521602
 30
0.0
  0
VERTEX
  5
AEC
  8
0
  6
CONTINUOUS
 62
     8
 10
358.639407547
 20
26.9872552494
 30
0.0
  0
VERTEX
  5
AED
  8
0
  6
CONTINUOUS
 62
     8
 10
358.6358871477
 20
26.9985875825
 30
0.0
  0
VERTEX
  5
AEE
  8
0
  6
CONTINUOUS
 62
     8
 10
358.6313981729
 20
27.0130342583
 30
0.0
  0
VERTEX
  5
AEF
  8
0
  6
CONTINUOUS
 62
     8
 10
358.6259406226
 20
27.0305952768
 30
0.0
  0
VERTEX
  5
AF0
  8
0
  6
CONTINUOUS
 62
     8
 10
358.6195219474
 20
27.0512557368
 30
0.0
  0
VERTEX
  5
AF1
  8
0
  6
CONTINUOUS
 62
     8
 10
358.6121421473
 20
27.0750081877
 30
0.0
  0
VERTEX
  5
AF2
  8
0
  6
CONTINUOUS
 62
     8
 10
358.6038049476
 20
27.1018377284
 30
0.0
  0
SEQEND
  5
AFD
  8
0
  6
CONTINUOUS
 62
     8
  0
ARC
  5
404
  8
0
  6
CONTINUOUS
 62
     8
 10
317.1196688132
 20
160.5993315915
 30
0.0
 40
139.9284314373285
 50
252.737450834
 51
287.262549166
  0
POLYLINE
  5
405
  8
0
  6
CONTINUOUS
 62
     8
 66
     1
 10
0.0
 20
0.0
 30
0.0
  0
VERTEX
  5
AF3
  8
0
  6
CONTINUOUS
 62
     8
 10
275.5958024578
 20
26.9739783148
 30
0.0
  0
VERTEX
  5
AF4
  8
0
  6
CONTINUOUS
 62
     8
 10
275.5973782556
 20
26.9790521602
 30
0.0
  0
VERTEX
  5
AF5
  8
0
  6
CONTINUOUS
 62
     8
 10
275.5999300795
 20
26.9872552494
 30
0.0
  0
VERTEX
  5
AF6
  8
0
  6
CONTINUOUS
 62
     8
 10
275.6034504788
 20
26.9985875825
 30
0.0
  0
VERTEX
  5
AF7
  8
0
  6
CONTINUOUS
 62
     8
 10
275.6079394536
 20
27.0130342583
 30
0.0
  0
VERTEX
  5
AF8
  8
0
  6
CONTINUOUS
 62
     8
 10
275.6133970039
 20
27.0305952768
 30
0.0
  0
VERTEX
  5
AF9
  8
0
  6
CONTINUOUS
 62
     8
 10
275.6198156791
 20
27.0512557368
 30
0.0
  0
VERTEX
  5
AFA
  8
0
  6
CONTINUOUS
 62
     8
 10
275.6271954792
 20
27.0750081877
 30
0.0
  0
VERTEX
  5
AFB
  8
0
  6
CONTINUOUS
 62
     8
 10
275.6355326789
 20
27.1018377284
 30
0.0
  0
SEQEND
  5
AFC
  8
0
  6
CONTINUOUS
 62
     8
  0
INSERT
  5
411
  8
FORMAT
  2
SW_CENTERMARKSYMBOL_1
 10
317.1196688132
 20
95.5993315915
 30
0.0
  0
ENDSEC
  0
EOF
